  0
SECTION
  2
HEADER
  9
$ACADVER
  1
AC1012
  9
$DWGCODEPAGE
  3
ansi_1252
  9
$INSBASE
 10
0.0
 20
0.0
 30
0.0
  9
$EXTMIN
 10
1.000000000000000E+20
 20
1.000000000000000E+20
 30
1.000000000000000E+20
  9
$EXTMAX
 10
-1.000000000000000E+20
 20
-1.000000000000000E+20
 30
-1.000000000000000E+20
  9
$LIMMIN
 10
0.0
 20
0.0
  9
$LIMMAX
 10
420.0
 20
297.0
  9
$ORTHOMODE
 70
     0
  9
$REGENMODE
 70
     1
  9
$FILLMODE
 70
     1
  9
$QTEXTMODE
 70
     0
  9
$MIRRTEXT
 70
     1
  9
$DRAGMODE
 70
     2
  9
$LTSCALE
 40
1.0
  9
$OSMODE
 70
    37
  9
$ATTMODE
 70
     1
  9
$TEXTSIZE
 40
2.5
  9
$TRACEWID
 40
1.0
  9
$TEXTSTYLE
  7
STANDARD
  9
$CLAYER
  8
0
  9
$CELTYPE
  6
BYLAYER
  9
$CECOLOR
 62
   256
  9
$CELTSCALE
 40
1.0
  9
$DELOBJ
 70
     1
  9
$DISPSILH
 70
     0
  9
$DIMSCALE
 40
1.0
  9
$DIMASZ
 40
2.5
  9
$DIMEXO
 40
0.625
  9
$DIMDLI
 40
3.75
  9
$DIMRND
 40
0.0
  9
$DIMDLE
 40
0.0
  9
$DIMEXE
 40
1.25
  9
$DIMTP
 40
0.0
  9
$DIMTM
 40
0.0
  9
$DIMTXT
 40
2.5
  9
$DIMCEN
 40
2.5
  9
$DIMTSZ
 40
0.0
  9
$DIMTOL
 70
     0
  9
$DIMLIM
 70
     0
  9
$DIMTIH
 70
     0
  9
$DIMTOH
 70
     0
  9
$DIMSE1
 70
     0
  9
$DIMSE2
 70
     0
  9
$DIMTAD
 70
     1
  9
$DIMZIN
 70
     8
  9
$DIMBLK
  1

  9
$DIMASO
 70
     1
  9
$DIMSHO
 70
     1
  9
$DIMPOST
  1

  9
$DIMAPOST
  1

  9
$DIMALT
 70
     0
  9
$DIMALTD
 70
     3
  9
$DIMALTF
 40
0.03937007874016
  9
$DIMLFAC
 40
1.0
  9
$DIMTOFL
 70
     1
  9
$DIMTVP
 40
0.0
  9
$DIMTIX
 70
     0
  9
$DIMSOXD
 70
     0
  9
$DIMSAH
 70
     0
  9
$DIMBLK1
  1

  9
$DIMBLK2
  1

  9
$DIMSTYLE
  2
ISO-25
  9
$DIMCLRD
 70
     0
  9
$DIMCLRE
 70
     0
  9
$DIMCLRT
 70
     0
  9
$DIMTFAC
 40
1.0
  9
$DIMGAP
 40
0.625
  9
$DIMJUST
 70
     0
  9
$DIMSD1
 70
     0
  9
$DIMSD2
 70
     0
  9
$DIMTOLJ
 70
     0
  9
$DIMTZIN
 70
     8
  9
$DIMALTZ
 70
     0
  9
$DIMALTTZ
 70
     0
  9
$DIMFIT
 70
     3
  9
$DIMUPT
 70
     0
  9
$DIMUNIT
 70
     2
  9
$DIMDEC
 70
     2
  9
$DIMTDEC
 70
     2
  9
$DIMALTU
 70
     2
  9
$DIMALTTD
 70
     3
  9
$DIMTXSTY
  7
STANDARD
  9
$DIMAUNIT
 70
     0
  9
$LUNITS
 70
     2
  9
$LUPREC
 70
     4
  9
$SKETCHINC
 40
1.0
  9
$FILLETRAD
 40
10.0
  9
$AUNITS
 70
     0
  9
$AUPREC
 70
     0
  9
$MENU
  1
.
  9
$ELEVATION
 40
0.0
  9
$PELEVATION
 40
0.0
  9
$THICKNESS
 40
0.0
  9
$LIMCHECK
 70
     0
  9
$CHAMFERA
 40
0.0
  9
$CHAMFERB
 40
0.0
  9
$CHAMFERC
 40
0.0
  9
$CHAMFERD
 40
0.0
  9
$SKPOLY
 70
     0
  9
$TDCREATE
 40
2458060.491213206
  9
$TDUPDATE
 40
2458060.491215012
  9
$TDINDWG
 40
0.0000000116
  9
$TDUSRTIMER
 40
0.0000000116
  9
$USRTIMER
 70
     1
  9
$ANGBASE
 50
0.0
  9
$ANGDIR
 70
     0
  9
$PDMODE
 70
     0
  9
$PDSIZE
 40
0.0
  9
$PLINEWID
 40
0.0
  9
$COORDS
 70
     1
  9
$SPLFRAME
 70
     0
  9
$SPLINETYPE
 70
     6
  9
$SPLINESEGS
 70
     8
  9
$ATTDIA
 70
     0
  9
$ATTREQ
 70
     1
  9
$HANDLING
 70
     1
  9
$HANDSEED
  5
1CE
  9
$SURFTAB1
 70
     6
  9
$SURFTAB2
 70
     6
  9
$SURFTYPE
 70
     6
  9
$SURFU
 70
     6
  9
$SURFV
 70
     6
  9
$UCSNAME
  2

  9
$UCSORG
 10
0.0
 20
0.0
 30
0.0
  9
$UCSXDIR
 10
1.0
 20
0.0
 30
0.0
  9
$UCSYDIR
 10
0.0
 20
1.0
 30
0.0
  9
$PUCSNAME
  2

  9
$PUCSORG
 10
0.0
 20
0.0
 30
0.0
  9
$PUCSXDIR
 10
1.0
 20
0.0
 30
0.0
  9
$PUCSYDIR
 10
0.0
 20
1.0
 30
0.0
  9
$USERI1
 70
     0
  9
$USERI2
 70
     0
  9
$USERI3
 70
     0
  9
$USERI4
 70
     0
  9
$USERI5
 70
     0
  9
$USERR1
 40
0.0
  9
$USERR2
 40
0.0
  9
$USERR3
 40
0.0
  9
$USERR4
 40
0.0
  9
$USERR5
 40
0.0
  9
$WORLDVIEW
 70
     1
  9
$SHADEDGE
 70
     3
  9
$SHADEDIF
 70
    70
  9
$TILEMODE
 70
     1
  9
$MAXACTVP
 70
    64
  9
$PINSBASE
 10
0.0
 20
0.0
 30
0.0
  9
$PLIMCHECK
 70
     0
  9
$PEXTMIN
 10
1.000000000000000E+20
 20
1.000000000000000E+20
 30
1.000000000000000E+20
  9
$PEXTMAX
 10
-1.000000000000000E+20
 20
-1.000000000000000E+20
 30
-1.000000000000000E+20
  9
$PLIMMIN
 10
0.0
 20
0.0
  9
$PLIMMAX
 10
420.0
 20
297.0
  9
$UNITMODE
 70
     0
  9
$VISRETAIN
 70
     1
  9
$PLINEGEN
 70
     0
  9
$PSLTSCALE
 70
     1
  9
$TREEDEPTH
 70
  3020
  9
$PICKSTYLE
 70
     1
  9
$CMLSTYLE
  2
STANDARD
  9
$CMLJUST
 70
     0
  9
$CMLSCALE
 40
20.0
  9
$SAVEIMAGES
 70
     1
  0
ENDSEC
  0
SECTION
  2
CLASSES
  0
CLASS
  1
ACDBDICTIONARYWDFLT
  2
AcDbDictionaryWithDefault
  3
ObjectDBX Classes
 90
    32768
280
     0
281
     0
  0
CLASS
  1
VISUALSTYLE
  2
AcDbVisualStyle
  3
ObjectDBX Classes
 90
     4095
280
     0
281
     0
  0
CLASS
  1
MATERIAL
  2
AcDbMaterial
  3
ObjectDBX Classes
 90
     1153
280
     0
281
     0
  0
CLASS
  1
SCALE
  2
AcDbScale
  3
ObjectDBX Classes
 90
     1153
280
     0
281
     0
  0
CLASS
  1
TABLESTYLE
  2
AcDbTableStyle
  3
ObjectDBX Classes
 90
     4095
280
     0
281
     0
  0
CLASS
  1
MLEADERSTYLE
  2
AcDbMLeaderStyle
  3
ACDB_MLEADERSTYLE_CLASS
 90
     4095
280
     0
281
     0
  0
CLASS
  1
SUN
  2
AcDbSun
  3
SCENEOE
 90
     1153
280
     0
281
     0
  0
CLASS
  1
DICTIONARYVAR
  2
AcDbDictionaryVar
  3
ObjectDBX Classes
 90
        0
280
     0
281
     0
  0
CLASS
  1
XRECORD
  2
AcDbXrecord
  3
ObjectDBX Classes
 90
    32768
280
     0
281
     0
  0
CLASS
  1
LWPOLYLINE
  2
AcDbPolyline
  3
ObjectDBX Classes
 90
    32768
280
     0
281
     1
  0
CLASS
  1
HATCH
  2
AcDbHatch
  3
ObjectDBX Classes
 90
    32768
280
     0
281
     1
  0
CLASS
  1
ACDBPLACEHOLDER
  2
AcDbPlaceHolder
  3
ObjectDBX Classes
 90
        0
280
     0
281
     0
  0
CLASS
  1
LAYOUT
  2
AcDbLayout
  3
ObjectDBX Classes
 90
        0
280
     0
281
     0
  0
ENDSEC
  0
SECTION
  2
TABLES
  0
TABLE
  2
VPORT
  5
8
330
0
100
AcDbSymbolTable
 70
     1
  0
VPORT
  5
29
330
8
100
AcDbSymbolTableRecord
100
AcDbViewportTableRecord
  2
*ACTIVE
 70
     0
 10
0.0
 20
0.0
 11
1.0
 21
1.0
 12
415.0
 22
0.0
 13
0.0
 23
0.0
 14
10.0
 24
10.0
 15
10.0
 25
10.0
 16
0.0
 26
0.0
 36
1.0
 17
0.0
 27
0.0
 37
0.0
 40
748.6800052267921
 41
1.13079018284126
 42
50.0
 43
0.0
 44
0.0
 50
0.0
 51
0.0
 71
     0
 72
   100
 73
     1
 74
     3
 75
     0
 76
     0
 77
     0
 78
     0
  0
ENDTAB
  0
TABLE
  2
LTYPE
  5
5
330
0
100
AcDbSymbolTable
 70
     1
  0
LTYPE
  5
14
330
5
100
AcDbSymbolTableRecord
100
AcDbLinetypeTableRecord
  2
BYBLOCK
 70
     0
  3

 72
    65
 73
     0
 40
0.0
  0
LTYPE
  5
15
330
5
100
AcDbSymbolTableRecord
100
AcDbLinetypeTableRecord
  2
BYLAYER
 70
     0
  3

 72
    65
 73
     0
 40
0.0
  0
LTYPE
  5
16
330
5
100
AcDbSymbolTableRecord
100
AcDbLinetypeTableRecord
  2
CONTINUOUS
 70
     0
  3
Solid line
 72
    65
 73
     0
 40
0.0
  0
ENDTAB
  0
TABLE
  2
LAYER
  5
2
330
0
100
AcDbSymbolTable
 70
     4
  0
LAYER
  5
10
330
2
100
AcDbSymbolTableRecord
100
AcDbLayerTableRecord
  2
0
 70
     0
 62
     7
  6
CONTINUOUS
  0
LAYER
  5
6E
330
2
100
AcDbSymbolTableRecord
100
AcDbLayerTableRecord
  2
THICK
 70
     0
 62
     7
  6
CONTINUOUS
  0
LAYER
  5
6F
330
2
100
AcDbSymbolTableRecord
100
AcDbLayerTableRecord
  2
HIDDEN
 70
     0
 62
     7
  6
CONTINUOUS
  0
LAYER
  5
70
330
2
100
AcDbSymbolTableRecord
100
AcDbLayerTableRecord
  2
HASHLINES
 70
     0
 62
     7
  6
CONTINUOUS
  0
ENDTAB
  0
TABLE
  2
STYLE
  5
3
330
0
100
AcDbSymbolTable
 70
     1
  0
STYLE
  5
11
330
3
100
AcDbSymbolTableRecord
100
AcDbTextStyleTableRecord
  2
STANDARD
 70
     0
 40
0.0
 41
1.0
 50
0.0
 71
     0
 42
2.5
  3
txt
  4

  0
ENDTAB
  0
TABLE
  2
VIEW
  5
6
330
0
100
AcDbSymbolTable
 70
     0
  0
ENDTAB
  0
TABLE
  2
UCS
  5
7
330
0
100
AcDbSymbolTable
 70
     0
  0
ENDTAB
  0
TABLE
  2
APPID
  5
9
330
0
100
AcDbSymbolTable
 70
     3
  0
APPID
  5
12
330
9
100
AcDbSymbolTableRecord
100
AcDbRegAppTableRecord
  2
ACAD
 70
     0
  0
APPID
  5
71
330
9
100
AcDbSymbolTableRecord
100
AcDbRegAppTableRecord
  2
DBPROPERTIES
 70
     0
  0
APPID
  5
1CD
330
9
100
AcDbSymbolTableRecord
100
AcDbRegAppTableRecord
  2
ACAD_MLEADERVER
 70
     0
  0
ENDTAB
  0
TABLE
  2
DIMSTYLE
  5
A
330
0
100
AcDbSymbolTable
 70
     1
  0
DIMSTYLE
105
27
330
A
100
AcDbSymbolTableRecord
100
AcDbDimStyleTableRecord
  2
ISO-25
 70
     0
  3

  4

  5

  6

  7

 40
1.0
 41
2.5
 42
0.625
 43
3.75
 44
1.25
 45
0.0
 46
0.0
 47
0.0
 48
0.0
140
2.5
141
2.5
142
0.0
143
0.03937007874016
144
1.0
145
0.0
146
1.0
147
0.625
 71
     0
 72
     0
 73
     0
 74
     0
 75
     0
 76
     0
 77
     1
 78
     8
170
     0
171
     3
172
     1
173
     0
174
     0
175
     0
176
     0
177
     0
178
     0
270
     2
271
     2
272
     2
273
     2
274
     3
340
11
275
     0
280
     0
281
     0
282
     0
283
     0
284
     8
285
     0
286
     0
287
     3
288
     0
  0
ENDTAB
  0
TABLE
  2
BLOCK_RECORD
  5
1
330
0
100
AcDbSymbolTable
 70
     0
  0
BLOCK_RECORD
  5
1F
330
1
100
AcDbSymbolTableRecord
100
AcDbBlockTableRecord
  2
*MODEL_SPACE
  0
BLOCK_RECORD
  5
1B
330
1
100
AcDbSymbolTableRecord
100
AcDbBlockTableRecord
  2
*PAPER_SPACE
  0
ENDTAB
  0
ENDSEC
  0
SECTION
  2
BLOCKS
  0
BLOCK
  5
20
330
1F
100
AcDbEntity
  8
0
100
AcDbBlockBegin
  2
*MODEL_SPACE
 70
     0
 10
0.0
 20
0.0
 30
0.0
  3
*MODEL_SPACE
  1

  0
ENDBLK
  5
21
330
1F
100
AcDbEntity
  8
0
100
AcDbBlockEnd
  0
BLOCK
  5
1C
330
1B
100
AcDbEntity
 67
     1
  8
0
100
AcDbBlockBegin
  2
*PAPER_SPACE
 70
     0
 10
0.0
 20
0.0
 30
0.0
  3
*PAPER_SPACE
  1

  0
ENDBLK
  5
1D
330
1B
100
AcDbEntity
 67
     1
  8
0
100
AcDbBlockEnd
  0
ENDSEC
  0
SECTION
  2
ENTITIES
  0
LINE
  5
72
330
1F
100
AcDbEntity
  8
THICK
100
AcDbLine
 10
830.0
 20
347.0000000000001
 30
0.0
 11
830.0
 21
-347.0000000000001
 31
0.0
1001
DBPROPERTIES
1002
{
1000
PbThick
1002
}
  0
LINE
  5
73
330
1F
100
AcDbEntity
  8
THICK
100
AcDbLine
 10
830.0
 20
347.0000000000001
 30
0.0
 11
821.7000122070312
 21
347.0000000000001
 31
0.0
1001
DBPROPERTIES
1002
{
1000
PbThick
1002
}
  0
LINE
  5
74
330
1F
100
AcDbEntity
  8
THICK
100
AcDbLine
 10
821.7000122070312
 20
-347.0000000000001
 30
0.0
 11
830.0
 21
-347.0000000000001
 31
0.0
1001
DBPROPERTIES
1002
{
1000
PbThick
1002
}
  0
LINE
  5
75
330
1F
100
AcDbEntity
  8
HIDDEN
100
AcDbLine
 10
697.2
 20
-308.3000000000001
 30
0.0
 11
697.2
 21
308.3000000000001
 31
0.0
1001
DBPROPERTIES
1002
{
1000
PbHidd
1002
}
  0
LINE
  5
76
330
1F
100
AcDbEntity
  8
THICK
100
AcDbLine
 10
821.7000122070312
 20
308.3000000000001
 30
0.0
 11
697.2000122070312
 21
308.3000000000001
 31
0.0
1001
DBPROPERTIES
1002
{
1000
PbThick
1002
}
  0
LINE
  5
77
330
1F
100
AcDbEntity
  8
THICK
100
AcDbLine
 10
697.2000122070312
 20
-308.3000000000001
 30
0.0
 11
821.7000122070312
 21
-308.3000000000001
 31
0.0
1001
DBPROPERTIES
1002
{
1000
PbThick
1002
}
  0
LINE
  5
78
330
1F
100
AcDbEntity
  8
HIDDEN
100
AcDbLine
 10
605.9
 20
57.96911150442477
 30
0.0
 11
605.9
 21
367.0
 31
0.0
1001
DBPROPERTIES
1002
{
1000
PbHidd
1002
}
  0
LINE
  5
79
330
1F
100
AcDbEntity
  8
THICK
100
AcDbLine
 10
697.2000141897888
 20
308.2999908768829
 30
0.0
 11
605.9000172737028
 21
366.9999888941254
 31
0.0
1001
DBPROPERTIES
1002
{
1000
PbThick
1002
}
  0
LINE
  5
7A
330
1F
100
AcDbEntity
  8
THICK
100
AcDbLine
 10
605.9000172737028
 20
-366.9999888941254
 30
0.0
 11
697.2000141897888
 21
-308.2999908768829
 31
0.0
1001
DBPROPERTIES
1002
{
1000
PbThick
1002
}
  0
LINE
  5
7B
330
1F
100
AcDbEntity
  8
HIDDEN
100
AcDbLine
 10
605.9
 20
-367.0
 30
0.0
 11
605.9
 21
-57.96911150442465
 31
0.0
1001
DBPROPERTIES
1002
{
1000
PbHidd
1002
}
  0
LINE
  5
7C
330
1F
100
AcDbEntity
  8
THICK
100
AcDbLine
 10
116.1999969482422
 20
308.2999999999999
 30
0.0
 11
8.300000190734863
 21
308.2999999999999
 31
0.0
1001
DBPROPERTIES
1002
{
1000
PbThick
1002
}
  0
LINE
  5
7D
330
1F
100
AcDbEntity
  8
HIDDEN
100
AcDbLine
 10
116.2
 20
-308.2999999999999
 30
0.0
 11
116.2
 21
308.2999999999999
 31
0.0
1001
DBPROPERTIES
1002
{
1000
PbHidd
1002
}
  0
LINE
  5
7E
330
1F
100
AcDbEntity
  8
THICK
100
AcDbLine
 10
8.300000190734863
 20
-308.2999999999999
 30
0.0
 11
116.1999969482422
 21
-308.2999999999999
 31
0.0
1001
DBPROPERTIES
1002
{
1000
PbThick
1002
}
  0
LINE
  5
7F
330
1F
100
AcDbEntity
  8
THICK
100
AcDbLine
 10
8.300000190734863
 20
347.0
 30
0.0
 11
0.0000000000000213
 21
347.0
 31
0.0
1001
DBPROPERTIES
1002
{
1000
PbThick
1002
}
  0
LINE
  5
80
330
1F
100
AcDbEntity
  8
THICK
100
AcDbLine
 10
0.0
 20
-347.0
 30
0.0
 11
8.300000190734863
 21
-347.0
 31
0.0
1001
DBPROPERTIES
1002
{
1000
PbThick
1002
}
  0
LINE
  5
81
330
1F
100
AcDbEntity
  8
HIDDEN
100
AcDbLine
 10
116.1999969482422
 20
300.0
 30
0.0
 11
0.0000000000000142
 21
300.0
 31
0.0
1001
DBPROPERTIES
1002
{
1000
PbHidd
1002
}
  0
LINE
  5
82
330
1F
100
AcDbEntity
  8
HIDDEN
100
AcDbLine
 10
116.2
 20
300.0
 30
0.0
 11
116.2
 21
-300.0
 31
0.0
1001
DBPROPERTIES
1002
{
1000
PbHidd
1002
}
  0
LINE
  5
83
330
1F
100
AcDbEntity
  8
HIDDEN
100
AcDbLine
 10
0.0
 20
-300.0
 30
0.0
 11
116.1999969482422
 21
-300.0
 31
0.0
1001
DBPROPERTIES
1002
{
1000
PbHidd
1002
}
  0
LINE
  5
84
330
1F
100
AcDbEntity
  8
HIDDEN
100
AcDbLine
 10
224.1000098339533
 20
358.7000053498894
 30
0.0
 11
116.1999976451763
 21
299.9999987189235
 31
0.0
1001
DBPROPERTIES
1002
{
1000
PbHidd
1002
}
  0
LINE
  5
85
330
1F
100
AcDbEntity
  8
HIDDEN
100
AcDbLine
 10
224.1
 20
358.7
 30
0.0
 11
224.1
 21
57.50355591311344
 31
0.0
1001
DBPROPERTIES
1002
{
1000
PbHidd
1002
}
  0
LINE
  5
86
330
1F
100
AcDbEntity
  8
HIDDEN
100
AcDbLine
 10
224.1000000000002
 20
57.50355591311355
 30
0.0
 11
218.041
 21
52.84800000000003
 31
0.0
1001
DBPROPERTIES
1002
{
1000
PbHidd
1002
}
  0
LINE
  5
87
330
1F
100
AcDbEntity
  8
HIDDEN
100
AcDbLine
 10
218.0410000000004
 20
-52.84800000000033
 30
0.0
 11
224.1000000000004
 21
-57.50355591311373
 31
0.0
1001
DBPROPERTIES
1002
{
1000
PbHidd
1002
}
  0
LINE
  5
88
330
1F
100
AcDbEntity
  8
HIDDEN
100
AcDbLine
 10
224.1
 20
-57.50355591311324
 30
0.0
 11
224.1
 21
-358.7
 31
0.0
1001
DBPROPERTIES
1002
{
1000
PbHidd
1002
}
  0
LINE
  5
89
330
1F
100
AcDbEntity
  8
HIDDEN
100
AcDbLine
 10
116.1999976451763
 20
-299.9999987189235
 30
0.0
 11
224.1000098339533
 21
-358.7000053498894
 31
0.0
1001
DBPROPERTIES
1002
{
1000
PbHidd
1002
}
  0
LINE
  5
8A
330
1F
100
AcDbEntity
  8
HIDDEN
100
AcDbLine
 10
697.2
 20
300.0
 30
0.0
 11
697.2
 21
-300.0
 31
0.0
1001
DBPROPERTIES
1002
{
1000
PbHidd
1002
}
  0
LINE
  5
8B
330
1F
100
AcDbEntity
  8
HIDDEN
100
AcDbLine
 10
830.0
 20
300.0
 30
0.0
 11
697.2000122070312
 21
300.0
 31
0.0
1001
DBPROPERTIES
1002
{
1000
PbHidd
1002
}
  0
LINE
  5
8C
330
1F
100
AcDbEntity
  8
HIDDEN
100
AcDbLine
 10
697.2000122070312
 20
-300.0
 30
0.0
 11
830.0
 21
-300.0
 31
0.0
1001
DBPROPERTIES
1002
{
1000
PbHidd
1002
}
  0
LINE
  5
8D
330
1F
100
AcDbEntity
  8
THICK
100
AcDbLine
 10
224.1000047096474
 20
367.000002562153
 30
0.0
 11
116.1999925208704
 21
308.2999959311871
 31
0.0
1001
DBPROPERTIES
1002
{
1000
PbThick
1002
}
  0
LINE
  5
8E
330
1F
100
AcDbEntity
  8
HIDDEN
100
AcDbLine
 10
224.0999999999999
 20
57.50355591311344
 30
0.0
 11
224.0999999999999
 21
367.0
 31
0.0
1001
DBPROPERTIES
1002
{
1000
PbHidd
1002
}
  0
LINE
  5
8F
330
1F
100
AcDbEntity
  8
HIDDEN
100
AcDbLine
 10
224.0999999999999
 20
-367.0
 30
0.0
 11
224.0999999999999
 21
-57.50355591311349
 31
0.0
1001
DBPROPERTIES
1002
{
1000
PbHidd
1002
}
  0
LINE
  5
90
330
1F
100
AcDbEntity
  8
THICK
100
AcDbLine
 10
116.1999925208704
 20
-308.2999959311871
 30
0.0
 11
224.1000047096474
 21
-367.000002562153
 31
0.0
1001
DBPROPERTIES
1002
{
1000
PbThick
1002
}
  0
LINE
  5
91
330
1F
100
AcDbEntity
  8
THICK
100
AcDbLine
 10
605.9000244140625
 20
367.0
 30
0.0
 11
224.1000061035156
 21
367.0
 31
0.0
1001
DBPROPERTIES
1002
{
1000
PbThick
1002
}
  0
LINE
  5
92
330
1F
100
AcDbEntity
  8
THICK
100
AcDbLine
 10
224.1000061035156
 20
-367.0
 30
0.0
 11
605.9000244140625
 21
-367.0
 31
0.0
1001
DBPROPERTIES
1002
{
1000
PbThick
1002
}
  0
LINE
  5
93
330
1F
100
AcDbEntity
  8
HIDDEN
100
AcDbLine
 10
605.9
 20
358.7
 30
0.0
 11
605.9
 21
57.9691115044247
 31
0.0
1001
DBPROPERTIES
1002
{
1000
PbHidd
1002
}
  0
LINE
  5
94
330
1F
100
AcDbEntity
  8
HIDDEN
100
AcDbLine
 10
697.2000086368514
 20
299.9999944470627
 30
0.0
 11
605.9000117207655
 21
358.6999924643052
 31
0.0
1001
DBPROPERTIES
1002
{
1000
PbHidd
1002
}
  0
LINE
  5
95
330
1F
100
AcDbEntity
  8
HIDDEN
100
AcDbLine
 10
605.9000117207655
 20
-358.6999924643052
 30
0.0
 11
697.2000086368514
 21
-299.9999944470627
 31
0.0
1001
DBPROPERTIES
1002
{
1000
PbHidd
1002
}
  0
LINE
  5
96
330
1F
100
AcDbEntity
  8
HIDDEN
100
AcDbLine
 10
605.9
 20
-57.9691115044245
 30
0.0
 11
605.9
 21
-358.7
 31
0.0
1001
DBPROPERTIES
1002
{
1000
PbHidd
1002
}
  0
LINE
  5
97
330
1F
100
AcDbEntity
  8
HIDDEN
100
AcDbLine
 10
605.9
 20
-57.96911150442465
 30
0.0
 11
611.9589999999996
 21
-52.84800000000015
 31
0.0
1001
DBPROPERTIES
1002
{
1000
PbHidd
1002
}
  0
LINE
  5
98
330
1F
100
AcDbEntity
  8
HIDDEN
100
AcDbLine
 10
611.959
 20
52.84799999999986
 30
0.0
 11
605.9000000000001
 21
57.96911150442453
 31
0.0
1001
DBPROPERTIES
1002
{
1000
PbHidd
1002
}
  0
LINE
  5
99
330
1F
100
AcDbEntity
  8
HIDDEN
100
AcDbLine
 10
605.9000244140625
 20
358.7
 30
0.0
 11
224.1000061035156
 21
358.7
 31
0.0
1001
DBPROPERTIES
1002
{
1000
PbHidd
1002
}
  0
LINE
  5
9A
330
1F
100
AcDbEntity
  8
HIDDEN
100
AcDbLine
 10
605.9
 20
57.9691115044247
 30
0.0
 11
518.1689999999999
 21
132.1200000000001
 31
0.0
1001
DBPROPERTIES
1002
{
1000
PbHidd
1002
}
  0
LINE
  5
9B
330
1F
100
AcDbEntity
  8
HIDDEN
100
AcDbLine
 10
321.2100000000002
 20
132.1200000000001
 30
0.0
 11
224.1
 21
57.50355591311344
 31
0.0
1001
DBPROPERTIES
1002
{
1000
PbHidd
1002
}
  0
LINE
  5
9C
330
1F
100
AcDbEntity
  8
HIDDEN
100
AcDbLine
 10
224.1000061035156
 20
-358.7
 30
0.0
 11
605.9000244140625
 21
-358.7
 31
0.0
1001
DBPROPERTIES
1002
{
1000
PbHidd
1002
}
  0
LINE
  5
9D
330
1F
100
AcDbEntity
  8
HIDDEN
100
AcDbLine
 10
224.1
 20
-57.5035559131134
 30
0.0
 11
321.2099999999998
 21
-132.1199999999999
 31
0.0
1001
DBPROPERTIES
1002
{
1000
PbHidd
1002
}
  0
LINE
  5
9E
330
1F
100
AcDbEntity
  8
HIDDEN
100
AcDbLine
 10
518.169
 20
-132.1199999999999
 30
0.0
 11
605.9000000000001
 21
-57.96911150442463
 31
0.0
1001
DBPROPERTIES
1002
{
1000
PbHidd
1002
}
  0
LINE
  5
9F
330
1F
100
AcDbEntity
  8
THICK
100
AcDbLine
 10
240.7
 20
-44.03999999999993
 30
0.0
 11
240.7
 21
-0.0000000000000452
 31
0.0
1001
DBPROPERTIES
1002
{
1000
PbThick
1002
}
  0
LINE
  5
A0
330
1F
100
AcDbEntity
  8
THICK
100
AcDbLine
 10
218.041
 20
0.0000000000000452
 30
0.0
 11
218.041
 21
-52.84799999999992
 31
0.0
1001
DBPROPERTIES
1002
{
1000
PbThick
1002
}
  0
LINE
  5
A1
330
1F
100
AcDbEntity
  8
THICK
100
AcDbLine
 10
218.0409999999999
 20
-52.84799999999994
 30
0.0
 11
321.2099999999998
 21
-132.1199999999999
 31
0.0
1001
DBPROPERTIES
1002
{
1000
PbThick
1002
}
  0
LINE
  5
A2
330
1F
100
AcDbEntity
  8
THICK
100
AcDbLine
 10
321.2099999999999
 20
-132.12
 30
0.0
 11
518.1689999999999
 21
-132.12
 31
0.0
1001
DBPROPERTIES
1002
{
1000
PbThick
1002
}
  0
LINE
  5
A3
330
1F
100
AcDbEntity
  8
THICK
100
AcDbLine
 10
518.1690000000001
 20
-132.1199999999999
 30
0.0
 11
611.959
 21
-52.84800000000011
 31
0.0
1001
DBPROPERTIES
1002
{
1000
PbThick
1002
}
  0
LINE
  5
A4
330
1F
100
AcDbEntity
  8
THICK
100
AcDbLine
 10
611.959
 20
-52.84800000000001
 30
0.0
 11
611.959
 21
-0.0000000000000452
 31
0.0
1001
DBPROPERTIES
1002
{
1000
PbThick
1002
}
  0
LINE
  5
A5
330
1F
100
AcDbEntity
  8
THICK
100
AcDbLine
 10
589.3
 20
0.0000000000000452
 30
0.0
 11
589.3
 21
-44.04000000000016
 31
0.0
1001
DBPROPERTIES
1002
{
1000
PbThick
1002
}
  0
LINE
  5
A6
330
1F
100
AcDbEntity
  8
THICK
100
AcDbLine
 10
589.3000000000001
 20
-44.04000000000002
 30
0.0
 11
506.3
 21
-110.1
 31
0.0
1001
DBPROPERTIES
1002
{
1000
PbThick
1002
}
  0
LINE
  5
A7
330
1F
100
AcDbEntity
  8
THICK
100
AcDbLine
 10
506.3
 20
-110.1
 30
0.0
 11
332.0
 21
-110.1
 31
0.0
1001
DBPROPERTIES
1002
{
1000
PbThick
1002
}
  0
LINE
  5
A8
330
1F
100
AcDbEntity
  8
THICK
100
AcDbLine
 10
332.0
 20
-110.1
 30
0.0
 11
240.6999999999998
 21
-44.03999999999986
 31
0.0
1001
DBPROPERTIES
1002
{
1000
PbThick
1002
}
  0
LINE
  5
A9
330
1F
100
AcDbEntity
  8
HIDDEN
100
AcDbLine
 10
0.0000000000000195
 20
6.0
 30
0.0
 11
8.300000190734863
 21
6.0
 31
0.0
1001
DBPROPERTIES
1002
{
1000
PbHidd
1002
}
  0
LINE
  5
AA
330
1F
100
AcDbEntity
  8
HIDDEN
100
AcDbLine
 10
8.300000190734863
 20
-6.0
 30
0.0
 11
0.0000000000000195
 21
-6.0
 31
0.0
1001
DBPROPERTIES
1002
{
1000
PbHidd
1002
}
  0
LINE
  5
AB
330
1F
100
AcDbEntity
  8
HIDDEN
100
AcDbLine
 10
0.0000000000000195
 20
-6.000000000000061
 30
0.0
 11
8.300000190734863
 21
-6.000000000000061
 31
0.0
1001
DBPROPERTIES
1002
{
1000
PbHidd
1002
}
  0
LINE
  5
AC
330
1F
100
AcDbEntity
  8
HIDDEN
100
AcDbLine
 10
8.300000190734863
 20
5.999999999999939
 30
0.0
 11
0.0000000000000195
 21
5.999999999999939
 31
0.0
1001
DBPROPERTIES
1002
{
1000
PbHidd
1002
}
  0
LINE
  5
AD
330
1F
100
AcDbEntity
  8
HIDDEN
100
AcDbLine
 10
821.7000122070312
 20
6.0
 30
0.0
 11
830.0
 21
6.0
 31
0.0
1001
DBPROPERTIES
1002
{
1000
PbHidd
1002
}
  0
LINE
  5
AE
330
1F
100
AcDbEntity
  8
HIDDEN
100
AcDbLine
 10
830.0
 20
-6.0
 30
0.0
 11
821.7000122070312
 21
-6.0
 31
0.0
1001
DBPROPERTIES
1002
{
1000
PbHidd
1002
}
  0
LINE
  5
AF
330
1F
100
AcDbEntity
  8
HIDDEN
100
AcDbLine
 10
821.7000122070312
 20
-6.000000000000061
 30
0.0
 11
830.0
 21
-6.000000000000061
 31
0.0
1001
DBPROPERTIES
1002
{
1000
PbHidd
1002
}
  0
LINE
  5
B0
330
1F
100
AcDbEntity
  8
HIDDEN
100
AcDbLine
 10
830.0
 20
5.999999999999939
 30
0.0
 11
821.7000122070312
 21
5.999999999999939
 31
0.0
1001
DBPROPERTIES
1002
{
1000
PbHidd
1002
}
  0
LINE
  5
B1
330
1F
100
AcDbEntity
  8
HIDDEN
100
AcDbLine
 10
407.0100000000001
 20
-0.0000000000000143
 30
0.0
 11
407.0100000000001
 21
78.07
 31
0.0
1001
DBPROPERTIES
1002
{
1000
PbHidd
1002
}
  0
LINE
  5
B2
330
1F
100
AcDbEntity
  8
THICK
100
AcDbLine
 10
546.5435791015625
 20
78.07
 30
0.0
 11
407.010009765625
 21
78.07
 31
0.0
1001
DBPROPERTIES
1002
{
1000
PbThick
1002
}
  0
LINE
  5
B3
330
1F
100
AcDbEntity
  8
HIDDEN
100
AcDbLine
 10
573.0100000000001
 20
0.0000000000000048
 30
0.0
 11
573.0100000000001
 21
57.00526987951794
 31
0.0
1001
DBPROPERTIES
1002
{
1000
PbHidd
1002
}
  0
LINE
  5
B4
330
1F
100
AcDbEntity
  8
HIDDEN
100
AcDbLine
 10
573.0100000000001
 20
-57.0052698795181
 30
0.0
 11
573.0100000000001
 21
0.0000000000000048
 31
0.0
1001
DBPROPERTIES
1002
{
1000
PbHidd
1002
}
  0
LINE
  5
B5
330
1F
100
AcDbEntity
  8
THICK
100
AcDbLine
 10
407.010009765625
 20
-78.07
 30
0.0
 11
546.5435791015625
 21
-78.07
 31
0.0
1001
DBPROPERTIES
1002
{
1000
PbThick
1002
}
  0
LINE
  5
B6
330
1F
100
AcDbEntity
  8
HIDDEN
100
AcDbLine
 10
407.0100000000001
 20
-78.07
 30
0.0
 11
407.0100000000001
 21
-0.0000000000000143
 31
0.0
1001
DBPROPERTIES
1002
{
1000
PbHidd
1002
}
  0
LINE
  5
B7
330
1F
100
AcDbEntity
  8
THICK
100
AcDbLine
 10
407.0100000000001
 20
0.0000000000000048
 30
0.0
 11
407.0100000000001
 21
-78.07
 31
0.0
1001
DBPROPERTIES
1002
{
1000
PbThick
1002
}
  0
LINE
  5
B8
330
1F
100
AcDbEntity
  8
THICK
100
AcDbLine
 10
377.6500000000001
 20
0.000000000000003
 30
0.0
 11
377.6500000000001
 21
-48.71
 31
0.0
1001
DBPROPERTIES
1002
{
1000
PbThick
1002
}
  0
LINE
  5
B9
330
1F
100
AcDbEntity
  8
THICK
100
AcDbLine
 10
377.6499961206808
 20
47.7099965693731
 30
0.0
 11
373.5000004543273
 21
44.04000040177849
 31
0.0
1001
DBPROPERTIES
1002
{
1000
PbThick
1002
}
  0
LINE
  5
BA
330
1F
100
AcDbEntity
  8
THICK
100
AcDbLine
 10
373.5000004543273
 20
-44.04000040177849
 30
0.0
 11
377.6499961206808
 21
-47.7099965693731
 31
0.0
1001
DBPROPERTIES
1002
{
1000
PbThick
1002
}
  0
LINE
  5
BB
330
1F
100
AcDbEntity
  8
HIDDEN
100
AcDbLine
 10
655.7000122070312
 20
139.46
 30
0.0
 11
639.0999755859375
 21
139.46
 31
0.0
1001
DBPROPERTIES
1002
{
1000
PbHidd
1002
}
  0
LINE
  5
BC
330
1F
100
AcDbEntity
  8
HIDDEN
100
AcDbLine
 10
639.0999755859375
 20
-139.46
 30
0.0
 11
655.7000122070312
 21
-139.46
 31
0.0
1001
DBPROPERTIES
1002
{
1000
PbHidd
1002
}
  0
LINE
  5
BD
330
1F
100
AcDbEntity
  8
HIDDEN
100
AcDbLine
 10
624.42
 20
-0.0000000000000155
 30
0.0
 11
624.42
 21
84.41
 31
0.0
1001
DBPROPERTIES
1002
{
1000
PbHidd
1002
}
  0
LINE
  5
BE
330
1F
100
AcDbEntity
  8
HIDDEN
100
AcDbLine
 10
624.42
 20
84.41
 30
0.0
 11
624.42
 21
0.0000000000000052
 31
0.0
1001
DBPROPERTIES
1002
{
1000
PbHidd
1002
}
  0
LINE
  5
BF
330
1F
100
AcDbEntity
  8
HIDDEN
100
AcDbLine
 10
616.91
 20
-0.0000000000000155
 30
0.0
 11
616.91
 21
84.41000000000001
 31
0.0
1001
DBPROPERTIES
1002
{
1000
PbHidd
1002
}
  0
LINE
  5
C0
330
1F
100
AcDbEntity
  8
HIDDEN
100
AcDbLine
 10
624.4199829101562
 20
84.41
 30
0.0
 11
616.9099731445312
 21
84.41
 31
0.0
1001
DBPROPERTIES
1002
{
1000
PbHidd
1002
}
  0
LINE
  5
C1
330
1F
100
AcDbEntity
  8
HIDDEN
100
AcDbLine
 10
624.42
 20
-84.41
 30
0.0
 11
624.42
 21
-0.0000000000000155
 31
0.0
1001
DBPROPERTIES
1002
{
1000
PbHidd
1002
}
  0
LINE
  5
C2
330
1F
100
AcDbEntity
  8
HIDDEN
100
AcDbLine
 10
616.9099731445312
 20
-84.41
 30
0.0
 11
624.4199829101562
 21
-84.41
 31
0.0
1001
DBPROPERTIES
1002
{
1000
PbHidd
1002
}
  0
LINE
  5
C3
330
1F
100
AcDbEntity
  8
HIDDEN
100
AcDbLine
 10
616.91
 20
-84.41000000000001
 30
0.0
 11
616.91
 21
-0.0000000000000155
 31
0.0
1001
DBPROPERTIES
1002
{
1000
PbHidd
1002
}
  0
LINE
  5
C4
330
1F
100
AcDbEntity
  8
THICK
100
AcDbLine
 10
587.69
 20
0.0000000000000039
 30
0.0
 11
587.69
 21
-45.32140481927716
 31
0.0
1001
DBPROPERTIES
1002
{
1000
PbThick
1002
}
  0
LINE
  5
C5
330
1F
100
AcDbEntity
  8
THICK
100
AcDbLine
 10
573.0100000000001
 20
0.0000000000000048
 30
0.0
 11
573.0100000000001
 21
-57.00526987951815
 31
0.0
1001
DBPROPERTIES
1002
{
1000
PbThick
1002
}
  0
LINE
  5
C6
330
1F
100
AcDbEntity
  8
HIDDEN
100
AcDbLine
 10
605.0115966796875
 20
-58.72
 30
0.0
 11
605.9000244140625
 21
-58.72
 31
0.0
1001
DBPROPERTIES
1002
{
1000
PbHidd
1002
}
  0
LINE
  5
C7
330
1F
100
AcDbEntity
  8
HIDDEN
100
AcDbLine
 10
605.9000244140625
 20
58.72
 30
0.0
 11
605.0115966796875
 21
58.72
 31
0.0
1001
DBPROPERTIES
1002
{
1000
PbHidd
1002
}
  0
LINE
  5
C8
330
1F
100
AcDbEntity
  8
HIDDEN
100
AcDbLine
 10
616.91
 20
0.0000000000000052
 30
0.0
 11
616.91
 21
-84.41000000000001
 31
0.0
1001
DBPROPERTIES
1002
{
1000
PbHidd
1002
}
  0
LINE
  5
C9
330
1F
100
AcDbEntity
  8
THICK
100
AcDbLine
 10
605.9
 20
-57.96911150442468
 30
0.0
 11
605.9
 21
-73.4
 31
0.0
1001
DBPROPERTIES
1002
{
1000
PbThick
1002
}
  0
LINE
  5
CA
330
1F
100
AcDbEntity
  8
HIDDEN
100
AcDbLine
 10
789.2021712695171
 20
-80.73999999999994
 30
0.0
 11
789.2021712695171
 21
-0.0000000000000148
 31
0.0
1001
DBPROPERTIES
1002
{
1000
PbHidd
1002
}
  0
LINE
  5
CB
330
1F
100
AcDbEntity
  8
HIDDEN
100
AcDbLine
 10
789.2021712695171
 20
0.0000000000000049
 30
0.0
 11
789.2021712695171
 21
-80.73999999999994
 31
0.0
1001
DBPROPERTIES
1002
{
1000
PbHidd
1002
}
  0
ELLIPSE
  5
CC
330
1F
100
AcDbEntity
  8
HIDDEN
100
AcDbEllipse
 10
742.9426406871194
 20
0.0
 30
0.0
 11
-80.73999999999998
 21
0.0
 31
0.0
210
0.0
220
0.0
230
1.0
 40
0.9999999999999998
 41
-1.877425622696098
 42
-1.570796326794897
1001
DBPROPERTIES
1002
{
1000
PbHidd
1002
}
  0
LINE
  5
CD
330
1F
100
AcDbEntity
  8
HIDDEN
100
AcDbLine
 10
789.2021484375
 20
80.73999999999997
 30
0.0
 11
742.942626953125
 21
80.73999999999997
 31
0.0
1001
DBPROPERTIES
1002
{
1000
PbHidd
1002
}
  0
LINE
  5
CE
330
1F
100
AcDbEntity
  8
HIDDEN
100
AcDbLine
 10
789.2021712695171
 20
-0.0000000000000148
 30
0.0
 11
789.2021712695171
 21
80.73999999999994
 31
0.0
1001
DBPROPERTIES
1002
{
1000
PbHidd
1002
}
  0
LINE
  5
CF
330
1F
100
AcDbEntity
  8
HIDDEN
100
AcDbLine
 10
764.1519165039062
 20
-80.73999999999997
 30
0.0
 11
789.2021484375
 21
-80.73999999999997
 31
0.0
1001
DBPROPERTIES
1002
{
1000
PbHidd
1002
}
  0
ELLIPSE
  5
D0
330
1F
100
AcDbEntity
  8
HIDDEN
100
AcDbEllipse
 10
797.3898628384834
 20
0.0
 30
0.0
 11
68.12510274480226
 21
67.67209848264848
 31
0.0
210
0.0
220
0.0
230
1.0
 40
0.6464432560596772
 41
-2.564675889945366
 42
-2.522239335447702
1001
DBPROPERTIES
1002
{
1000
PbHidd
1002
}
  0
ELLIPSE
  5
D1
330
1F
100
AcDbEntity
  8
HIDDEN
100
AcDbEllipse
 10
742.9426406871194
 20
0.0
 30
0.0
 11
-66.13833605589316
 21
66.13833605589315
 31
0.0
210
0.0
220
0.0
230
1.0
 40
0.7002075382097098
 41
1.81866175439351
 42
2.488290860894114
1001
DBPROPERTIES
1002
{
1000
PbHidd
1002
}
  0
ELLIPSE
  5
D2
330
1F
100
AcDbEntity
  8
HIDDEN
100
AcDbEllipse
 10
680.0101371615166
 20
0.0
 30
0.0
 11
64.79333677633042
 21
64.14326557873351
 31
0.0
210
0.0
220
0.0
230
1.0
 40
0.756815623920965
 41
-1.833189823906634
 42
-1.776819309208435
1001
DBPROPERTIES
1002
{
1000
PbHidd
1002
}
  0
ELLIPSE
  5
D3
330
1F
100
AcDbEntity
  8
HIDDEN
100
AcDbEllipse
 10
734.4573593128808
 20
0.0
 30
0.0
 11
-66.13833605589316
 21
66.13833605589315
 31
0.0
210
0.0
220
0.0
230
1.0
 40
0.7002075382097098
 41
1.875032269091709
 42
2.530727415391778
1001
DBPROPERTIES
1002
{
1000
PbHidd
1002
}
  0
LINE
  5
D4
330
1F
100
AcDbEntity
  8
HIDDEN
100
AcDbLine
 10
715.3279418945312
 20
-80.73999999999997
 30
0.0
 11
762.0720825195312
 21
-80.73999999999997
 31
0.0
1001
DBPROPERTIES
1002
{
1000
PbHidd
1002
}
  0
ELLIPSE
  5
D5
330
1F
100
AcDbEntity
  8
HIDDEN
100
AcDbEllipse
 10
742.9426406871194
 20
0.0
 30
0.0
 11
66.13833605589316
 21
66.13833605589319
 31
0.0
210
0.0
220
0.0
230
1.0
 40
0.7002075382097095
 41
-2.544661375592314
 42
-2.530727415391779
1001
DBPROPERTIES
1002
{
1000
PbHidd
1002
}
  0
ELLIPSE
  5
D6
330
1F
100
AcDbEntity
  8
HIDDEN
100
AcDbEllipse
 10
680.0101371615166
 20
0.0
 30
0.0
 11
-68.12510274480225
 21
67.67209848264847
 31
0.0
210
0.0
220
0.0
230
1.0
 40
0.6464432560596778
 41
2.564675889945367
 42
2.578609850145903
1001
DBPROPERTIES
1002
{
1000
PbHidd
1002
}
  0
LINE
  5
D7
330
1F
100
AcDbEntity
  8
HIDDEN
100
AcDbLine
 10
688.9000244140625
 20
-80.73999999999997
 30
0.0
 11
713.248046875
 21
-80.73999999999997
 31
0.0
1001
DBPROPERTIES
1002
{
1000
PbHidd
1002
}
  0
LINE
  5
D8
330
1F
100
AcDbEntity
  8
HIDDEN
100
AcDbLine
 10
734.4573364257812
 20
80.73999999999997
 30
0.0
 11
688.9000244140625
 21
80.73999999999997
 31
0.0
1001
DBPROPERTIES
1002
{
1000
PbHidd
1002
}
  0
ELLIPSE
  5
D9
330
1F
100
AcDbEntity
  8
HIDDEN
100
AcDbEllipse
 10
734.4573593128807
 20
0.0
 30
0.0
 11
-80.73999999999998
 21
0.0
 31
0.0
210
0.0
220
0.0
230
1.0
 40
0.9999999999999998
 41
-1.933796137394298
 42
-1.570796326794897
1001
DBPROPERTIES
1002
{
1000
PbHidd
1002
}
  0
ELLIPSE
  5
DA
330
1F
100
AcDbEntity
  8
HIDDEN
100
AcDbEllipse
 10
797.3898628384834
 20
0.0
 30
0.0
 11
-60.33374513388716
 21
58.13931705497443
 31
0.0
210
0.0
220
0.0
230
1.0
 40
0.9285799094018901
 41
-0.4602483943138956
 42
-0.4038778796156951
1001
DBPROPERTIES
1002
{
1000
PbHidd
1002
}
  0
ELLIPSE
  5
DB
330
1F
100
AcDbEntity
  8
HIDDEN
100
AcDbEllipse
 10
742.9426406871194
 20
0.0
 30
0.0
 11
-77.98885121457934
 21
77.98885121457934
 31
0.0
210
0.0
220
0.0
230
1.0
 40
0.267949192431123
 41
1.469595903994644
 42
2.139225010495247
1001
DBPROPERTIES
1002
{
1000
PbHidd
1002
}
  0
ELLIPSE
  5
DC
330
1F
100
AcDbEntity
  8
HIDDEN
100
AcDbEllipse
 10
680.0101371615166
 20
0.0
 30
0.0
 11
77.39651369600226
 21
77.14050462855896
 31
0.0
210
0.0
220
0.0
230
1.0
 40
0.3080091825924697
 41
-1.488044071330169
 42
-1.43167355663197
1001
DBPROPERTIES
1002
{
1000
PbHidd
1002
}
  0
ELLIPSE
  5
DD
330
1F
100
AcDbEntity
  8
HIDDEN
100
AcDbEllipse
 10
734.4573593128808
 20
0.0
 30
0.0
 11
-77.98885121457934
 21
77.98885121457934
 31
0.0
210
0.0
220
0.0
230
1.0
 40
0.267949192431123
 41
1.525966418692844
 42
2.195595525193448
1001
DBPROPERTIES
1002
{
1000
PbHidd
1002
}
  0
ELLIPSE
  5
DE
330
1F
100
AcDbEntity
  8
HIDDEN
100
AcDbEllipse
 10
797.3898628384834
 20
0.0
 30
0.0
 11
78.93610624880219
 21
78.69640048025408
 31
0.0
210
0.0
220
0.0
230
1.0
 40
0.2286735514460236
 41
-2.231924877744916
 42
-2.175554363046714
1001
DBPROPERTIES
1002
{
1000
PbHidd
1002
}
  0
ELLIPSE
  5
DF
330
1F
100
AcDbEntity
  8
HIDDEN
100
AcDbEllipse
 10
742.9426406871194
 20
0.0
 30
0.0
 11
-80.43275992392751
 21
80.43275992392752
 31
0.0
210
0.0
220
0.0
230
1.0
 40
0.0874886635259238
 41
-1.790159160096382
 42
-1.120530053595777
1001
DBPROPERTIES
1002
{
1000
PbHidd
1002
}
  0
ELLIPSE
  5
E0
330
1F
100
AcDbEntity
  8
HIDDEN
100
AcDbEllipse
 10
680.0101371615166
 20
0.0
 30
0.0
 11
80.85971478455005
 21
80.6374169714734
 31
0.0
210
0.0
220
0.0
230
1.0
 40
0.0503184127267528
 41
1.083677964713389
 42
1.140048479411591
1001
DBPROPERTIES
1002
{
1000
PbHidd
1002
}
  0
ELLIPSE
  5
E1
330
1F
100
AcDbEntity
  8
HIDDEN
100
AcDbEllipse
 10
734.4573593128807
 20
0.0
 30
0.0
 11
-80.43275992392751
 21
80.43275992392752
 31
0.0
210
0.0
220
0.0
230
1.0
 40
0.0874886635259238
 41
-1.846529674794582
 42
-1.17690056829398
1001
DBPROPERTIES
1002
{
1000
PbHidd
1002
}
  0
ELLIPSE
  5
E2
330
1F
100
AcDbEntity
  8
HIDDEN
100
AcDbEllipse
 10
797.3898628384834
 20
0.0
 30
0.0
 11
80.34072918252033
 21
80.1140170299069
 31
0.0
210
0.0
220
0.0
230
1.0
 40
0.1248997144830969
 41
1.827496953717542
 42
1.883867468415742
1001
DBPROPERTIES
1002
{
1000
PbHidd
1002
}
  0
ELLIPSE
  5
E3
330
1F
100
AcDbEntity
  8
HIDDEN
100
AcDbEllipse
 10
742.9426406871194
 20
0.0
 30
0.0
 11
-73.17529072533908
 21
73.17529072533911
 31
0.0
210
0.0
220
0.0
230
1.0
 40
0.4663076581549984
 41
-1.441093309697516
 42
-0.7714642031969117
1001
DBPROPERTIES
1002
{
1000
PbHidd
1002
}
  0
ELLIPSE
  5
E4
330
1F
100
AcDbEntity
  8
HIDDEN
100
AcDbEllipse
 10
680.0101371615166
 20
0.0
 30
0.0
 11
74.63536385861777
 21
74.34291119399718
 31
0.0
210
0.0
220
0.0
230
1.0
 40
0.4220156026937357
 41
0.7358803446941471
 42
0.7922508593923461
1001
DBPROPERTIES
1002
{
1000
PbHidd
1002
}
  0
ELLIPSE
  5
E5
330
1F
100
AcDbEntity
  8
HIDDEN
100
AcDbEllipse
 10
734.4573593128808
 20
0.0
 30
0.0
 11
-73.17529072533908
 21
73.17529072533911
 31
0.0
210
0.0
220
0.0
230
1.0
 40
0.4663076581549984
 41
-1.497463824395715
 42
-0.8278347178951116
1001
DBPROPERTIES
1002
{
1000
PbHidd
1002
}
  0
ELLIPSE
  5
E6
330
1F
100
AcDbEntity
  8
HIDDEN
100
AcDbEllipse
 10
797.3898628384834
 20
0.0
 30
0.0
 11
72.13049065860613
 21
71.79321481358302
 31
0.0
210
0.0
220
0.0
230
1.0
 40
0.5121495911694756
 41
1.479985170367406
 42
1.536355685065607
1001
DBPROPERTIES
1002
{
1000
PbHidd
1002
}
  0
LINE
  5
E7
330
1F
100
AcDbEntity
  8
HIDDEN
100
AcDbLine
 10
688.9
 20
80.74
 30
0.0
 11
688.9
 21
-80.74
 31
0.0
1001
DBPROPERTIES
1002
{
1000
PbHidd
1002
}
  0
LINE
  5
E8
330
1F
100
AcDbEntity
  8
HIDDEN
100
AcDbLine
 10
755.0717827535069
 20
211.0735008888173
 30
0.0
 11
763.1265312087019
 21
39.39180978539443
 31
0.0
1001
DBPROPERTIES
1002
{
1000
PbHidd
1002
}
  0
LINE
  5
E9
330
1F
100
AcDbEntity
  8
HIDDEN
100
AcDbLine
 10
718.0855765593737
 20
234.8477759597177
 30
0.0
 11
710.0862426357112
 21
74.63095478818911
 31
0.0
1001
DBPROPERTIES
1002
{
1000
PbHidd
1002
}
  0
ELLIPSE
  5
EA
330
1F
100
AcDbEntity
  8
HIDDEN
100
AcDbEllipse
 10
736.5786796564404
 20
-1.363558433016129
 30
0.0
 11
158.9705636999154
 21
-247.3142937173893
 31
0.0
210
0.0
220
0.0
230
1.0
 40
0.5416752204197016
 41
2.181961146465621
 42
2.360109537076875
1001
DBPROPERTIES
1002
{
1000
PbHidd
1002
}
  0
LINE
  5
EB
330
1F
100
AcDbEntity
  8
HIDDEN
100
AcDbLine
 10
714.2734687912981
 20
76.24818673460928
 30
0.0
 11
722.328217246493
 21
237.5748928257499
 31
0.0
1001
DBPROPERTIES
1002
{
1000
PbHidd
1002
}
  0
LINE
  5
EC
330
1F
100
AcDbEntity
  8
HIDDEN
100
AcDbLine
 10
718.0855765593737
 20
234.8477759597177
 30
0.0
 11
722.3282172464931
 21
237.5748928257499
 31
0.0
1001
DBPROPERTIES
1002
{
1000
PbHidd
1002
}
  0
ELLIPSE
  5
ED
330
1F
100
AcDbEntity
  8
HIDDEN
100
AcDbEllipse
 10
740.8213203435597
 20
1.363558433016133
 30
0.0
 11
-158.9705636999154
 21
247.3142937173893
 31
0.0
210
0.0
220
0.0
230
1.0
 40
0.5416752204197016
 41
-0.9596315071241724
 42
-0.7814831165129187
1001
DBPROPERTIES
1002
{
1000
PbHidd
1002
}
  0
LINE
  5
EE
330
1F
100
AcDbEntity
  8
HIDDEN
100
AcDbLine
 10
755.0717827535069
 20
211.0735008888173
 30
0.0
 11
759.3144234406262
 21
213.8006177548495
 31
0.0
1001
DBPROPERTIES
1002
{
1000
PbHidd
1002
}
  0
LINE
  5
EF
330
1F
100
AcDbEntity
  8
HIDDEN
100
AcDbLine
 10
759.3144234406262
 20
213.8006177548495
 30
0.0
 11
767.3137573642889
 21
43.30005111956984
 31
0.0
1001
DBPROPERTIES
1002
{
1000
PbHidd
1002
}
  0
LINE
  5
F0
330
1F
100
AcDbEntity
  8
HIDDEN
100
AcDbLine
 10
755.0717827535069
 20
30.54892313998723
 30
0.0
 11
763.1265312087019
 21
-15.12689321678373
 31
0.0
1001
DBPROPERTIES
1002
{
1000
PbHidd
1002
}
  0
LINE
  5
F1
330
1F
100
AcDbEntity
  8
HIDDEN
100
AcDbLine
 10
718.0855765593737
 20
66.97322575447781
 30
0.0
 11
710.0862426357112
 21
37.36725902517358
 31
0.0
1001
DBPROPERTIES
1002
{
1000
PbHidd
1002
}
  0
ELLIPSE
  5
F2
330
1F
100
AcDbEntity
  8
HIDDEN
100
AcDbEllipse
 10
736.5786796564404
 20
-2.089092720960056
 30
0.0
 11
206.2921098889998
 21
-209.4744982033488
 31
0.0
210
0.0
220
0.0
230
1.0
 40
0.1227878039689726
 41
1.605764009806394
 42
1.783912400417647
1001
DBPROPERTIES
1002
{
1000
PbHidd
1002
}
  0
LINE
  5
F3
330
1F
100
AcDbEntity
  8
HIDDEN
100
AcDbLine
 10
714.2734687912981
 20
41.34035229410512
 30
0.0
 11
722.328217246493
 21
71.15141119639793
 31
0.0
1001
DBPROPERTIES
1002
{
1000
PbHidd
1002
}
  0
LINE
  5
F4
330
1F
100
AcDbEntity
  8
HIDDEN
100
AcDbLine
 10
718.0855765593737
 20
66.97322575447781
 30
0.0
 11
722.3282172464931
 21
71.15141119639792
 31
0.0
1001
DBPROPERTIES
1002
{
1000
PbHidd
1002
}
  0
ELLIPSE
  5
F5
330
1F
100
AcDbEntity
  8
HIDDEN
100
AcDbEllipse
 10
740.8213203435597
 20
2.089092720960057
 30
0.0
 11
-206.2921098889998
 21
209.4744982033488
 31
0.0
210
0.0
220
0.0
230
1.0
 40
0.1227878039689726
 41
-1.535828643783399
 42
-1.357680253172146
1001
DBPROPERTIES
1002
{
1000
PbHidd
1002
}
  0
LINE
  5
F6
330
1F
100
AcDbEntity
  8
HIDDEN
100
AcDbLine
 10
755.0717827535069
 20
30.54892313998723
 30
0.0
 11
759.3144234406262
 21
34.72710858190734
 31
0.0
1001
DBPROPERTIES
1002
{
1000
PbHidd
1002
}
  0
LINE
  5
F7
330
1F
100
AcDbEntity
  8
HIDDEN
100
AcDbLine
 10
759.3144234406262
 20
34.72710858190734
 30
0.0
 11
767.3137573642889
 21
-10.63447028130995
 31
0.0
1001
DBPROPERTIES
1002
{
1000
PbHidd
1002
}
  0
LINE
  5
F8
330
1F
100
AcDbEntity
  8
HIDDEN
100
AcDbLine
 10
755.0717827535069
 20
-164.2698352595054
 30
0.0
 11
763.1265312087019
 21
-62.56755476613704
 31
0.0
1001
DBPROPERTIES
1002
{
1000
PbHidd
1002
}
  0
LINE
  5
F9
330
1F
100
AcDbEntity
  8
HIDDEN
100
AcDbLine
 10
718.0855765593737
 20
-132.2388411057766
 30
0.0
 11
710.0862426357112
 21
-17.38099252654564
 31
0.0
1001
DBPROPERTIES
1002
{
1000
PbHidd
1002
}
  0
ELLIPSE
  5
FA
330
1F
100
AcDbEntity
  8
HIDDEN
100
AcDbEllipse
 10
736.5786796564404
 20
-1.837117307087384
 30
0.0
 11
192.4681791881452
 21
-222.2431101294256
 31
0.0
210
0.0
220
0.0
230
1.0
 40
0.3535533905932741
 41
-1.272273835445342
 42
-1.094125444834089
1001
DBPROPERTIES
1002
{
1000
PbHidd
1002
}
  0
LINE
  5
FB
330
1F
100
AcDbEntity
  8
HIDDEN
100
AcDbLine
 10
714.2734687912981
 20
-12.911092431649
 30
0.0
 11
722.328217246493
 21
-128.5646064916019
 31
0.0
1001
DBPROPERTIES
1002
{
1000
PbHidd
1002
}
  0
LINE
  5
FC
330
1F
100
AcDbEntity
  8
HIDDEN
100
AcDbLine
 10
718.0855765593737
 20
-132.2388411057766
 30
0.0
 11
722.3282172464931
 21
-128.5646064916019
 31
0.0
1001
DBPROPERTIES
1002
{
1000
PbHidd
1002
}
  0
ELLIPSE
  5
FD
330
1F
100
AcDbEntity
  8
HIDDEN
100
AcDbEllipse
 10
740.8213203435597
 20
1.837117307087382
 30
0.0
 11
-192.4681791881452
 21
222.2431101294256
 31
0.0
210
0.0
220
0.0
230
1.0
 40
0.3535533905932741
 41
1.869318818144451
 42
2.047467208755704
1001
DBPROPERTIES
1002
{
1000
PbHidd
1002
}
  0
LINE
  5
FE
330
1F
100
AcDbEntity
  8
HIDDEN
100
AcDbLine
 10
755.0717827535069
 20
-164.2698352595054
 30
0.0
 11
759.3144234406262
 21
-160.5956006453306
 31
0.0
1001
DBPROPERTIES
1002
{
1000
PbHidd
1002
}
  0
LINE
  5
FF
330
1F
100
AcDbEntity
  8
HIDDEN
100
AcDbLine
 10
759.3144234406262
 20
-160.5956006453306
 30
0.0
 11
767.3137573642889
 21
-59.59300484859257
 31
0.0
1001
DBPROPERTIES
1002
{
1000
PbHidd
1002
}
  0
ELLIPSE
  5
100
330
1F
100
AcDbEntity
  8
HIDDEN
100
AcDbEllipse
 10
734.4573593128808
 20
0.0
 30
0.0
 11
-66.13833605589316
 21
66.13833605589315
 31
0.0
210
0.0
220
0.0
230
1.0
 40
0.7002075382097098
 41
2.530727415391778
 42
2.544661375592313
1001
DBPROPERTIES
1002
{
1000
PbHidd
1002
}
  0
LINE
  5
101
330
1F
100
AcDbEntity
  8
HIDDEN
100
AcDbLine
 10
718.0855765593737
 20
-269.5748845416251
 30
0.0
 11
710.0862426357112
 21
-63.996484506879
 31
0.0
1001
DBPROPERTIES
1002
{
1000
PbHidd
1002
}
  0
ELLIPSE
  5
102
330
1F
100
AcDbEntity
  8
HIDDEN
100
AcDbEllipse
 10
736.5786796564404
 20
-0.7255342879439278
 30
0.0
 11
95.14297967274631
 21
-278.1794626118028
 31
0.0
210
0.0
220
0.0
230
1.0
 40
0.6644630243886748
 41
-0.5644375415526547
 42
-0.3862891509414012
1001
DBPROPERTIES
1002
{
1000
PbHidd
1002
}
  0
LINE
  5
103
330
1F
100
AcDbEntity
  8
HIDDEN
100
AcDbLine
 10
755.0717827535069
 20
-282.2249120852153
 30
0.0
 11
763.1265312087019
 21
-80.73216207949946
 31
0.0
1001
DBPROPERTIES
1002
{
1000
PbHidd
1002
}
  0
LINE
  5
104
330
1F
100
AcDbEntity
  8
HIDDEN
100
AcDbLine
 10
714.2734687912981
 20
-61.12129351782545
 30
0.0
 11
722.328217246493
 21
-268.1238159657372
 31
0.0
1001
DBPROPERTIES
1002
{
1000
PbHidd
1002
}
  0
LINE
  5
105
330
1F
100
AcDbEntity
  8
HIDDEN
100
AcDbLine
 10
718.0855765593737
 20
-269.5748845416251
 30
0.0
 11
722.3282172464931
 21
-268.1238159657372
 31
0.0
1001
DBPROPERTIES
1002
{
1000
PbHidd
1002
}
  0
ELLIPSE
  5
106
330
1F
100
AcDbEntity
  8
HIDDEN
100
AcDbEllipse
 10
740.8213203435597
 20
0.7255342879439234
 30
0.0
 11
-95.14297967274631
 21
278.1794626118028
 31
0.0
210
0.0
220
0.0
230
1.0
 40
0.6644630243886748
 41
2.577155112037138
 42
2.755303502648392
1001
DBPROPERTIES
1002
{
1000
PbHidd
1002
}
  0
LINE
  5
107
330
1F
100
AcDbEntity
  8
HIDDEN
100
AcDbLine
 10
755.0717827535069
 20
-282.2249120852153
 30
0.0
 11
759.3144234406262
 21
-280.7738435093274
 31
0.0
1001
DBPROPERTIES
1002
{
1000
PbHidd
1002
}
  0
ELLIPSE
  5
108
330
1F
100
AcDbEntity
  8
HIDDEN
100
AcDbEllipse
 10
797.3898628384834
 20
0.0
 30
0.0
 11
68.12510274480226
 21
67.67209848264848
 31
0.0
210
0.0
220
0.0
230
1.0
 40
0.6464432560596772
 41
-2.578609850145903
 42
-2.564675889945366
1001
DBPROPERTIES
1002
{
1000
PbHidd
1002
}
  0
LINE
  5
109
330
1F
100
AcDbEntity
  8
HIDDEN
100
AcDbLine
 10
759.3144234406262
 20
-280.7738435093274
 30
0.0
 11
767.3137573642889
 21
-80.66731014474337
 31
0.0
1001
DBPROPERTIES
1002
{
1000
PbHidd
1002
}
  0
LINE
  5
10A
330
1F
100
AcDbEntity
  8
HIDDEN
100
AcDbLine
 10
755.0717827535069
 20
-268.1238159657372
 30
0.0
 11
763.1265312087019
 21
-61.12129351782553
 31
0.0
1001
DBPROPERTIES
1002
{
1000
PbHidd
1002
}
  0
ELLIPSE
  5
10B
330
1F
100
AcDbEntity
  8
HIDDEN
100
AcDbEllipse
 10
734.4573593128808
 20
0.0
 30
0.0
 11
66.13833605589316
 21
66.13833605589319
 31
0.0
210
0.0
220
0.0
230
1.0
 40
0.7002075382097095
 41
-2.488290860894115
 42
-1.818661754393511
1001
DBPROPERTIES
1002
{
1000
PbHidd
1002
}
  0
LINE
  5
10C
330
1F
100
AcDbEntity
  8
HIDDEN
100
AcDbLine
 10
718.0855765593737
 20
-280.7738435093274
 30
0.0
 11
710.0862426357112
 21
-80.66731014474342
 31
0.0
1001
DBPROPERTIES
1002
{
1000
PbHidd
1002
}
  0
ELLIPSE
  5
10D
330
1F
100
AcDbEntity
  8
HIDDEN
100
AcDbEllipse
 10
736.5786796564404
 20
0.7255342879439238
 30
0.0
 11
-95.14297967274632
 21
-278.1794626118027
 31
0.0
210
0.0
220
0.0
230
1.0
 40
0.6644630243886746
 41
0.3862891509414017
 42
0.564437541552655
1001
DBPROPERTIES
1002
{
1000
PbHidd
1002
}
  0
ELLIPSE
  5
10E
330
1F
100
AcDbEntity
  8
HIDDEN
100
AcDbEllipse
 10
680.0101371615166
 20
0.0
 30
0.0
 11
-68.12510274480225
 21
67.67209848264847
 31
0.0
210
0.0
220
0.0
230
1.0
 40
0.6464432560596778
 41
2.522239335447702
 42
2.564675889945367
1001
DBPROPERTIES
1002
{
1000
PbHidd
1002
}
  0
LINE
  5
10F
330
1F
100
AcDbEntity
  8
HIDDEN
100
AcDbLine
 10
714.2734687912981
 20
-80.73216207949955
 30
0.0
 11
722.328217246493
 21
-282.2249120852152
 31
0.0
1001
DBPROPERTIES
1002
{
1000
PbHidd
1002
}
  0
LINE
  5
110
330
1F
100
AcDbEntity
  8
HIDDEN
100
AcDbLine
 10
718.0855765593737
 20
-280.7738435093274
 30
0.0
 11
722.3282172464931
 21
-282.2249120852152
 31
0.0
1001
DBPROPERTIES
1002
{
1000
PbHidd
1002
}
  0
ELLIPSE
  5
111
330
1F
100
AcDbEntity
  8
HIDDEN
100
AcDbEllipse
 10
740.8213203435597
 20
-0.7255342879439283
 30
0.0
 11
95.14297967274632
 21
278.1794626118027
 31
0.0
210
0.0
220
0.0
230
1.0
 40
0.6644630243886746
 41
-2.755303502648391
 42
-2.577155112037138
1001
DBPROPERTIES
1002
{
1000
PbHidd
1002
}
  0
LINE
  5
112
330
1F
100
AcDbEntity
  8
HIDDEN
100
AcDbLine
 10
755.0717827535069
 20
-268.1238159657372
 30
0.0
 11
759.3144234406262
 21
-269.574884541625
 31
0.0
1001
DBPROPERTIES
1002
{
1000
PbHidd
1002
}
  0
LINE
  5
113
330
1F
100
AcDbEntity
  8
HIDDEN
100
AcDbLine
 10
759.3144234406262
 20
-269.574884541625
 30
0.0
 11
767.3137573642889
 21
-63.99648450687911
 31
0.0
1001
DBPROPERTIES
1002
{
1000
PbHidd
1002
}
  0
ELLIPSE
  5
114
330
1F
100
AcDbEntity
  8
HIDDEN
100
AcDbEllipse
 10
797.3898628384834
 20
0.0
 30
0.0
 11
-64.79333677633036
 21
64.14326557873349
 31
0.0
210
0.0
220
0.0
230
1.0
 40
0.7568156239209655
 41
1.776819309208435
 42
1.833189823906636
1001
DBPROPERTIES
1002
{
1000
PbHidd
1002
}
  0
ELLIPSE
  5
115
330
1F
100
AcDbEntity
  8
HIDDEN
100
AcDbEllipse
 10
742.9426406871194
 20
0.0
 30
0.0
 11
66.13833605589316
 21
66.13833605589319
 31
0.0
210
0.0
220
0.0
230
1.0
 40
0.7002075382097095
 41
-2.530727415391779
 42
-1.875032269091711
1001
DBPROPERTIES
1002
{
1000
PbHidd
1002
}
  0
LINE
  5
116
330
1F
100
AcDbEntity
  8
HIDDEN
100
AcDbLine
 10
755.0717827535069
 20
-128.5646064916018
 30
0.0
 11
763.1265312087019
 21
-12.91109243164898
 31
0.0
1001
DBPROPERTIES
1002
{
1000
PbHidd
1002
}
  0
ELLIPSE
  5
117
330
1F
100
AcDbEntity
  8
HIDDEN
100
AcDbEllipse
 10
734.4573593128808
 20
0.0
 30
0.0
 11
77.98885121457931
 21
77.98885121457934
 31
0.0
210
0.0
220
0.0
230
1.0
 40
0.2679491924311226
 41
-2.13922501049525
 42
-1.469595903994645
1001
DBPROPERTIES
1002
{
1000
PbHidd
1002
}
  0
LINE
  5
118
330
1F
100
AcDbEntity
  8
HIDDEN
100
AcDbLine
 10
718.0855765593737
 20
-160.5956006453305
 30
0.0
 11
710.0862426357112
 21
-59.59300484859261
 31
0.0
1001
DBPROPERTIES
1002
{
1000
PbHidd
1002
}
  0
ELLIPSE
  5
119
330
1F
100
AcDbEntity
  8
HIDDEN
100
AcDbEllipse
 10
736.5786796564404
 20
1.837117307087382
 30
0.0
 11
-192.4681791881453
 21
-222.2431101294256
 31
0.0
210
0.0
220
0.0
230
1.0
 40
0.3535533905932735
 41
1.09412544483409
 42
1.272273835445343
1001
DBPROPERTIES
1002
{
1000
PbHidd
1002
}
  0
ELLIPSE
  5
11A
330
1F
100
AcDbEntity
  8
HIDDEN
100
AcDbEllipse
 10
680.0101371615166
 20
0.0
 30
0.0
 11
-78.93610624880219
 21
78.69640048025408
 31
0.0
210
0.0
220
0.0
230
1.0
 40
0.2286735514460238
 41
2.175554363046714
 42
2.231924877744916
1001
DBPROPERTIES
1002
{
1000
PbHidd
1002
}
  0
LINE
  5
11B
330
1F
100
AcDbEntity
  8
HIDDEN
100
AcDbLine
 10
714.2734687912981
 20
-62.56755476613708
 30
0.0
 11
722.328217246493
 21
-164.2698352595053
 31
0.0
1001
DBPROPERTIES
1002
{
1000
PbHidd
1002
}
  0
LINE
  5
11C
330
1F
100
AcDbEntity
  8
HIDDEN
100
AcDbLine
 10
718.0855765593737
 20
-160.5956006453305
 30
0.0
 11
722.3282172464931
 21
-164.2698352595053
 31
0.0
1001
DBPROPERTIES
1002
{
1000
PbHidd
1002
}
  0
ELLIPSE
  5
11D
330
1F
100
AcDbEntity
  8
HIDDEN
100
AcDbEllipse
 10
740.8213203435597
 20
-1.837117307087385
 30
0.0
 11
192.4681791881453
 21
222.2431101294256
 31
0.0
210
0.0
220
0.0
230
1.0
 40
0.3535533905932735
 41
-2.047467208755704
 42
-1.86931881814445
1001
DBPROPERTIES
1002
{
1000
PbHidd
1002
}
  0
LINE
  5
11E
330
1F
100
AcDbEntity
  8
HIDDEN
100
AcDbLine
 10
755.0717827535069
 20
-128.5646064916018
 30
0.0
 11
759.3144234406262
 21
-132.2388411057766
 31
0.0
1001
DBPROPERTIES
1002
{
1000
PbHidd
1002
}
  0
LINE
  5
11F
330
1F
100
AcDbEntity
  8
HIDDEN
100
AcDbLine
 10
759.3144234406262
 20
-132.2388411057766
 30
0.0
 11
767.3137573642889
 21
-17.38099252654563
 31
0.0
1001
DBPROPERTIES
1002
{
1000
PbHidd
1002
}
  0
ELLIPSE
  5
120
330
1F
100
AcDbEntity
  8
HIDDEN
100
AcDbEllipse
 10
797.3898628384834
 20
0.0
 30
0.0
 11
-77.39651369600226
 21
77.14050462855896
 31
0.0
210
0.0
220
0.0
230
1.0
 40
0.3080091825924698
 41
1.43167355663197
 42
1.48804407133017
1001
DBPROPERTIES
1002
{
1000
PbHidd
1002
}
  0
ELLIPSE
  5
121
330
1F
100
AcDbEntity
  8
HIDDEN
100
AcDbEllipse
 10
742.9426406871194
 20
0.0
 30
0.0
 11
77.98885121457931
 21
77.98885121457934
 31
0.0
210
0.0
220
0.0
230
1.0
 40
0.2679491924311226
 41
-2.195595525193449
 42
-1.525966418692844
1001
DBPROPERTIES
1002
{
1000
PbHidd
1002
}
  0
LINE
  5
122
330
1F
100
AcDbEntity
  8
HIDDEN
100
AcDbLine
 10
755.0717827535069
 20
71.15141119639789
 30
0.0
 11
763.1265312087019
 21
41.34035229410511
 31
0.0
1001
DBPROPERTIES
1002
{
1000
PbHidd
1002
}
  0
ELLIPSE
  5
123
330
1F
100
AcDbEntity
  8
HIDDEN
100
AcDbEllipse
 10
734.4573593128807
 20
0.0
 30
0.0
 11
80.43275992392748
 21
80.43275992392749
 31
0.0
210
0.0
220
0.0
230
1.0
 40
0.0874886635259241
 41
1.12053005359578
 42
1.790159160096382
1001
DBPROPERTIES
1002
{
1000
PbHidd
1002
}
  0
LINE
  5
124
330
1F
100
AcDbEntity
  8
HIDDEN
100
AcDbLine
 10
718.0855765593737
 20
34.72710858190732
 30
0.0
 11
710.0862426357112
 21
-10.63447028130994
 31
0.0
1001
DBPROPERTIES
1002
{
1000
PbHidd
1002
}
  0
ELLIPSE
  5
125
330
1F
100
AcDbEntity
  8
HIDDEN
100
AcDbEllipse
 10
736.5786796564404
 20
2.089092720960057
 30
0.0
 11
-206.2921098889998
 21
-209.4744982033489
 31
0.0
210
0.0
220
0.0
230
1.0
 40
0.1227878039689729
 41
-1.783912400417648
 42
-1.605764009806394
1001
DBPROPERTIES
1002
{
1000
PbHidd
1002
}
  0
ELLIPSE
  5
126
330
1F
100
AcDbEntity
  8
HIDDEN
100
AcDbEllipse
 10
680.0101371615166
 20
0.0
 30
0.0
 11
-80.34072918252029
 21
80.11401702990692
 31
0.0
210
0.0
220
0.0
230
1.0
 40
0.1248997144830966
 41
-1.883867468415742
 42
-1.827496953717543
1001
DBPROPERTIES
1002
{
1000
PbHidd
1002
}
  0
LINE
  5
127
330
1F
100
AcDbEntity
  8
HIDDEN
100
AcDbLine
 10
714.2734687912981
 20
-15.12689321678372
 30
0.0
 11
722.328217246493
 21
30.54892313998721
 31
0.0
1001
DBPROPERTIES
1002
{
1000
PbHidd
1002
}
  0
LINE
  5
128
330
1F
100
AcDbEntity
  8
HIDDEN
100
AcDbLine
 10
718.0855765593737
 20
34.72710858190732
 30
0.0
 11
722.3282172464931
 21
30.54892313998721
 31
0.0
1001
DBPROPERTIES
1002
{
1000
PbHidd
1002
}
  0
ELLIPSE
  5
129
330
1F
100
AcDbEntity
  8
HIDDEN
100
AcDbEllipse
 10
740.8213203435597
 20
-2.089092720960056
 30
0.0
 11
206.2921098889998
 21
209.4744982033489
 31
0.0
210
0.0
220
0.0
230
1.0
 40
0.1227878039689729
 41
1.357680253172145
 42
1.535828643783399
1001
DBPROPERTIES
1002
{
1000
PbHidd
1002
}
  0
LINE
  5
12A
330
1F
100
AcDbEntity
  8
HIDDEN
100
AcDbLine
 10
755.0717827535069
 20
71.15141119639789
 30
0.0
 11
759.3144234406262
 21
66.97322575447778
 31
0.0
1001
DBPROPERTIES
1002
{
1000
PbHidd
1002
}
  0
LINE
  5
12B
330
1F
100
AcDbEntity
  8
HIDDEN
100
AcDbLine
 10
759.3144234406262
 20
66.97322575447778
 30
0.0
 11
767.3137573642889
 21
37.36725902517357
 31
0.0
1001
DBPROPERTIES
1002
{
1000
PbHidd
1002
}
  0
ELLIPSE
  5
12C
330
1F
100
AcDbEntity
  8
HIDDEN
100
AcDbEllipse
 10
797.3898628384834
 20
0.0
 30
0.0
 11
-80.85971478455002
 21
80.63741697147337
 31
0.0
210
0.0
220
0.0
230
1.0
 40
0.0503184127267525
 41
-1.140048479411591
 42
-1.083677964713388
1001
DBPROPERTIES
1002
{
1000
PbHidd
1002
}
  0
ELLIPSE
  5
12D
330
1F
100
AcDbEntity
  8
HIDDEN
100
AcDbEllipse
 10
742.9426406871194
 20
0.0
 30
0.0
 11
80.43275992392748
 21
80.43275992392749
 31
0.0
210
0.0
220
0.0
230
1.0
 40
0.0874886635259241
 41
1.17690056829398
 42
1.846529674794582
1001
DBPROPERTIES
1002
{
1000
PbHidd
1002
}
  0
LINE
  5
12E
330
1F
100
AcDbEntity
  8
HIDDEN
100
AcDbLine
 10
755.0717827535069
 20
237.5748928257499
 30
0.0
 11
763.1265312087019
 21
76.24818673460928
 31
0.0
1001
DBPROPERTIES
1002
{
1000
PbHidd
1002
}
  0
ELLIPSE
  5
12F
330
1F
100
AcDbEntity
  8
HIDDEN
100
AcDbEllipse
 10
734.4573593128808
 20
0.0
 30
0.0
 11
73.1752907253391
 21
73.17529072533908
 31
0.0
210
0.0
220
0.0
230
1.0
 40
0.4663076581549986
 41
0.7714642031969132
 42
1.441093309697517
1001
DBPROPERTIES
1002
{
1000
PbHidd
1002
}
  0
LINE
  5
130
330
1F
100
AcDbEntity
  8
HIDDEN
100
AcDbLine
 10
718.0855765593737
 20
213.8006177548495
 30
0.0
 11
710.0862426357112
 21
43.30005111956987
 31
0.0
1001
DBPROPERTIES
1002
{
1000
PbHidd
1002
}
  0
ELLIPSE
  5
131
330
1F
100
AcDbEntity
  8
HIDDEN
100
AcDbEllipse
 10
736.5786796564404
 20
1.363558433016133
 30
0.0
 11
-158.9705636999154
 21
-247.3142937173893
 31
0.0
210
0.0
220
0.0
230
1.0
 40
0.5416752204197018
 41
-2.360109537076875
 42
-2.181961146465621
1001
DBPROPERTIES
1002
{
1000
PbHidd
1002
}
  0
ELLIPSE
  5
132
330
1F
100
AcDbEntity
  8
HIDDEN
100
AcDbEllipse
 10
680.0101371615166
 20
0.0
 30
0.0
 11
-72.13049065860616
 21
71.79321481358301
 31
0.0
210
0.0
220
0.0
230
1.0
 40
0.512149591169475
 41
-1.536355685065607
 42
-1.479985170367407
1001
DBPROPERTIES
1002
{
1000
PbHidd
1002
}
  0
LINE
  5
133
330
1F
100
AcDbEntity
  8
HIDDEN
100
AcDbLine
 10
714.2734687912981
 20
39.3918097853944
 30
0.0
 11
722.328217246493
 21
211.0735008888172
 31
0.0
1001
DBPROPERTIES
1002
{
1000
PbHidd
1002
}
  0
LINE
  5
134
330
1F
100
AcDbEntity
  8
HIDDEN
100
AcDbLine
 10
718.0855765593737
 20
213.8006177548495
 30
0.0
 11
722.3282172464931
 21
211.0735008888173
 31
0.0
1001
DBPROPERTIES
1002
{
1000
PbHidd
1002
}
  0
ELLIPSE
  5
135
330
1F
100
AcDbEntity
  8
HIDDEN
100
AcDbEllipse
 10
740.8213203435597
 20
-1.363558433016129
 30
0.0
 11
158.9705636999154
 21
247.3142937173893
 31
0.0
210
0.0
220
0.0
230
1.0
 40
0.5416752204197018
 41
0.7814831165129182
 42
0.9596315071241719
1001
DBPROPERTIES
1002
{
1000
PbHidd
1002
}
  0
LINE
  5
136
330
1F
100
AcDbEntity
  8
HIDDEN
100
AcDbLine
 10
755.0717827535069
 20
237.5748928257499
 30
0.0
 11
759.3144234406262
 21
234.8477759597176
 31
0.0
1001
DBPROPERTIES
1002
{
1000
PbHidd
1002
}
  0
LINE
  5
137
330
1F
100
AcDbEntity
  8
HIDDEN
100
AcDbLine
 10
759.3144234406262
 20
234.8477759597176
 30
0.0
 11
767.3137573642889
 21
74.63095478818909
 31
0.0
1001
DBPROPERTIES
1002
{
1000
PbHidd
1002
}
  0
ELLIPSE
  5
138
330
1F
100
AcDbEntity
  8
HIDDEN
100
AcDbEllipse
 10
797.3898628384834
 20
0.0
 30
0.0
 11
-74.63536385861781
 21
74.3429111939972
 31
0.0
210
0.0
220
0.0
230
1.0
 40
0.4220156026937352
 41
-0.7922508593923485
 42
-0.7358803446941476
1001
DBPROPERTIES
1002
{
1000
PbHidd
1002
}
  0
ELLIPSE
  5
139
330
1F
100
AcDbEntity
  8
HIDDEN
100
AcDbEllipse
 10
742.9426406871194
 20
0.0
 30
0.0
 11
73.1752907253391
 21
73.17529072533908
 31
0.0
210
0.0
220
0.0
230
1.0
 40
0.4663076581549986
 41
0.8278347178951131
 42
1.497463824395717
1001
DBPROPERTIES
1002
{
1000
PbHidd
1002
}
  0
ELLIPSE
  5
13A
330
1F
100
AcDbEntity
  8
HIDDEN
100
AcDbEllipse
 10
734.4573593128807
 20
0.0
 30
0.0
 11
-80.73999999999998
 21
0.0
 31
0.0
210
0.0
220
0.0
230
1.0
 40
0.9999999999999998
 41
-1.570796326794897
 42
-1.264167030893695
1001
DBPROPERTIES
1002
{
1000
PbHidd
1002
}
  0
LINE
  5
13B
330
1F
100
AcDbEntity
  8
HIDDEN
100
AcDbLine
 10
718.0855765593737
 20
292.8344417511071
 30
0.0
 11
710.0862426357112
 21
76.97399737513814
 31
0.0
1001
DBPROPERTIES
1002
{
1000
PbHidd
1002
}
  0
ELLIPSE
  5
13C
330
1F
100
AcDbEntity
  8
HIDDEN
100
AcDbEllipse
 10
736.5786796564404
 20
0.0000000000000024
 30
0.0
 11
0.0
 21
-293.9999999999999
 31
0.0
210
0.0
220
0.0
230
1.0
 40
0.7071067811865476
 41
3.052518458284167
 42
3.141592653589793
1001
DBPROPERTIES
1002
{
1000
PbHidd
1002
}
  0
ELLIPSE
  5
13D
330
1F
100
AcDbEntity
  8
HIDDEN
100
AcDbEllipse
 10
736.5786796564404
 20
0.0000000000000024
 30
0.0
 11
0.0
 21
-293.9999999999999
 31
0.0
210
0.0
220
0.0
230
1.0
 40
0.7071067811865476
 41
3.141592653589793
 42
3.23066684889542
1001
DBPROPERTIES
1002
{
1000
PbHidd
1002
}
  0
LINE
  5
13E
330
1F
100
AcDbEntity
  8
HIDDEN
100
AcDbLine
 10
755.0717827535069
 20
292.8344417511071
 30
0.0
 11
763.1265312087019
 21
75.47864719778599
 31
0.0
1001
DBPROPERTIES
1002
{
1000
PbHidd
1002
}
  0
ELLIPSE
  5
13F
330
1F
100
AcDbEntity
  8
HIDDEN
100
AcDbEllipse
 10
680.0101371615166
 20
0.0
 30
0.0
 11
60.33374513388706
 21
58.13931705497443
 31
0.0
210
0.0
220
0.0
230
1.0
 40
0.9285799094018912
 41
0.4038778796156939
 42
0.4602483943138929
1001
DBPROPERTIES
1002
{
1000
PbHidd
1002
}
  0
LINE
  5
140
330
1F
100
AcDbEntity
  8
HIDDEN
100
AcDbLine
 10
714.2734687912981
 20
75.47864719778599
 30
0.0
 11
722.328217246493
 21
292.8344417511071
 31
0.0
1001
DBPROPERTIES
1002
{
1000
PbHidd
1002
}
  0
LINE
  5
141
330
1F
100
AcDbEntity
  8
HIDDEN
100
AcDbLine
 10
718.0855765593737
 20
292.8344417511071
 30
0.0
 11
722.3282172464931
 21
292.8344417511071
 31
0.0
1001
DBPROPERTIES
1002
{
1000
PbHidd
1002
}
  0
ELLIPSE
  5
142
330
1F
100
AcDbEntity
  8
HIDDEN
100
AcDbEllipse
 10
740.8213203435597
 20
0.0000000000000024
 30
0.0
 11
0.0
 21
293.9999999999999
 31
0.0
210
0.0
220
0.0
230
1.0
 40
0.7071067811865476
 41
0.0
 42
0.0890741953056267
1001
DBPROPERTIES
1002
{
1000
PbHidd
1002
}
  0
ELLIPSE
  5
143
330
1F
100
AcDbEntity
  8
HIDDEN
100
AcDbEllipse
 10
740.8213203435597
 20
0.0000000000000024
 30
0.0
 11
0.0
 21
293.9999999999999
 31
0.0
210
0.0
220
0.0
230
1.0
 40
0.7071067811865476
 41
-0.0890741953056267
 42
0.0
1001
DBPROPERTIES
1002
{
1000
PbHidd
1002
}
  0
LINE
  5
144
330
1F
100
AcDbEntity
  8
HIDDEN
100
AcDbLine
 10
755.0717827535069
 20
292.8344417511071
 30
0.0
 11
759.3144234406262
 21
292.8344417511071
 31
0.0
1001
DBPROPERTIES
1002
{
1000
PbHidd
1002
}
  0
LINE
  5
145
330
1F
100
AcDbEntity
  8
HIDDEN
100
AcDbLine
 10
759.3144234406262
 20
292.8344417511071
 30
0.0
 11
767.3137573642889
 21
76.97399737513817
 31
0.0
1001
DBPROPERTIES
1002
{
1000
PbHidd
1002
}
  0
ELLIPSE
  5
146
330
1F
100
AcDbEntity
  8
HIDDEN
100
AcDbEllipse
 10
742.9426406871194
 20
0.0
 30
0.0
 11
-80.73999999999998
 21
0.0
 31
0.0
210
0.0
220
0.0
230
1.0
 40
0.9999999999999998
 41
-1.570796326794897
 42
-1.207796516195494
1001
DBPROPERTIES
1002
{
1000
PbHidd
1002
}
  0
LINE
  5
147
330
1F
100
AcDbEntity
  8
HIDDEN
100
AcDbLine
 10
789.2021712695171
 20
80.73999999999994
 30
0.0
 11
789.2021712695171
 21
0.0000000000000049
 31
0.0
1001
DBPROPERTIES
1002
{
1000
PbHidd
1002
}
  0
LINE
  5
148
330
1F
100
AcDbEntity
  8
HIDDEN
100
AcDbLine
 10
616.91
 20
84.41000000000001
 30
0.0
 11
616.91
 21
0.0000000000000052
 31
0.0
1001
DBPROPERTIES
1002
{
1000
PbHidd
1002
}
  0
LINE
  5
149
330
1F
100
AcDbEntity
  8
HIDDEN
100
AcDbLine
 10
605.9
 20
73.4
 30
0.0
 11
605.9
 21
57.96911150442467
 31
0.0
1001
DBPROPERTIES
1002
{
1000
PbHidd
1002
}
  0
LINE
  5
14A
330
1F
100
AcDbEntity
  8
HIDDEN
100
AcDbLine
 10
605.9
 20
57.96911150442466
 30
0.0
 11
605.9
 21
57.96911150442466
 31
0.0
1001
DBPROPERTIES
1002
{
1000
PbHidd
1002
}
  0
LINE
  5
14B
330
1F
100
AcDbEntity
  8
HIDDEN
100
AcDbLine
 10
605.9
 20
57.96911150442466
 30
0.0
 11
605.9
 21
57.96911150442466
 31
0.0
1001
DBPROPERTIES
1002
{
1000
PbHidd
1002
}
  0
LINE
  5
14C
330
1F
100
AcDbEntity
  8
HIDDEN
100
AcDbLine
 10
587.6899999999988
 20
-45.3214048192781
 30
0.0
 11
587.6899999999988
 21
-45.3214048192781
 31
0.0
1001
DBPROPERTIES
1002
{
1000
PbHidd
1002
}
  0
LINE
  5
14D
330
1F
100
AcDbEntity
  8
HIDDEN
100
AcDbLine
 10
587.6899999999998
 20
45.32140481927706
 30
0.0
 11
587.6899999999998
 21
45.32140481927706
 31
0.0
1001
DBPROPERTIES
1002
{
1000
PbHidd
1002
}
  0
LINE
  5
14E
330
1F
100
AcDbEntity
  8
HIDDEN
100
AcDbLine
 10
587.6899999999988
 20
-45.3214048192781
 30
0.0
 11
587.6899999999988
 21
-45.3214048192781
 31
0.0
1001
DBPROPERTIES
1002
{
1000
PbHidd
1002
}
  0
LINE
  5
14F
330
1F
100
AcDbEntity
  8
HIDDEN
100
AcDbLine
 10
587.6899999999998
 20
45.32140481927706
 30
0.0
 11
587.6899999999998
 21
45.32140481927706
 31
0.0
1001
DBPROPERTIES
1002
{
1000
PbHidd
1002
}
  0
LINE
  5
150
330
1F
100
AcDbEntity
  8
THICK
100
AcDbLine
 10
587.69
 20
45.32140481927694
 30
0.0
 11
587.69
 21
0.0000000000000039
 31
0.0
1001
DBPROPERTIES
1002
{
1000
PbThick
1002
}
  0
LINE
  5
151
330
1F
100
AcDbEntity
  8
THICK
100
AcDbLine
 10
573.0100000000001
 20
57.00526987951798
 30
0.0
 11
573.0100000000001
 21
0.0000000000000048
 31
0.0
1001
DBPROPERTIES
1002
{
1000
PbThick
1002
}
  0
LINE
  5
152
330
1F
100
AcDbEntity
  8
HIDDEN
100
AcDbLine
 10
605.9000000000001
 20
-57.96911150442467
 30
0.0
 11
605.9000000000001
 21
-57.96911150442467
 31
0.0
1001
DBPROPERTIES
1002
{
1000
PbHidd
1002
}
  0
LINE
  5
153
330
1F
100
AcDbEntity
  8
HIDDEN
100
AcDbLine
 10
605.9000000000001
 20
-57.96911150442467
 30
0.0
 11
605.9000000000001
 21
-57.96911150442467
 31
0.0
1001
DBPROPERTIES
1002
{
1000
PbHidd
1002
}
  0
LINE
  5
154
330
1F
100
AcDbEntity
  8
HIDDEN
100
AcDbLine
 10
655.6999999999999
 20
139.46
 30
0.0
 11
655.6999999999999
 21
-139.46
 31
0.0
1001
DBPROPERTIES
1002
{
1000
PbHidd
1002
}
  0
LINE
  5
155
330
1F
100
AcDbEntity
  8
HIDDEN
100
AcDbLine
 10
624.42
 20
0.0000000000000052
 30
0.0
 11
624.42
 21
-84.41
 31
0.0
1001
DBPROPERTIES
1002
{
1000
PbHidd
1002
}
  0
LINE
  5
156
330
1F
100
AcDbEntity
  8
HIDDEN
100
AcDbLine
 10
639.0999999999999
 20
139.46
 30
0.0
 11
639.0999999999999
 21
-139.46
 31
0.0
1001
DBPROPERTIES
1002
{
1000
PbHidd
1002
}
  0
LINE
  5
157
330
1F
100
AcDbEntity
  8
THICK
100
AcDbLine
 10
373.5000000000001
 20
44.04
 30
0.0
 11
373.5000000000001
 21
-44.04
 31
0.0
1001
DBPROPERTIES
1002
{
1000
PbThick
1002
}
  0
LINE
  5
158
330
1F
100
AcDbEntity
  8
THICK
100
AcDbLine
 10
377.6500000000001
 20
48.71
 30
0.0
 11
377.6500000000001
 21
0.000000000000003
 31
0.0
1001
DBPROPERTIES
1002
{
1000
PbThick
1002
}
  0
LINE
  5
159
330
1F
100
AcDbEntity
  8
THICK
100
AcDbLine
 10
407.0100000000001
 20
78.07
 30
0.0
 11
407.0100000000001
 21
0.0000000000000048
 31
0.0
1001
DBPROPERTIES
1002
{
1000
PbThick
1002
}
  0
LINE
  5
15A
330
1F
100
AcDbEntity
  8
HIDDEN
100
AcDbLine
 10
611.959
 20
52.84799999999989
 30
0.0
 11
611.959
 21
52.84799999999989
 31
0.0
1001
DBPROPERTIES
1002
{
1000
PbHidd
1002
}
  0
LINE
  5
15B
330
1F
100
AcDbEntity
  8
HIDDEN
100
AcDbLine
 10
611.959
 20
52.84799999999989
 30
0.0
 11
611.959
 21
52.84799999999989
 31
0.0
1001
DBPROPERTIES
1002
{
1000
PbHidd
1002
}
  0
LINE
  5
15C
330
1F
100
AcDbEntity
  8
HIDDEN
100
AcDbLine
 10
518.169
 20
132.1199999999999
 30
0.0
 11
518.169
 21
132.1199999999999
 31
0.0
1001
DBPROPERTIES
1002
{
1000
PbHidd
1002
}
  0
LINE
  5
15D
330
1F
100
AcDbEntity
  8
HIDDEN
100
AcDbLine
 10
611.959
 20
-52.8480000000001
 30
0.0
 11
611.959
 21
-52.8480000000001
 31
0.0
1001
DBPROPERTIES
1002
{
1000
PbHidd
1002
}
  0
LINE
  5
15E
330
1F
100
AcDbEntity
  8
HIDDEN
100
AcDbLine
 10
611.959
 20
-52.8480000000001
 30
0.0
 11
611.959
 21
-52.8480000000001
 31
0.0
1001
DBPROPERTIES
1002
{
1000
PbHidd
1002
}
  0
LINE
  5
15F
330
1F
100
AcDbEntity
  8
HIDDEN
100
AcDbLine
 10
589.3
 20
-44.04000000000009
 30
0.0
 11
589.3
 21
-44.04000000000009
 31
0.0
1001
DBPROPERTIES
1002
{
1000
PbHidd
1002
}
  0
LINE
  5
160
330
1F
100
AcDbEntity
  8
HIDDEN
100
AcDbLine
 10
589.3
 20
-44.04000000000009
 30
0.0
 11
589.3
 21
-44.04000000000009
 31
0.0
1001
DBPROPERTIES
1002
{
1000
PbHidd
1002
}
  0
LINE
  5
161
330
1F
100
AcDbEntity
  8
HIDDEN
100
AcDbLine
 10
506.3
 20
-110.1
 30
0.0
 11
506.3
 21
-110.1
 31
0.0
1001
DBPROPERTIES
1002
{
1000
PbHidd
1002
}
  0
LINE
  5
162
330
1F
100
AcDbEntity
  8
HIDDEN
100
AcDbLine
 10
589.3
 20
44.03999999999991
 30
0.0
 11
589.3
 21
44.03999999999991
 31
0.0
1001
DBPROPERTIES
1002
{
1000
PbHidd
1002
}
  0
LINE
  5
163
330
1F
100
AcDbEntity
  8
HIDDEN
100
AcDbLine
 10
332.0
 20
-110.1
 30
0.0
 11
332.0
 21
-110.1
 31
0.0
1001
DBPROPERTIES
1002
{
1000
PbHidd
1002
}
  0
LINE
  5
164
330
1F
100
AcDbEntity
  8
HIDDEN
100
AcDbLine
 10
240.7
 20
-44.04
 30
0.0
 11
240.7
 21
-44.04
 31
0.0
1001
DBPROPERTIES
1002
{
1000
PbHidd
1002
}
  0
LINE
  5
165
330
1F
100
AcDbEntity
  8
THICK
100
AcDbLine
 10
240.7
 20
-0.0000000000000452
 30
0.0
 11
240.7
 21
44.03999999999984
 31
0.0
1001
DBPROPERTIES
1002
{
1000
PbThick
1002
}
  0
LINE
  5
166
330
1F
100
AcDbEntity
  8
HIDDEN
100
AcDbLine
 10
240.7
 20
44.04
 30
0.0
 11
240.7
 21
44.04
 31
0.0
1001
DBPROPERTIES
1002
{
1000
PbHidd
1002
}
  0
LINE
  5
167
330
1F
100
AcDbEntity
  8
HIDDEN
100
AcDbLine
 10
332.0
 20
110.1
 30
0.0
 11
332.0
 21
110.1
 31
0.0
1001
DBPROPERTIES
1002
{
1000
PbHidd
1002
}
  0
LINE
  5
168
330
1F
100
AcDbEntity
  8
THICK
100
AcDbLine
 10
240.7000000000001
 20
44.04000000000007
 30
0.0
 11
332.0000000000001
 21
110.1
 31
0.0
1001
DBPROPERTIES
1002
{
1000
PbThick
1002
}
  0
LINE
  5
169
330
1F
100
AcDbEntity
  8
HIDDEN
100
AcDbLine
 10
506.3
 20
110.1
 30
0.0
 11
506.3
 21
110.1
 31
0.0
1001
DBPROPERTIES
1002
{
1000
PbHidd
1002
}
  0
LINE
  5
16A
330
1F
100
AcDbEntity
  8
THICK
100
AcDbLine
 10
332.0
 20
110.1
 30
0.0
 11
506.3
 21
110.1
 31
0.0
1001
DBPROPERTIES
1002
{
1000
PbThick
1002
}
  0
LINE
  5
16B
330
1F
100
AcDbEntity
  8
HIDDEN
100
AcDbLine
 10
589.3
 20
44.03999999999991
 30
0.0
 11
589.3
 21
44.03999999999991
 31
0.0
1001
DBPROPERTIES
1002
{
1000
PbHidd
1002
}
  0
LINE
  5
16C
330
1F
100
AcDbEntity
  8
THICK
100
AcDbLine
 10
506.3
 20
110.1
 30
0.0
 11
589.3
 21
44.03999999999991
 31
0.0
1001
DBPROPERTIES
1002
{
1000
PbThick
1002
}
  0
LINE
  5
16D
330
1F
100
AcDbEntity
  8
THICK
100
AcDbLine
 10
589.3
 20
44.03999999999993
 30
0.0
 11
589.3
 21
0.0000000000000452
 31
0.0
1001
DBPROPERTIES
1002
{
1000
PbThick
1002
}
  0
LINE
  5
16E
330
1F
100
AcDbEntity
  8
HIDDEN
100
AcDbLine
 10
611.959
 20
52.84799999999989
 30
0.0
 11
611.959
 21
52.84799999999989
 31
0.0
1001
DBPROPERTIES
1002
{
1000
PbHidd
1002
}
  0
LINE
  5
16F
330
1F
100
AcDbEntity
  8
HIDDEN
100
AcDbLine
 10
518.169
 20
132.1199999999999
 30
0.0
 11
518.169
 21
132.1199999999999
 31
0.0
1001
DBPROPERTIES
1002
{
1000
PbHidd
1002
}
  0
LINE
  5
170
330
1F
100
AcDbEntity
  8
THICK
100
AcDbLine
 10
611.9589999999998
 20
52.84799999999998
 30
0.0
 11
518.169
 21
132.1199999999999
 31
0.0
1001
DBPROPERTIES
1002
{
1000
PbThick
1002
}
  0
LINE
  5
171
330
1F
100
AcDbEntity
  8
HIDDEN
100
AcDbLine
 10
611.959
 20
52.84799999999989
 30
0.0
 11
611.959
 21
52.84799999999989
 31
0.0
1001
DBPROPERTIES
1002
{
1000
PbHidd
1002
}
  0
LINE
  5
172
330
1F
100
AcDbEntity
  8
HIDDEN
100
AcDbLine
 10
518.169
 20
132.1199999999999
 30
0.0
 11
518.169
 21
132.1199999999999
 31
0.0
1001
DBPROPERTIES
1002
{
1000
PbHidd
1002
}
  0
LINE
  5
173
330
1F
100
AcDbEntity
  8
HIDDEN
100
AcDbLine
 10
611.959
 20
-52.8480000000001
 30
0.0
 11
611.959
 21
-52.8480000000001
 31
0.0
1001
DBPROPERTIES
1002
{
1000
PbHidd
1002
}
  0
LINE
  5
174
330
1F
100
AcDbEntity
  8
THICK
100
AcDbLine
 10
611.959
 20
-0.0000000000000452
 30
0.0
 11
611.959
 21
52.84799999999992
 31
0.0
1001
DBPROPERTIES
1002
{
1000
PbThick
1002
}
  0
LINE
  5
175
330
1F
100
AcDbEntity
  8
HIDDEN
100
AcDbLine
 10
611.959
 20
-52.8480000000001
 30
0.0
 11
611.959
 21
-52.8480000000001
 31
0.0
1001
DBPROPERTIES
1002
{
1000
PbHidd
1002
}
  0
LINE
  5
176
330
1F
100
AcDbEntity
  8
HIDDEN
100
AcDbLine
 10
321.21
 20
132.1199999999999
 30
0.0
 11
321.21
 21
132.1199999999999
 31
0.0
1001
DBPROPERTIES
1002
{
1000
PbHidd
1002
}
  0
LINE
  5
177
330
1F
100
AcDbEntity
  8
THICK
100
AcDbLine
 10
518.169
 20
132.1199999999999
 30
0.0
 11
321.21
 21
132.1199999999999
 31
0.0
1001
DBPROPERTIES
1002
{
1000
PbThick
1002
}
  0
LINE
  5
178
330
1F
100
AcDbEntity
  8
HIDDEN
100
AcDbLine
 10
321.21
 20
132.1199999999999
 30
0.0
 11
321.21
 21
132.1199999999999
 31
0.0
1001
DBPROPERTIES
1002
{
1000
PbHidd
1002
}
  0
LINE
  5
179
330
1F
100
AcDbEntity
  8
HIDDEN
100
AcDbLine
 10
518.1689999999999
 20
-132.12
 30
0.0
 11
518.1689999999999
 21
-132.12
 31
0.0
1001
DBPROPERTIES
1002
{
1000
PbHidd
1002
}
  0
LINE
  5
17A
330
1F
100
AcDbEntity
  8
HIDDEN
100
AcDbLine
 10
518.1689999999999
 20
-132.12
 30
0.0
 11
518.1689999999999
 21
-132.12
 31
0.0
1001
DBPROPERTIES
1002
{
1000
PbHidd
1002
}
  0
LINE
  5
17B
330
1F
100
AcDbEntity
  8
HIDDEN
100
AcDbLine
 10
518.1689999999999
 20
-132.12
 30
0.0
 11
518.1689999999999
 21
-132.12
 31
0.0
1001
DBPROPERTIES
1002
{
1000
PbHidd
1002
}
  0
LINE
  5
17C
330
1F
100
AcDbEntity
  8
HIDDEN
100
AcDbLine
 10
218.041
 20
52.84799999999999
 30
0.0
 11
218.041
 21
52.84799999999999
 31
0.0
1001
DBPROPERTIES
1002
{
1000
PbHidd
1002
}
  0
LINE
  5
17D
330
1F
100
AcDbEntity
  8
THICK
100
AcDbLine
 10
321.21
 20
132.1199999999999
 30
0.0
 11
218.041
 21
52.84799999999998
 31
0.0
1001
DBPROPERTIES
1002
{
1000
PbThick
1002
}
  0
LINE
  5
17E
330
1F
100
AcDbEntity
  8
HIDDEN
100
AcDbLine
 10
218.041
 20
52.84799999999999
 30
0.0
 11
218.041
 21
52.84799999999999
 31
0.0
1001
DBPROPERTIES
1002
{
1000
PbHidd
1002
}
  0
LINE
  5
17F
330
1F
100
AcDbEntity
  8
HIDDEN
100
AcDbLine
 10
321.2099999999999
 20
-132.12
 30
0.0
 11
321.2099999999999
 21
-132.12
 31
0.0
1001
DBPROPERTIES
1002
{
1000
PbHidd
1002
}
  0
LINE
  5
180
330
1F
100
AcDbEntity
  8
HIDDEN
100
AcDbLine
 10
321.2099999999999
 20
-132.12
 30
0.0
 11
321.2099999999999
 21
-132.12
 31
0.0
1001
DBPROPERTIES
1002
{
1000
PbHidd
1002
}
  0
LINE
  5
181
330
1F
100
AcDbEntity
  8
HIDDEN
100
AcDbLine
 10
321.2099999999999
 20
-132.12
 30
0.0
 11
321.2099999999999
 21
-132.12
 31
0.0
1001
DBPROPERTIES
1002
{
1000
PbHidd
1002
}
  0
LINE
  5
182
330
1F
100
AcDbEntity
  8
HIDDEN
100
AcDbLine
 10
218.041
 20
-52.84799999999999
 30
0.0
 11
218.041
 21
-52.84799999999999
 31
0.0
1001
DBPROPERTIES
1002
{
1000
PbHidd
1002
}
  0
LINE
  5
183
330
1F
100
AcDbEntity
  8
THICK
100
AcDbLine
 10
218.041
 20
52.84800000000001
 30
0.0
 11
218.041
 21
0.0000000000000452
 31
0.0
1001
DBPROPERTIES
1002
{
1000
PbThick
1002
}
  0
LINE
  5
184
330
1F
100
AcDbEntity
  8
HIDDEN
100
AcDbLine
 10
218.041
 20
-52.84799999999999
 30
0.0
 11
218.041
 21
-52.84799999999999
 31
0.0
1001
DBPROPERTIES
1002
{
1000
PbHidd
1002
}
  0
LINE
  5
185
330
1F
100
AcDbEntity
  8
HIDDEN
100
AcDbLine
 10
218.041
 20
52.84799999999999
 30
0.0
 11
218.041
 21
52.84799999999999
 31
0.0
1001
DBPROPERTIES
1002
{
1000
PbHidd
1002
}
  0
LINE
  5
186
330
1F
100
AcDbEntity
  8
HIDDEN
100
AcDbLine
 10
218.041
 20
-52.84799999999999
 30
0.0
 11
218.041
 21
-52.84799999999999
 31
0.0
1001
DBPROPERTIES
1002
{
1000
PbHidd
1002
}
  0
LINE
  5
187
330
1F
100
AcDbEntity
  8
HIDDEN
100
AcDbLine
 10
321.21
 20
132.1199999999999
 30
0.0
 11
321.21
 21
132.1199999999999
 31
0.0
1001
DBPROPERTIES
1002
{
1000
PbHidd
1002
}
  0
LINE
  5
188
330
1F
100
AcDbEntity
  8
HIDDEN
100
AcDbLine
 10
224.1
 20
-358.7
 30
0.0
 11
224.1
 21
-57.50355591311334
 31
0.0
1001
DBPROPERTIES
1002
{
1000
PbHidd
1002
}
  0
LINE
  5
189
330
1F
100
AcDbEntity
  8
HIDDEN
100
AcDbLine
 10
605.9
 20
-358.7
 30
0.0
 11
605.9
 21
-73.40000158967457
 31
0.0
1001
DBPROPERTIES
1002
{
1000
PbHidd
1002
}
  0
LINE
  5
18A
330
1F
100
AcDbEntity
  8
HIDDEN
100
AcDbLine
 10
605.9
 20
73.4003752366562
 30
0.0
 11
605.9
 21
358.7
 31
0.0
1001
DBPROPERTIES
1002
{
1000
PbHidd
1002
}
  0
LINE
  5
18B
330
1F
100
AcDbEntity
  8
HIDDEN
100
AcDbLine
 10
224.1
 20
57.50355591311344
 30
0.0
 11
224.1
 21
358.7
 31
0.0
1001
DBPROPERTIES
1002
{
1000
PbHidd
1002
}
  0
LINE
  5
18C
330
1F
100
AcDbEntity
  8
HIDDEN
100
AcDbLine
 10
697.2
 20
-300.0
 30
0.0
 11
697.2
 21
300.0
 31
0.0
1001
DBPROPERTIES
1002
{
1000
PbHidd
1002
}
  0
LINE
  5
18D
330
1F
100
AcDbEntity
  8
THICK
100
AcDbLine
 10
224.0999999999999
 20
-57.5035559131134
 30
0.0
 11
224.0999999999999
 21
-367.0
 31
0.0
1001
DBPROPERTIES
1002
{
1000
PbThick
1002
}
  0
LINE
  5
18E
330
1F
100
AcDbEntity
  8
THICK
100
AcDbLine
 10
605.9
 20
-57.96911150442456
 30
0.0
 11
605.9
 21
-367.0
 31
0.0
1001
DBPROPERTIES
1002
{
1000
PbThick
1002
}
  0
LINE
  5
18F
330
1F
100
AcDbEntity
  8
THICK
100
AcDbLine
 10
605.9
 20
367.0
 30
0.0
 11
605.9
 21
57.96911150442477
 31
0.0
1001
DBPROPERTIES
1002
{
1000
PbThick
1002
}
  0
LINE
  5
190
330
1F
100
AcDbEntity
  8
THICK
100
AcDbLine
 10
224.0999999999999
 20
367.0
 30
0.0
 11
224.0999999999999
 21
57.50355591311344
 31
0.0
1001
DBPROPERTIES
1002
{
1000
PbThick
1002
}
  0
LINE
  5
191
330
1F
100
AcDbEntity
  8
THICK
100
AcDbLine
 10
116.2
 20
308.2999999999999
 30
0.0
 11
116.2
 21
-308.2999999999999
 31
0.0
1001
DBPROPERTIES
1002
{
1000
PbThick
1002
}
  0
LINE
  5
192
330
1F
100
AcDbEntity
  8
HIDDEN
100
AcDbLine
 10
116.2
 20
-300.0
 30
0.0
 11
116.2
 21
300.0
 31
0.0
1001
DBPROPERTIES
1002
{
1000
PbHidd
1002
}
  0
LINE
  5
193
330
1F
100
AcDbEntity
  8
THICK
100
AcDbLine
 10
0.0
 20
347.0
 30
0.0
 11
0.0
 21
-347.0
 31
0.0
1001
DBPROPERTIES
1002
{
1000
PbThick
1002
}
  0
LINE
  5
194
330
1F
100
AcDbEntity
  8
THICK
100
AcDbLine
 10
8.300000000000068
 20
347.0
 30
0.0
 11
8.300000000000068
 21
-347.0
 31
0.0
1001
DBPROPERTIES
1002
{
1000
PbThick
1002
}
  0
LINE
  5
195
330
1F
100
AcDbEntity
  8
THICK
100
AcDbLine
 10
697.2
 20
308.3000000000001
 30
0.0
 11
697.2
 21
-308.3000000000001
 31
0.0
1001
DBPROPERTIES
1002
{
1000
PbThick
1002
}
  0
LINE
  5
196
330
1F
100
AcDbEntity
  8
THICK
100
AcDbLine
 10
821.7
 20
347.0000000000001
 30
0.0
 11
821.7
 21
-347.0000000000001
 31
0.0
1001
DBPROPERTIES
1002
{
1000
PbThick
1002
}
  0
LINE
  5
197
330
1F
100
AcDbEntity
  8
HIDDEN
100
AcDbLine
 10
8.300000190734863
 20
326.0
 30
0.0
 11
0.0000000000000195
 21
326.0
 31
0.0
1001
DBPROPERTIES
1002
{
1000
PbHidd
1002
}
  0
LINE
  5
198
330
1F
100
AcDbEntity
  8
HIDDEN
100
AcDbLine
 10
8.300000190734863
 20
228.7594451904297
 30
0.0
 11
0.0000000000000195
 21
228.7594451904297
 31
0.0
1001
DBPROPERTIES
1002
{
1000
PbHidd
1002
}
  0
LINE
  5
199
330
1F
100
AcDbEntity
  8
HIDDEN
100
AcDbLine
 10
8.300000190734863
 20
-228.7594513539338
 30
0.0
 11
0.0000000000000195
 21
-228.7594513539338
 31
0.0
1001
DBPROPERTIES
1002
{
1000
PbHidd
1002
}
  0
LINE
  5
19A
330
1F
100
AcDbEntity
  8
HIDDEN
100
AcDbLine
 10
8.300000190734863
 20
-326.0
 30
0.0
 11
0.0000000000000195
 21
-326.0
 31
0.0
1001
DBPROPERTIES
1002
{
1000
PbHidd
1002
}
  0
LINE
  5
19B
330
1F
100
AcDbEntity
  8
HIDDEN
100
AcDbLine
 10
8.300000190734863
 20
-228.7594513539338
 30
0.0
 11
0.0000000000000195
 21
-228.7594513539338
 31
0.0
1001
DBPROPERTIES
1002
{
1000
PbHidd
1002
}
  0
LINE
  5
19C
330
1F
100
AcDbEntity
  8
HIDDEN
100
AcDbLine
 10
8.300000190734863
 20
228.7594451904297
 30
0.0
 11
0.0000000000000195
 21
228.7594451904297
 31
0.0
1001
DBPROPERTIES
1002
{
1000
PbHidd
1002
}
  0
LINE
  5
19D
330
1F
100
AcDbEntity
  8
HIDDEN
100
AcDbLine
 10
830.0
 20
326.0
 30
0.0
 11
821.7000122070312
 21
326.0
 31
0.0
1001
DBPROPERTIES
1002
{
1000
PbHidd
1002
}
  0
LINE
  5
19E
330
1F
100
AcDbEntity
  8
HIDDEN
100
AcDbLine
 10
830.0
 20
228.7594451904297
 30
0.0
 11
821.7000122070312
 21
228.7594451904297
 31
0.0
1001
DBPROPERTIES
1002
{
1000
PbHidd
1002
}
  0
LINE
  5
19F
330
1F
100
AcDbEntity
  8
HIDDEN
100
AcDbLine
 10
830.0
 20
-228.7594513539338
 30
0.0
 11
821.7000122070312
 21
-228.7594513539338
 31
0.0
1001
DBPROPERTIES
1002
{
1000
PbHidd
1002
}
  0
LINE
  5
1A0
330
1F
100
AcDbEntity
  8
HIDDEN
100
AcDbLine
 10
830.0
 20
-326.0
 30
0.0
 11
821.7000122070312
 21
-326.0
 31
0.0
1001
DBPROPERTIES
1002
{
1000
PbHidd
1002
}
  0
LINE
  5
1A1
330
1F
100
AcDbEntity
  8
HIDDEN
100
AcDbLine
 10
830.0
 20
-228.7594513539338
 30
0.0
 11
821.7000122070312
 21
-228.7594513539338
 31
0.0
1001
DBPROPERTIES
1002
{
1000
PbHidd
1002
}
  0
LINE
  5
1A2
330
1F
100
AcDbEntity
  8
HIDDEN
100
AcDbLine
 10
830.0
 20
228.7594451904297
 30
0.0
 11
821.7000122070312
 21
228.7594451904297
 31
0.0
1001
DBPROPERTIES
1002
{
1000
PbHidd
1002
}
  0
ARC
  5
1A3
330
1F
100
AcDbEntity
  8
THICK
100
AcDbCircle
 10
407.0100000000001
 20
-48.71
 30
0.0
 40
29.36
100
AcDbArc
 50
180.0000198478428
 51
270.0000187239684
1001
DBPROPERTIES
1002
{
1000
PbThick
1002
}
  0
ARC
  5
1A4
330
1F
100
AcDbEntity
  8
HIDDEN
100
AcDbCircle
 10
624.42
 20
99.09
 30
0.0
 40
14.68
100
AcDbArc
 50
269.9999614281888
 51
0.0
1001
DBPROPERTIES
1002
{
1000
PbHidd
1002
}
  0
LINE
  5
1A5
330
1F
100
AcDbEntity
  8
HIDDEN
100
AcDbLine
 10
688.9000244140625
 20
-73.4000015258789
 30
0.0
 11
655.7000122070312
 21
-73.4000015258789
 31
0.0
1001
DBPROPERTIES
1002
{
1000
PbHidd
1002
}
  0
ARC
  5
1A6
330
1F
100
AcDbEntity
  8
HIDDEN
100
AcDbCircle
 10
616.91
 20
-73.4
 30
0.0
 40
11.01
100
AcDbArc
 50
180.0000374479367
 51
269.9998468366298
1001
DBPROPERTIES
1002
{
1000
PbHidd
1002
}
  0
ARC
  5
1A7
330
1F
100
AcDbEntity
  8
HIDDEN
100
AcDbCircle
 10
666.5999999999999
 20
0.0
 30
0.0
 40
146.8
100
AcDbArc
 50
326.6330006596434
 51
0.0
1001
DBPROPERTIES
1002
{
1000
PbHidd
1002
}
  0
LINE
  5
1A8
330
1F
100
AcDbEntity
  8
HIDDEN
100
AcDbLine
 10
740.8213351726532
 20
293.9999999999999
 30
0.0
 11
736.5786770343781
 21
293.9999999999999
 31
0.0
1001
DBPROPERTIES
1002
{
1000
PbHidd
1002
}
  0
ARC
  5
1A9
330
1F
100
AcDbEntity
  8
HIDDEN
100
AcDbCircle
 10
666.5999999999999
 20
0.0
 30
0.0
 40
146.8
100
AcDbArc
 50
0.0
 51
33.36699934035667
1001
DBPROPERTIES
1002
{
1000
PbHidd
1002
}
  0
ARC
  5
1AA
330
1F
100
AcDbEntity
  8
HIDDEN
100
AcDbCircle
 10
616.91
 20
73.4
 30
0.0
 40
11.01
100
AcDbArc
 50
90.00015316337019
 51
179.9999625520633
1001
DBPROPERTIES
1002
{
1000
PbHidd
1002
}
  0
LINE
  5
1AB
330
1F
100
AcDbEntity
  8
HIDDEN
100
AcDbLine
 10
688.9000244140625
 20
73.4
 30
0.0
 11
655.7000122070312
 21
73.4
 31
0.0
1001
DBPROPERTIES
1002
{
1000
PbHidd
1002
}
  0
ARC
  5
1AC
330
1F
100
AcDbEntity
  8
HIDDEN
100
AcDbCircle
 10
624.42
 20
-99.09
 30
0.0
 40
14.68
100
AcDbArc
 50
0.0
 51
90.00003857181116
1001
DBPROPERTIES
1002
{
1000
PbHidd
1002
}
  0
ARC
  5
1AD
330
1F
100
AcDbEntity
  8
THICK
100
AcDbCircle
 10
407.0100000000001
 20
48.71
 30
0.0
 40
29.36
100
AcDbArc
 50
89.99998127603165
 51
179.9999801521572
1001
DBPROPERTIES
1002
{
1000
PbThick
1002
}
  0
LINE
  5
1AE
330
1F
100
AcDbEntity
  8
HIDDEN
100
AcDbLine
 10
830.0
 20
240.7594513539337
 30
0.0
 11
821.7000122070312
 21
240.7594513539337
 31
0.0
1001
DBPROPERTIES
1002
{
1000
PbHidd
1002
}
  0
LINE
  5
1AF
330
1F
100
AcDbEntity
  8
HIDDEN
100
AcDbLine
 10
830.0
 20
-240.7594451904297
 30
0.0
 11
821.7000122070312
 21
-240.7594451904297
 31
0.0
1001
DBPROPERTIES
1002
{
1000
PbHidd
1002
}
  0
LINE
  5
1B0
330
1F
100
AcDbEntity
  8
HIDDEN
100
AcDbLine
 10
830.0
 20
-338.0
 30
0.0
 11
821.7000122070312
 21
-338.0
 31
0.0
1001
DBPROPERTIES
1002
{
1000
PbHidd
1002
}
  0
LINE
  5
1B1
330
1F
100
AcDbEntity
  8
HIDDEN
100
AcDbLine
 10
830.0
 20
-240.7594451904297
 30
0.0
 11
821.7000122070312
 21
-240.7594451904297
 31
0.0
1001
DBPROPERTIES
1002
{
1000
PbHidd
1002
}
  0
LINE
  5
1B2
330
1F
100
AcDbEntity
  8
HIDDEN
100
AcDbLine
 10
830.0
 20
240.7594513539338
 30
0.0
 11
821.7000122070312
 21
240.7594513539338
 31
0.0
1001
DBPROPERTIES
1002
{
1000
PbHidd
1002
}
  0
LINE
  5
1B3
330
1F
100
AcDbEntity
  8
HIDDEN
100
AcDbLine
 10
830.0
 20
338.0
 30
0.0
 11
821.7000122070312
 21
338.0
 31
0.0
1001
DBPROPERTIES
1002
{
1000
PbHidd
1002
}
  0
LINE
  5
1B4
330
1F
100
AcDbEntity
  8
HIDDEN
100
AcDbLine
 10
8.300000190734863
 20
240.7594513539337
 30
0.0
 11
0.0000000000000195
 21
240.7594513539337
 31
0.0
1001
DBPROPERTIES
1002
{
1000
PbHidd
1002
}
  0
LINE
  5
1B5
330
1F
100
AcDbEntity
  8
HIDDEN
100
AcDbLine
 10
8.300000190734863
 20
-240.7594451904297
 30
0.0
 11
0.0000000000000195
 21
-240.7594451904297
 31
0.0
1001
DBPROPERTIES
1002
{
1000
PbHidd
1002
}
  0
LINE
  5
1B6
330
1F
100
AcDbEntity
  8
HIDDEN
100
AcDbLine
 10
8.300000190734863
 20
-338.0
 30
0.0
 11
0.0000000000000195
 21
-338.0
 31
0.0
1001
DBPROPERTIES
1002
{
1000
PbHidd
1002
}
  0
LINE
  5
1B7
330
1F
100
AcDbEntity
  8
HIDDEN
100
AcDbLine
 10
8.300000190734863
 20
-240.7594451904297
 30
0.0
 11
0.0000000000000195
 21
-240.7594451904297
 31
0.0
1001
DBPROPERTIES
1002
{
1000
PbHidd
1002
}
  0
LINE
  5
1B8
330
1F
100
AcDbEntity
  8
HIDDEN
100
AcDbLine
 10
8.300000190734863
 20
240.7594513539338
 30
0.0
 11
0.0000000000000195
 21
240.7594513539338
 31
0.0
1001
DBPROPERTIES
1002
{
1000
PbHidd
1002
}
  0
LINE
  5
1B9
330
1F
100
AcDbEntity
  8
HIDDEN
100
AcDbLine
 10
8.300000190734863
 20
338.0
 30
0.0
 11
0.0000000000000195
 21
338.0
 31
0.0
1001
DBPROPERTIES
1002
{
1000
PbHidd
1002
}
  0
ENDSEC
  0
SECTION
  2
OBJECTS
  0
DICTIONARY
  5
C
330
0
100
AcDbDictionary
  3
ACAD_GROUP
350
D
  3
ACAD_LAYOUT
350
1A
  3
ACAD_MATERIAL
350
43
  3
ACAD_MLEADERSTYLE
350
6B
  3
ACAD_MLINESTYLE
350
17
  3
ACAD_PLOTSETTINGS
350
19
  3
ACAD_SCALELIST
350
47
  3
ACAD_VISUALSTYLE
350
2A
  3
ACDBVARIABLEDICTIONARY
350
1BA
1001
ACAD
1000
TREAT_AS_HARD
1070
     0
  0
DICTIONARY
  5
D
102
{ACAD_REACTORS
330
C
102
}
330
C
100
AcDbDictionary
1001
ACAD
1000
TREAT_AS_HARD
1070
     0
  0
DICTIONARY
  5
1A
102
{ACAD_REACTORS
330
C
102
}
330
C
100
AcDbDictionary
1001
ACAD
1000
TREAT_AS_HARD
1070
     0
  0
DICTIONARY
  5
43
102
{ACAD_REACTORS
330
C
102
}
330
C
100
AcDbDictionary
  3
BYBLOCK
350
45
  3
BYLAYER
350
44
  3
GLOBAL
350
46
1001
ACAD
1000
TREAT_AS_HARD
1070
     0
  0
DICTIONARY
  5
6B
102
{ACAD_REACTORS
330
C
102
}
330
C
100
AcDbDictionary
  3
STANDARD
350
6C
1001
ACAD
1000
TREAT_AS_HARD
1070
     0
  0
DICTIONARY
  5
17
102
{ACAD_REACTORS
330
C
102
}
330
C
100
AcDbDictionary
  3
STANDARD
350
18
1001
ACAD
1000
TREAT_AS_HARD
1070
     0
  0
DICTIONARY
  5
19
102
{ACAD_REACTORS
330
C
102
}
330
C
100
AcDbDictionary
1001
ACAD
1000
TREAT_AS_HARD
1070
     0
  0
DICTIONARY
  5
47
102
{ACAD_REACTORS
330
C
102
}
330
C
100
AcDbDictionary
  3
A0
350
48
  3
A1
350
49
  3
A2
350
4A
  3
A3
350
4B
  3
A4
350
4C
  3
A5
350
4D
  3
A6
350
4E
  3
A7
350
4F
  3
A8
350
50
  3
A9
350
51
  3
B0
350
52
  3
B1
350
53
  3
B2
350
54
  3
B3
350
55
  3
B4
350
56
  3
B5
350
57
  3
B6
350
58
  3
B7
350
59
  3
B8
350
5A
  3
B9
350
5B
  3
C0
350
5C
  3
C1
350
5D
  3
C2
350
5E
  3
C3
350
5F
  3
C4
350
60
  3
C5
350
61
  3
C6
350
62
  3
C7
350
63
  3
C8
350
64
  3
C9
350
65
  3
D0
350
66
  3
D1
350
67
  3
D2
350
68
1001
ACAD
1000
TREAT_AS_HARD
1070
     0
  0
DICTIONARY
  5
2A
102
{ACAD_REACTORS
330
C
102
}
330
C
100
AcDbDictionary
  3
2DWIREFRAME
350
2F
  3
BASIC
350
32
  3
BRIGHTEN
350
36
  3
COLORCHANGE
350
3A
  3
CONCEPTUAL
350
34
  3
DIM
350
35
  3
EDGECOLOROFF
350
3D
  3
FACEPATTERN
350
39
  3
FLAT
350
2B
  3
FLATWITHEDGES
350
2C
  3
GOURAUD
350
2D
  3
GOURAUDWITHEDGES
350
2E
  3
HIDDEN
350
31
  3
JITTEROFF
350
3B
  3
LINEPATTERN
350
38
  3
OVERHANGOFF
350
3C
  3
REALISTIC
350
33
  3
SHADED
350
42
  3
SHADED_WITH_EDGES
350
41
  3
SHADES_OF_GRAY
350
3E
  3
SKETCHY
350
3F
  3
THICKEN
350
37
  3
WIREFRAME
350
30
  3
X-RAY
350
40
1001
ACAD
1000
TREAT_AS_HARD
1070
     0
  0
DICTIONARY
  5
1BA
102
{ACAD_REACTORS
330
C
102
}
330
C
100
AcDbDictionary
  3
CANNOSCALE
350
1C5
  3
CENTEREXE
350
1C1
  3
CENTERLTYPEFILE
350
1C2
  3
CMLEADERSTYLE
350
1BC
  3
CTABLESTYLE
350
1BB
  3
DIMASSOC
350
1C3
  3
HIDETEXT
350
1C4
  3
MSLTSCALE
350
1C6
  3
PSOLHEIGHT
350
1BE
  3
PSOLWIDTH
350
1BD
1001
ACAD
1000
TREAT_AS_HARD
1070
     0
  0
MATERIAL
  5
45
102
{ACAD_REACTORS
330
43
102
}
102
{ACAD_XDICTIONARY
360
1C9
102
}
330
43
100
AcDbMaterial
  1
BYBLOCK
  0
MATERIAL
  5
44
102
{ACAD_REACTORS
330
43
102
}
102
{ACAD_XDICTIONARY
360
1C7
102
}
330
43
100
AcDbMaterial
  1
BYLAYER
  0
MATERIAL
  5
46
102
{ACAD_REACTORS
330
43
102
}
102
{ACAD_XDICTIONARY
360
1CB
102
}
330
43
100
AcDbMaterial
  1
GLOBAL
  0
ACAD_PROXY_OBJECT
  5
6C
102
{ACAD_REACTORS
330
6B
102
}
330
6B
100
AcDbZombieObject
 90
      499
 91
      505
 93
      610
310
40901902A4063FBFFFFFE0000000000000020400000000000020404214DD185B99185C990000000000000104090141901A00000000000004100000000000000041025764000000000000039000
340
14
340
0
340
11
340
0
 94
        0
1001
ACAD_MLEADERVER
1070
     2
  0
MLINESTYLE
  5
18
102
{ACAD_REACTORS
330
17
102
}
330
17
100
AcDbMlineStyle
  2
Standard
 70
     0
  3

 62
   256
 51
90.0
 52
90.0
 71
     2
 49
0.5
 62
   256
  6
BYLAYER
 49
-0.5
 62
   256
  6
BYLAYER
  0
ACAD_PROXY_OBJECT
  5
48
102
{ACAD_REACTORS
330
47
102
}
330
47
100
AcDbZombieObject
 90
      499
 91
      503
 93
       41
310
903313A31580
  0
ACAD_PROXY_OBJECT
  5
49
102
{ACAD_REACTORS
330
47
102
}
330
47
100
AcDbZombieObject
 90
      499
 91
      503
 93
      105
310
903313A324000000000000004000
  0
ACAD_PROXY_OBJECT
  5
4A
102
{ACAD_REACTORS
330
47
102
}
330
47
100
AcDbZombieObject
 90
      499
 91
      503
 93
      105
310
903313A344000000000000104000
  0
ACAD_PROXY_OBJECT
  5
4B
102
{ACAD_REACTORS
330
47
102
}
330
47
100
AcDbZombieObject
 90
      499
 91
      503
 93
      105
310
903313A354000000000000144000
  0
ACAD_PROXY_OBJECT
  5
4C
102
{ACAD_REACTORS
330
47
102
}
330
47
100
AcDbZombieObject
 90
      499
 91
      503
 93
      105
310
903313A384000000000000204000
  0
ACAD_PROXY_OBJECT
  5
4D
102
{ACAD_REACTORS
330
47
102
}
330
47
100
AcDbZombieObject
 90
      499
 91
      503
 93
      113
310
904313A31304000000000000244000
  0
ACAD_PROXY_OBJECT
  5
4E
102
{ACAD_REACTORS
330
47
102
}
330
47
100
AcDbZombieObject
 90
      499
 91
      503
 93
      113
310
904313A31364000000000000304000
  0
ACAD_PROXY_OBJECT
  5
4F
102
{ACAD_REACTORS
330
47
102
}
330
47
100
AcDbZombieObject
 90
      499
 91
      503
 93
      113
310
904313A32304000000000000344000
  0
ACAD_PROXY_OBJECT
  5
50
102
{ACAD_REACTORS
330
47
102
}
330
47
100
AcDbZombieObject
 90
      499
 91
      503
 93
      113
310
904313A333040000000000003E4000
  0
ACAD_PROXY_OBJECT
  5
51
102
{ACAD_REACTORS
330
47
102
}
330
47
100
AcDbZombieObject
 90
      499
 91
      503
 93
      113
310
904313A34304000000000000444000
  0
ACAD_PROXY_OBJECT
  5
52
102
{ACAD_REACTORS
330
47
102
}
330
47
100
AcDbZombieObject
 90
      499
 91
      503
 93
      113
310
904313A35304000000000000494000
  0
ACAD_PROXY_OBJECT
  5
53
102
{ACAD_REACTORS
330
47
102
}
330
47
100
AcDbZombieObject
 90
      499
 91
      503
 93
      121
310
905313A3130304000000000000594000
  0
ACAD_PROXY_OBJECT
  5
54
102
{ACAD_REACTORS
330
47
102
}
330
47
100
AcDbZombieObject
 90
      499
 91
      503
 93
      105
310
903323A310000000000000010100
  0
ACAD_PROXY_OBJECT
  5
55
102
{ACAD_REACTORS
330
47
102
}
330
47
100
AcDbZombieObject
 90
      499
 91
      503
 93
      105
310
903343A310000000000000410100
  0
ACAD_PROXY_OBJECT
  5
56
102
{ACAD_REACTORS
330
47
102
}
330
47
100
AcDbZombieObject
 90
      499
 91
      503
 93
      105
310
903383A310000000000000810100
  0
ACAD_PROXY_OBJECT
  5
57
102
{ACAD_REACTORS
330
47
102
}
330
47
100
AcDbZombieObject
 90
      499
 91
      503
 93
      113
310
90431303A310000000000000910100
  0
ACAD_PROXY_OBJECT
  5
58
102
{ACAD_REACTORS
330
47
102
}
330
47
100
AcDbZombieObject
 90
      499
 91
      503
 93
      121
310
9053130303A310000000000001650100
  0
ACAD_PROXY_OBJECT
  5
59
102
{ACAD_REACTORS
330
47
102
}
330
47
100
AcDbZombieObject
 90
      499
 91
      503
 93
      257
310
90E312F31323822203D2031272D3022000000000000200FC000000000000284000
  0
ACAD_PROXY_OBJECT
  5
5A
102
{ACAD_REACTORS
330
47
102
}
330
47
100
AcDbZombieObject
 90
      499
 91
      503
 93
      249
310
90D312F363422203D2031272D3022000000000000240FC000000000000284000
  0
ACAD_PROXY_OBJECT
  5
5B
102
{ACAD_REACTORS
330
47
102
}
330
47
100
AcDbZombieObject
 90
      499
 91
      503
 93
      249
310
90D312F333222203D2031272D3022000000000000280FC000000000000284000
  0
ACAD_PROXY_OBJECT
  5
5C
102
{ACAD_REACTORS
330
47
102
}
330
47
100
AcDbZombieObject
 90
      499
 91
      503
 93
      249
310
90D312F313622203D2031272D30220000000000002C0FC000000000000284000
  0
ACAD_PROXY_OBJECT
  5
5D
102
{ACAD_REACTORS
330
47
102
}
330
47
100
AcDbZombieObject
 90
      499
 91
      503
 93
      249
310
90D332F333222203D2031272D30220000000000002E0FC000000000000284000
  0
ACAD_PROXY_OBJECT
  5
5E
102
{ACAD_REACTORS
330
47
102
}
330
47
100
AcDbZombieObject
 90
      499
 91
      503
 93
      241
310
90C312F3822203D2031272D3022000000000000300FC000000000000284000
  0
ACAD_PROXY_OBJECT
  5
5F
102
{ACAD_REACTORS
330
47
102
}
330
47
100
AcDbZombieObject
 90
      499
 91
      503
 93
      249
310
90D332F313622203D2031272D3022000000000000320FC000000000000284000
  0
ACAD_PROXY_OBJECT
  5
60
102
{ACAD_REACTORS
330
47
102
}
330
47
100
AcDbZombieObject
 90
      499
 91
      503
 93
      241
310
90C312F3422203D2031272D3022000000000000340FC000000000000284000
  0
ACAD_PROXY_OBJECT
  5
61
102
{ACAD_REACTORS
330
47
102
}
330
47
100
AcDbZombieObject
 90
      499
 91
      503
 93
      241
310
90C332F3822203D2031272D3022000000000000360FC000000000000284000
  0
ACAD_PROXY_OBJECT
  5
62
102
{ACAD_REACTORS
330
47
102
}
330
47
100
AcDbZombieObject
 90
      499
 91
      503
 93
      241
310
90C312F3222203D2031272D3022000000000000380FC000000000000284000
  0
ACAD_PROXY_OBJECT
  5
63
102
{ACAD_REACTORS
330
47
102
}
330
47
100
AcDbZombieObject
 90
      499
 91
      503
 93
      241
310
90C332F3422203D2031272D30220000000000003A0FC000000000000284000
  0
ACAD_PROXY_OBJECT
  5
64
102
{ACAD_REACTORS
330
47
102
}
330
47
100
AcDbZombieObject
 90
      499
 91
      503
 93
      161
310
90A3122203D2031272D30224000000000000284000
  0
ACAD_PROXY_OBJECT
  5
65
102
{ACAD_REACTORS
330
47
102
}
330
47
100
AcDbZombieObject
 90
      499
 91
      503
 93
      257
310
90E312D312F3222203D2031272D30220000000000003E0FC000000000000284000
  0
ACAD_PROXY_OBJECT
  5
66
102
{ACAD_REACTORS
330
47
102
}
330
47
100
AcDbZombieObject
 90
      499
 91
      503
 93
      225
310
90A3322203D2031272D302200000000000002100000000000000284000
  0
ACAD_PROXY_OBJECT
  5
67
102
{ACAD_REACTORS
330
47
102
}
330
47
100
AcDbZombieObject
 90
      499
 91
      503
 93
      225
310
90A3622203D2031272D302200000000000006100000000000000284000
  0
ACAD_PROXY_OBJECT
  5
68
102
{ACAD_REACTORS
330
47
102
}
330
47
100
AcDbZombieObject
 90
      499
 91
      503
 93
      249
310
90D31272D3022203D2031272D30220000000000000A100000000000000284000
  0
ACAD_PROXY_OBJECT
  5
2F
102
{ACAD_REACTORS
330
2A
102
}
330
2A
100
AcDbZombieObject
 90
      499
 91
      501
 93
      436
310
42CC9915DA5C99599C985B595049028333333333333E33F0000000000000F90107901411070040501600405405064090741402480A0340
1001
ACAD
1000
AcDbSavedByObjectVersion
1070
     0
  0
ACAD_PROXY_OBJECT
  5
32
102
{ACAD_REACTORS
330
2A
102
}
330
2A
100
AcDbZombieObject
 90
      499
 91
      501
 93
      388
310
4150985CDA58D07406404333333333333E33F0000000000000F90107A41107004050150841D405064090741402480A0350
1001
ACAD
1000
AcDbSavedByObjectVersion
1070
     0
  0
ACAD_PROXY_OBJECT
  5
36
102
{ACAD_REACTORS
330
2A
102
}
330
2A
100
AcDbZombieObject
 90
      499
 91
      501
 93
      428
310
42109C9A59DA1D195B90C409028333333333333E33F0000000000000F9010790141107004050150841D405064090741402480A029950
1001
ACAD
1000
AcDbSavedByObjectVersion
1070
     0
  0
ACAD_PROXY_OBJECT
  5
3A
102
{ACAD_REACTORS
330
2A
102
}
330
2A
100
AcDbZombieObject
 90
      499
 91
      501
 93
      452
310
42D0DBDB1BDC90DA185B99D95104090240C333333333333E33F0000000000000F90108901411070040501508421405064090741402480A0350
1001
ACAD
1000
AcDbSavedByObjectVersion
1070
     0
  0
ACAD_PROXY_OBJECT
  5
34
102
{ACAD_REACTORS
330
2A
102
}
330
2A
100
AcDbZombieObject
 90
      499
 91
      501
 93
      500
310
4290DBDB98D95C1D1D585B10940D028333333333333E33F0000000000000F90107902409070040501000000000018199010841D405064090740C02480A0340
1001
ACAD
1000
AcDbSavedByObjectVersion
1070
     0
  0
ACAD_PROXY_OBJECT
  5
35
102
{ACAD_REACTORS
330
2A
102
}
330
2A
100
AcDbZombieObject
 90
      499
 91
      501
 93
      412
310
40D11A5B50B409028333333333333E33F0000000000000F9010790141107004050150841D405064090741402480A02677FFFFFD0
1001
ACAD
1000
AcDbSavedByObjectVersion
1070
     0
  0
ACAD_PROXY_OBJECT
  5
3D
102
{ACAD_REACTORS
330
2A
102
}
330
2A
100
AcDbZombieObject
 90
      499
 91
      501
 93
      452
310
43115919D950DBDB1BDC93D999916409028333333333333E33F0000000000000F9010790141107004050150841D405064090741402480A0350
1001
ACAD
1000
AcDbSavedByObjectVersion
1070
     0
  0
ACAD_PROXY_OBJECT
  5
39
102
{ACAD_REACTORS
330
2A
102
}
330
2A
100
AcDbZombieObject
 90
      499
 91
      501
 93
      444
310
42D19858D95C185D1D195C9B90F409028333333333333E33F0000000000000F9010790141107004050150841D405064090741402480A0350
1001
ACAD
1000
AcDbSavedByObjectVersion
1070
     0
  0
ACAD_PROXY_OBJECT
  5
2B
102
{ACAD_REACTORS
330
2A
102
}
330
2A
100
AcDbZombieObject
 90
      499
 91
      501
 93
      380
310
41119B185D240901404333333333333E33F0000000000000F9010740A907004050150841D405064090741402480A1B50
1001
ACAD
1000
AcDbSavedByObjectVersion
1070
     0
  0
ACAD_PROXY_OBJECT
  5
2C
102
{ACAD_REACTORS
330
2A
102
}
330
2A
100
AcDbZombieObject
 90
      499
 91
      501
 93
      468
310
43519B185D15DA5D1A115919D95CD0140901404333333333333E33F0000000000000F90107409019070040501600405405064090741402480A1B50
1001
ACAD
1000
AcDbSavedByObjectVersion
1070
     0
  0
ACAD_PROXY_OBJECT
  5
2D
102
{ACAD_REACTORS
330
2A
102
}
330
2A
100
AcDbZombieObject
 90
      499
 91
      501
 93
      404
310
41D1DBDD5C985D5910240902404333333333333E33F0000000000000F9010740A9070040501641D405064090741402480A1B50
1001
ACAD
1000
AcDbSavedByObjectVersion
1070
     0
  0
ACAD_PROXY_OBJECT
  5
2E
102
{ACAD_REACTORS
330
2A
102
}
330
2A
100
AcDbZombieObject
 90
      499
 91
      501
 93
      492
310
4411DBDD5C985D5915DA5D1A115919D95CD0340902404333333333333E33F0000000000000F90107409019070040501600405405064090741402480A1B50
1001
ACAD
1000
AcDbSavedByObjectVersion
1070
     0
  0
ACAD_PROXY_OBJECT
  5
31
102
{ACAD_REACTORS
330
2A
102
}
330
2A
100
AcDbZombieObject
 90
      499
 91
      501
 93
      476
310
41921A5919195B90640502408333333333333E33F0000000000000F901079024090700405020000000000001110200405405064090740C02480A0340
1001
ACAD
1000
AcDbSavedByObjectVersion
1070
     0
  0
ACAD_PROXY_OBJECT
  5
3B
102
{ACAD_REACTORS
330
2A
102
}
330
2A
100
AcDbZombieObject
 90
      499
 91
      501
 93
      428
310
42529A5D1D195C93D999914409028333333333333E33F0000000000000F9010790141107004050150A41D405064090741402480A0350
1001
ACAD
1000
AcDbSavedByObjectVersion
1070
     0
  0
ACAD_PROXY_OBJECT
  5
38
102
{ACAD_REACTORS
330
2A
102
}
330
2A
100
AcDbZombieObject
 90
      499
 91
      501
 93
      444
310
42D31A5B995C185D1D195C9B90E409028333333333333E33F0000000000000F9010790141107004050750841D405064090741402483A0350
1001
ACAD
1000
AcDbSavedByObjectVersion
1070
     0
  0
ACAD_PROXY_OBJECT
  5
3C
102
{ACAD_REACTORS
330
2A
102
}
330
2A
100
AcDbZombieObject
 90
      499
 91
      501
 93
      444
310
42D3DD995C9A185B99D3D999915409028333333333333E33F0000000000000F9010790141107004050150941D405064090741402480A0350
1001
ACAD
1000
AcDbSavedByObjectVersion
1070
     0
  0
ACAD_PROXY_OBJECT
  5
33
102
{ACAD_REACTORS
330
2A
102
}
330
2A
100
AcDbZombieObject
 90
      499
 91
      501
 93
      428
310
425499585B1A5CDD1A58D08409038333333333333E33F0000000000000F9010740A907004050150800405405064090740C02480A1B40
1001
ACAD
1000
AcDbSavedByObjectVersion
1070
     0
  0
ACAD_PROXY_OBJECT
  5
42
102
{ACAD_REACTORS
330
2A
102
}
330
2A
100
AcDbZombieObject
 90
      499
 91
      501
 93
      420
310
4194DA1859195911B40902404333333333333E33F0000000000000F9010740A41107004050150800405405064090840C02480A0B40
1001
ACAD
1000
AcDbSavedByObjectVersion
1070
     0
  0
ACAD_PROXY_OBJECT
  5
41
102
{ACAD_REACTORS
330
2A
102
}
330
2A
100
AcDbZombieObject
 90
      499
 91
      501
 93
      516
310
4454DA18591959081DDA5D1A08195919D95CD1A40902404333333333333E33F0000000000000F901074090142907004050250800405405064090740C02480A0B40
1001
ACAD
1000
AcDbSavedByObjectVersion
1070
     0
  0
ACAD_PROXY_OBJECT
  5
3E
102
{ACAD_REACTORS
330
2A
102
}
330
2A
100
AcDbZombieObject
 90
      499
 91
      501
 93
      532
310
4394DA1859195CC81BD98811DC985E5174090240C333333333333E33F0000000000000F901079024090741D01000000000000111010841D405064090740C02480A0340
1001
ACAD
1000
AcDbSavedByObjectVersion
1070
     0
  0
ACAD_PROXY_OBJECT
  5
3F
102
{ACAD_REACTORS
330
2A
102
}
330
2A
100
AcDbZombieObject
 90
      499
 91
      501
 93
      476
310
41D4DAD95D18DA1E51840502408333333333333E33F0000000000000F901079024090741D01000000000000111010B41D405064090741802480A0340
1001
ACAD
1000
AcDbSavedByObjectVersion
1070
     0
  0
ACAD_PROXY_OBJECT
  5
37
102
{ACAD_REACTORS
330
2A
102
}
330
2A
100
AcDbZombieObject
 90
      499
 91
      501
 93
      412
310
41D51A1A58DAD95B90D409028333333333333E33F0000000000000F9010790141107004050150C41D405064090741402480A0350
1001
ACAD
1000
AcDbSavedByObjectVersion
1070
     0
  0
ACAD_PROXY_OBJECT
  5
30
102
{ACAD_REACTORS
330
2A
102
}
330
2A
100
AcDbZombieObject
 90
      499
 91
      501
 93
      420
310
4255DA5C99599C985B595059028333333333333E33F0000000000000F90107901411070040501600405405064090740C02480A0340
1001
ACAD
1000
AcDbSavedByObjectVersion
1070
     0
  0
ACAD_PROXY_OBJECT
  5
40
102
{ACAD_REACTORS
330
2A
102
}
330
2A
100
AcDbZombieObject
 90
      499
 91
      501
 93
      404
310
41560B54985E51940902404000000000000E03F0000000000000F9010740501907004050150841D405064090740C02480A1B40
1001
ACAD
1000
AcDbSavedByObjectVersion
1070
     0
  0
DICTIONARYVAR
  5
1C5
102
{ACAD_REACTORS
330
1BA
102
}
330
1BA
100
DictionaryVariables
280
     0
  1
1:1
  0
DICTIONARYVAR
  5
1C1
102
{ACAD_REACTORS
330
1BA
102
}
330
1BA
100
DictionaryVariables
280
     0
  1
3.500000
  0
DICTIONARYVAR
  5
1C2
102
{ACAD_REACTORS
330
1BA
102
}
330
1BA
100
DictionaryVariables
280
     0
  1
acadiso.lin
  0
DICTIONARYVAR
  5
1BC
102
{ACAD_REACTORS
330
1BA
102
}
330
1BA
100
DictionaryVariables
280
     0
  1
Standard
  0
DICTIONARYVAR
  5
1BB
102
{ACAD_REACTORS
330
1BA
102
}
330
1BA
100
DictionaryVariables
280
     0
  1
Standard
  0
DICTIONARYVAR
  5
1C3
102
{ACAD_REACTORS
330
1BA
102
}
330
1BA
100
DictionaryVariables
280
     0
  1
2
  0
DICTIONARYVAR
  5
1C4
102
{ACAD_REACTORS
330
1BA
102
}
330
1BA
100
DictionaryVariables
280
     0
  1
1
  0
DICTIONARYVAR
  5
1C6
102
{ACAD_REACTORS
330
1BA
102
}
330
1BA
100
DictionaryVariables
280
     0
  1
1
  0
DICTIONARYVAR
  5
1BE
102
{ACAD_REACTORS
330
1BA
102
}
330
1BA
100
DictionaryVariables
280
     0
  1
80.000000
  0
DICTIONARYVAR
  5
1BD
102
{ACAD_REACTORS
330
1BA
102
}
330
1BA
100
DictionaryVariables
280
     0
  1
5.000000
  0
DICTIONARY
  5
1C9
330
45
100
AcDbDictionary
  3
ACAD_XREC_ROUNDTRIP
360
1CA
1001
ACAD
1000
TREAT_AS_HARD
1070
     1
  0
DICTIONARY
  5
1C7
330
44
100
AcDbDictionary
  3
ACAD_XREC_ROUNDTRIP
360
1C8
1001
ACAD
1000
TREAT_AS_HARD
1070
     1
  0
DICTIONARY
  5
1CB
330
46
100
AcDbDictionary
  3
ACAD_XREC_ROUNDTRIP
360
1CC
1001
ACAD
1000
TREAT_AS_HARD
1070
     1
  0
XRECORD
  5
1CA
102
{ACAD_REACTORS
330
1C9
102
}
330
1C9
100
AcDbXrecord
102
MATERIAL
148
0.0
149
0.0
149
0.0
 93
        0
 94
      127
282
     0
 72
     1
 77
     1
171
     1
175
     1
179
     1
273
     0
  0
XRECORD
  5
1C8
102
{ACAD_REACTORS
330
1C7
102
}
330
1C7
100
AcDbXrecord
102
MATERIAL
148
0.0
149
0.0
149
0.0
 93
        0
 94
      127
282
     0
 72
     1
 77
     1
171
     1
175
     1
179
     1
273
     0
  0
XRECORD
  5
1CC
102
{ACAD_REACTORS
330
1CB
102
}
330
1CB
100
AcDbXrecord
102
MATERIAL
148
0.0
149
0.0
149
0.0
 93
        0
 94
      127
282
     0
 72
     1
 77
     1
171
     1
175
     1
179
     1
273
     0
  0
ENDSEC
  0
EOF
