  0
SECTION
  2
HEADER
  9
$ACADVER
  1
AC1012
  9
$DWGCODEPAGE
  3
ansi_1252
  9
$INSBASE
 10
0.0
 20
0.0
 30
0.0
  9
$EXTMIN
 10
1.000000000000000E+20
 20
1.000000000000000E+20
 30
1.000000000000000E+20
  9
$EXTMAX
 10
-1.000000000000000E+20
 20
-1.000000000000000E+20
 30
-1.000000000000000E+20
  9
$LIMMIN
 10
0.0
 20
0.0
  9
$LIMMAX
 10
420.0
 20
297.0
  9
$ORTHOMODE
 70
     0
  9
$REGENMODE
 70
     1
  9
$FILLMODE
 70
     1
  9
$QTEXTMODE
 70
     0
  9
$MIRRTEXT
 70
     1
  9
$DRAGMODE
 70
     2
  9
$LTSCALE
 40
1.0
  9
$OSMODE
 70
    37
  9
$ATTMODE
 70
     1
  9
$TEXTSIZE
 40
2.5
  9
$TRACEWID
 40
1.0
  9
$TEXTSTYLE
  7
STANDARD
  9
$CLAYER
  8
0
  9
$CELTYPE
  6
BYLAYER
  9
$CECOLOR
 62
   256
  9
$CELTSCALE
 40
1.0
  9
$DELOBJ
 70
     1
  9
$DISPSILH
 70
     0
  9
$DIMSCALE
 40
1.0
  9
$DIMASZ
 40
2.5
  9
$DIMEXO
 40
0.625
  9
$DIMDLI
 40
3.75
  9
$DIMRND
 40
0.0
  9
$DIMDLE
 40
0.0
  9
$DIMEXE
 40
1.25
  9
$DIMTP
 40
0.0
  9
$DIMTM
 40
0.0
  9
$DIMTXT
 40
2.5
  9
$DIMCEN
 40
2.5
  9
$DIMTSZ
 40
0.0
  9
$DIMTOL
 70
     0
  9
$DIMLIM
 70
     0
  9
$DIMTIH
 70
     0
  9
$DIMTOH
 70
     0
  9
$DIMSE1
 70
     0
  9
$DIMSE2
 70
     0
  9
$DIMTAD
 70
     1
  9
$DIMZIN
 70
     8
  9
$DIMBLK
  1

  9
$DIMASO
 70
     1
  9
$DIMSHO
 70
     1
  9
$DIMPOST
  1

  9
$DIMAPOST
  1

  9
$DIMALT
 70
     0
  9
$DIMALTD
 70
     3
  9
$DIMALTF
 40
0.03937007874016
  9
$DIMLFAC
 40
1.0
  9
$DIMTOFL
 70
     1
  9
$DIMTVP
 40
0.0
  9
$DIMTIX
 70
     0
  9
$DIMSOXD
 70
     0
  9
$DIMSAH
 70
     0
  9
$DIMBLK1
  1

  9
$DIMBLK2
  1

  9
$DIMSTYLE
  2
ISO-25
  9
$DIMCLRD
 70
     0
  9
$DIMCLRE
 70
     0
  9
$DIMCLRT
 70
     0
  9
$DIMTFAC
 40
1.0
  9
$DIMGAP
 40
0.625
  9
$DIMJUST
 70
     0
  9
$DIMSD1
 70
     0
  9
$DIMSD2
 70
     0
  9
$DIMTOLJ
 70
     0
  9
$DIMTZIN
 70
     8
  9
$DIMALTZ
 70
     0
  9
$DIMALTTZ
 70
     0
  9
$DIMFIT
 70
     3
  9
$DIMUPT
 70
     0
  9
$DIMUNIT
 70
     2
  9
$DIMDEC
 70
     2
  9
$DIMTDEC
 70
     2
  9
$DIMALTU
 70
     2
  9
$DIMALTTD
 70
     3
  9
$DIMTXSTY
  7
STANDARD
  9
$DIMAUNIT
 70
     0
  9
$LUNITS
 70
     2
  9
$LUPREC
 70
     4
  9
$SKETCHINC
 40
1.0
  9
$FILLETRAD
 40
10.0
  9
$AUNITS
 70
     0
  9
$AUPREC
 70
     0
  9
$MENU
  1
.
  9
$ELEVATION
 40
0.0
  9
$PELEVATION
 40
0.0
  9
$THICKNESS
 40
0.0
  9
$LIMCHECK
 70
     0
  9
$CHAMFERA
 40
0.0
  9
$CHAMFERB
 40
0.0
  9
$CHAMFERC
 40
0.0
  9
$CHAMFERD
 40
0.0
  9
$SKPOLY
 70
     0
  9
$TDCREATE
 40
2457980.609551424
  9
$TDUPDATE
 40
2457980.609554132
  9
$TDINDWG
 40
0.0000000116
  9
$TDUSRTIMER
 40
0.0000000116
  9
$USRTIMER
 70
     1
  9
$ANGBASE
 50
0.0
  9
$ANGDIR
 70
     0
  9
$PDMODE
 70
     0
  9
$PDSIZE
 40
0.0
  9
$PLINEWID
 40
0.0
  9
$COORDS
 70
     1
  9
$SPLFRAME
 70
     0
  9
$SPLINETYPE
 70
     6
  9
$SPLINESEGS
 70
     8
  9
$ATTDIA
 70
     0
  9
$ATTREQ
 70
     1
  9
$HANDLING
 70
     1
  9
$HANDSEED
  5
40E
  9
$SURFTAB1
 70
     6
  9
$SURFTAB2
 70
     6
  9
$SURFTYPE
 70
     6
  9
$SURFU
 70
     6
  9
$SURFV
 70
     6
  9
$UCSNAME
  2

  9
$UCSORG
 10
0.0
 20
0.0
 30
0.0
  9
$UCSXDIR
 10
1.0
 20
0.0
 30
0.0
  9
$UCSYDIR
 10
0.0
 20
1.0
 30
0.0
  9
$PUCSNAME
  2

  9
$PUCSORG
 10
0.0
 20
0.0
 30
0.0
  9
$PUCSXDIR
 10
1.0
 20
0.0
 30
0.0
  9
$PUCSYDIR
 10
0.0
 20
1.0
 30
0.0
  9
$USERI1
 70
     0
  9
$USERI2
 70
     0
  9
$USERI3
 70
     0
  9
$USERI4
 70
     0
  9
$USERI5
 70
     0
  9
$USERR1
 40
0.0
  9
$USERR2
 40
0.0
  9
$USERR3
 40
0.0
  9
$USERR4
 40
0.0
  9
$USERR5
 40
0.0
  9
$WORLDVIEW
 70
     1
  9
$SHADEDGE
 70
     3
  9
$SHADEDIF
 70
    70
  9
$TILEMODE
 70
     1
  9
$MAXACTVP
 70
    64
  9
$PINSBASE
 10
0.0
 20
0.0
 30
0.0
  9
$PLIMCHECK
 70
     0
  9
$PEXTMIN
 10
1.000000000000000E+20
 20
1.000000000000000E+20
 30
1.000000000000000E+20
  9
$PEXTMAX
 10
-1.000000000000000E+20
 20
-1.000000000000000E+20
 30
-1.000000000000000E+20
  9
$PLIMMIN
 10
0.0
 20
0.0
  9
$PLIMMAX
 10
420.0
 20
297.0
  9
$UNITMODE
 70
     0
  9
$VISRETAIN
 70
     1
  9
$PLINEGEN
 70
     0
  9
$PSLTSCALE
 70
     1
  9
$TREEDEPTH
 70
  3020
  9
$PICKSTYLE
 70
     1
  9
$CMLSTYLE
  2
STANDARD
  9
$CMLJUST
 70
     0
  9
$CMLSCALE
 40
20.0
  9
$SAVEIMAGES
 70
     1
  0
ENDSEC
  0
SECTION
  2
CLASSES
  0
CLASS
  1
ACDBDICTIONARYWDFLT
  2
AcDbDictionaryWithDefault
  3
ObjectDBX Classes
 90
    32768
280
     0
281
     0
  0
CLASS
  1
VISUALSTYLE
  2
AcDbVisualStyle
  3
ObjectDBX Classes
 90
     4095
280
     0
281
     0
  0
CLASS
  1
MATERIAL
  2
AcDbMaterial
  3
ObjectDBX Classes
 90
     1153
280
     0
281
     0
  0
CLASS
  1
SCALE
  2
AcDbScale
  3
ObjectDBX Classes
 90
     1153
280
     0
281
     0
  0
CLASS
  1
TABLESTYLE
  2
AcDbTableStyle
  3
ObjectDBX Classes
 90
     4095
280
     0
281
     0
  0
CLASS
  1
MLEADERSTYLE
  2
AcDbMLeaderStyle
  3
ACDB_MLEADERSTYLE_CLASS
 90
     4095
280
     0
281
     0
  0
CLASS
  1
SUN
  2
AcDbSun
  3
SCENEOE
 90
     1153
280
     0
281
     0
  0
CLASS
  1
DICTIONARYVAR
  2
AcDbDictionaryVar
  3
ObjectDBX Classes
 90
        0
280
     0
281
     0
  0
CLASS
  1
XRECORD
  2
AcDbXrecord
  3
ObjectDBX Classes
 90
    32768
280
     0
281
     0
  0
CLASS
  1
LWPOLYLINE
  2
AcDbPolyline
  3
ObjectDBX Classes
 90
    32768
280
     0
281
     1
  0
CLASS
  1
HATCH
  2
AcDbHatch
  3
ObjectDBX Classes
 90
    32768
280
     0
281
     1
  0
CLASS
  1
ACDBPLACEHOLDER
  2
AcDbPlaceHolder
  3
ObjectDBX Classes
 90
        0
280
     0
281
     0
  0
CLASS
  1
LAYOUT
  2
AcDbLayout
  3
ObjectDBX Classes
 90
        0
280
     0
281
     0
  0
ENDSEC
  0
SECTION
  2
TABLES
  0
TABLE
  2
VPORT
  5
8
330
0
100
AcDbSymbolTable
 70
     1
  0
VPORT
  5
29
330
8
100
AcDbSymbolTableRecord
100
AcDbViewportTableRecord
  2
*ACTIVE
 70
     0
 10
0.0
 20
0.0
 11
1.0
 21
1.0
 12
0.0
 22
0.0
 13
0.0
 23
0.0
 14
10.0
 24
10.0
 15
10.0
 25
10.0
 16
0.0
 26
0.0
 36
1.0
 17
0.0000000000000568
 27
-0.0000000000000568
 37
0.0
 40
668.1
 41
1.0
 42
50.0
 43
0.0
 44
0.0
 50
0.0
 51
0.0
 71
     0
 72
   100
 73
     1
 74
     3
 75
     0
 76
     0
 77
     0
 78
     0
  0
ENDTAB
  0
TABLE
  2
LTYPE
  5
5
330
0
100
AcDbSymbolTable
 70
     1
  0
LTYPE
  5
14
330
5
100
AcDbSymbolTableRecord
100
AcDbLinetypeTableRecord
  2
BYBLOCK
 70
     0
  3

 72
    65
 73
     0
 40
0.0
  0
LTYPE
  5
15
330
5
100
AcDbSymbolTableRecord
100
AcDbLinetypeTableRecord
  2
BYLAYER
 70
     0
  3

 72
    65
 73
     0
 40
0.0
  0
LTYPE
  5
16
330
5
100
AcDbSymbolTableRecord
100
AcDbLinetypeTableRecord
  2
CONTINUOUS
 70
     0
  3
Solid line
 72
    65
 73
     0
 40
0.0
  0
ENDTAB
  0
TABLE
  2
LAYER
  5
2
330
0
100
AcDbSymbolTable
 70
     4
  0
LAYER
  5
10
330
2
100
AcDbSymbolTableRecord
100
AcDbLayerTableRecord
  2
0
 70
     0
 62
     7
  6
CONTINUOUS
  0
LAYER
  5
6E
330
2
100
AcDbSymbolTableRecord
100
AcDbLayerTableRecord
  2
THICK
 70
     0
 62
     7
  6
CONTINUOUS
  0
LAYER
  5
6F
330
2
100
AcDbSymbolTableRecord
100
AcDbLayerTableRecord
  2
HIDDEN
 70
     0
 62
     7
  6
CONTINUOUS
  0
LAYER
  5
70
330
2
100
AcDbSymbolTableRecord
100
AcDbLayerTableRecord
  2
HASHLINES
 70
     0
 62
     7
  6
CONTINUOUS
  0
ENDTAB
  0
TABLE
  2
STYLE
  5
3
330
0
100
AcDbSymbolTable
 70
     1
  0
STYLE
  5
11
330
3
100
AcDbSymbolTableRecord
100
AcDbTextStyleTableRecord
  2
STANDARD
 70
     0
 40
0.0
 41
1.0
 50
0.0
 71
     0
 42
2.5
  3
txt
  4

  0
ENDTAB
  0
TABLE
  2
VIEW
  5
6
330
0
100
AcDbSymbolTable
 70
     0
  0
ENDTAB
  0
TABLE
  2
UCS
  5
7
330
0
100
AcDbSymbolTable
 70
     0
  0
ENDTAB
  0
TABLE
  2
APPID
  5
9
330
0
100
AcDbSymbolTable
 70
     3
  0
APPID
  5
12
330
9
100
AcDbSymbolTableRecord
100
AcDbRegAppTableRecord
  2
ACAD
 70
     0
  0
APPID
  5
71
330
9
100
AcDbSymbolTableRecord
100
AcDbRegAppTableRecord
  2
DBPROPERTIES
 70
     0
  0
APPID
  5
40D
330
9
100
AcDbSymbolTableRecord
100
AcDbRegAppTableRecord
  2
ACAD_MLEADERVER
 70
     0
  0
ENDTAB
  0
TABLE
  2
DIMSTYLE
  5
A
330
0
100
AcDbSymbolTable
 70
     1
  0
DIMSTYLE
105
27
330
A
100
AcDbSymbolTableRecord
100
AcDbDimStyleTableRecord
  2
ISO-25
 70
     0
  3

  4

  5

  6

  7

 40
1.0
 41
2.5
 42
0.625
 43
3.75
 44
1.25
 45
0.0
 46
0.0
 47
0.0
 48
0.0
140
2.5
141
2.5
142
0.0
143
0.03937007874016
144
1.0
145
0.0
146
1.0
147
0.625
 71
     0
 72
     0
 73
     0
 74
     0
 75
     0
 76
     0
 77
     1
 78
     8
170
     0
171
     3
172
     1
173
     0
174
     0
175
     0
176
     0
177
     0
178
     0
270
     2
271
     2
272
     2
273
     2
274
     3
340
11
275
     0
280
     0
281
     0
282
     0
283
     0
284
     8
285
     0
286
     0
287
     3
288
     0
  0
ENDTAB
  0
TABLE
  2
BLOCK_RECORD
  5
1
330
0
100
AcDbSymbolTable
 70
     0
  0
BLOCK_RECORD
  5
1F
330
1
100
AcDbSymbolTableRecord
100
AcDbBlockTableRecord
  2
*MODEL_SPACE
  0
BLOCK_RECORD
  5
1B
330
1
100
AcDbSymbolTableRecord
100
AcDbBlockTableRecord
  2
*PAPER_SPACE
  0
ENDTAB
  0
ENDSEC
  0
SECTION
  2
BLOCKS
  0
BLOCK
  5
20
330
1F
100
AcDbEntity
  8
0
100
AcDbBlockBegin
  2
*MODEL_SPACE
 70
     0
 10
0.0
 20
0.0
 30
0.0
  3
*MODEL_SPACE
  1

  0
ENDBLK
  5
21
330
1F
100
AcDbEntity
  8
0
100
AcDbBlockEnd
  0
BLOCK
  5
1C
330
1B
100
AcDbEntity
 67
     1
  8
0
100
AcDbBlockBegin
  2
*PAPER_SPACE
 70
     0
 10
0.0
 20
0.0
 30
0.0
  3
*PAPER_SPACE
  1

  0
ENDBLK
  5
1D
330
1B
100
AcDbEntity
 67
     1
  8
0
100
AcDbBlockEnd
  0
ENDSEC
  0
SECTION
  2
ENTITIES
  0
ARC
  5
72
330
1F
100
AcDbEntity
  8
THICK
100
AcDbCircle
 10
0.0
 20
0.0
 30
0.0
 40
316.5
100
AcDbArc
 50
180.0000198478428
 51
270.0000187239684
1001
DBPROPERTIES
1002
{
1000
PbThick
1002
}
  0
ARC
  5
73
330
1F
100
AcDbEntity
  8
THICK
100
AcDbCircle
 10
0.0
 20
0.0
 30
0.0
 40
316.5
100
AcDbArc
 50
270.0000187239684
 51
0.0
1001
DBPROPERTIES
1002
{
1000
PbThick
1002
}
  0
ARC
  5
74
330
1F
100
AcDbEntity
  8
THICK
100
AcDbCircle
 10
0.0
 20
0.0
 30
0.0
 40
316.5
100
AcDbArc
 50
0.0
 51
180.0000198478428
1001
DBPROPERTIES
1002
{
1000
PbThick
1002
}
  0
ARC
  5
75
330
1F
100
AcDbEntity
  8
THICK
100
AcDbCircle
 10
155.0000000000002
 20
268.4678751731759
 30
0.0
 40
6.0
100
AcDbArc
 50
240.0000058666979
 51
60.00002571454078
1001
DBPROPERTIES
1002
{
1000
PbThick
1002
}
  0
ARC
  5
76
330
1F
100
AcDbEntity
  8
THICK
100
AcDbCircle
 10
155.0000000000002
 20
268.4678751731759
 30
0.0
 40
6.0
100
AcDbArc
 50
60.00002571454078
 51
240.0000058666979
1001
DBPROPERTIES
1002
{
1000
PbThick
1002
}
  0
ARC
  5
77
330
1F
100
AcDbEntity
  8
THICK
100
AcDbCircle
 10
268.4678751731761
 20
154.9999999999998
 30
0.0
 40
5.999999999999999
100
AcDbArc
 50
209.9999930094276
 51
30.00001285727039
1001
DBPROPERTIES
1002
{
1000
PbThick
1002
}
  0
ARC
  5
78
330
1F
100
AcDbEntity
  8
THICK
100
AcDbCircle
 10
268.4678751731761
 20
154.9999999999998
 30
0.0
 40
5.999999999999999
100
AcDbArc
 50
30.00001285727039
 51
209.9999930094276
1001
DBPROPERTIES
1002
{
1000
PbThick
1002
}
  0
ARC
  5
79
330
1F
100
AcDbEntity
  8
THICK
100
AcDbCircle
 10
310.0
 20
-0.0000000000000759
 30
0.0
 40
6.0
100
AcDbArc
 50
180.0000198478428
 51
0.0
1001
DBPROPERTIES
1002
{
1000
PbThick
1002
}
  0
ARC
  5
7A
330
1F
100
AcDbEntity
  8
THICK
100
AcDbCircle
 10
310.0
 20
-0.0000000000000759
 30
0.0
 40
6.0
100
AcDbArc
 50
0.0
 51
180.0000198478428
1001
DBPROPERTIES
1002
{
1000
PbThick
1002
}
  0
ARC
  5
7B
330
1F
100
AcDbEntity
  8
THICK
100
AcDbCircle
 10
268.4678751731759
 20
-155.0000000000002
 30
0.0
 40
6.0
100
AcDbArc
 50
150.0000069905724
 51
329.9999871427296
1001
DBPROPERTIES
1002
{
1000
PbThick
1002
}
  0
ARC
  5
7C
330
1F
100
AcDbEntity
  8
THICK
100
AcDbCircle
 10
268.4678751731759
 20
-155.0000000000002
 30
0.0
 40
6.0
100
AcDbArc
 50
329.9999871427296
 51
150.0000069905724
1001
DBPROPERTIES
1002
{
1000
PbThick
1002
}
  0
ARC
  5
7D
330
1F
100
AcDbEntity
  8
THICK
100
AcDbCircle
 10
154.9999999999999
 20
-268.467875173176
 30
0.0
 40
6.0
100
AcDbArc
 50
119.999994133302
 51
299.9999742854592
1001
DBPROPERTIES
1002
{
1000
PbThick
1002
}
  0
ARC
  5
7E
330
1F
100
AcDbEntity
  8
THICK
100
AcDbCircle
 10
154.9999999999999
 20
-268.467875173176
 30
0.0
 40
6.0
100
AcDbArc
 50
299.9999742854592
 51
119.999994133302
1001
DBPROPERTIES
1002
{
1000
PbThick
1002
}
  0
ARC
  5
7F
330
1F
100
AcDbEntity
  8
THICK
100
AcDbCircle
 10
-0.0000000000000569
 20
-310.0
 30
0.0
 40
6.0
100
AcDbArc
 50
89.99998127603165
 51
270.0000187239684
1001
DBPROPERTIES
1002
{
1000
PbThick
1002
}
  0
ARC
  5
80
330
1F
100
AcDbEntity
  8
THICK
100
AcDbCircle
 10
-0.0000000000000569
 20
-310.0
 30
0.0
 40
6.0
100
AcDbArc
 50
270.0000187239684
 51
89.99998127603165
1001
DBPROPERTIES
1002
{
1000
PbThick
1002
}
  0
ARC
  5
81
330
1F
100
AcDbEntity
  8
THICK
100
AcDbCircle
 10
-155.0000000000001
 20
-268.4678751731759
 30
0.0
 40
5.999999999999999
100
AcDbArc
 50
60.00002571454078
 51
240.0000058666979
1001
DBPROPERTIES
1002
{
1000
PbThick
1002
}
  0
ARC
  5
82
330
1F
100
AcDbEntity
  8
THICK
100
AcDbCircle
 10
-155.0000000000001
 20
-268.4678751731759
 30
0.0
 40
5.999999999999999
100
AcDbArc
 50
240.0000058666979
 51
60.00002571454078
1001
DBPROPERTIES
1002
{
1000
PbThick
1002
}
  0
ARC
  5
83
330
1F
100
AcDbEntity
  8
THICK
100
AcDbCircle
 10
-268.467875173176
 20
-154.9999999999999
 30
0.0
 40
5.999999999999999
100
AcDbArc
 50
30.00001285727039
 51
209.9999930094276
1001
DBPROPERTIES
1002
{
1000
PbThick
1002
}
  0
ARC
  5
84
330
1F
100
AcDbEntity
  8
THICK
100
AcDbCircle
 10
-268.467875173176
 20
-154.9999999999999
 30
0.0
 40
5.999999999999999
100
AcDbArc
 50
209.9999930094276
 51
30.00001285727039
1001
DBPROPERTIES
1002
{
1000
PbThick
1002
}
  0
ARC
  5
85
330
1F
100
AcDbEntity
  8
THICK
100
AcDbCircle
 10
-310.0
 20
0.000000000000038
 30
0.0
 40
6.0
100
AcDbArc
 50
0.0
 51
180.0000198478428
1001
DBPROPERTIES
1002
{
1000
PbThick
1002
}
  0
ARC
  5
86
330
1F
100
AcDbEntity
  8
THICK
100
AcDbCircle
 10
-310.0
 20
0.000000000000038
 30
0.0
 40
6.0
100
AcDbArc
 50
180.0000198478428
 51
0.0
1001
DBPROPERTIES
1002
{
1000
PbThick
1002
}
  0
ARC
  5
87
330
1F
100
AcDbEntity
  8
THICK
100
AcDbCircle
 10
-268.467875173176
 20
155.0
 30
0.0
 40
6.0
100
AcDbArc
 50
329.9999871427296
 51
150.0000069905724
1001
DBPROPERTIES
1002
{
1000
PbThick
1002
}
  0
ARC
  5
88
330
1F
100
AcDbEntity
  8
THICK
100
AcDbCircle
 10
-268.467875173176
 20
155.0
 30
0.0
 40
6.0
100
AcDbArc
 50
150.0000069905724
 51
329.9999871427296
1001
DBPROPERTIES
1002
{
1000
PbThick
1002
}
  0
ARC
  5
89
330
1F
100
AcDbEntity
  8
THICK
100
AcDbCircle
 10
-154.9999999999999
 20
268.467875173176
 30
0.0
 40
5.999999999999999
100
AcDbArc
 50
299.9999742854592
 51
119.999994133302
1001
DBPROPERTIES
1002
{
1000
PbThick
1002
}
  0
ARC
  5
8A
330
1F
100
AcDbEntity
  8
THICK
100
AcDbCircle
 10
-154.9999999999999
 20
268.467875173176
 30
0.0
 40
5.999999999999999
100
AcDbArc
 50
119.999994133302
 51
299.9999742854592
1001
DBPROPERTIES
1002
{
1000
PbThick
1002
}
  0
ARC
  5
8B
330
1F
100
AcDbEntity
  8
THICK
100
AcDbCircle
 10
0.000000000000019
 20
310.0
 30
0.0
 40
6.0
100
AcDbArc
 50
270.0000187239684
 51
89.99998127603165
1001
DBPROPERTIES
1002
{
1000
PbThick
1002
}
  0
ARC
  5
8C
330
1F
100
AcDbEntity
  8
THICK
100
AcDbCircle
 10
0.000000000000019
 20
310.0
 30
0.0
 40
6.0
100
AcDbArc
 50
89.99998127603165
 51
270.0000187239684
1001
DBPROPERTIES
1002
{
1000
PbThick
1002
}
  0
ARC
  5
8D
330
1F
100
AcDbEntity
  8
THICK
100
AcDbCircle
 10
0.0
 20
0.0
 30
0.0
 40
280.0
100
AcDbArc
 50
270.0000187239684
 51
89.99998127603165
1001
DBPROPERTIES
1002
{
1000
PbThick
1002
}
  0
ARC
  5
8E
330
1F
100
AcDbEntity
  8
THICK
100
AcDbCircle
 10
0.0
 20
0.0
 30
0.0
 40
280.0
100
AcDbArc
 50
89.99998127603165
 51
270.0000187239684
1001
DBPROPERTIES
1002
{
1000
PbThick
1002
}
  0
ARC
  5
8F
330
1F
100
AcDbEntity
  8
THICK
100
AcDbCircle
 10
0.0000000000000007
 20
0.0
 30
0.0
 40
93.33333333333333
100
AcDbArc
 50
0.0
 51
89.99998127603165
1001
DBPROPERTIES
1002
{
1000
PbThick
1002
}
  0
ARC
  5
90
330
1F
100
AcDbEntity
  8
THICK
100
AcDbCircle
 10
0.0000000000000007
 20
0.0
 30
0.0
 40
93.33333333333333
100
AcDbArc
 50
270.0000187239684
 51
0.0
1001
DBPROPERTIES
1002
{
1000
PbThick
1002
}
  0
ARC
  5
91
330
1F
100
AcDbEntity
  8
THICK
100
AcDbCircle
 10
0.0
 20
0.0
 30
0.0
 40
82.33333333333333
100
AcDbArc
 50
0.0
 51
89.99998127603165
1001
DBPROPERTIES
1002
{
1000
PbThick
1002
}
  0
ARC
  5
92
330
1F
100
AcDbEntity
  8
THICK
100
AcDbCircle
 10
0.0000000000000007
 20
0.0
 30
0.0
 40
93.33333333333333
100
AcDbArc
 50
89.99998127603165
 51
180.0000198478428
1001
DBPROPERTIES
1002
{
1000
PbThick
1002
}
  0
ARC
  5
93
330
1F
100
AcDbEntity
  8
THICK
100
AcDbCircle
 10
0.0
 20
0.0
 30
0.0
 40
82.33333333333333
100
AcDbArc
 50
89.99998127603165
 51
180.0000198478428
1001
DBPROPERTIES
1002
{
1000
PbThick
1002
}
  0
ARC
  5
94
330
1F
100
AcDbEntity
  8
HIDDEN
100
AcDbCircle
 10
0.0
 20
0.0
 30
0.0
 40
91.8032786885246
100
AcDbArc
 50
89.99998127603165
 51
270.0000187239684
1001
DBPROPERTIES
1002
{
1000
PbHidd
1002
}
  0
ARC
  5
95
330
1F
100
AcDbEntity
  8
HIDDEN
100
AcDbCircle
 10
0.0
 20
0.0000000000000265
 30
0.0
 40
101.0
100
AcDbArc
 50
180.0000198478428
 51
182.9999871674622
1001
DBPROPERTIES
1002
{
1000
PbHidd
1002
}
  0
ARC
  5
96
330
1F
100
AcDbEntity
  8
HIDDEN
100
AcDbCircle
 10
0.0
 20
0.0000000000000265
 30
0.0
 40
101.0
100
AcDbArc
 50
356.999992984695
 51
0.0
1001
DBPROPERTIES
1002
{
1000
PbHidd
1002
}
  0
ARC
  5
97
330
1F
100
AcDbEntity
  8
HIDDEN
100
AcDbCircle
 10
0.0
 20
0.0000000000000196
 30
0.0
 40
112.0
100
AcDbArc
 50
81.0000175258962
 51
89.99998127603165
1001
DBPROPERTIES
1002
{
1000
PbHidd
1002
}
  0
LINE
  5
98
330
1F
100
AcDbEntity
  8
HIDDEN
100
AcDbLine
 10
17.52066008450597
 20
110.6210941466554
 30
0.0
 11
17.52066008450597
 21
110.6210941466554
 31
0.0
1001
DBPROPERTIES
1002
{
1000
PbHidd
1002
}
  0
ARC
  5
99
330
1F
100
AcDbEntity
  8
HIDDEN
100
AcDbCircle
 10
0.0
 20
0.0000000000000147
 30
0.0
 40
114.2857142857143
100
AcDbArc
 50
270.0000187239684
 51
299.6394119449834
1001
DBPROPERTIES
1002
{
1000
PbHidd
1002
}
  0
ARC
  5
9A
330
1F
100
AcDbEntity
  8
THICK
100
AcDbCircle
 10
0.0
 20
0.0000000000000147
 30
0.0
 40
114.2857142857143
100
AcDbArc
 50
299.6394119449834
 51
316.7614535115549
1001
DBPROPERTIES
1002
{
1000
PbThick
1002
}
  0
ARC
  5
9B
330
1F
100
AcDbEntity
  8
HIDDEN
100
AcDbCircle
 10
0.0
 20
0.0000000000000147
 30
0.0
 40
114.2857142857143
100
AcDbArc
 50
316.7614535115549
 51
351.0679890443671
1001
DBPROPERTIES
1002
{
1000
PbHidd
1002
}
  0
ARC
  5
9C
330
1F
100
AcDbEntity
  8
THICK
100
AcDbCircle
 10
0.0
 20
0.0000000000000147
 30
0.0
 40
114.2857142857143
100
AcDbArc
 50
351.0679890443671
 51
8.190030610938527
1001
DBPROPERTIES
1002
{
1000
PbThick
1002
}
  0
ARC
  5
9D
330
1F
100
AcDbEntity
  8
HIDDEN
100
AcDbCircle
 10
0.0
 20
0.0000000000000147
 30
0.0
 40
114.2857142857143
100
AcDbArc
 50
8.190030610938527
 51
42.49656614375072
1001
DBPROPERTIES
1002
{
1000
PbHidd
1002
}
  0
ARC
  5
9E
330
1F
100
AcDbEntity
  8
THICK
100
AcDbCircle
 10
0.0
 20
0.0000000000000147
 30
0.0
 40
114.2857142857143
100
AcDbArc
 50
42.49656614375072
 51
59.61860771032219
1001
DBPROPERTIES
1002
{
1000
PbThick
1002
}
  0
ARC
  5
9F
330
1F
100
AcDbEntity
  8
HIDDEN
100
AcDbCircle
 10
0.0
 20
0.0000000000000147
 30
0.0
 40
114.2857142857143
100
AcDbArc
 50
59.61860771032219
 51
89.99998127603165
1001
DBPROPERTIES
1002
{
1000
PbHidd
1002
}
  0
LINE
  5
A0
330
1F
100
AcDbEntity
  8
HIDDEN
100
AcDbLine
 10
9.955236908814818
 20
-113.8512966456038
 30
0.0
 11
9.955236908814818
 21
-113.8512966456038
 31
0.0
1001
DBPROPERTIES
1002
{
1000
PbHidd
1002
}
  0
LINE
  5
A1
330
1F
100
AcDbEntity
  8
HIDDEN
100
AcDbLine
 10
13.93332449028792
 20
-113.4331827925332
 30
0.0
 11
13.93332449028792
 21
-113.4331827925332
 31
0.0
1001
DBPROPERTIES
1002
{
1000
PbHidd
1002
}
  0
LINE
  5
A2
330
1F
100
AcDbEntity
  8
HIDDEN
100
AcDbLine
 10
113.8512966456039
 20
9.955236908814815
 30
0.0
 11
113.8512966456039
 21
9.955236908814815
 31
0.0
1001
DBPROPERTIES
1002
{
1000
PbHidd
1002
}
  0
LINE
  5
A3
330
1F
100
AcDbEntity
  8
HIDDEN
100
AcDbLine
 10
113.4331827925332
 20
13.93332449028791
 30
0.0
 11
113.4331827925332
 21
13.93332449028791
 31
0.0
1001
DBPROPERTIES
1002
{
1000
PbHidd
1002
}
  0
LINE
  5
A4
330
1F
100
AcDbEntity
  8
HIDDEN
100
AcDbLine
 10
113.4331827925332
 20
-13.93332449028795
 30
0.0
 11
113.4331827925332
 21
-13.93332449028795
 31
0.0
1001
DBPROPERTIES
1002
{
1000
PbHidd
1002
}
  0
LINE
  5
A5
330
1F
100
AcDbEntity
  8
HIDDEN
100
AcDbLine
 10
113.8512966456039
 20
-9.955236908814847
 30
0.0
 11
113.8512966456039
 21
-9.955236908814847
 31
0.0
1001
DBPROPERTIES
1002
{
1000
PbHidd
1002
}
  0
LINE
  5
A6
330
1F
100
AcDbEntity
  8
HIDDEN
100
AcDbLine
 10
13.93332449028796
 20
113.4331827925333
 30
0.0
 11
13.93332449028796
 21
113.4331827925333
 31
0.0
1001
DBPROPERTIES
1002
{
1000
PbHidd
1002
}
  0
LINE
  5
A7
330
1F
100
AcDbEntity
  8
HIDDEN
100
AcDbLine
 10
9.955236908814857
 20
113.8512966456039
 30
0.0
 11
9.955236908814857
 21
113.8512966456039
 31
0.0
1001
DBPROPERTIES
1002
{
1000
PbHidd
1002
}
  0
ARC
  5
A8
330
1F
100
AcDbEntity
  8
HIDDEN
100
AcDbCircle
 10
0.0
 20
0.0000000000000196
 30
0.0
 40
80.0
100
AcDbArc
 50
270.0000187239684
 51
273.0000257392733
1001
DBPROPERTIES
1002
{
1000
PbHidd
1002
}
  0
LINE
  5
A9
330
1F
100
AcDbEntity
  8
HIDDEN
100
AcDbLine
 10
4.186876499435458
 20
-79.89036278036588
 30
0.0
 11
4.186876499435458
 21
-79.89036278036588
 31
0.0
1001
DBPROPERTIES
1002
{
1000
PbHidd
1002
}
  0
ARC
  5
AA
330
1F
100
AcDbEntity
  8
THICK
100
AcDbCircle
 10
0.0
 20
0.0000000000000025
 30
0.0
 40
150.2271722750469
100
AcDbArc
 50
346.9745493728344
 51
0.0
1001
DBPROPERTIES
1002
{
1000
PbThick
1002
}
  0
ARC
  5
AB
330
1F
100
AcDbEntity
  8
HIDDEN
100
AcDbCircle
 10
0.0
 20
0.0000000000000025
 30
0.0
 40
150.2271722750469
100
AcDbArc
 50
321.0433962976855
 51
346.9745493728344
1001
DBPROPERTIES
1002
{
1000
PbHidd
1002
}
  0
ARC
  5
AC
330
1F
100
AcDbEntity
  8
THICK
100
AcDbCircle
 10
0.0
 20
0.0000000000000025
 30
0.0
 40
150.2271722750469
100
AcDbArc
 50
295.5459722734507
 51
321.0433962976855
1001
DBPROPERTIES
1002
{
1000
PbThick
1002
}
  0
ARC
  5
AD
330
1F
100
AcDbEntity
  8
HIDDEN
100
AcDbCircle
 10
0.0
 20
0.0000000000000025
 30
0.0
 40
150.2271722750469
100
AcDbArc
 50
269.6148191983019
 51
295.5459722734507
1001
DBPROPERTIES
1002
{
1000
PbHidd
1002
}
  0
ARC
  5
AE
330
1F
100
AcDbEntity
  8
THICK
100
AcDbCircle
 10
0.0
 20
0.0000000000000025
 30
0.0
 40
150.2271722750469
100
AcDbArc
 50
244.1173951740671
 51
269.6148191983019
1001
DBPROPERTIES
1002
{
1000
PbThick
1002
}
  0
ARC
  5
AF
330
1F
100
AcDbEntity
  8
HIDDEN
100
AcDbCircle
 10
0.0
 20
0.0000000000000025
 30
0.0
 40
150.2271722750469
100
AcDbArc
 50
218.1862420989182
 51
244.1173951740671
1001
DBPROPERTIES
1002
{
1000
PbHidd
1002
}
  0
ARC
  5
B0
330
1F
100
AcDbEntity
  8
THICK
100
AcDbCircle
 10
0.0
 20
0.0000000000000025
 30
0.0
 40
150.2271722750469
100
AcDbArc
 50
192.6888180746834
 51
218.1862420989182
1001
DBPROPERTIES
1002
{
1000
PbThick
1002
}
  0
ARC
  5
B1
330
1F
100
AcDbEntity
  8
HIDDEN
100
AcDbCircle
 10
0.0
 20
0.0000000000000025
 30
0.0
 40
150.2271722750469
100
AcDbArc
 50
179.9999801521572
 51
192.6888180746834
1001
DBPROPERTIES
1002
{
1000
PbHidd
1002
}
  0
ARC
  5
B2
330
1F
100
AcDbEntity
  8
HIDDEN
100
AcDbCircle
 10
0.0
 20
0.0000000000000028
 30
0.0
 40
152.6271722750469
100
AcDbArc
 50
180.0000198478428
 51
185.2491902880278
1001
DBPROPERTIES
1002
{
1000
PbHidd
1002
}
  0
ARC
  5
B3
330
1F
100
AcDbEntity
  8
HIDDEN
100
AcDbCircle
 10
0.0
 20
0.0000000000000028
 30
0.0
 40
152.6271722750469
100
AcDbArc
 50
185.2491902880278
 51
186.7507980775066
1001
DBPROPERTIES
1002
{
1000
PbHidd
1002
}
  0
ARC
  5
B4
330
1F
100
AcDbEntity
  8
THICK
100
AcDbCircle
 10
0.0
 20
0.0000000000000028
 30
0.0
 40
152.6271722750469
100
AcDbArc
 50
243.9146254103703
 51
263.2492007986189
1001
DBPROPERTIES
1002
{
1000
PbThick
1002
}
  0
ARC
  5
B5
330
1F
100
AcDbEntity
  8
HIDDEN
100
AcDbCircle
 10
0.0
 20
0.0000000000000028
 30
0.0
 40
152.6271722750469
100
AcDbArc
 50
218.3981791873371
 51
243.9146254103703
1001
DBPROPERTIES
1002
{
1000
PbHidd
1002
}
  0
ARC
  5
B6
330
1F
100
AcDbEntity
  8
THICK
100
AcDbCircle
 10
0.0
 20
0.0000000000000028
 30
0.0
 40
152.6271722750469
100
AcDbArc
 50
192.4860483109866
 51
218.3981791873371
1001
DBPROPERTIES
1002
{
1000
PbThick
1002
}
  0
ARC
  5
B7
330
1F
100
AcDbEntity
  8
HIDDEN
100
AcDbCircle
 10
0.0
 20
0.0000000000000028
 30
0.0
 40
152.6271722750469
100
AcDbArc
 50
186.7507980775066
 51
192.4860483109866
1001
DBPROPERTIES
1002
{
1000
PbHidd
1002
}
  0
ARC
  5
B8
330
1F
100
AcDbEntity
  8
THICK
100
AcDbCircle
 10
0.0
 20
0.0000000000000028
 30
0.0
 40
152.6271722750469
100
AcDbArc
 50
263.2492007986189
 51
264.7508085880978
1001
DBPROPERTIES
1002
{
1000
PbThick
1002
}
  0
ARC
  5
B9
330
1F
100
AcDbEntity
  8
HIDDEN
100
AcDbCircle
 10
0.0
 20
0.0000000000000028
 30
0.0
 40
152.6271722750469
100
AcDbArc
 50
269.8267562867208
 51
275.2491715640594
1001
DBPROPERTIES
1002
{
1000
PbHidd
1002
}
  0
ARC
  5
BA
330
1F
100
AcDbEntity
  8
THICK
100
AcDbCircle
 10
0.0
 20
0.0000000000000028
 30
0.0
 40
152.6271722750469
100
AcDbArc
 50
264.7508085880978
 51
269.8267562867208
1001
DBPROPERTIES
1002
{
1000
PbThick
1002
}
  0
ARC
  5
BB
330
1F
100
AcDbEntity
  8
HIDDEN
100
AcDbCircle
 10
0.0
 20
0.0000000000000028
 30
0.0
 40
152.6271722750469
100
AcDbArc
 50
275.2491715640594
 51
276.7508366493178
1001
DBPROPERTIES
1002
{
1000
PbHidd
1002
}
  0
ARC
  5
BC
330
1F
100
AcDbEntity
  8
THICK
100
AcDbCircle
 10
0.0
 20
0.0000000000000028
 30
0.0
 40
152.6271722750469
100
AcDbArc
 50
346.7717796091376
 51
353.2491820746506
1001
DBPROPERTIES
1002
{
1000
PbThick
1002
}
  0
ARC
  5
BD
330
1F
100
AcDbEntity
  8
HIDDEN
100
AcDbCircle
 10
0.0
 20
0.0000000000000028
 30
0.0
 40
152.6271722750469
100
AcDbArc
 50
321.2553333861044
 51
346.7717796091376
1001
DBPROPERTIES
1002
{
1000
PbHidd
1002
}
  0
ARC
  5
BE
330
1F
100
AcDbEntity
  8
THICK
100
AcDbCircle
 10
0.0
 20
0.0000000000000028
 30
0.0
 40
152.6271722750469
100
AcDbArc
 50
295.343202509754
 51
321.2553333861044
1001
DBPROPERTIES
1002
{
1000
PbThick
1002
}
  0
ARC
  5
BF
330
1F
100
AcDbEntity
  8
HIDDEN
100
AcDbCircle
 10
0.0
 20
0.0000000000000028
 30
0.0
 40
152.6271722750469
100
AcDbArc
 50
276.7508366493178
 51
295.343202509754
1001
DBPROPERTIES
1002
{
1000
PbHidd
1002
}
  0
ARC
  5
C0
330
1F
100
AcDbEntity
  8
THICK
100
AcDbCircle
 10
0.0
 20
0.0000000000000028
 30
0.0
 40
152.6271722750469
100
AcDbArc
 50
353.2491820746506
 51
354.7507898641294
1001
DBPROPERTIES
1002
{
1000
PbThick
1002
}
  0
ARC
  5
C1
330
1F
100
AcDbEntity
  8
THICK
100
AcDbCircle
 10
0.0
 20
0.0000000000000028
 30
0.0
 40
152.6271722750469
100
AcDbArc
 50
354.7507898641294
 51
0.0
1001
DBPROPERTIES
1002
{
1000
PbThick
1002
}
  0
ARC
  5
C2
330
1F
100
AcDbEntity
  8
HIDDEN
100
AcDbCircle
 10
0.0
 20
0.0000000000000028
 30
0.0
 40
147.4558909829367
100
AcDbArc
 50
0.0
 51
5.222854077294532
1001
DBPROPERTIES
1002
{
1000
PbHidd
1002
}
  0
ARC
  5
C3
330
1F
100
AcDbEntity
  8
THICK
100
AcDbCircle
 10
0.0
 20
0.0000000000000025
 30
0.0
 40
145.0558909829367
100
AcDbArc
 50
0.0
 51
5.210019822683602
1001
DBPROPERTIES
1002
{
1000
PbThick
1002
}
  0
ARC
  5
C4
330
1F
100
AcDbEntity
  8
HIDDEN
100
AcDbCircle
 10
0.0
 20
0.0000000000000025
 30
0.0
 40
145.0558909829367
100
AcDbArc
 50
174.7900000251592
 51
180.0000198478428
1001
DBPROPERTIES
1002
{
1000
PbHidd
1002
}
  0
ARC
  5
C5
330
1F
100
AcDbEntity
  8
HIDDEN
100
AcDbCircle
 10
0.0
 20
0.0000000000000028
 30
0.0
 40
147.4558909829367
100
AcDbArc
 50
174.7771657705483
 51
180.0000198478428
1001
DBPROPERTIES
1002
{
1000
PbHidd
1002
}
  0
ARC
  5
C6
330
1F
100
AcDbEntity
  8
HIDDEN
100
AcDbCircle
 10
0.0
 20
0.0000000000000162
 30
0.0
 40
70.0
100
AcDbArc
 50
270.0000187239684
 51
273.0000257392733
1001
DBPROPERTIES
1002
{
1000
PbHidd
1002
}
  0
LINE
  5
C7
330
1F
100
AcDbEntity
  8
HIDDEN
100
AcDbLine
 10
3.663516937006026
 20
-69.90406743282016
 30
0.0
 11
3.663516937006026
 21
-69.90406743282016
 31
0.0
1001
DBPROPERTIES
1002
{
1000
PbHidd
1002
}
  0
LINE
  5
C8
330
1F
100
AcDbEntity
  8
HIDDEN
100
AcDbLine
 10
-2.437111029046443
 20
-46.50284866840465
 30
0.0
 11
-2.437111029046443
 21
-46.50284866840465
 31
0.0
1001
DBPROPERTIES
1002
{
1000
PbHidd
1002
}
  0
LINE
  5
C9
330
1F
100
AcDbEntity
  8
HIDDEN
100
AcDbLine
 10
-3.663516937006102
 20
-69.90406743282013
 30
0.0
 11
-2.43711102904644
 21
-46.50284866840464
 31
0.0
1001
DBPROPERTIES
1002
{
1000
PbHidd
1002
}
  0
LINE
  5
CA
330
1F
100
AcDbEntity
  8
HIDDEN
100
AcDbLine
 10
-3.663516937006103
 20
-69.90406743282016
 30
0.0
 11
-3.663516937006103
 21
-69.90406743282016
 31
0.0
1001
DBPROPERTIES
1002
{
1000
PbHidd
1002
}
  0
ARC
  5
CB
330
1F
100
AcDbEntity
  8
HIDDEN
100
AcDbCircle
 10
0.0
 20
0.0000000000000162
 30
0.0
 40
70.0
100
AcDbArc
 50
267.0000117086634
 51
270.0000187239684
1001
DBPROPERTIES
1002
{
1000
PbHidd
1002
}
  0
LINE
  5
CC
330
1F
100
AcDbEntity
  8
HIDDEN
100
AcDbLine
 10
7.284631588706739
 20
-45.99335372704691
 30
0.0
 11
7.284631588706739
 21
-45.99335372704691
 31
0.0
1001
DBPROPERTIES
1002
{
1000
PbHidd
1002
}
  0
LINE
  5
CD
330
1F
100
AcDbEntity
  8
HIDDEN
100
AcDbLine
 10
10.95041255281614
 20
-69.13818384165961
 30
0.0
 11
7.28463158870674
 21
-45.9933537270469
 31
0.0
1001
DBPROPERTIES
1002
{
1000
PbHidd
1002
}
  0
LINE
  5
CE
330
1F
100
AcDbEntity
  8
HIDDEN
100
AcDbLine
 10
10.95041255281614
 20
-69.13818384165963
 30
0.0
 11
10.95041255281614
 21
-69.13818384165963
 31
0.0
1001
DBPROPERTIES
1002
{
1000
PbHidd
1002
}
  0
ARC
  5
CF
330
1F
100
AcDbEntity
  8
HIDDEN
100
AcDbCircle
 10
0.0
 20
0.0000000000000162
 30
0.0
 40
70.0
100
AcDbArc
 50
278.9999824741038
 51
284.9999965047138
1001
DBPROPERTIES
1002
{
1000
PbHidd
1002
}
  0
LINE
  5
D0
330
1F
100
AcDbEntity
  8
HIDDEN
100
AcDbLine
 10
18.11733315717643
 20
-67.61480784023476
 30
0.0
 11
18.11733315717643
 21
-67.61480784023476
 31
0.0
1001
DBPROPERTIES
1002
{
1000
PbHidd
1002
}
  0
LINE
  5
D1
330
1F
100
AcDbEntity
  8
HIDDEN
100
AcDbLine
 10
-12.05234020027406
 20
-44.9799459775276
 30
0.0
 11
-12.05234020027406
 21
-44.9799459775276
 31
0.0
1001
DBPROPERTIES
1002
{
1000
PbHidd
1002
}
  0
LINE
  5
D2
330
1F
100
AcDbEntity
  8
HIDDEN
100
AcDbLine
 10
-18.11733315717646
 20
-67.61480784023473
 30
0.0
 11
-12.05234020027406
 21
-44.97994597752759
 31
0.0
1001
DBPROPERTIES
1002
{
1000
PbHidd
1002
}
  0
LINE
  5
D3
330
1F
100
AcDbEntity
  8
HIDDEN
100
AcDbLine
 10
-18.11733315717647
 20
-67.61480784023476
 30
0.0
 11
-18.11733315717647
 21
-67.61480784023476
 31
0.0
1001
DBPROPERTIES
1002
{
1000
PbHidd
1002
}
  0
ARC
  5
D4
330
1F
100
AcDbEntity
  8
HIDDEN
100
AcDbCircle
 10
0.0
 20
0.0000000000000162
 30
0.0
 40
70.0
100
AcDbArc
 50
254.9999836474434
 51
260.9999976780534
1001
DBPROPERTIES
1002
{
1000
PbHidd
1002
}
  0
LINE
  5
D5
330
1F
100
AcDbEntity
  8
HIDDEN
100
AcDbLine
 10
-10.95041255281618
 20
-69.13818384165963
 30
0.0
 11
-10.95041255281618
 21
-69.13818384165963
 31
0.0
1001
DBPROPERTIES
1002
{
1000
PbHidd
1002
}
  0
LINE
  5
D6
330
1F
100
AcDbEntity
  8
HIDDEN
100
AcDbLine
 10
16.6880008504928
 20
-43.47372852721969
 30
0.0
 11
16.6880008504928
 21
-43.47372852721969
 31
0.0
1001
DBPROPERTIES
1002
{
1000
PbHidd
1002
}
  0
LINE
  5
D7
330
1F
100
AcDbEntity
  8
HIDDEN
100
AcDbLine
 10
25.08575646817098
 20
-65.3506298548041
 30
0.0
 11
16.68800085049279
 21
-43.47372852721969
 31
0.0
1001
DBPROPERTIES
1002
{
1000
PbHidd
1002
}
  0
LINE
  5
D8
330
1F
100
AcDbEntity
  8
HIDDEN
100
AcDbLine
 10
25.08575646817099
 20
-65.35062985480411
 30
0.0
 11
25.08575646817099
 21
-65.35062985480411
 31
0.0
1001
DBPROPERTIES
1002
{
1000
PbHidd
1002
}
  0
ARC
  5
D9
330
1F
100
AcDbEntity
  8
HIDDEN
100
AcDbCircle
 10
0.0
 20
0.0000000000000162
 30
0.0
 40
70.0
100
AcDbArc
 50
291.0000105353237
 51
297.0000245659338
1001
DBPROPERTIES
1002
{
1000
PbHidd
1002
}
  0
LINE
  5
DA
330
1F
100
AcDbEntity
  8
HIDDEN
100
AcDbLine
 10
31.77933498176824
 20
-62.37045669318574
 30
0.0
 11
31.77933498176824
 21
-62.37045669318575
 31
0.0
1001
DBPROPERTIES
1002
{
1000
PbHidd
1002
}
  0
LINE
  5
DB
330
1F
100
AcDbEntity
  8
HIDDEN
100
AcDbLine
 10
-21.1408242712049
 20
-41.49120380970498
 30
0.0
 11
-21.1408242712049
 21
-41.49120380970498
 31
0.0
1001
DBPROPERTIES
1002
{
1000
PbHidd
1002
}
  0
LINE
  5
DC
330
1F
100
AcDbEntity
  8
HIDDEN
100
AcDbLine
 10
-31.77933498176828
 20
-62.37045669318572
 30
0.0
 11
-21.1408242712049
 21
-41.49120380970498
 31
0.0
1001
DBPROPERTIES
1002
{
1000
PbHidd
1002
}
  0
LINE
  5
DD
330
1F
100
AcDbEntity
  8
HIDDEN
100
AcDbLine
 10
-31.77933498176828
 20
-62.37045669318574
 30
0.0
 11
-31.77933498176828
 21
-62.37045669318572
 31
0.0
1001
DBPROPERTIES
1002
{
1000
PbHidd
1002
}
  0
ARC
  5
DE
330
1F
100
AcDbEntity
  8
HIDDEN
100
AcDbCircle
 10
0.0
 20
0.0000000000000162
 30
0.0
 40
70.0
100
AcDbArc
 50
243.0000128820029
 51
249.0000269126129
1001
DBPROPERTIES
1002
{
1000
PbHidd
1002
}
  0
LINE
  5
DF
330
1F
100
AcDbEntity
  8
HIDDEN
100
AcDbLine
 10
-25.08575646817103
 20
-65.35062985480411
 30
0.0
 11
-25.08575646817103
 21
-65.35062985480411
 31
0.0
1001
DBPROPERTIES
1002
{
1000
PbHidd
1002
}
  0
LINE
  5
E0
330
1F
100
AcDbEntity
  8
HIDDEN
100
AcDbLine
 10
25.36202439719974
 20
-39.05409278065858
 30
0.0
 11
25.36202439719974
 21
-39.05409278065858
 31
0.0
1001
DBPROPERTIES
1002
{
1000
PbHidd
1002
}
  0
LINE
  5
E1
330
1F
100
AcDbEntity
  8
HIDDEN
100
AcDbLine
 10
38.12473245105185
 20
-58.70693975617967
 30
0.0
 11
25.36202439719973
 21
-39.05409278065858
 31
0.0
1001
DBPROPERTIES
1002
{
1000
PbHidd
1002
}
  0
LINE
  5
E2
330
1F
100
AcDbEntity
  8
HIDDEN
100
AcDbLine
 10
38.12473245105185
 20
-58.7069397561797
 30
0.0
 11
38.12473245105185
 21
-58.70693975617969
 31
0.0
1001
DBPROPERTIES
1002
{
1000
PbHidd
1002
}
  0
ARC
  5
E3
330
1F
100
AcDbEntity
  8
HIDDEN
100
AcDbCircle
 10
0.0
 20
0.0000000000000162
 30
0.0
 40
70.0
100
AcDbArc
 50
302.9999813007643
 51
308.9999953313742
1001
DBPROPERTIES
1002
{
1000
PbHidd
1002
}
  0
LINE
  5
E4
330
1F
100
AcDbEntity
  8
HIDDEN
100
AcDbLine
 10
44.05242737348858
 20
-54.40021730198796
 30
0.0
 11
44.05242737348858
 21
-54.40021730198798
 31
0.0
1001
DBPROPERTIES
1002
{
1000
PbHidd
1002
}
  0
LINE
  5
E5
330
1F
100
AcDbEntity
  8
HIDDEN
100
AcDbLine
 10
-29.30535287655411
 20
-36.18909693851292
 30
0.0
 11
-29.30535287655411
 21
-36.18909693851292
 31
0.0
1001
DBPROPERTIES
1002
{
1000
PbHidd
1002
}
  0
LINE
  5
E6
330
1F
100
AcDbEntity
  8
HIDDEN
100
AcDbLine
 10
-44.05242737348863
 20
-54.40021730198792
 30
0.0
 11
-29.3053528765541
 21
-36.18909693851292
 31
0.0
1001
DBPROPERTIES
1002
{
1000
PbHidd
1002
}
  0
LINE
  5
E7
330
1F
100
AcDbEntity
  8
HIDDEN
100
AcDbLine
 10
-44.05242737348864
 20
-54.40021730198794
 30
0.0
 11
-44.05242737348864
 21
-54.40021730198792
 31
0.0
1001
DBPROPERTIES
1002
{
1000
PbHidd
1002
}
  0
ARC
  5
E8
330
1F
100
AcDbEntity
  8
HIDDEN
100
AcDbCircle
 10
0.0
 20
0.0000000000000162
 30
0.0
 40
70.0
100
AcDbArc
 50
230.999984820783
 51
236.999998851393
1001
DBPROPERTIES
1002
{
1000
PbHidd
1002
}
  0
LINE
  5
E9
330
1F
100
AcDbEntity
  8
HIDDEN
100
AcDbLine
 10
-38.12473245105192
 20
-58.70693975617964
 30
0.0
 11
-38.12473245105192
 21
-58.70693975617965
 31
0.0
1001
DBPROPERTIES
1002
{
1000
PbHidd
1002
}
  0
LINE
  5
EA
330
1F
100
AcDbEntity
  8
HIDDEN
100
AcDbLine
 10
32.92760577725355
 20
-32.92760577725357
 30
0.0
 11
32.92760577725355
 21
-32.92760577725357
 31
0.0
1001
DBPROPERTIES
1002
{
1000
PbHidd
1002
}
  0
LINE
  5
EB
330
1F
100
AcDbEntity
  8
HIDDEN
100
AcDbLine
 10
49.4974746830583
 20
-49.49747468305832
 30
0.0
 11
32.92760577725355
 21
-32.92760577725356
 31
0.0
1001
DBPROPERTIES
1002
{
1000
PbHidd
1002
}
  0
LINE
  5
EC
330
1F
100
AcDbEntity
  8
HIDDEN
100
AcDbLine
 10
49.49747468305831
 20
-49.49747468305834
 30
0.0
 11
49.49747468305831
 21
-49.49747468305832
 31
0.0
1001
DBPROPERTIES
1002
{
1000
PbHidd
1002
}
  0
ARC
  5
ED
330
1F
100
AcDbEntity
  8
HIDDEN
100
AcDbCircle
 10
0.0
 20
0.0000000000000162
 30
0.0
 40
70.0
100
AcDbArc
 50
315.0000093619842
 51
321.0000233925941
1001
DBPROPERTIES
1002
{
1000
PbHidd
1002
}
  0
LINE
  5
EE
330
1F
100
AcDbEntity
  8
HIDDEN
100
AcDbLine
 10
54.40021730198794
 20
-44.05242737348863
 30
0.0
 11
54.40021730198794
 21
-44.05242737348864
 31
0.0
1001
DBPROPERTIES
1002
{
1000
PbHidd
1002
}
  0
LINE
  5
EF
330
1F
100
AcDbEntity
  8
HIDDEN
100
AcDbLine
 10
-36.18909693851294
 20
-29.30535287655408
 30
0.0
 11
-36.18909693851294
 21
-29.30535287655408
 31
0.0
1001
DBPROPERTIES
1002
{
1000
PbHidd
1002
}
  0
LINE
  5
F0
330
1F
100
AcDbEntity
  8
HIDDEN
100
AcDbLine
 10
-54.40021730198794
 20
-44.05242737348858
 30
0.0
 11
-36.18909693851293
 21
-29.30535287655408
 31
0.0
1001
DBPROPERTIES
1002
{
1000
PbHidd
1002
}
  0
LINE
  5
F1
330
1F
100
AcDbEntity
  8
HIDDEN
100
AcDbLine
 10
-54.40021730198796
 20
-44.05242737348861
 30
0.0
 11
-54.40021730198796
 21
-44.0524273734886
 31
0.0
1001
DBPROPERTIES
1002
{
1000
PbHidd
1002
}
  0
ARC
  5
F2
330
1F
100
AcDbEntity
  8
HIDDEN
100
AcDbCircle
 10
0.0
 20
0.0000000000000162
 30
0.0
 40
70.0
100
AcDbArc
 50
219.0000140553425
 51
225.0000280859525
1001
DBPROPERTIES
1002
{
1000
PbHidd
1002
}
  0
LINE
  5
F3
330
1F
100
AcDbEntity
  8
HIDDEN
100
AcDbLine
 10
-49.49747468305833
 20
-49.4974746830583
 30
0.0
 11
-49.49747468305833
 21
-49.49747468305831
 31
0.0
1001
DBPROPERTIES
1002
{
1000
PbHidd
1002
}
  0
LINE
  5
F4
330
1F
100
AcDbEntity
  8
HIDDEN
100
AcDbLine
 10
39.05409278065856
 20
-25.36202439719978
 30
0.0
 11
39.05409278065856
 21
-25.36202439719978
 31
0.0
1001
DBPROPERTIES
1002
{
1000
PbHidd
1002
}
  0
LINE
  5
F5
330
1F
100
AcDbEntity
  8
HIDDEN
100
AcDbLine
 10
58.70693975617965
 20
-38.12473245105191
 30
0.0
 11
39.05409278065856
 21
-25.36202439719977
 31
0.0
1001
DBPROPERTIES
1002
{
1000
PbHidd
1002
}
  0
LINE
  5
F6
330
1F
100
AcDbEntity
  8
HIDDEN
100
AcDbLine
 10
58.70693975617966
 20
-38.12473245105193
 30
0.0
 11
58.70693975617966
 21
-38.12473245105191
 31
0.0
1001
DBPROPERTIES
1002
{
1000
PbHidd
1002
}
  0
ARC
  5
F7
330
1F
100
AcDbEntity
  8
HIDDEN
100
AcDbCircle
 10
0.0
 20
0.0000000000000162
 30
0.0
 40
70.0
100
AcDbArc
 50
326.9999801274246
 51
332.9999941580346
1001
DBPROPERTIES
1002
{
1000
PbHidd
1002
}
  0
LINE
  5
F8
330
1F
100
AcDbEntity
  8
HIDDEN
100
AcDbLine
 10
62.37045669318573
 20
-31.7793349817683
 30
0.0
 11
62.37045669318573
 21
-31.77933498176831
 31
0.0
1001
DBPROPERTIES
1002
{
1000
PbHidd
1002
}
  0
LINE
  5
F9
330
1F
100
AcDbEntity
  8
HIDDEN
100
AcDbLine
 10
-41.491203809705
 20
-21.14082427120488
 30
0.0
 11
-41.491203809705
 21
-21.14082427120488
 31
0.0
1001
DBPROPERTIES
1002
{
1000
PbHidd
1002
}
  0
LINE
  5
FA
330
1F
100
AcDbEntity
  8
HIDDEN
100
AcDbLine
 10
-62.37045669318573
 20
-31.77933498176825
 30
0.0
 11
-41.491203809705
 21
-21.14082427120488
 31
0.0
1001
DBPROPERTIES
1002
{
1000
PbHidd
1002
}
  0
LINE
  5
FB
330
1F
100
AcDbEntity
  8
HIDDEN
100
AcDbLine
 10
-62.37045669318574
 20
-31.77933498176826
 30
0.0
 11
-62.37045669318574
 21
-31.77933498176825
 31
0.0
1001
DBPROPERTIES
1002
{
1000
PbHidd
1002
}
  0
ARC
  5
FC
330
1F
100
AcDbEntity
  8
HIDDEN
100
AcDbCircle
 10
0.0
 20
0.0000000000000162
 30
0.0
 40
70.0
100
AcDbArc
 50
206.9999859941226
 51
213.0000000247326
1001
DBPROPERTIES
1002
{
1000
PbHidd
1002
}
  0
LINE
  5
FD
330
1F
100
AcDbEntity
  8
HIDDEN
100
AcDbLine
 10
-58.70693975617968
 20
-38.12473245105186
 30
0.0
 11
-58.70693975617968
 21
-38.12473245105188
 31
0.0
1001
DBPROPERTIES
1002
{
1000
PbHidd
1002
}
  0
LINE
  5
FE
330
1F
100
AcDbEntity
  8
HIDDEN
100
AcDbLine
 10
43.47372852721968
 20
-16.68800085049284
 30
0.0
 11
43.47372852721968
 21
-16.68800085049284
 31
0.0
1001
DBPROPERTIES
1002
{
1000
PbHidd
1002
}
  0
LINE
  5
FF
330
1F
100
AcDbEntity
  8
HIDDEN
100
AcDbLine
 10
65.3506298548041
 20
-25.08575646817106
 30
0.0
 11
43.47372852721968
 21
-16.68800085049284
 31
0.0
1001
DBPROPERTIES
1002
{
1000
PbHidd
1002
}
  0
LINE
  5
100
330
1F
100
AcDbEntity
  8
HIDDEN
100
AcDbLine
 10
65.35062985480411
 20
-25.08575646817106
 30
0.0
 11
65.35062985480411
 21
-25.08575646817105
 31
0.0
1001
DBPROPERTIES
1002
{
1000
PbHidd
1002
}
  0
ARC
  5
101
330
1F
100
AcDbEntity
  8
HIDDEN
100
AcDbCircle
 10
0.0
 20
0.0000000000000162
 30
0.0
 40
70.0
100
AcDbArc
 50
339.0000081886445
 51
345.0000222192546
1001
DBPROPERTIES
1002
{
1000
PbHidd
1002
}
  0
LINE
  5
102
330
1F
100
AcDbEntity
  8
HIDDEN
100
AcDbLine
 10
67.61480784023476
 20
-18.11733315717649
 30
0.0
 11
67.61480784023476
 21
-18.1173331571765
 31
0.0
1001
DBPROPERTIES
1002
{
1000
PbHidd
1002
}
  0
LINE
  5
103
330
1F
100
AcDbEntity
  8
HIDDEN
100
AcDbLine
 10
-44.97994597752761
 20
-12.05234020027403
 30
0.0
 11
-44.97994597752761
 21
-12.05234020027403
 31
0.0
1001
DBPROPERTIES
1002
{
1000
PbHidd
1002
}
  0
LINE
  5
104
330
1F
100
AcDbEntity
  8
HIDDEN
100
AcDbLine
 10
-67.61480784023476
 20
-18.11733315717643
 30
0.0
 11
-44.9799459775276
 21
-12.05234020027404
 31
0.0
1001
DBPROPERTIES
1002
{
1000
PbHidd
1002
}
  0
LINE
  5
105
330
1F
100
AcDbEntity
  8
HIDDEN
100
AcDbLine
 10
-67.61480784023477
 20
-18.11733315717644
 30
0.0
 11
-67.61480784023477
 21
-18.11733315717643
 31
0.0
1001
DBPROPERTIES
1002
{
1000
PbHidd
1002
}
  0
ARC
  5
106
330
1F
100
AcDbEntity
  8
HIDDEN
100
AcDbCircle
 10
0.0
 20
0.0000000000000162
 30
0.0
 40
70.0
100
AcDbArc
 50
195.0000152286821
 51
200.9999719635126
1001
DBPROPERTIES
1002
{
1000
PbHidd
1002
}
  0
LINE
  5
107
330
1F
100
AcDbEntity
  8
HIDDEN
100
AcDbLine
 10
-65.35062985480411
 20
-25.08575646817099
 30
0.0
 11
-65.35062985480411
 21
-25.085756468171
 31
0.0
1001
DBPROPERTIES
1002
{
1000
PbHidd
1002
}
  0
LINE
  5
108
330
1F
100
AcDbEntity
  8
HIDDEN
100
AcDbLine
 10
45.9933537270469
 20
-7.284631588706764
 30
0.0
 11
45.9933537270469
 21
-7.284631588706764
 31
0.0
1001
DBPROPERTIES
1002
{
1000
PbHidd
1002
}
  0
LINE
  5
109
330
1F
100
AcDbEntity
  8
HIDDEN
100
AcDbLine
 10
69.13818384165961
 20
-10.95041255281618
 30
0.0
 11
45.99335372704689
 21
-7.284631588706759
 31
0.0
1001
DBPROPERTIES
1002
{
1000
PbHidd
1002
}
  0
LINE
  5
10A
330
1F
100
AcDbEntity
  8
HIDDEN
100
AcDbLine
 10
69.13818384165964
 20
-10.95041255281618
 30
0.0
 11
69.13818384165964
 21
-10.95041255281617
 31
0.0
1001
DBPROPERTIES
1002
{
1000
PbHidd
1002
}
  0
ARC
  5
10B
330
1F
100
AcDbEntity
  8
HIDDEN
100
AcDbCircle
 10
0.0
 20
0.0000000000000162
 30
0.0
 40
70.0
100
AcDbArc
 50
350.9999789540851
 51
356.999992984695
1001
DBPROPERTIES
1002
{
1000
PbHidd
1002
}
  0
LINE
  5
10C
330
1F
100
AcDbEntity
  8
HIDDEN
100
AcDbLine
 10
69.90406743282017
 20
-3.663516937006084
 30
0.0
 11
69.90406743282017
 21
-3.663516937006094
 31
0.0
1001
DBPROPERTIES
1002
{
1000
PbHidd
1002
}
  0
LINE
  5
10D
330
1F
100
AcDbEntity
  8
HIDDEN
100
AcDbLine
 10
-46.50284866840465
 20
-2.437111029046402
 30
0.0
 11
-46.50284866840465
 21
-2.437111029046402
 31
0.0
1001
DBPROPERTIES
1002
{
1000
PbHidd
1002
}
  0
LINE
  5
10E
330
1F
100
AcDbEntity
  8
HIDDEN
100
AcDbLine
 10
-69.90406743282016
 20
-3.663516937006047
 30
0.0
 11
-46.50284866840465
 21
-2.437111029046405
 31
0.0
1001
DBPROPERTIES
1002
{
1000
PbHidd
1002
}
  0
LINE
  5
10F
330
1F
100
AcDbEntity
  8
HIDDEN
100
AcDbLine
 10
-69.90406743282017
 20
-3.663516937006053
 30
0.0
 11
-69.90406743282017
 21
-3.663516937006043
 31
0.0
1001
DBPROPERTIES
1002
{
1000
PbHidd
1002
}
  0
ARC
  5
110
330
1F
100
AcDbEntity
  8
HIDDEN
100
AcDbCircle
 10
0.0
 20
0.0000000000000162
 30
0.0
 40
70.0
100
AcDbArc
 50
182.9999871674622
 51
189.0000011980722
1001
DBPROPERTIES
1002
{
1000
PbHidd
1002
}
  0
LINE
  5
111
330
1F
100
AcDbEntity
  8
HIDDEN
100
AcDbLine
 10
-69.13818384165964
 20
-10.95041255281613
 30
0.0
 11
-69.13818384165964
 21
-10.95041255281614
 31
0.0
1001
DBPROPERTIES
1002
{
1000
PbHidd
1002
}
  0
LINE
  5
112
330
1F
100
AcDbEntity
  8
HIDDEN
100
AcDbLine
 10
46.50284866840465
 20
2.437111029046377
 30
0.0
 11
46.50284866840465
 21
2.437111029046377
 31
0.0
1001
DBPROPERTIES
1002
{
1000
PbHidd
1002
}
  0
LINE
  5
113
330
1F
100
AcDbEntity
  8
HIDDEN
100
AcDbLine
 10
69.90406743282016
 20
3.663516937006007
 30
0.0
 11
46.50284866840465
 21
2.437111029046378
 31
0.0
1001
DBPROPERTIES
1002
{
1000
PbHidd
1002
}
  0
LINE
  5
114
330
1F
100
AcDbEntity
  8
HIDDEN
100
AcDbLine
 10
69.90406743282017
 20
3.663516937006004
 30
0.0
 11
69.90406743282017
 21
3.663516937006015
 31
0.0
1001
DBPROPERTIES
1002
{
1000
PbHidd
1002
}
  0
ARC
  5
115
330
1F
100
AcDbEntity
  8
HIDDEN
100
AcDbCircle
 10
0.0
 20
0.0000000000000162
 30
0.0
 40
70.0
100
AcDbArc
 50
3.00000701530499
 51
9.000021045914972
1001
DBPROPERTIES
1002
{
1000
PbHidd
1002
}
  0
LINE
  5
116
330
1F
100
AcDbEntity
  8
HIDDEN
100
AcDbLine
 10
69.13818384165965
 20
10.95041255281611
 30
0.0
 11
69.13818384165965
 21
10.9504125528161
 31
0.0
1001
DBPROPERTIES
1002
{
1000
PbHidd
1002
}
  0
LINE
  5
117
330
1F
100
AcDbEntity
  8
HIDDEN
100
AcDbLine
 10
-45.9933537270469
 20
7.284631588706759
 30
0.0
 11
-45.9933537270469
 21
7.284631588706759
 31
0.0
1001
DBPROPERTIES
1002
{
1000
PbHidd
1002
}
  0
LINE
  5
118
330
1F
100
AcDbEntity
  8
HIDDEN
100
AcDbLine
 10
-69.13818384165961
 20
10.95041255281617
 30
0.0
 11
-45.99335372704689
 21
7.284631588706755
 31
0.0
1001
DBPROPERTIES
1002
{
1000
PbHidd
1002
}
  0
LINE
  5
119
330
1F
100
AcDbEntity
  8
HIDDEN
100
AcDbLine
 10
-69.13818384165964
 20
10.95041255281617
 30
0.0
 11
-69.13818384165964
 21
10.95041255281618
 31
0.0
1001
DBPROPERTIES
1002
{
1000
PbHidd
1002
}
  0
ARC
  5
11A
330
1F
100
AcDbEntity
  8
HIDDEN
100
AcDbCircle
 10
0.0
 20
0.0000000000000162
 30
0.0
 40
70.0
100
AcDbArc
 50
170.9999988019279
 51
177.0000128325378
1001
DBPROPERTIES
1002
{
1000
PbHidd
1002
}
  0
LINE
  5
11B
330
1F
100
AcDbEntity
  8
HIDDEN
100
AcDbLine
 10
-69.90406743282017
 20
3.663516937006086
 30
0.0
 11
-69.90406743282017
 21
3.663516937006076
 31
0.0
1001
DBPROPERTIES
1002
{
1000
PbHidd
1002
}
  0
LINE
  5
11C
330
1F
100
AcDbEntity
  8
HIDDEN
100
AcDbLine
 10
44.97994597752761
 20
12.05234020027402
 30
0.0
 11
44.97994597752761
 21
12.05234020027402
 31
0.0
1001
DBPROPERTIES
1002
{
1000
PbHidd
1002
}
  0
LINE
  5
11D
330
1F
100
AcDbEntity
  8
HIDDEN
100
AcDbLine
 10
67.61480784023476
 20
18.11733315717641
 30
0.0
 11
44.97994597752761
 21
12.05234020027402
 31
0.0
1001
DBPROPERTIES
1002
{
1000
PbHidd
1002
}
  0
LINE
  5
11E
330
1F
100
AcDbEntity
  8
HIDDEN
100
AcDbLine
 10
67.61480784023479
 20
18.11733315717641
 30
0.0
 11
67.61480784023479
 21
18.11733315717643
 31
0.0
1001
DBPROPERTIES
1002
{
1000
PbHidd
1002
}
  0
ARC
  5
11F
330
1F
100
AcDbEntity
  8
HIDDEN
100
AcDbCircle
 10
0.0
 20
0.0000000000000162
 30
0.0
 40
70.0
100
AcDbArc
 50
14.99997778074544
 51
20.99999181135542
1001
DBPROPERTIES
1002
{
1000
PbHidd
1002
}
  0
LINE
  5
120
330
1F
100
AcDbEntity
  8
HIDDEN
100
AcDbLine
 10
65.35062985480414
 20
25.08575646817099
 30
0.0
 11
65.35062985480414
 21
25.08575646817098
 31
0.0
1001
DBPROPERTIES
1002
{
1000
PbHidd
1002
}
  0
LINE
  5
121
330
1F
100
AcDbEntity
  8
HIDDEN
100
AcDbLine
 10
-43.47372852721968
 20
16.68800085049282
 30
0.0
 11
-43.47372852721968
 21
16.68800085049282
 31
0.0
1001
DBPROPERTIES
1002
{
1000
PbHidd
1002
}
  0
LINE
  5
122
330
1F
100
AcDbEntity
  8
HIDDEN
100
AcDbLine
 10
-65.35062985480411
 20
25.08575646817102
 30
0.0
 11
-43.47372852721968
 21
16.68800085049281
 31
0.0
1001
DBPROPERTIES
1002
{
1000
PbHidd
1002
}
  0
LINE
  5
123
330
1F
100
AcDbEntity
  8
HIDDEN
100
AcDbLine
 10
-65.35062985480414
 20
25.08575646817102
 30
0.0
 11
-65.35062985480414
 21
25.08575646817103
 31
0.0
1001
DBPROPERTIES
1002
{
1000
PbHidd
1002
}
  0
ARC
  5
124
330
1F
100
AcDbEntity
  8
HIDDEN
100
AcDbCircle
 10
0.0
 20
0.0000000000000162
 30
0.0
 40
70.0
100
AcDbArc
 50
159.0000280364874
 51
164.9999847713179
1001
DBPROPERTIES
1002
{
1000
PbHidd
1002
}
  0
LINE
  5
125
330
1F
100
AcDbEntity
  8
HIDDEN
100
AcDbLine
 10
-67.61480784023479
 20
18.11733315717647
 30
0.0
 11
-67.61480784023479
 21
18.11733315717646
 31
0.0
1001
DBPROPERTIES
1002
{
1000
PbHidd
1002
}
  0
LINE
  5
126
330
1F
100
AcDbEntity
  8
HIDDEN
100
AcDbLine
 10
41.491203809705
 20
21.14082427120488
 30
0.0
 11
41.491203809705
 21
21.14082427120488
 31
0.0
1001
DBPROPERTIES
1002
{
1000
PbHidd
1002
}
  0
LINE
  5
127
330
1F
100
AcDbEntity
  8
HIDDEN
100
AcDbLine
 10
62.37045669318574
 20
31.77933498176825
 30
0.0
 11
41.49120380970499
 21
21.14082427120488
 31
0.0
1001
DBPROPERTIES
1002
{
1000
PbHidd
1002
}
  0
LINE
  5
128
330
1F
100
AcDbEntity
  8
HIDDEN
100
AcDbLine
 10
62.37045669318577
 20
31.77933498176826
 30
0.0
 11
62.37045669318577
 21
31.77933498176827
 31
0.0
1001
DBPROPERTIES
1002
{
1000
PbHidd
1002
}
  0
ARC
  5
129
330
1F
100
AcDbEntity
  8
HIDDEN
100
AcDbCircle
 10
0.0
 20
0.0000000000000162
 30
0.0
 40
70.0
100
AcDbArc
 50
27.0000058419654
 51
33.00001987257539
1001
DBPROPERTIES
1002
{
1000
PbHidd
1002
}
  0
LINE
  5
12A
330
1F
100
AcDbEntity
  8
HIDDEN
100
AcDbLine
 10
58.7069397561797
 20
38.12473245105189
 30
0.0
 11
58.7069397561797
 21
38.12473245105188
 31
0.0
1001
DBPROPERTIES
1002
{
1000
PbHidd
1002
}
  0
LINE
  5
12B
330
1F
100
AcDbEntity
  8
HIDDEN
100
AcDbLine
 10
-39.05409278065856
 20
25.36202439719977
 30
0.0
 11
-39.05409278065856
 21
25.36202439719977
 31
0.0
1001
DBPROPERTIES
1002
{
1000
PbHidd
1002
}
  0
LINE
  5
12C
330
1F
100
AcDbEntity
  8
HIDDEN
100
AcDbLine
 10
-58.70693975617966
 20
38.12473245105191
 30
0.0
 11
-39.05409278065856
 21
25.36202439719976
 31
0.0
1001
DBPROPERTIES
1002
{
1000
PbHidd
1002
}
  0
LINE
  5
12D
330
1F
100
AcDbEntity
  8
HIDDEN
100
AcDbLine
 10
-58.70693975617969
 20
38.12473245105191
 30
0.0
 11
-58.70693975617969
 21
38.12473245105193
 31
0.0
1001
DBPROPERTIES
1002
{
1000
PbHidd
1002
}
  0
ARC
  5
12E
330
1F
100
AcDbEntity
  8
HIDDEN
100
AcDbCircle
 10
0.0
 20
0.0000000000000162
 30
0.0
 40
70.0
100
AcDbArc
 50
146.9999999752674
 51
153.0000140058774
1001
DBPROPERTIES
1002
{
1000
PbHidd
1002
}
  0
LINE
  5
12F
330
1F
100
AcDbEntity
  8
HIDDEN
100
AcDbLine
 10
-62.37045669318575
 20
31.77933498176831
 30
0.0
 11
-62.37045669318575
 21
31.7793349817683
 31
0.0
1001
DBPROPERTIES
1002
{
1000
PbHidd
1002
}
  0
LINE
  5
130
330
1F
100
AcDbEntity
  8
HIDDEN
100
AcDbLine
 10
36.18909693851297
 20
29.30535287655406
 30
0.0
 11
36.18909693851297
 21
29.30535287655406
 31
0.0
1001
DBPROPERTIES
1002
{
1000
PbHidd
1002
}
  0
LINE
  5
131
330
1F
100
AcDbEntity
  8
HIDDEN
100
AcDbLine
 10
54.40021730198799
 20
44.05242737348858
 30
0.0
 11
36.18909693851296
 21
29.30535287655406
 31
0.0
1001
DBPROPERTIES
1002
{
1000
PbHidd
1002
}
  0
LINE
  5
132
330
1F
100
AcDbEntity
  8
HIDDEN
100
AcDbLine
 10
54.40021730198801
 20
44.05242737348858
 30
0.0
 11
54.40021730198801
 21
44.05242737348859
 31
0.0
1001
DBPROPERTIES
1002
{
1000
PbHidd
1002
}
  0
ARC
  5
133
330
1F
100
AcDbEntity
  8
HIDDEN
100
AcDbCircle
 10
0.0
 20
0.0000000000000162
 30
0.0
 40
70.0
100
AcDbArc
 50
38.99997660740585
 51
44.99999063801582
1001
DBPROPERTIES
1002
{
1000
PbHidd
1002
}
  0
LINE
  5
134
330
1F
100
AcDbEntity
  8
HIDDEN
100
AcDbLine
 10
49.49747468305837
 20
49.49747468305831
 30
0.0
 11
49.49747468305837
 21
49.49747468305829
 31
0.0
1001
DBPROPERTIES
1002
{
1000
PbHidd
1002
}
  0
LINE
  5
135
330
1F
100
AcDbEntity
  8
HIDDEN
100
AcDbLine
 10
-32.92760577725355
 20
32.92760577725357
 30
0.0
 11
-32.92760577725355
 21
32.92760577725357
 31
0.0
1001
DBPROPERTIES
1002
{
1000
PbHidd
1002
}
  0
LINE
  5
136
330
1F
100
AcDbEntity
  8
HIDDEN
100
AcDbLine
 10
-49.49747468305832
 20
49.49747468305833
 30
0.0
 11
-32.92760577725355
 21
32.92760577725357
 31
0.0
1001
DBPROPERTIES
1002
{
1000
PbHidd
1002
}
  0
LINE
  5
137
330
1F
100
AcDbEntity
  8
HIDDEN
100
AcDbLine
 10
-49.49747468305834
 20
49.49747468305833
 30
0.0
 11
-49.49747468305834
 21
49.49747468305834
 31
0.0
1001
DBPROPERTIES
1002
{
1000
PbHidd
1002
}
  0
ARC
  5
138
330
1F
100
AcDbEntity
  8
HIDDEN
100
AcDbCircle
 10
0.0
 20
0.0000000000000162
 30
0.0
 40
70.0
100
AcDbArc
 50
134.9999719140475
 51
140.9999859446575
1001
DBPROPERTIES
1002
{
1000
PbHidd
1002
}
  0
LINE
  5
139
330
1F
100
AcDbEntity
  8
HIDDEN
100
AcDbLine
 10
-54.40021730198797
 20
44.05242737348865
 30
0.0
 11
-54.40021730198797
 21
44.05242737348863
 31
0.0
1001
DBPROPERTIES
1002
{
1000
PbHidd
1002
}
  0
LINE
  5
13A
330
1F
100
AcDbEntity
  8
HIDDEN
100
AcDbLine
 10
29.30535287655411
 20
36.18909693851292
 30
0.0
 11
29.30535287655411
 21
36.18909693851292
 31
0.0
1001
DBPROPERTIES
1002
{
1000
PbHidd
1002
}
  0
LINE
  5
13B
330
1F
100
AcDbEntity
  8
HIDDEN
100
AcDbLine
 10
44.05242737348864
 20
54.40021730198793
 30
0.0
 11
29.3053528765541
 21
36.18909693851292
 31
0.0
1001
DBPROPERTIES
1002
{
1000
PbHidd
1002
}
  0
LINE
  5
13C
330
1F
100
AcDbEntity
  8
HIDDEN
100
AcDbLine
 10
44.05242737348865
 20
54.40021730198794
 30
0.0
 11
44.05242737348865
 21
54.40021730198796
 31
0.0
1001
DBPROPERTIES
1002
{
1000
PbHidd
1002
}
  0
ARC
  5
13D
330
1F
100
AcDbEntity
  8
HIDDEN
100
AcDbCircle
 10
0.0
 20
0.0000000000000162
 30
0.0
 40
70.0
100
AcDbArc
 50
51.00000466862581
 51
57.0000186992358
1001
DBPROPERTIES
1002
{
1000
PbHidd
1002
}
  0
LINE
  5
13E
330
1F
100
AcDbEntity
  8
HIDDEN
100
AcDbLine
 10
38.12473245105195
 20
58.70693975617969
 30
0.0
 11
38.12473245105195
 21
58.70693975617967
 31
0.0
1001
DBPROPERTIES
1002
{
1000
PbHidd
1002
}
  0
LINE
  5
13F
330
1F
100
AcDbEntity
  8
HIDDEN
100
AcDbLine
 10
-25.36202439719975
 20
39.05409278065857
 30
0.0
 11
-25.36202439719975
 21
39.05409278065857
 31
0.0
1001
DBPROPERTIES
1002
{
1000
PbHidd
1002
}
  0
LINE
  5
140
330
1F
100
AcDbEntity
  8
HIDDEN
100
AcDbLine
 10
-38.12473245105188
 20
58.70693975617968
 30
0.0
 11
-25.36202439719975
 21
39.05409278065856
 31
0.0
1001
DBPROPERTIES
1002
{
1000
PbHidd
1002
}
  0
LINE
  5
141
330
1F
100
AcDbEntity
  8
HIDDEN
100
AcDbLine
 10
-38.12473245105191
 20
58.70693975617969
 30
0.0
 11
-38.12473245105191
 21
58.70693975617971
 31
0.0
1001
DBPROPERTIES
1002
{
1000
PbHidd
1002
}
  0
ARC
  5
142
330
1F
100
AcDbEntity
  8
HIDDEN
100
AcDbCircle
 10
0.0
 20
0.0000000000000162
 30
0.0
 40
70.0
100
AcDbArc
 50
123.000001148607
 51
129.000015179217
1001
DBPROPERTIES
1002
{
1000
PbHidd
1002
}
  0
LINE
  5
143
330
1F
100
AcDbEntity
  8
HIDDEN
100
AcDbLine
 10
-44.05242737348863
 20
54.40021730198799
 30
0.0
 11
-44.05242737348863
 21
54.40021730198797
 31
0.0
1001
DBPROPERTIES
1002
{
1000
PbHidd
1002
}
  0
LINE
  5
144
330
1F
100
AcDbEntity
  8
HIDDEN
100
AcDbLine
 10
21.14082427120491
 20
41.49120380970498
 30
0.0
 11
21.14082427120491
 21
41.49120380970498
 31
0.0
1001
DBPROPERTIES
1002
{
1000
PbHidd
1002
}
  0
LINE
  5
145
330
1F
100
AcDbEntity
  8
HIDDEN
100
AcDbLine
 10
31.7793349817683
 20
62.37045669318574
 30
0.0
 11
21.14082427120491
 21
41.49120380970498
 31
0.0
1001
DBPROPERTIES
1002
{
1000
PbHidd
1002
}
  0
LINE
  5
146
330
1F
100
AcDbEntity
  8
HIDDEN
100
AcDbLine
 10
31.77933498176831
 20
62.37045669318575
 30
0.0
 11
31.77933498176831
 21
62.37045669318577
 31
0.0
1001
DBPROPERTIES
1002
{
1000
PbHidd
1002
}
  0
ARC
  5
147
330
1F
100
AcDbEntity
  8
HIDDEN
100
AcDbCircle
 10
0.0
 20
0.0000000000000162
 30
0.0
 40
70.0
100
AcDbArc
 50
62.99997543406626
 51
68.99998946467625
1001
DBPROPERTIES
1002
{
1000
PbHidd
1002
}
  0
LINE
  5
148
330
1F
100
AcDbEntity
  8
HIDDEN
100
AcDbLine
 10
25.08575646817106
 20
65.35062985480413
 30
0.0
 11
25.08575646817106
 21
65.35062985480413
 31
0.0
1001
DBPROPERTIES
1002
{
1000
PbHidd
1002
}
  0
LINE
  5
149
330
1F
100
AcDbEntity
  8
HIDDEN
100
AcDbLine
 10
-16.68800085049281
 20
43.47372852721969
 30
0.0
 11
-16.68800085049281
 21
43.47372852721969
 31
0.0
1001
DBPROPERTIES
1002
{
1000
PbHidd
1002
}
  0
LINE
  5
14A
330
1F
100
AcDbEntity
  8
HIDDEN
100
AcDbLine
 10
-25.08575646817101
 20
65.35062985480413
 30
0.0
 11
-16.68800085049281
 21
43.47372852721969
 31
0.0
1001
DBPROPERTIES
1002
{
1000
PbHidd
1002
}
  0
LINE
  5
14B
330
1F
100
AcDbEntity
  8
HIDDEN
100
AcDbLine
 10
-25.08575646817102
 20
65.35062985480414
 30
0.0
 11
-25.08575646817102
 21
65.35062985480414
 31
0.0
1001
DBPROPERTIES
1002
{
1000
PbHidd
1002
}
  0
ARC
  5
14C
330
1F
100
AcDbEntity
  8
HIDDEN
100
AcDbCircle
 10
0.0
 20
0.0000000000000162
 30
0.0
 40
70.0
100
AcDbArc
 50
110.9999730873871
 51
116.9999871179971
1001
DBPROPERTIES
1002
{
1000
PbHidd
1002
}
  0
LINE
  5
14D
330
1F
100
AcDbEntity
  8
HIDDEN
100
AcDbLine
 10
-31.77933498176827
 20
62.37045669318577
 30
0.0
 11
-31.77933498176827
 21
62.37045669318576
 31
0.0
1001
DBPROPERTIES
1002
{
1000
PbHidd
1002
}
  0
LINE
  5
14E
330
1F
100
AcDbEntity
  8
HIDDEN
100
AcDbLine
 10
12.05234020027409
 20
44.9799459775276
 30
0.0
 11
12.05234020027409
 21
44.9799459775276
 31
0.0
1001
DBPROPERTIES
1002
{
1000
PbHidd
1002
}
  0
LINE
  5
14F
330
1F
100
AcDbEntity
  8
HIDDEN
100
AcDbLine
 10
18.11733315717651
 20
67.61480784023476
 30
0.0
 11
12.05234020027408
 21
44.9799459775276
 31
0.0
1001
DBPROPERTIES
1002
{
1000
PbHidd
1002
}
  0
LINE
  5
150
330
1F
100
AcDbEntity
  8
HIDDEN
100
AcDbLine
 10
18.11733315717651
 20
67.61480784023477
 30
0.0
 11
18.11733315717651
 21
67.61480784023477
 31
0.0
1001
DBPROPERTIES
1002
{
1000
PbHidd
1002
}
  0
ARC
  5
151
330
1F
100
AcDbEntity
  8
HIDDEN
100
AcDbCircle
 10
0.0
 20
0.0000000000000162
 30
0.0
 40
70.0
100
AcDbArc
 50
75.00000349528622
 51
81.0000175258962
1001
DBPROPERTIES
1002
{
1000
PbHidd
1002
}
  0
LINE
  5
152
330
1F
100
AcDbEntity
  8
HIDDEN
100
AcDbLine
 10
10.95041255281623
 20
69.13818384165965
 30
0.0
 11
10.95041255281623
 21
69.13818384165965
 31
0.0
1001
DBPROPERTIES
1002
{
1000
PbHidd
1002
}
  0
LINE
  5
153
330
1F
100
AcDbEntity
  8
HIDDEN
100
AcDbLine
 10
-7.284631588706744
 20
45.99335372704691
 30
0.0
 11
-7.284631588706744
 21
45.99335372704691
 31
0.0
1001
DBPROPERTIES
1002
{
1000
PbHidd
1002
}
  0
LINE
  5
154
330
1F
100
AcDbEntity
  8
HIDDEN
100
AcDbLine
 10
-10.95041255281615
 20
69.13818384165964
 30
0.0
 11
-7.284631588706746
 21
45.9933537270469
 31
0.0
1001
DBPROPERTIES
1002
{
1000
PbHidd
1002
}
  0
LINE
  5
155
330
1F
100
AcDbEntity
  8
HIDDEN
100
AcDbLine
 10
-10.95041255281616
 20
69.13818384165965
 30
0.0
 11
-10.95041255281616
 21
69.13818384165965
 31
0.0
1001
DBPROPERTIES
1002
{
1000
PbHidd
1002
}
  0
ARC
  5
156
330
1F
100
AcDbEntity
  8
HIDDEN
100
AcDbCircle
 10
0.0
 20
0.0000000000000162
 30
0.0
 40
70.0
100
AcDbArc
 50
99.00000232194662
 51
105.0000163525566
1001
DBPROPERTIES
1002
{
1000
PbHidd
1002
}
  0
LINE
  5
157
330
1F
100
AcDbEntity
  8
HIDDEN
100
AcDbLine
 10
-18.11733315717645
 20
67.61480784023479
 30
0.0
 11
-18.11733315717645
 21
67.61480784023479
 31
0.0
1001
DBPROPERTIES
1002
{
1000
PbHidd
1002
}
  0
ARC
  5
158
330
1F
100
AcDbEntity
  8
HIDDEN
100
AcDbCircle
 10
0.0
 20
0.0000000000000147
 30
0.0
 40
114.2857142857143
100
AcDbArc
 50
89.99998127603165
 51
93.92508594735487
1001
DBPROPERTIES
1002
{
1000
PbHidd
1002
}
  0
ARC
  5
159
330
1F
100
AcDbEntity
  8
THICK
100
AcDbCircle
 10
0.0
 20
0.0000000000000147
 30
0.0
 40
114.2857142857143
100
AcDbArc
 50
93.92508594735487
 51
111.0471848097059
1001
DBPROPERTIES
1002
{
1000
PbThick
1002
}
  0
ARC
  5
15A
330
1F
100
AcDbEntity
  8
HIDDEN
100
AcDbCircle
 10
0.0
 20
0.0000000000000147
 30
0.0
 40
114.2857142857143
100
AcDbArc
 50
111.0471848097059
 51
145.3536630467385
1001
DBPROPERTIES
1002
{
1000
PbHidd
1002
}
  0
ARC
  5
15B
330
1F
100
AcDbEntity
  8
THICK
100
AcDbCircle
 10
0.0
 20
0.0000000000000147
 30
0.0
 40
114.2857142857143
100
AcDbArc
 50
145.3536630467385
 51
162.4757619090895
1001
DBPROPERTIES
1002
{
1000
PbThick
1002
}
  0
ARC
  5
15C
330
1F
100
AcDbEntity
  8
HIDDEN
100
AcDbCircle
 10
0.0
 20
0.0000000000000147
 30
0.0
 40
114.2857142857143
100
AcDbArc
 50
162.4757619090895
 51
196.782257746216
1001
DBPROPERTIES
1002
{
1000
PbHidd
1002
}
  0
ARC
  5
15D
330
1F
100
AcDbEntity
  8
THICK
100
AcDbCircle
 10
0.0
 20
0.0000000000000147
 30
0.0
 40
114.2857142857143
100
AcDbArc
 50
196.782257746216
 51
213.9042993127875
1001
DBPROPERTIES
1002
{
1000
PbThick
1002
}
  0
ARC
  5
15E
330
1F
100
AcDbEntity
  8
HIDDEN
100
AcDbCircle
 10
0.0
 20
0.0000000000000147
 30
0.0
 40
114.2857142857143
100
AcDbArc
 50
213.9042993127875
 51
248.2108348455997
1001
DBPROPERTIES
1002
{
1000
PbHidd
1002
}
  0
ARC
  5
15F
330
1F
100
AcDbEntity
  8
THICK
100
AcDbCircle
 10
0.0
 20
0.0000000000000147
 30
0.0
 40
114.2857142857143
100
AcDbArc
 50
248.2108348455997
 51
265.3328764121712
1001
DBPROPERTIES
1002
{
1000
PbThick
1002
}
  0
ARC
  5
160
330
1F
100
AcDbEntity
  8
HIDDEN
100
AcDbCircle
 10
0.0
 20
0.0000000000000147
 30
0.0
 40
114.2857142857143
100
AcDbArc
 50
265.3328764121712
 51
270.0000187239684
1001
DBPROPERTIES
1002
{
1000
PbHidd
1002
}
  0
ARC
  5
161
330
1F
100
AcDbEntity
  8
HIDDEN
100
AcDbCircle
 10
0.0
 20
0.0000000000000028
 30
0.0
 40
147.4558909829367
100
AcDbArc
 50
186.7771541360826
 51
263.2228447400429
1001
DBPROPERTIES
1002
{
1000
PbHidd
1002
}
  0
LINE
  5
162
330
1F
100
AcDbEntity
  8
HIDDEN
100
AcDbLine
 10
-17.94155777987322
 20
-151.5689751271952
 30
0.0
 11
-17.6397950180584
 21
-148.6978942325763
 31
0.0
1001
DBPROPERTIES
1002
{
1000
PbHidd
1002
}
  0
LINE
  5
163
330
1F
100
AcDbEntity
  8
HIDDEN
100
AcDbLine
 10
-148.6978942325763
 20
-17.6397950180584
 30
0.0
 11
-151.5689751271952
 21
-17.94155777987321
 31
0.0
1001
DBPROPERTIES
1002
{
1000
PbHidd
1002
}
  0
LINE
  5
164
330
1F
100
AcDbEntity
  8
HIDDEN
100
AcDbLine
 10
-13.66170743658531
 20
-149.1160080856469
 30
0.0
 11
-13.96347019840013
 21
-151.9870889802658
 31
0.0
1001
DBPROPERTIES
1002
{
1000
PbHidd
1002
}
  0
ARC
  5
165
330
1F
100
AcDbEntity
  8
HIDDEN
100
AcDbCircle
 10
0.0
 20
0.0000000000000028
 30
0.0
 40
147.4558909829367
100
AcDbArc
 50
264.7771646466738
 51
275.2228728012628
1001
DBPROPERTIES
1002
{
1000
PbHidd
1002
}
  0
LINE
  5
166
330
1F
100
AcDbEntity
  8
HIDDEN
100
AcDbLine
 10
13.96347019840011
 20
-151.9870889802658
 30
0.0
 11
13.66170743658529
 21
-149.1160080856468
 31
0.0
1001
DBPROPERTIES
1002
{
1000
PbHidd
1002
}
  0
ARC
  5
167
330
1F
100
AcDbEntity
  8
HIDDEN
100
AcDbCircle
 10
0.0
 20
0.0000000000000028
 30
0.0
 40
152.6271722750469
100
AcDbArc
 50
174.7508097119723
 51
180.0000198478428
1001
DBPROPERTIES
1002
{
1000
PbHidd
1002
}
  0
LINE
  5
168
330
1F
100
AcDbEntity
  8
HIDDEN
100
AcDbLine
 10
-149.116008085647
 20
13.66170743658533
 30
0.0
 11
-151.9870889802659
 21
13.96347019840014
 31
0.0
1001
DBPROPERTIES
1002
{
1000
PbHidd
1002
}
  0
ARC
  5
169
330
1F
100
AcDbEntity
  8
HIDDEN
100
AcDbCircle
 10
0.0
 20
0.0000000000000028
 30
0.0
 40
147.4558909829367
100
AcDbArc
 50
180.0000198478428
 51
185.2228342294517
1001
DBPROPERTIES
1002
{
1000
PbHidd
1002
}
  0
LINE
  5
16A
330
1F
100
AcDbEntity
  8
HIDDEN
100
AcDbLine
 10
-151.9870889802658
 20
-13.96347019840012
 30
0.0
 11
-149.116008085647
 21
-13.66170743658531
 31
0.0
1001
DBPROPERTIES
1002
{
1000
PbHidd
1002
}
  0
ARC
  5
16B
330
1F
100
AcDbEntity
  8
HIDDEN
100
AcDbCircle
 10
0.0
 20
0.0000000000000028
 30
0.0
 40
147.4558909829367
100
AcDbArc
 50
276.7771354121143
 51
353.2228260160746
1001
DBPROPERTIES
1002
{
1000
PbHidd
1002
}
  0
LINE
  5
16C
330
1F
100
AcDbEntity
  8
HIDDEN
100
AcDbLine
 10
151.5689751271951
 20
-17.94155777987324
 30
0.0
 11
148.6978942325761
 21
-17.63979501805841
 31
0.0
1001
DBPROPERTIES
1002
{
1000
PbHidd
1002
}
  0
LINE
  5
16D
330
1F
100
AcDbEntity
  8
HIDDEN
100
AcDbLine
 10
17.6397950180584
 20
-148.6978942325762
 30
0.0
 11
17.94155777987322
 21
-151.5689751271952
 31
0.0
1001
DBPROPERTIES
1002
{
1000
PbHidd
1002
}
  0
ARC
  5
16E
330
1F
100
AcDbEntity
  8
HIDDEN
100
AcDbCircle
 10
0.0
 20
0.0000000000000028
 30
0.0
 40
152.6271722750469
100
AcDbArc
 50
166.9695844878596
 51
173.2492019224934
1001
DBPROPERTIES
1002
{
1000
PbHidd
1002
}
  0
ARC
  5
16F
330
1F
100
AcDbEntity
  8
THICK
100
AcDbCircle
 10
0.0
 20
0.0000000000000028
 30
0.0
 40
152.6271722750469
100
AcDbArc
 50
141.0575109072886
 51
166.9695844878596
1001
DBPROPERTIES
1002
{
1000
PbThick
1002
}
  0
ARC
  5
170
330
1F
100
AcDbEntity
  8
HIDDEN
100
AcDbCircle
 10
0.0
 20
0.0000000000000028
 30
0.0
 40
152.6271722750469
100
AcDbArc
 50
115.5410073884759
 51
141.0575109072886
1001
DBPROPERTIES
1002
{
1000
PbHidd
1002
}
  0
ARC
  5
171
330
1F
100
AcDbEntity
  8
THICK
100
AcDbCircle
 10
0.0
 20
0.0000000000000028
 30
0.0
 40
152.6271722750469
100
AcDbArc
 50
96.75079920138107
 51
115.5410073884759
1001
DBPROPERTIES
1002
{
1000
PbThick
1002
}
  0
LINE
  5
172
330
1F
100
AcDbEntity
  8
HIDDEN
100
AcDbLine
 10
-17.63979501805834
 20
148.6978942325763
 30
0.0
 11
-17.94155777987317
 21
151.5689751271952
 31
0.0
1001
DBPROPERTIES
1002
{
1000
PbHidd
1002
}
  0
ARC
  5
173
330
1F
100
AcDbEntity
  8
HIDDEN
100
AcDbCircle
 10
0.0
 20
0.0000000000000028
 30
0.0
 40
147.4558909829367
100
AcDbArc
 50
96.77715525995708
 51
173.2228458639174
1001
DBPROPERTIES
1002
{
1000
PbHidd
1002
}
  0
LINE
  5
174
330
1F
100
AcDbEntity
  8
HIDDEN
100
AcDbLine
 10
-151.5689751271952
 20
17.94155777987323
 30
0.0
 11
-148.6978942325764
 21
17.63979501805843
 31
0.0
1001
DBPROPERTIES
1002
{
1000
PbHidd
1002
}
  0
LINE
  5
175
330
1F
100
AcDbEntity
  8
HIDDEN
100
AcDbLine
 10
149.1160080856467
 20
-13.66170743658531
 30
0.0
 11
151.9870889802658
 21
-13.96347019840015
 31
0.0
1001
DBPROPERTIES
1002
{
1000
PbHidd
1002
}
  0
ARC
  5
176
330
1F
100
AcDbEntity
  8
HIDDEN
100
AcDbCircle
 10
0.0
 20
0.0000000000000028
 30
0.0
 40
147.4558909829367
100
AcDbArc
 50
354.7771459227055
 51
0.0
1001
DBPROPERTIES
1002
{
1000
PbHidd
1002
}
  0
LINE
  5
177
330
1F
100
AcDbEntity
  8
HIDDEN
100
AcDbLine
 10
151.9870889802658
 20
13.96347019840009
 30
0.0
 11
149.1160080856467
 21
13.66170743658526
 31
0.0
1001
DBPROPERTIES
1002
{
1000
PbHidd
1002
}
  0
ARC
  5
178
330
1F
100
AcDbEntity
  8
THICK
100
AcDbCircle
 10
0.0
 20
0.0000000000000028
 30
0.0
 40
152.6271722750469
100
AcDbArc
 50
0.0
 51
5.249210135870549
1001
DBPROPERTIES
1002
{
1000
PbThick
1002
}
  0
ARC
  5
179
330
1F
100
AcDbEntity
  8
THICK
100
AcDbCircle
 10
0.0
 20
0.0000000000000028
 30
0.0
 40
152.6271722750469
100
AcDbArc
 50
89.62893380790493
 51
95.2491914119022
1001
DBPROPERTIES
1002
{
1000
PbThick
1002
}
  0
ARC
  5
17A
330
1F
100
AcDbEntity
  8
HIDDEN
100
AcDbCircle
 10
0.0
 20
0.0000000000000028
 30
0.0
 40
152.6271722750469
100
AcDbArc
 50
84.75082843594062
 51
89.62893380790493
1001
DBPROPERTIES
1002
{
1000
PbHidd
1002
}
  0
LINE
  5
17B
330
1F
100
AcDbEntity
  8
HIDDEN
100
AcDbLine
 10
13.66170743658534
 20
149.1160080856468
 30
0.0
 11
13.96347019840017
 21
151.9870889802658
 31
0.0
1001
DBPROPERTIES
1002
{
1000
PbHidd
1002
}
  0
ARC
  5
17C
330
1F
100
AcDbEntity
  8
HIDDEN
100
AcDbCircle
 10
0.0
 20
0.0000000000000028
 30
0.0
 40
147.4558909829367
100
AcDbArc
 50
84.77712719873712
 51
95.22283535332619
1001
DBPROPERTIES
1002
{
1000
PbHidd
1002
}
  0
LINE
  5
17D
330
1F
100
AcDbEntity
  8
HIDDEN
100
AcDbLine
 10
-13.96347019840007
 20
151.9870889802658
 30
0.0
 11
-13.66170743658525
 21
149.1160080856469
 31
0.0
1001
DBPROPERTIES
1002
{
1000
PbHidd
1002
}
  0
ARC
  5
17E
330
1F
100
AcDbEntity
  8
THICK
100
AcDbCircle
 10
0.0
 20
0.0000000000000025
 30
0.0
 40
145.0558909829367
100
AcDbArc
 50
244.5777094666752
 51
263.210010485432
1001
DBPROPERTIES
1002
{
1000
PbThick
1002
}
  0
ARC
  5
17F
330
1F
100
AcDbEntity
  8
HIDDEN
100
AcDbCircle
 10
0.0
 20
0.0000000000000025
 30
0.0
 40
145.0558909829367
100
AcDbArc
 50
217.7050721425674
 51
244.5777094666752
1001
DBPROPERTIES
1002
{
1000
PbHidd
1002
}
  0
ARC
  5
180
330
1F
100
AcDbEntity
  8
THICK
100
AcDbCircle
 10
0.0
 20
0.0000000000000025
 30
0.0
 40
145.0558909829367
100
AcDbArc
 50
193.1491323672915
 51
217.7050721425674
1001
DBPROPERTIES
1002
{
1000
PbThick
1002
}
  0
ARC
  5
181
330
1F
100
AcDbEntity
  8
HIDDEN
100
AcDbCircle
 10
0.0
 20
0.0000000000000025
 30
0.0
 40
145.0558909829367
100
AcDbArc
 50
186.7899883906935
 51
193.1491323672915
1001
DBPROPERTIES
1002
{
1000
PbHidd
1002
}
  0
ARC
  5
182
330
1F
100
AcDbEntity
  8
HIDDEN
100
AcDbCircle
 10
0.0
 20
0.0000000000000025
 30
0.0
 40
145.0558909829367
100
AcDbArc
 50
269.133649241951
 51
275.2099812508724
1001
DBPROPERTIES
1002
{
1000
PbHidd
1002
}
  0
ARC
  5
183
330
1F
100
AcDbEntity
  8
THICK
100
AcDbCircle
 10
0.0
 20
0.0000000000000025
 30
0.0
 40
145.0558909829367
100
AcDbArc
 50
264.7899989012847
 51
269.133649241951
1001
DBPROPERTIES
1002
{
1000
PbThick
1002
}
  0
ARC
  5
184
330
1F
100
AcDbEntity
  8
HIDDEN
100
AcDbCircle
 10
0.0
 20
0.0000000000000025
 30
0.0
 40
145.0558909829367
100
AcDbArc
 50
180.0000198478428
 51
185.2099999748408
1001
DBPROPERTIES
1002
{
1000
PbHidd
1002
}
  0
ARC
  5
185
330
1F
100
AcDbEntity
  8
THICK
100
AcDbCircle
 10
0.0
 20
0.0000000000000025
 30
0.0
 40
145.0558909829367
100
AcDbArc
 50
347.4348636654425
 51
353.2099917614636
1001
DBPROPERTIES
1002
{
1000
PbThick
1002
}
  0
ARC
  5
186
330
1F
100
AcDbEntity
  8
HIDDEN
100
AcDbCircle
 10
0.0
 20
0.0000000000000025
 30
0.0
 40
145.0558909829367
100
AcDbArc
 50
320.5622263413347
 51
347.4348636654425
1001
DBPROPERTIES
1002
{
1000
PbHidd
1002
}
  0
ARC
  5
187
330
1F
100
AcDbEntity
  8
THICK
100
AcDbCircle
 10
0.0
 20
0.0000000000000025
 30
0.0
 40
145.0558909829367
100
AcDbArc
 50
296.0062865660588
 51
320.5622263413347
1001
DBPROPERTIES
1002
{
1000
PbThick
1002
}
  0
ARC
  5
188
330
1F
100
AcDbEntity
  8
HIDDEN
100
AcDbCircle
 10
0.0
 20
0.0000000000000025
 30
0.0
 40
145.0558909829367
100
AcDbArc
 50
276.7900269625047
 51
296.0062865660588
1001
DBPROPERTIES
1002
{
1000
PbHidd
1002
}
  0
ARC
  5
189
330
1F
100
AcDbEntity
  8
HIDDEN
100
AcDbCircle
 10
0.0
 20
0.0000000000000025
 30
0.0
 40
145.0558909829367
100
AcDbArc
 50
166.2765347388693
 51
173.2100116093065
1001
DBPROPERTIES
1002
{
1000
PbHidd
1002
}
  0
ARC
  5
18A
330
1F
100
AcDbEntity
  8
THICK
100
AcDbCircle
 10
0.0
 20
0.0000000000000025
 30
0.0
 40
145.0558909829367
100
AcDbArc
 50
141.7205949635935
 51
166.2765347388693
1001
DBPROPERTIES
1002
{
1000
PbThick
1002
}
  0
ARC
  5
18B
330
1F
100
AcDbEntity
  8
HIDDEN
100
AcDbCircle
 10
0.0
 20
0.0000000000000025
 30
0.0
 40
145.0558909829367
100
AcDbArc
 50
114.8479576394857
 51
141.7205949635935
1001
DBPROPERTIES
1002
{
1000
PbHidd
1002
}
  0
ARC
  5
18C
330
1F
100
AcDbEntity
  8
THICK
100
AcDbCircle
 10
0.0
 20
0.0000000000000025
 30
0.0
 40
145.0558909829367
100
AcDbArc
 50
96.78998951456802
 51
114.8479576394857
1001
DBPROPERTIES
1002
{
1000
PbThick
1002
}
  0
ARC
  5
18D
330
1F
100
AcDbEntity
  8
THICK
100
AcDbCircle
 10
0.0
 20
0.0000000000000025
 30
0.0
 40
145.0558909829367
100
AcDbArc
 50
354.7899801773164
 51
0.0
1001
DBPROPERTIES
1002
{
1000
PbThick
1002
}
  0
ARC
  5
18E
330
1F
100
AcDbEntity
  8
THICK
100
AcDbCircle
 10
0.0
 20
0.0000000000000025
 30
0.0
 40
145.0558909829367
100
AcDbArc
 50
90.29201786420984
 51
95.21000109871525
1001
DBPROPERTIES
1002
{
1000
PbThick
1002
}
  0
ARC
  5
18F
330
1F
100
AcDbEntity
  8
HIDDEN
100
AcDbCircle
 10
0.0
 20
0.0000000000000025
 30
0.0
 40
145.0558909829367
100
AcDbArc
 50
84.79001874912757
 51
90.29201786420984
1001
DBPROPERTIES
1002
{
1000
PbHidd
1002
}
  0
ARC
  5
190
330
1F
100
AcDbEntity
  8
HIDDEN
100
AcDbCircle
 10
0.0
 20
0.0000000000000025
 30
0.0
 40
145.0558909829367
100
AcDbArc
 50
63.41938054010201
 51
83.2099730374953
1001
DBPROPERTIES
1002
{
1000
PbHidd
1002
}
  0
ARC
  5
191
330
1F
100
AcDbEntity
  8
THICK
100
AcDbCircle
 10
0.0
 20
0.0000000000000025
 30
0.0
 40
145.0558909829367
100
AcDbArc
 50
38.86344076482617
 51
63.41938054010201
1001
DBPROPERTIES
1002
{
1000
PbThick
1002
}
  0
ARC
  5
192
330
1F
100
AcDbEntity
  8
HIDDEN
100
AcDbCircle
 10
0.0
 20
0.0000000000000025
 30
0.0
 40
145.0558909829367
100
AcDbArc
 50
11.99080344071835
 51
38.86344076482617
1001
DBPROPERTIES
1002
{
1000
PbHidd
1002
}
  0
ARC
  5
193
330
1F
100
AcDbEntity
  8
THICK
100
AcDbCircle
 10
0.0
 20
0.0000000000000025
 30
0.0
 40
145.0558909829367
100
AcDbArc
 50
6.790008238536359
 51
11.99080344071835
1001
DBPROPERTIES
1002
{
1000
PbThick
1002
}
  0
ARC
  5
194
330
1F
100
AcDbEntity
  8
HIDDEN
100
AcDbCircle
 10
0.0
 20
0.0000000000000028
 30
0.0
 40
147.4558909829367
100
AcDbArc
 50
6.777173983925429
 51
83.22286458788575
1001
DBPROPERTIES
1002
{
1000
PbHidd
1002
}
  0
ARC
  5
195
330
1F
100
AcDbEntity
  8
HIDDEN
100
AcDbCircle
 10
0.0
 20
0.0000000000000025
 30
0.0
 40
150.2271722750469
100
AcDbArc
 50
166.7577046952202
 51
180.0000198478428
1001
DBPROPERTIES
1002
{
1000
PbHidd
1002
}
  0
ARC
  5
196
330
1F
100
AcDbEntity
  8
THICK
100
AcDbCircle
 10
0.0
 20
0.0000000000000025
 30
0.0
 40
150.2271722750469
100
AcDbArc
 50
141.2602806709854
 51
166.7577046952202
1001
DBPROPERTIES
1002
{
1000
PbThick
1002
}
  0
ARC
  5
197
330
1F
100
AcDbEntity
  8
HIDDEN
100
AcDbCircle
 10
0.0
 20
0.0000000000000025
 30
0.0
 40
150.2271722750469
100
AcDbArc
 50
115.3291275958365
 51
141.2602806709854
1001
DBPROPERTIES
1002
{
1000
PbHidd
1002
}
  0
ARC
  5
198
330
1F
100
AcDbEntity
  8
THICK
100
AcDbCircle
 10
0.0
 20
0.0000000000000025
 30
0.0
 40
150.2271722750469
100
AcDbArc
 50
89.83170357160174
 51
115.3291275958365
1001
DBPROPERTIES
1002
{
1000
PbThick
1002
}
  0
ARC
  5
199
330
1F
100
AcDbEntity
  8
HIDDEN
100
AcDbCircle
 10
0.0
 20
0.0000000000000025
 30
0.0
 40
150.2271722750469
100
AcDbArc
 50
63.90055049645289
 51
89.83170357160174
1001
DBPROPERTIES
1002
{
1000
PbHidd
1002
}
  0
ARC
  5
19A
330
1F
100
AcDbEntity
  8
THICK
100
AcDbCircle
 10
0.0
 20
0.0000000000000025
 30
0.0
 40
150.2271722750469
100
AcDbArc
 50
38.40312647221807
 51
63.90055049645289
1001
DBPROPERTIES
1002
{
1000
PbThick
1002
}
  0
ARC
  5
19B
330
1F
100
AcDbEntity
  8
HIDDEN
100
AcDbCircle
 10
0.0
 20
0.0000000000000025
 30
0.0
 40
150.2271722750469
100
AcDbArc
 50
12.47197339706922
 51
38.40312647221807
1001
DBPROPERTIES
1002
{
1000
PbHidd
1002
}
  0
ARC
  5
19C
330
1F
100
AcDbEntity
  8
THICK
100
AcDbCircle
 10
0.0
 20
0.0000000000000025
 30
0.0
 40
150.2271722750469
100
AcDbArc
 50
0.0
 51
12.47197339706922
1001
DBPROPERTIES
1002
{
1000
PbThick
1002
}
  0
LINE
  5
19D
330
1F
100
AcDbEntity
  8
HIDDEN
100
AcDbLine
 10
17.63979501805844
 20
148.6978942325762
 30
0.0
 11
13.66170743658534
 21
149.1160080856468
 31
0.0
1001
DBPROPERTIES
1002
{
1000
PbHidd
1002
}
  0
LINE
  5
19E
330
1F
100
AcDbEntity
  8
THICK
100
AcDbLine
 10
149.1160080856467
 20
13.66170743658527
 30
0.0
 11
148.6978942325761
 21
17.63979501805835
 31
0.0
1001
DBPROPERTIES
1002
{
1000
PbThick
1002
}
  0
LINE
  5
19F
330
1F
100
AcDbEntity
  8
THICK
100
AcDbLine
 10
148.6978942325761
 20
-17.63979501805842
 30
0.0
 11
149.1160080856467
 21
-13.66170743658532
 31
0.0
1001
DBPROPERTIES
1002
{
1000
PbThick
1002
}
  0
LINE
  5
1A0
330
1F
100
AcDbEntity
  8
HIDDEN
100
AcDbLine
 10
13.66170743658528
 20
-149.1160080856469
 30
0.0
 11
17.63979501805837
 21
-148.6978942325762
 31
0.0
1001
DBPROPERTIES
1002
{
1000
PbHidd
1002
}
  0
LINE
  5
1A1
330
1F
100
AcDbEntity
  8
THICK
100
AcDbLine
 10
-17.63979501805842
 20
-148.6978942325763
 30
0.0
 11
-13.66170743658533
 21
-149.1160080856469
 31
0.0
1001
DBPROPERTIES
1002
{
1000
PbThick
1002
}
  0
LINE
  5
1A2
330
1F
100
AcDbEntity
  8
HIDDEN
100
AcDbLine
 10
-149.116008085647
 20
-13.66170743658531
 30
0.0
 11
-148.6978942325764
 21
-17.6397950180584
 31
0.0
1001
DBPROPERTIES
1002
{
1000
PbHidd
1002
}
  0
LINE
  5
1A3
330
1F
100
AcDbEntity
  8
HIDDEN
100
AcDbLine
 10
-148.6978942325764
 20
17.63979501805841
 30
0.0
 11
-149.116008085647
 21
13.66170743658532
 31
0.0
1001
DBPROPERTIES
1002
{
1000
PbHidd
1002
}
  0
LINE
  5
1A4
330
1F
100
AcDbEntity
  8
THICK
100
AcDbLine
 10
-13.66170743658525
 20
149.1160080856469
 30
0.0
 11
-17.63979501805835
 21
148.6978942325763
 31
0.0
1001
DBPROPERTIES
1002
{
1000
PbThick
1002
}
  0
ARC
  5
1A5
330
1F
100
AcDbEntity
  8
THICK
100
AcDbCircle
 10
0.0
 20
0.0000000000000028
 30
0.0
 40
152.6271722750469
100
AcDbArc
 50
5.249210135870549
 51
6.750817925349411
1001
DBPROPERTIES
1002
{
1000
PbThick
1002
}
  0
ARC
  5
1A6
330
1F
100
AcDbEntity
  8
HIDDEN
100
AcDbCircle
 10
0.0
 20
0.0000000000000028
 30
0.0
 40
152.6271722750469
100
AcDbArc
 50
64.11248758487177
 51
83.24916335068225
1001
DBPROPERTIES
1002
{
1000
PbHidd
1002
}
  0
ARC
  5
1A7
330
1F
100
AcDbEntity
  8
THICK
100
AcDbCircle
 10
0.0
 20
0.0000000000000028
 30
0.0
 40
152.6271722750469
100
AcDbArc
 50
38.20035670852127
 51
64.11248758487177
1001
DBPROPERTIES
1002
{
1000
PbThick
1002
}
  0
ARC
  5
1A8
330
1F
100
AcDbEntity
  8
HIDDEN
100
AcDbCircle
 10
0.0
 20
0.0000000000000028
 30
0.0
 40
152.6271722750469
100
AcDbArc
 50
12.68391048548811
 51
38.20035670852127
1001
DBPROPERTIES
1002
{
1000
PbHidd
1002
}
  0
ARC
  5
1A9
330
1F
100
AcDbEntity
  8
THICK
100
AcDbCircle
 10
0.0
 20
0.0000000000000028
 30
0.0
 40
152.6271722750469
100
AcDbArc
 50
6.750817925349411
 51
12.68391048548811
1001
DBPROPERTIES
1002
{
1000
PbThick
1002
}
  0
ARC
  5
1AA
330
1F
100
AcDbEntity
  8
HIDDEN
100
AcDbCircle
 10
0.0
 20
0.0000000000000028
 30
0.0
 40
152.6271722750469
100
AcDbArc
 50
83.24916335068225
 51
84.75082843594062
1001
DBPROPERTIES
1002
{
1000
PbHidd
1002
}
  0
ARC
  5
1AB
330
1F
100
AcDbEntity
  8
THICK
100
AcDbCircle
 10
0.0
 20
0.0000000000000028
 30
0.0
 40
152.6271722750469
100
AcDbArc
 50
95.2491914119022
 51
96.75079920138107
1001
DBPROPERTIES
1002
{
1000
PbThick
1002
}
  0
ARC
  5
1AC
330
1F
100
AcDbEntity
  8
HIDDEN
100
AcDbCircle
 10
0.0
 20
0.0000000000000028
 30
0.0
 40
152.6271722750469
100
AcDbArc
 50
173.2492019224934
 51
174.7508097119723
1001
DBPROPERTIES
1002
{
1000
PbHidd
1002
}
  0
LINE
  5
1AD
330
1F
100
AcDbEntity
  8
HIDDEN
100
AcDbLine
 10
17.94155777987326
 20
151.5689751271951
 30
0.0
 11
17.63979501805845
 21
148.6978942325762
 31
0.0
1001
DBPROPERTIES
1002
{
1000
PbHidd
1002
}
  0
LINE
  5
1AE
330
1F
100
AcDbEntity
  8
HIDDEN
100
AcDbLine
 10
148.697894232576
 20
17.63979501805835
 30
0.0
 11
151.5689751271952
 21
17.94155777987319
 31
0.0
1001
DBPROPERTIES
1002
{
1000
PbHidd
1002
}
  0
LINE
  5
1AF
330
1F
100
AcDbEntity
  8
HIDDEN
100
AcDbLine
 10
15.13872446980739
 20
124.9017975107935
 30
0.0
 11
17.63979501805844
 21
148.6978942325763
 31
0.0
1001
DBPROPERTIES
1002
{
1000
PbHidd
1002
}
  0
LINE
  5
1B0
330
1F
100
AcDbEntity
  8
HIDDEN
100
AcDbLine
 10
13.66170743658534
 20
149.1160080856469
 30
0.0
 11
11.16063688833429
 21
125.3199113638641
 31
0.0
1001
DBPROPERTIES
1002
{
1000
PbHidd
1002
}
  0
LINE
  5
1B1
330
1F
100
AcDbEntity
  8
HIDDEN
100
AcDbLine
 10
11.16063688833428
 20
125.3199113638641
 30
0.0
 11
15.13872446980737
 21
124.9017975107935
 31
0.0
1001
DBPROPERTIES
1002
{
1000
PbHidd
1002
}
  0
LINE
  5
1B2
330
1F
100
AcDbEntity
  8
THICK
100
AcDbLine
 10
26.72492506888792
 20
273.4042215841999
 30
0.0
 11
24.13385552775298
 21
248.7518416436069
 31
0.0
1001
DBPROPERTIES
1002
{
1000
PbThick
1002
}
  0
LINE
  5
1B3
330
1F
100
AcDbEntity
  8
HIDDEN
100
AcDbLine
 10
24.13385552775298
 20
248.7518416436069
 30
0.0
 11
13.96347019840016
 21
151.9870889802658
 31
0.0
1001
DBPROPERTIES
1002
{
1000
PbHidd
1002
}
  0
LINE
  5
1B4
330
1F
100
AcDbEntity
  8
HIDDEN
100
AcDbLine
 10
26.72492506888792
 20
273.4042215841999
 30
0.0
 11
26.72492506888792
 21
273.4042215841999
 31
0.0
1001
DBPROPERTIES
1002
{
1000
PbHidd
1002
}
  0
LINE
  5
1B5
330
1F
100
AcDbEntity
  8
THICK
100
AcDbLine
 10
27.22666169257266
 20
278.1779266819677
 30
0.0
 11
26.72492506888792
 21
273.4042215841999
 31
0.0
1001
DBPROPERTIES
1002
{
1000
PbThick
1002
}
  0
LINE
  5
1B6
330
1F
100
AcDbEntity
  8
HIDDEN
100
AcDbLine
 10
27.22666169257266
 20
278.1779266819677
 30
0.0
 11
27.22666169257266
 21
278.1779266819677
 31
0.0
1001
DBPROPERTIES
1002
{
1000
PbHidd
1002
}
  0
LINE
  5
1B7
330
1F
100
AcDbEntity
  8
HIDDEN
100
AcDbLine
 10
11.16063688833428
 20
125.3199113638641
 30
0.0
 11
9.955236908814856
 21
113.8512966456039
 31
0.0
1001
DBPROPERTIES
1002
{
1000
PbHidd
1002
}
  0
LINE
  5
1B8
330
1F
100
AcDbEntity
  8
THICK
100
AcDbLine
 10
-11.16063688833423
 20
125.3199113638641
 30
0.0
 11
-13.66170743658527
 21
149.1160080856469
 31
0.0
1001
DBPROPERTIES
1002
{
1000
PbThick
1002
}
  0
LINE
  5
1B9
330
1F
100
AcDbEntity
  8
THICK
100
AcDbLine
 10
-17.63979501805835
 20
148.6978942325763
 30
0.0
 11
-15.13872446980732
 21
124.9017975107935
 31
0.0
1001
DBPROPERTIES
1002
{
1000
PbThick
1002
}
  0
LINE
  5
1BA
330
1F
100
AcDbEntity
  8
THICK
100
AcDbLine
 10
-15.13872446980732
 20
124.9017975107935
 30
0.0
 11
-11.16063688833423
 21
125.3199113638641
 31
0.0
1001
DBPROPERTIES
1002
{
1000
PbThick
1002
}
  0
LINE
  5
1BB
330
1F
100
AcDbEntity
  8
THICK
100
AcDbLine
 10
-30.70301265036088
 20
272.9861077311293
 30
0.0
 11
-17.94155777987318
 21
151.5689751271952
 31
0.0
1001
DBPROPERTIES
1002
{
1000
PbThick
1002
}
  0
LINE
  5
1BC
330
1F
100
AcDbEntity
  8
HIDDEN
100
AcDbLine
 10
-30.70301265036088
 20
272.9861077311293
 30
0.0
 11
-30.70301265036088
 21
272.9861077311293
 31
0.0
1001
DBPROPERTIES
1002
{
1000
PbHidd
1002
}
  0
LINE
  5
1BD
330
1F
100
AcDbEntity
  8
THICK
100
AcDbLine
 10
-31.20474927404561
 20
277.7598128288971
 30
0.0
 11
-30.70301265036088
 21
272.9861077311293
 31
0.0
1001
DBPROPERTIES
1002
{
1000
PbThick
1002
}
  0
LINE
  5
1BE
330
1F
100
AcDbEntity
  8
HIDDEN
100
AcDbLine
 10
-31.20474927404561
 20
277.7598128288971
 30
0.0
 11
-31.20474927404561
 21
277.7598128288971
 31
0.0
1001
DBPROPERTIES
1002
{
1000
PbHidd
1002
}
  0
LINE
  5
1BF
330
1F
100
AcDbEntity
  8
HIDDEN
100
AcDbLine
 10
-13.93332449028791
 20
113.4331827925333
 30
0.0
 11
-13.93332449028791
 21
113.4331827925333
 31
0.0
1001
DBPROPERTIES
1002
{
1000
PbHidd
1002
}
  0
LINE
  5
1C0
330
1F
100
AcDbEntity
  8
THICK
100
AcDbLine
 10
-15.13872446980732
 20
124.9017975107935
 30
0.0
 11
-13.9333244902879
 21
113.4331827925333
 31
0.0
1001
DBPROPERTIES
1002
{
1000
PbThick
1002
}
  0
LINE
  5
1C1
330
1F
100
AcDbEntity
  8
THICK
100
AcDbLine
 10
124.9017975107935
 20
-15.13872446980738
 30
0.0
 11
148.6978942325761
 21
-17.63979501805842
 31
0.0
1001
DBPROPERTIES
1002
{
1000
PbThick
1002
}
  0
LINE
  5
1C2
330
1F
100
AcDbEntity
  8
THICK
100
AcDbLine
 10
149.1160080856467
 20
-13.66170743658532
 30
0.0
 11
125.3199113638641
 21
-11.16063688833428
 31
0.0
1001
DBPROPERTIES
1002
{
1000
PbThick
1002
}
  0
LINE
  5
1C3
330
1F
100
AcDbEntity
  8
THICK
100
AcDbLine
 10
125.3199113638641
 20
-11.16063688833428
 30
0.0
 11
124.9017975107935
 21
-15.13872446980737
 31
0.0
1001
DBPROPERTIES
1002
{
1000
PbThick
1002
}
  0
LINE
  5
1C4
330
1F
100
AcDbEntity
  8
THICK
100
AcDbLine
 10
273.4042215841999
 20
-26.7249250688879
 30
0.0
 11
151.9870889802658
 21
-13.96347019840015
 31
0.0
1001
DBPROPERTIES
1002
{
1000
PbThick
1002
}
  0
LINE
  5
1C5
330
1F
100
AcDbEntity
  8
HIDDEN
100
AcDbLine
 10
273.4042215841999
 20
-26.7249250688879
 30
0.0
 11
273.4042215841999
 21
-26.7249250688879
 31
0.0
1001
DBPROPERTIES
1002
{
1000
PbHidd
1002
}
  0
LINE
  5
1C6
330
1F
100
AcDbEntity
  8
THICK
100
AcDbLine
 10
278.1779266819677
 20
-27.22666169257264
 30
0.0
 11
273.4042215841999
 21
-26.7249250688879
 31
0.0
1001
DBPROPERTIES
1002
{
1000
PbThick
1002
}
  0
LINE
  5
1C7
330
1F
100
AcDbEntity
  8
HIDDEN
100
AcDbLine
 10
278.1779266819677
 20
-27.22666169257264
 30
0.0
 11
278.1779266819677
 21
-27.22666169257264
 31
0.0
1001
DBPROPERTIES
1002
{
1000
PbHidd
1002
}
  0
LINE
  5
1C8
330
1F
100
AcDbEntity
  8
THICK
100
AcDbLine
 10
125.3199113638641
 20
-11.16063688833428
 30
0.0
 11
113.8512966456038
 21
-9.955236908814847
 31
0.0
1001
DBPROPERTIES
1002
{
1000
PbThick
1002
}
  0
LINE
  5
1C9
330
1F
100
AcDbEntity
  8
THICK
100
AcDbLine
 10
125.3199113638641
 20
11.16063688833424
 30
0.0
 11
149.1160080856467
 21
13.66170743658526
 31
0.0
1001
DBPROPERTIES
1002
{
1000
PbThick
1002
}
  0
LINE
  5
1CA
330
1F
100
AcDbEntity
  8
THICK
100
AcDbLine
 10
148.6978942325761
 20
17.63979501805835
 30
0.0
 11
124.9017975107935
 21
15.13872446980733
 31
0.0
1001
DBPROPERTIES
1002
{
1000
PbThick
1002
}
  0
LINE
  5
1CB
330
1F
100
AcDbEntity
  8
THICK
100
AcDbLine
 10
124.9017975107935
 20
15.13872446980733
 30
0.0
 11
125.3199113638641
 21
11.16063688833424
 31
0.0
1001
DBPROPERTIES
1002
{
1000
PbThick
1002
}
  0
LINE
  5
1CC
330
1F
100
AcDbEntity
  8
THICK
100
AcDbLine
 10
272.9861077311293
 20
30.70301265036089
 30
0.0
 11
151.5689751271952
 21
17.94155777987319
 31
0.0
1001
DBPROPERTIES
1002
{
1000
PbThick
1002
}
  0
LINE
  5
1CD
330
1F
100
AcDbEntity
  8
HIDDEN
100
AcDbLine
 10
272.9861077311293
 20
30.70301265036089
 30
0.0
 11
272.9861077311293
 21
30.70301265036089
 31
0.0
1001
DBPROPERTIES
1002
{
1000
PbHidd
1002
}
  0
LINE
  5
1CE
330
1F
100
AcDbEntity
  8
THICK
100
AcDbLine
 10
277.7598128288971
 20
31.20474927404563
 30
0.0
 11
272.9861077311293
 21
30.70301265036089
 31
0.0
1001
DBPROPERTIES
1002
{
1000
PbThick
1002
}
  0
LINE
  5
1CF
330
1F
100
AcDbEntity
  8
HIDDEN
100
AcDbLine
 10
277.7598128288971
 20
31.20474927404563
 30
0.0
 11
277.7598128288971
 21
31.20474927404563
 31
0.0
1001
DBPROPERTIES
1002
{
1000
PbHidd
1002
}
  0
LINE
  5
1D0
330
1F
100
AcDbEntity
  8
THICK
100
AcDbLine
 10
124.9017975107935
 20
15.13872446980733
 30
0.0
 11
113.4331827925333
 21
13.93332449028791
 31
0.0
1001
DBPROPERTIES
1002
{
1000
PbThick
1002
}
  0
LINE
  5
1D1
330
1F
100
AcDbEntity
  8
THICK
100
AcDbLine
 10
-15.13872446980737
 20
-124.9017975107935
 30
0.0
 11
-17.63979501805842
 21
-148.6978942325763
 31
0.0
1001
DBPROPERTIES
1002
{
1000
PbThick
1002
}
  0
LINE
  5
1D2
330
1F
100
AcDbEntity
  8
THICK
100
AcDbLine
 10
-13.66170743658532
 20
-149.1160080856469
 30
0.0
 11
-11.16063688833427
 21
-125.3199113638641
 31
0.0
1001
DBPROPERTIES
1002
{
1000
PbThick
1002
}
  0
LINE
  5
1D3
330
1F
100
AcDbEntity
  8
THICK
100
AcDbLine
 10
-11.16063688833427
 20
-125.3199113638641
 30
0.0
 11
-15.13872446980736
 21
-124.9017975107935
 31
0.0
1001
DBPROPERTIES
1002
{
1000
PbThick
1002
}
  0
LINE
  5
1D4
330
1F
100
AcDbEntity
  8
THICK
100
AcDbLine
 10
-26.72492506888788
 20
-273.4042215841999
 30
0.0
 11
-13.96347019840013
 21
-151.9870889802658
 31
0.0
1001
DBPROPERTIES
1002
{
1000
PbThick
1002
}
  0
LINE
  5
1D5
330
1F
100
AcDbEntity
  8
HIDDEN
100
AcDbLine
 10
-26.72492506888788
 20
-273.4042215841999
 30
0.0
 11
-26.72492506888788
 21
-273.4042215841999
 31
0.0
1001
DBPROPERTIES
1002
{
1000
PbHidd
1002
}
  0
LINE
  5
1D6
330
1F
100
AcDbEntity
  8
THICK
100
AcDbLine
 10
-27.22666169257262
 20
-278.1779266819677
 30
0.0
 11
-26.72492506888788
 21
-273.4042215841999
 31
0.0
1001
DBPROPERTIES
1002
{
1000
PbThick
1002
}
  0
LINE
  5
1D7
330
1F
100
AcDbEntity
  8
HIDDEN
100
AcDbLine
 10
-27.22666169257262
 20
-278.1779266819677
 30
0.0
 11
-27.22666169257262
 21
-278.1779266819677
 31
0.0
1001
DBPROPERTIES
1002
{
1000
PbHidd
1002
}
  0
LINE
  5
1D8
330
1F
100
AcDbEntity
  8
HIDDEN
100
AcDbLine
 10
-9.95523690881484
 20
-113.8512966456038
 30
0.0
 11
-9.95523690881484
 21
-113.8512966456038
 31
0.0
1001
DBPROPERTIES
1002
{
1000
PbHidd
1002
}
  0
LINE
  5
1D9
330
1F
100
AcDbEntity
  8
THICK
100
AcDbLine
 10
-11.16063688833427
 20
-125.3199113638641
 30
0.0
 11
-9.955236908814841
 21
-113.8512966456039
 31
0.0
1001
DBPROPERTIES
1002
{
1000
PbThick
1002
}
  0
LINE
  5
1DA
330
1F
100
AcDbEntity
  8
HIDDEN
100
AcDbLine
 10
11.16063688833425
 20
-125.3199113638641
 30
0.0
 11
13.66170743658529
 21
-149.1160080856469
 31
0.0
1001
DBPROPERTIES
1002
{
1000
PbHidd
1002
}
  0
LINE
  5
1DB
330
1F
100
AcDbEntity
  8
HIDDEN
100
AcDbLine
 10
17.63979501805837
 20
-148.6978942325762
 30
0.0
 11
15.13872446980733
 21
-124.9017975107935
 31
0.0
1001
DBPROPERTIES
1002
{
1000
PbHidd
1002
}
  0
LINE
  5
1DC
330
1F
100
AcDbEntity
  8
HIDDEN
100
AcDbLine
 10
15.13872446980734
 20
-124.9017975107935
 30
0.0
 11
11.16063688833425
 21
-125.3199113638641
 31
0.0
1001
DBPROPERTIES
1002
{
1000
PbHidd
1002
}
  0
LINE
  5
1DD
330
1F
100
AcDbEntity
  8
THICK
100
AcDbLine
 10
30.70301265036091
 20
-272.9861077311293
 30
0.0
 11
28.33424801104659
 21
-250.4488176464177
 31
0.0
1001
DBPROPERTIES
1002
{
1000
PbThick
1002
}
  0
LINE
  5
1DE
330
1F
100
AcDbEntity
  8
HIDDEN
100
AcDbLine
 10
28.33424801104659
 20
-250.4488176464177
 30
0.0
 11
17.94155777987321
 21
-151.5689751271953
 31
0.0
1001
DBPROPERTIES
1002
{
1000
PbHidd
1002
}
  0
LINE
  5
1DF
330
1F
100
AcDbEntity
  8
HIDDEN
100
AcDbLine
 10
30.70301265036091
 20
-272.9861077311293
 30
0.0
 11
30.70301265036091
 21
-272.9861077311293
 31
0.0
1001
DBPROPERTIES
1002
{
1000
PbHidd
1002
}
  0
LINE
  5
1E0
330
1F
100
AcDbEntity
  8
THICK
100
AcDbLine
 10
31.20474927404565
 20
-277.7598128288971
 30
0.0
 11
30.70301265036091
 21
-272.9861077311293
 31
0.0
1001
DBPROPERTIES
1002
{
1000
PbThick
1002
}
  0
LINE
  5
1E1
330
1F
100
AcDbEntity
  8
HIDDEN
100
AcDbLine
 10
31.20474927404565
 20
-277.7598128288971
 30
0.0
 11
31.20474927404565
 21
-277.7598128288971
 31
0.0
1001
DBPROPERTIES
1002
{
1000
PbHidd
1002
}
  0
LINE
  5
1E2
330
1F
100
AcDbEntity
  8
HIDDEN
100
AcDbLine
 10
15.13872446980734
 20
-124.9017975107935
 30
0.0
 11
13.93332449028791
 21
-113.4331827925332
 31
0.0
1001
DBPROPERTIES
1002
{
1000
PbHidd
1002
}
  0
LINE
  5
1E3
330
1F
100
AcDbEntity
  8
HIDDEN
100
AcDbLine
 10
-124.9017975107935
 20
15.13872446980736
 30
0.0
 11
-148.6978942325764
 21
17.63979501805842
 31
0.0
1001
DBPROPERTIES
1002
{
1000
PbHidd
1002
}
  0
LINE
  5
1E4
330
1F
100
AcDbEntity
  8
HIDDEN
100
AcDbLine
 10
-149.116008085647
 20
13.66170743658532
 30
0.0
 11
-125.3199113638641
 21
11.16063688833426
 31
0.0
1001
DBPROPERTIES
1002
{
1000
PbHidd
1002
}
  0
LINE
  5
1E5
330
1F
100
AcDbEntity
  8
HIDDEN
100
AcDbLine
 10
-125.3199113638641
 20
11.16063688833426
 30
0.0
 11
-124.9017975107935
 21
15.13872446980735
 31
0.0
1001
DBPROPERTIES
1002
{
1000
PbHidd
1002
}
  0
LINE
  5
1E6
330
1F
100
AcDbEntity
  8
THICK
100
AcDbLine
 10
-273.4042215841999
 20
26.72492506888786
 30
0.0
 11
-252.0047599993345
 21
24.47575102391336
 31
0.0
1001
DBPROPERTIES
1002
{
1000
PbThick
1002
}
  0
LINE
  5
1E7
330
1F
100
AcDbEntity
  8
HIDDEN
100
AcDbLine
 10
-252.0047599993345
 20
24.47575102391336
 30
0.0
 11
-151.9870889802659
 21
13.96347019840014
 31
0.0
1001
DBPROPERTIES
1002
{
1000
PbHidd
1002
}
  0
LINE
  5
1E8
330
1F
100
AcDbEntity
  8
HIDDEN
100
AcDbLine
 10
-273.4042215841999
 20
26.72492506888786
 30
0.0
 11
-273.4042215841999
 21
26.72492506888786
 31
0.0
1001
DBPROPERTIES
1002
{
1000
PbHidd
1002
}
  0
LINE
  5
1E9
330
1F
100
AcDbEntity
  8
THICK
100
AcDbLine
 10
-278.1779266819677
 20
27.22666169257261
 30
0.0
 11
-273.4042215841999
 21
26.72492506888787
 31
0.0
1001
DBPROPERTIES
1002
{
1000
PbThick
1002
}
  0
LINE
  5
1EA
330
1F
100
AcDbEntity
  8
HIDDEN
100
AcDbLine
 10
-278.1779266819677
 20
27.22666169257261
 30
0.0
 11
-278.1779266819677
 21
27.22666169257261
 31
0.0
1001
DBPROPERTIES
1002
{
1000
PbHidd
1002
}
  0
LINE
  5
1EB
330
1F
100
AcDbEntity
  8
HIDDEN
100
AcDbLine
 10
-113.8512966456039
 20
9.955236908814836
 30
0.0
 11
-113.8512966456039
 21
9.955236908814836
 31
0.0
1001
DBPROPERTIES
1002
{
1000
PbHidd
1002
}
  0
LINE
  5
1EC
330
1F
100
AcDbEntity
  8
HIDDEN
100
AcDbLine
 10
-125.3199113638641
 20
11.16063688833426
 30
0.0
 11
-113.8512966456039
 21
9.955236908814836
 31
0.0
1001
DBPROPERTIES
1002
{
1000
PbHidd
1002
}
  0
LINE
  5
1ED
330
1F
100
AcDbEntity
  8
HIDDEN
100
AcDbLine
 10
-125.3199113638641
 20
-11.16063688833425
 30
0.0
 11
-149.116008085647
 21
-13.66170743658531
 31
0.0
1001
DBPROPERTIES
1002
{
1000
PbHidd
1002
}
  0
LINE
  5
1EE
330
1F
100
AcDbEntity
  8
HIDDEN
100
AcDbLine
 10
-148.6978942325763
 20
-17.6397950180584
 30
0.0
 11
-124.9017975107935
 21
-15.13872446980734
 31
0.0
1001
DBPROPERTIES
1002
{
1000
PbHidd
1002
}
  0
LINE
  5
1EF
330
1F
100
AcDbEntity
  8
HIDDEN
100
AcDbLine
 10
-124.9017975107935
 20
-15.13872446980734
 30
0.0
 11
-125.3199113638641
 21
-11.16063688833425
 31
0.0
1001
DBPROPERTIES
1002
{
1000
PbHidd
1002
}
  0
LINE
  5
1F0
330
1F
100
AcDbEntity
  8
THICK
100
AcDbLine
 10
-272.9861077311293
 20
-30.70301265036093
 30
0.0
 11
-249.7377206959173
 21
-28.25950870986451
 31
0.0
1001
DBPROPERTIES
1002
{
1000
PbThick
1002
}
  0
LINE
  5
1F1
330
1F
100
AcDbEntity
  8
HIDDEN
100
AcDbLine
 10
-249.7377206959173
 20
-28.25950870986451
 30
0.0
 11
-151.5689751271953
 21
-17.94155777987322
 31
0.0
1001
DBPROPERTIES
1002
{
1000
PbHidd
1002
}
  0
LINE
  5
1F2
330
1F
100
AcDbEntity
  8
HIDDEN
100
AcDbLine
 10
-272.9861077311293
 20
-30.70301265036093
 30
0.0
 11
-272.9861077311293
 21
-30.70301265036093
 31
0.0
1001
DBPROPERTIES
1002
{
1000
PbHidd
1002
}
  0
LINE
  5
1F3
330
1F
100
AcDbEntity
  8
THICK
100
AcDbLine
 10
-277.7598128288971
 20
-31.20474927404566
 30
0.0
 11
-272.9861077311293
 21
-30.70301265036093
 31
0.0
1001
DBPROPERTIES
1002
{
1000
PbThick
1002
}
  0
LINE
  5
1F4
330
1F
100
AcDbEntity
  8
HIDDEN
100
AcDbLine
 10
-277.7598128288971
 20
-31.20474927404566
 30
0.0
 11
-277.7598128288971
 21
-31.20474927404566
 31
0.0
1001
DBPROPERTIES
1002
{
1000
PbHidd
1002
}
  0
LINE
  5
1F5
330
1F
100
AcDbEntity
  8
HIDDEN
100
AcDbLine
 10
-113.4331827925332
 20
-13.93332449028792
 30
0.0
 11
-113.4331827925332
 21
-13.93332449028792
 31
0.0
1001
DBPROPERTIES
1002
{
1000
PbHidd
1002
}
  0
LINE
  5
1F6
330
1F
100
AcDbEntity
  8
HIDDEN
100
AcDbLine
 10
-124.9017975107935
 20
-15.13872446980734
 30
0.0
 11
-113.4331827925333
 21
-13.93332449028792
 31
0.0
1001
DBPROPERTIES
1002
{
1000
PbHidd
1002
}
  0
LINE
  5
1F7
330
1F
100
AcDbEntity
  8
HIDDEN
100
AcDbLine
 10
13.93332449028795
 20
113.4331827925333
 30
0.0
 11
15.13872446980738
 21
124.9017975107935
 31
0.0
1001
DBPROPERTIES
1002
{
1000
PbHidd
1002
}
  0
LINE
  5
1F8
330
1F
100
AcDbEntity
  8
HIDDEN
100
AcDbLine
 10
17.94155777987325
 20
151.5689751271952
 30
0.0
 11
28.2682968570304
 21
249.8213343309303
 31
0.0
1001
DBPROPERTIES
1002
{
1000
PbHidd
1002
}
  0
LINE
  5
1F9
330
1F
100
AcDbEntity
  8
THICK
100
AcDbLine
 10
28.2682968570304
 20
249.8213343309303
 30
0.0
 11
30.70301265036101
 21
272.9861077311293
 31
0.0
1001
DBPROPERTIES
1002
{
1000
PbThick
1002
}
  0
LINE
  5
1FA
330
1F
100
AcDbEntity
  8
HIDDEN
100
AcDbLine
 10
30.70301265036101
 20
272.9861077311293
 30
0.0
 11
30.70301265036101
 21
272.9861077311293
 31
0.0
1001
DBPROPERTIES
1002
{
1000
PbHidd
1002
}
  0
LINE
  5
1FB
330
1F
100
AcDbEntity
  8
THICK
100
AcDbLine
 10
26.72492506888792
 20
273.4042215841999
 30
0.0
 11
30.70301265036101
 21
272.9861077311293
 31
0.0
1001
DBPROPERTIES
1002
{
1000
PbThick
1002
}
  0
LINE
  5
1FC
330
1F
100
AcDbEntity
  8
THICK
100
AcDbLine
 10
30.70301265036101
 20
272.9861077311293
 30
0.0
 11
31.20474927404575
 21
277.7598128288971
 31
0.0
1001
DBPROPERTIES
1002
{
1000
PbThick
1002
}
  0
LINE
  5
1FD
330
1F
100
AcDbEntity
  8
THICK
100
AcDbLine
 10
27.22666169257266
 20
278.1779266819677
 30
0.0
 11
31.20474927404575
 21
277.7598128288971
 31
0.0
1001
DBPROPERTIES
1002
{
1000
PbThick
1002
}
  0
LINE
  5
1FE
330
1F
100
AcDbEntity
  8
HIDDEN
100
AcDbLine
 10
31.20474927404575
 20
277.7598128288971
 30
0.0
 11
31.20474927404575
 21
277.7598128288971
 31
0.0
1001
DBPROPERTIES
1002
{
1000
PbHidd
1002
}
  0
LINE
  5
1FF
330
1F
100
AcDbEntity
  8
HIDDEN
100
AcDbLine
 10
13.51686854921201
 20
147.7379581240329
 30
0.0
 11
17.4949561306851
 21
147.3198442709623
 31
0.0
1001
DBPROPERTIES
1002
{
1000
PbHidd
1002
}
  0
LINE
  5
200
330
1F
100
AcDbEntity
  8
HIDDEN
100
AcDbLine
 10
10.90976857649191
 20
122.9330588149802
 30
0.0
 11
14.887856157965
 21
122.5149449619096
 31
0.0
1001
DBPROPERTIES
1002
{
1000
PbHidd
1002
}
  0
LINE
  5
201
330
1F
100
AcDbEntity
  8
THICK
100
AcDbLine
 10
-9.955236908814808
 20
113.8512966456039
 30
0.0
 11
-11.16063688833423
 21
125.3199113638641
 31
0.0
1001
DBPROPERTIES
1002
{
1000
PbThick
1002
}
  0
LINE
  5
202
330
1F
100
AcDbEntity
  8
THICK
100
AcDbLine
 10
-13.96347019840008
 20
151.9870889802658
 30
0.0
 11
-26.72492506888778
 21
273.4042215841999
 31
0.0
1001
DBPROPERTIES
1002
{
1000
PbThick
1002
}
  0
LINE
  5
203
330
1F
100
AcDbEntity
  8
HIDDEN
100
AcDbLine
 10
-26.72492506888778
 20
273.4042215841999
 30
0.0
 11
-26.72492506888778
 21
273.4042215841999
 31
0.0
1001
DBPROPERTIES
1002
{
1000
PbHidd
1002
}
  0
LINE
  5
204
330
1F
100
AcDbEntity
  8
THICK
100
AcDbLine
 10
-30.70301265036088
 20
272.9861077311293
 30
0.0
 11
-26.72492506888779
 21
273.4042215841999
 31
0.0
1001
DBPROPERTIES
1002
{
1000
PbThick
1002
}
  0
LINE
  5
205
330
1F
100
AcDbEntity
  8
THICK
100
AcDbLine
 10
-26.72492506888778
 20
273.4042215841999
 30
0.0
 11
-27.22666169257252
 21
278.1779266819677
 31
0.0
1001
DBPROPERTIES
1002
{
1000
PbThick
1002
}
  0
LINE
  5
206
330
1F
100
AcDbEntity
  8
THICK
100
AcDbLine
 10
-31.20474927404561
 20
277.7598128288971
 30
0.0
 11
-27.22666169257252
 21
278.1779266819677
 31
0.0
1001
DBPROPERTIES
1002
{
1000
PbThick
1002
}
  0
LINE
  5
207
330
1F
100
AcDbEntity
  8
HIDDEN
100
AcDbLine
 10
-27.22666169257252
 20
278.1779266819677
 30
0.0
 11
-27.22666169257252
 21
278.1779266819677
 31
0.0
1001
DBPROPERTIES
1002
{
1000
PbHidd
1002
}
  0
LINE
  5
208
330
1F
100
AcDbEntity
  8
HIDDEN
100
AcDbLine
 10
-17.49495613068503
 20
147.3198442709623
 30
0.0
 11
-13.51686854921194
 21
147.7379581240329
 31
0.0
1001
DBPROPERTIES
1002
{
1000
PbHidd
1002
}
  0
LINE
  5
209
330
1F
100
AcDbEntity
  8
HIDDEN
100
AcDbLine
 10
-14.88785615796495
 20
122.5149449619096
 30
0.0
 11
-10.90976857649186
 21
122.9330588149802
 31
0.0
1001
DBPROPERTIES
1002
{
1000
PbHidd
1002
}
  0
LINE
  5
20A
330
1F
100
AcDbEntity
  8
HIDDEN
100
AcDbLine
 10
-9.955236908814808
 20
113.8512966456039
 30
0.0
 11
-9.955236908814808
 21
113.8512966456039
 31
0.0
1001
DBPROPERTIES
1002
{
1000
PbHidd
1002
}
  0
LINE
  5
20B
330
1F
100
AcDbEntity
  8
THICK
100
AcDbLine
 10
113.4331827925332
 20
-13.93332449028794
 30
0.0
 11
124.9017975107935
 21
-15.13872446980737
 31
0.0
1001
DBPROPERTIES
1002
{
1000
PbThick
1002
}
  0
LINE
  5
20C
330
1F
100
AcDbEntity
  8
THICK
100
AcDbLine
 10
151.5689751271952
 20
-17.94155777987324
 30
0.0
 11
272.9861077311293
 21
-30.70301265036099
 31
0.0
1001
DBPROPERTIES
1002
{
1000
PbThick
1002
}
  0
LINE
  5
20D
330
1F
100
AcDbEntity
  8
HIDDEN
100
AcDbLine
 10
272.9861077311293
 20
-30.70301265036099
 30
0.0
 11
272.9861077311293
 21
-30.70301265036099
 31
0.0
1001
DBPROPERTIES
1002
{
1000
PbHidd
1002
}
  0
LINE
  5
20E
330
1F
100
AcDbEntity
  8
THICK
100
AcDbLine
 10
273.4042215841999
 20
-26.7249250688879
 30
0.0
 11
272.9861077311293
 21
-30.70301265036099
 31
0.0
1001
DBPROPERTIES
1002
{
1000
PbThick
1002
}
  0
LINE
  5
20F
330
1F
100
AcDbEntity
  8
THICK
100
AcDbLine
 10
272.9861077311293
 20
-30.70301265036099
 30
0.0
 11
277.7598128288971
 21
-31.20474927404573
 31
0.0
1001
DBPROPERTIES
1002
{
1000
PbThick
1002
}
  0
LINE
  5
210
330
1F
100
AcDbEntity
  8
THICK
100
AcDbLine
 10
278.1779266819677
 20
-27.22666169257264
 30
0.0
 11
277.7598128288971
 21
-31.20474927404573
 31
0.0
1001
DBPROPERTIES
1002
{
1000
PbThick
1002
}
  0
LINE
  5
211
330
1F
100
AcDbEntity
  8
HIDDEN
100
AcDbLine
 10
277.7598128288971
 20
-31.20474927404573
 30
0.0
 11
277.7598128288971
 21
-31.20474927404573
 31
0.0
1001
DBPROPERTIES
1002
{
1000
PbHidd
1002
}
  0
LINE
  5
212
330
1F
100
AcDbEntity
  8
HIDDEN
100
AcDbLine
 10
147.7379581240329
 20
-13.516868549212
 30
0.0
 11
147.3198442709623
 21
-17.49495613068509
 31
0.0
1001
DBPROPERTIES
1002
{
1000
PbHidd
1002
}
  0
LINE
  5
213
330
1F
100
AcDbEntity
  8
HIDDEN
100
AcDbLine
 10
122.9330588149802
 20
-10.90976857649191
 30
0.0
 11
122.5149449619096
 21
-14.887856157965
 31
0.0
1001
DBPROPERTIES
1002
{
1000
PbHidd
1002
}
  0
LINE
  5
214
330
1F
100
AcDbEntity
  8
THICK
100
AcDbLine
 10
113.8512966456039
 20
9.955236908814815
 30
0.0
 11
125.3199113638641
 21
11.16063688833424
 31
0.0
1001
DBPROPERTIES
1002
{
1000
PbThick
1002
}
  0
LINE
  5
215
330
1F
100
AcDbEntity
  8
THICK
100
AcDbLine
 10
151.9870889802658
 20
13.96347019840009
 30
0.0
 11
273.4042215841999
 21
26.7249250688878
 31
0.0
1001
DBPROPERTIES
1002
{
1000
PbThick
1002
}
  0
LINE
  5
216
330
1F
100
AcDbEntity
  8
HIDDEN
100
AcDbLine
 10
273.4042215841999
 20
26.7249250688878
 30
0.0
 11
273.4042215841999
 21
26.7249250688878
 31
0.0
1001
DBPROPERTIES
1002
{
1000
PbHidd
1002
}
  0
LINE
  5
217
330
1F
100
AcDbEntity
  8
THICK
100
AcDbLine
 10
272.9861077311293
 20
30.70301265036089
 30
0.0
 11
273.4042215841999
 21
26.7249250688878
 31
0.0
1001
DBPROPERTIES
1002
{
1000
PbThick
1002
}
  0
LINE
  5
218
330
1F
100
AcDbEntity
  8
THICK
100
AcDbLine
 10
273.4042215841999
 20
26.7249250688878
 30
0.0
 11
278.1779266819677
 21
27.22666169257253
 31
0.0
1001
DBPROPERTIES
1002
{
1000
PbThick
1002
}
  0
LINE
  5
219
330
1F
100
AcDbEntity
  8
THICK
100
AcDbLine
 10
277.7598128288971
 20
31.20474927404563
 30
0.0
 11
278.1779266819677
 21
27.22666169257254
 31
0.0
1001
DBPROPERTIES
1002
{
1000
PbThick
1002
}
  0
LINE
  5
21A
330
1F
100
AcDbEntity
  8
HIDDEN
100
AcDbLine
 10
278.1779266819677
 20
27.22666169257253
 30
0.0
 11
278.1779266819677
 21
27.22666169257253
 31
0.0
1001
DBPROPERTIES
1002
{
1000
PbHidd
1002
}
  0
LINE
  5
21B
330
1F
100
AcDbEntity
  8
HIDDEN
100
AcDbLine
 10
147.3198442709623
 20
17.49495613068504
 30
0.0
 11
147.7379581240329
 21
13.51686854921195
 31
0.0
1001
DBPROPERTIES
1002
{
1000
PbHidd
1002
}
  0
LINE
  5
21C
330
1F
100
AcDbEntity
  8
HIDDEN
100
AcDbLine
 10
122.5149449619096
 20
14.88785615796496
 30
0.0
 11
122.9330588149802
 21
10.90976857649187
 31
0.0
1001
DBPROPERTIES
1002
{
1000
PbHidd
1002
}
  0
LINE
  5
21D
330
1F
100
AcDbEntity
  8
THICK
100
AcDbLine
 10
-13.93332449028794
 20
-113.4331827925332
 30
0.0
 11
-15.13872446980736
 21
-124.9017975107935
 31
0.0
1001
DBPROPERTIES
1002
{
1000
PbThick
1002
}
  0
LINE
  5
21E
330
1F
100
AcDbEntity
  8
THICK
100
AcDbLine
 10
-17.94155777987323
 20
-151.5689751271952
 30
0.0
 11
-30.70301265036097
 21
-272.9861077311293
 31
0.0
1001
DBPROPERTIES
1002
{
1000
PbThick
1002
}
  0
LINE
  5
21F
330
1F
100
AcDbEntity
  8
HIDDEN
100
AcDbLine
 10
-30.70301265036097
 20
-272.9861077311293
 30
0.0
 11
-30.70301265036097
 21
-272.9861077311293
 31
0.0
1001
DBPROPERTIES
1002
{
1000
PbHidd
1002
}
  0
LINE
  5
220
330
1F
100
AcDbEntity
  8
THICK
100
AcDbLine
 10
-26.72492506888788
 20
-273.4042215841999
 30
0.0
 11
-30.70301265036097
 21
-272.9861077311293
 31
0.0
1001
DBPROPERTIES
1002
{
1000
PbThick
1002
}
  0
LINE
  5
221
330
1F
100
AcDbEntity
  8
THICK
100
AcDbLine
 10
-30.70301265036098
 20
-272.9861077311293
 30
0.0
 11
-31.20474927404571
 21
-277.7598128288971
 31
0.0
1001
DBPROPERTIES
1002
{
1000
PbThick
1002
}
  0
LINE
  5
222
330
1F
100
AcDbEntity
  8
THICK
100
AcDbLine
 10
-27.22666169257262
 20
-278.1779266819677
 30
0.0
 11
-31.20474927404571
 21
-277.7598128288971
 31
0.0
1001
DBPROPERTIES
1002
{
1000
PbThick
1002
}
  0
LINE
  5
223
330
1F
100
AcDbEntity
  8
HIDDEN
100
AcDbLine
 10
-31.20474927404571
 20
-277.7598128288971
 30
0.0
 11
-31.20474927404571
 21
-277.7598128288971
 31
0.0
1001
DBPROPERTIES
1002
{
1000
PbHidd
1002
}
  0
LINE
  5
224
330
1F
100
AcDbEntity
  8
HIDDEN
100
AcDbLine
 10
-13.51686854921199
 20
-147.7379581240329
 30
0.0
 11
-17.49495613068508
 21
-147.3198442709623
 31
0.0
1001
DBPROPERTIES
1002
{
1000
PbHidd
1002
}
  0
LINE
  5
225
330
1F
100
AcDbEntity
  8
HIDDEN
100
AcDbLine
 10
-10.9097685764919
 20
-122.9330588149802
 30
0.0
 11
-14.88785615796499
 21
-122.5149449619096
 31
0.0
1001
DBPROPERTIES
1002
{
1000
PbHidd
1002
}
  0
LINE
  5
226
330
1F
100
AcDbEntity
  8
HIDDEN
100
AcDbLine
 10
-13.93332449028794
 20
-113.4331827925332
 30
0.0
 11
-13.93332449028794
 21
-113.4331827925332
 31
0.0
1001
DBPROPERTIES
1002
{
1000
PbHidd
1002
}
  0
LINE
  5
227
330
1F
100
AcDbEntity
  8
HIDDEN
100
AcDbLine
 10
9.955236908814818
 20
-113.8512966456039
 30
0.0
 11
11.16063688833424
 21
-125.3199113638641
 31
0.0
1001
DBPROPERTIES
1002
{
1000
PbHidd
1002
}
  0
LINE
  5
228
330
1F
100
AcDbEntity
  8
HIDDEN
100
AcDbLine
 10
13.96347019840011
 20
-151.9870889802659
 30
0.0
 11
24.20957674976754
 21
-249.4722809467734
 31
0.0
1001
DBPROPERTIES
1002
{
1000
PbHidd
1002
}
  0
LINE
  5
229
330
1F
100
AcDbEntity
  8
THICK
100
AcDbLine
 10
24.20957674976754
 20
-249.4722809467734
 30
0.0
 11
26.72492506888782
 21
-273.4042215841999
 31
0.0
1001
DBPROPERTIES
1002
{
1000
PbThick
1002
}
  0
LINE
  5
22A
330
1F
100
AcDbEntity
  8
HIDDEN
100
AcDbLine
 10
26.72492506888782
 20
-273.4042215841999
 30
0.0
 11
26.72492506888782
 21
-273.4042215841999
 31
0.0
1001
DBPROPERTIES
1002
{
1000
PbHidd
1002
}
  0
LINE
  5
22B
330
1F
100
AcDbEntity
  8
THICK
100
AcDbLine
 10
30.70301265036091
 20
-272.9861077311293
 30
0.0
 11
26.72492506888782
 21
-273.4042215841999
 31
0.0
1001
DBPROPERTIES
1002
{
1000
PbThick
1002
}
  0
LINE
  5
22C
330
1F
100
AcDbEntity
  8
THICK
100
AcDbLine
 10
26.72492506888782
 20
-273.4042215841999
 30
0.0
 11
27.22666169257255
 21
-278.1779266819677
 31
0.0
1001
DBPROPERTIES
1002
{
1000
PbThick
1002
}
  0
LINE
  5
22D
330
1F
100
AcDbEntity
  8
THICK
100
AcDbLine
 10
31.20474927404565
 20
-277.7598128288971
 30
0.0
 11
27.22666169257256
 21
-278.1779266819677
 31
0.0
1001
DBPROPERTIES
1002
{
1000
PbThick
1002
}
  0
LINE
  5
22E
330
1F
100
AcDbEntity
  8
HIDDEN
100
AcDbLine
 10
27.22666169257255
 20
-278.1779266819677
 30
0.0
 11
27.22666169257255
 21
-278.1779266819677
 31
0.0
1001
DBPROPERTIES
1002
{
1000
PbHidd
1002
}
  0
LINE
  5
22F
330
1F
100
AcDbEntity
  8
HIDDEN
100
AcDbLine
 10
17.49495613068505
 20
-147.3198442709623
 30
0.0
 11
13.51686854921196
 21
-147.7379581240329
 31
0.0
1001
DBPROPERTIES
1002
{
1000
PbHidd
1002
}
  0
LINE
  5
230
330
1F
100
AcDbEntity
  8
HIDDEN
100
AcDbLine
 10
14.88785615796497
 20
-122.5149449619096
 30
0.0
 11
10.90976857649188
 21
-122.9330588149802
 31
0.0
1001
DBPROPERTIES
1002
{
1000
PbHidd
1002
}
  0
LINE
  5
231
330
1F
100
AcDbEntity
  8
HIDDEN
100
AcDbLine
 10
-113.4331827925333
 20
13.93332449028793
 30
0.0
 11
-124.9017975107935
 21
15.13872446980736
 31
0.0
1001
DBPROPERTIES
1002
{
1000
PbHidd
1002
}
  0
LINE
  5
232
330
1F
100
AcDbEntity
  8
HIDDEN
100
AcDbLine
 10
-151.5689751271953
 20
17.94155777987323
 30
0.0
 11
-250.3738529424388
 21
28.326368903163
 31
0.0
1001
DBPROPERTIES
1002
{
1000
PbHidd
1002
}
  0
LINE
  5
233
330
1F
100
AcDbEntity
  8
THICK
100
AcDbLine
 10
-250.3738529424388
 20
28.326368903163
 30
0.0
 11
-272.9861077311293
 21
30.70301265036095
 31
0.0
1001
DBPROPERTIES
1002
{
1000
PbThick
1002
}
  0
LINE
  5
234
330
1F
100
AcDbEntity
  8
HIDDEN
100
AcDbLine
 10
-272.9861077311293
 20
30.70301265036095
 30
0.0
 11
-272.9861077311293
 21
30.70301265036095
 31
0.0
1001
DBPROPERTIES
1002
{
1000
PbHidd
1002
}
  0
LINE
  5
235
330
1F
100
AcDbEntity
  8
THICK
100
AcDbLine
 10
-273.4042215841999
 20
26.72492506888786
 30
0.0
 11
-272.9861077311293
 21
30.70301265036095
 31
0.0
1001
DBPROPERTIES
1002
{
1000
PbThick
1002
}
  0
LINE
  5
236
330
1F
100
AcDbEntity
  8
THICK
100
AcDbLine
 10
-272.9861077311293
 20
30.70301265036096
 30
0.0
 11
-277.7598128288971
 21
31.2047492740457
 31
0.0
1001
DBPROPERTIES
1002
{
1000
PbThick
1002
}
  0
LINE
  5
237
330
1F
100
AcDbEntity
  8
THICK
100
AcDbLine
 10
-278.1779266819677
 20
27.22666169257261
 30
0.0
 11
-277.7598128288971
 21
31.2047492740457
 31
0.0
1001
DBPROPERTIES
1002
{
1000
PbThick
1002
}
  0
LINE
  5
238
330
1F
100
AcDbEntity
  8
HIDDEN
100
AcDbLine
 10
-277.7598128288971
 20
31.2047492740457
 30
0.0
 11
-277.7598128288971
 21
31.2047492740457
 31
0.0
1001
DBPROPERTIES
1002
{
1000
PbHidd
1002
}
  0
LINE
  5
239
330
1F
100
AcDbEntity
  8
HIDDEN
100
AcDbLine
 10
-147.7379581240329
 20
13.51686854921198
 30
0.0
 11
-147.3198442709623
 21
17.49495613068507
 31
0.0
1001
DBPROPERTIES
1002
{
1000
PbHidd
1002
}
  0
LINE
  5
23A
330
1F
100
AcDbEntity
  8
HIDDEN
100
AcDbLine
 10
-122.9330588149802
 20
10.90976857649189
 30
0.0
 11
-122.5149449619096
 21
14.88785615796498
 31
0.0
1001
DBPROPERTIES
1002
{
1000
PbHidd
1002
}
  0
LINE
  5
23B
330
1F
100
AcDbEntity
  8
HIDDEN
100
AcDbLine
 10
-113.4331827925332
 20
13.93332449028794
 30
0.0
 11
-113.4331827925332
 21
13.93332449028794
 31
0.0
1001
DBPROPERTIES
1002
{
1000
PbHidd
1002
}
  0
LINE
  5
23C
330
1F
100
AcDbEntity
  8
HIDDEN
100
AcDbLine
 10
-113.8512966456039
 20
-9.955236908814827
 30
0.0
 11
-125.3199113638641
 21
-11.16063688833425
 31
0.0
1001
DBPROPERTIES
1002
{
1000
PbHidd
1002
}
  0
LINE
  5
23D
330
1F
100
AcDbEntity
  8
HIDDEN
100
AcDbLine
 10
-151.9870889802659
 20
-13.96347019840013
 30
0.0
 11
-251.4611615825085
 21
-24.41861652802121
 31
0.0
1001
DBPROPERTIES
1002
{
1000
PbHidd
1002
}
  0
LINE
  5
23E
330
1F
100
AcDbEntity
  8
THICK
100
AcDbLine
 10
-251.4611615825085
 20
-24.41861652802121
 30
0.0
 11
-273.4042215841999
 21
-26.72492506888783
 31
0.0
1001
DBPROPERTIES
1002
{
1000
PbThick
1002
}
  0
LINE
  5
23F
330
1F
100
AcDbEntity
  8
HIDDEN
100
AcDbLine
 10
-273.4042215841999
 20
-26.72492506888783
 30
0.0
 11
-273.4042215841999
 21
-26.72492506888783
 31
0.0
1001
DBPROPERTIES
1002
{
1000
PbHidd
1002
}
  0
LINE
  5
240
330
1F
100
AcDbEntity
  8
THICK
100
AcDbLine
 10
-272.9861077311293
 20
-30.70301265036093
 30
0.0
 11
-273.4042215841999
 21
-26.72492506888784
 31
0.0
1001
DBPROPERTIES
1002
{
1000
PbThick
1002
}
  0
LINE
  5
241
330
1F
100
AcDbEntity
  8
THICK
100
AcDbLine
 10
-273.4042215841999
 20
-26.72492506888783
 30
0.0
 11
-278.1779266819677
 21
-27.22666169257257
 31
0.0
1001
DBPROPERTIES
1002
{
1000
PbThick
1002
}
  0
LINE
  5
242
330
1F
100
AcDbEntity
  8
THICK
100
AcDbLine
 10
-277.7598128288971
 20
-31.20474927404566
 30
0.0
 11
-278.1779266819677
 21
-27.22666169257257
 31
0.0
1001
DBPROPERTIES
1002
{
1000
PbThick
1002
}
  0
LINE
  5
243
330
1F
100
AcDbEntity
  8
HIDDEN
100
AcDbLine
 10
-278.1779266819677
 20
-27.22666169257257
 30
0.0
 11
-278.1779266819677
 21
-27.22666169257257
 31
0.0
1001
DBPROPERTIES
1002
{
1000
PbHidd
1002
}
  0
LINE
  5
244
330
1F
100
AcDbEntity
  8
HIDDEN
100
AcDbLine
 10
-147.3198442709623
 20
-17.49495613068506
 30
0.0
 11
-147.7379581240329
 21
-13.51686854921197
 31
0.0
1001
DBPROPERTIES
1002
{
1000
PbHidd
1002
}
  0
LINE
  5
245
330
1F
100
AcDbEntity
  8
HIDDEN
100
AcDbLine
 10
-122.5149449619096
 20
-14.88785615796498
 30
0.0
 11
-122.9330588149802
 21
-10.90976857649189
 31
0.0
1001
DBPROPERTIES
1002
{
1000
PbHidd
1002
}
  0
LINE
  5
246
330
1F
100
AcDbEntity
  8
HIDDEN
100
AcDbLine
 10
-113.8512966456039
 20
-9.955236908814825
 30
0.0
 11
-113.8512966456039
 21
-9.955236908814825
 31
0.0
1001
DBPROPERTIES
1002
{
1000
PbHidd
1002
}
  0
ARC
  5
247
330
1F
100
AcDbEntity
  8
HIDDEN
100
AcDbCircle
 10
0.0
 20
0.0000000000000196
 30
0.0
 40
80.0
100
AcDbArc
 50
267.0000117086634
 51
270.0000187239684
1001
DBPROPERTIES
1002
{
1000
PbHidd
1002
}
  0
LINE
  5
248
330
1F
100
AcDbEntity
  8
HIDDEN
100
AcDbLine
 10
-4.186876499435547
 20
-79.89036278036589
 30
0.0
 11
-4.186876499435547
 21
-79.89036278036589
 31
0.0
1001
DBPROPERTIES
1002
{
1000
PbHidd
1002
}
  0
LINE
  5
249
330
1F
100
AcDbEntity
  8
HIDDEN
100
AcDbLine
 10
20.70552360820163
 20
-77.27406610312545
 30
0.0
 11
20.70552360820163
 21
-77.27406610312545
 31
0.0
1001
DBPROPERTIES
1002
{
1000
PbHidd
1002
}
  0
ARC
  5
24A
330
1F
100
AcDbEntity
  8
HIDDEN
100
AcDbCircle
 10
0.0
 20
0.0000000000000196
 30
0.0
 40
80.0
100
AcDbArc
 50
278.9999824741038
 51
284.9999965047138
1001
DBPROPERTIES
1002
{
1000
PbHidd
1002
}
  0
LINE
  5
24B
330
1F
100
AcDbEntity
  8
HIDDEN
100
AcDbLine
 10
12.51475720321845
 20
-79.01506724761099
 30
0.0
 11
12.51475720321845
 21
-79.01506724761099
 31
0.0
1001
DBPROPERTIES
1002
{
1000
PbHidd
1002
}
  0
LINE
  5
24C
330
1F
100
AcDbEntity
  8
HIDDEN
100
AcDbLine
 10
-12.5147572032185
 20
-79.015067247611
 30
0.0
 11
-12.5147572032185
 21
-79.015067247611
 31
0.0
1001
DBPROPERTIES
1002
{
1000
PbHidd
1002
}
  0
ARC
  5
24D
330
1F
100
AcDbEntity
  8
HIDDEN
100
AcDbCircle
 10
0.0
 20
0.0000000000000196
 30
0.0
 40
80.0
100
AcDbArc
 50
254.9999836474434
 51
260.9999976780534
1001
DBPROPERTIES
1002
{
1000
PbHidd
1002
}
  0
LINE
  5
24E
330
1F
100
AcDbEntity
  8
HIDDEN
100
AcDbLine
 10
-20.70552360820168
 20
-77.27406610312542
 30
0.0
 11
-20.70552360820168
 21
-77.27406610312542
 31
0.0
1001
DBPROPERTIES
1002
{
1000
PbHidd
1002
}
  0
LINE
  5
24F
330
1F
100
AcDbEntity
  8
HIDDEN
100
AcDbLine
 10
36.3192399791637
 20
-71.28052193506942
 30
0.0
 11
36.3192399791637
 21
-71.28052193506942
 31
0.0
1001
DBPROPERTIES
1002
{
1000
PbHidd
1002
}
  0
ARC
  5
250
330
1F
100
AcDbEntity
  8
HIDDEN
100
AcDbCircle
 10
0.0
 20
0.0000000000000196
 30
0.0
 40
80.0
100
AcDbArc
 50
291.0000105353237
 51
297.0000245659338
1001
DBPROPERTIES
1002
{
1000
PbHidd
1002
}
  0
LINE
  5
251
330
1F
100
AcDbEntity
  8
HIDDEN
100
AcDbLine
 10
28.66943596362399
 20
-74.68643411977612
 30
0.0
 11
28.66943596362399
 21
-74.68643411977612
 31
0.0
1001
DBPROPERTIES
1002
{
1000
PbHidd
1002
}
  0
LINE
  5
252
330
1F
100
AcDbEntity
  8
HIDDEN
100
AcDbLine
 10
-28.66943596362403
 20
-74.68643411977611
 30
0.0
 11
-28.66943596362403
 21
-74.68643411977611
 31
0.0
1001
DBPROPERTIES
1002
{
1000
PbHidd
1002
}
  0
ARC
  5
253
330
1F
100
AcDbEntity
  8
HIDDEN
100
AcDbCircle
 10
0.0
 20
0.0000000000000196
 30
0.0
 40
80.0
100
AcDbArc
 50
243.0000128820029
 51
249.0000269126129
1001
DBPROPERTIES
1002
{
1000
PbHidd
1002
}
  0
LINE
  5
254
330
1F
100
AcDbEntity
  8
HIDDEN
100
AcDbLine
 10
-36.31923997916375
 20
-71.2805219350694
 30
0.0
 11
-36.31923997916375
 21
-71.2805219350694
 31
0.0
1001
DBPROPERTIES
1002
{
1000
PbHidd
1002
}
  0
LINE
  5
255
330
1F
100
AcDbEntity
  8
HIDDEN
100
AcDbLine
 10
50.34563128398694
 20
-62.17167691655767
 30
0.0
 11
50.34563128398694
 21
-62.17167691655767
 31
0.0
1001
DBPROPERTIES
1002
{
1000
PbHidd
1002
}
  0
ARC
  5
256
330
1F
100
AcDbEntity
  8
HIDDEN
100
AcDbCircle
 10
0.0
 20
0.0000000000000196
 30
0.0
 40
80.0
100
AcDbArc
 50
302.9999813007643
 51
308.9999953313742
1001
DBPROPERTIES
1002
{
1000
PbHidd
1002
}
  0
LINE
  5
257
330
1F
100
AcDbEntity
  8
HIDDEN
100
AcDbLine
 10
43.57112280120212
 20
-67.09364543563393
 30
0.0
 11
43.57112280120212
 21
-67.09364543563393
 31
0.0
1001
DBPROPERTIES
1002
{
1000
PbHidd
1002
}
  0
LINE
  5
258
330
1F
100
AcDbEntity
  8
HIDDEN
100
AcDbLine
 10
-43.5711228012022
 20
-67.09364543563389
 30
0.0
 11
-43.5711228012022
 21
-67.09364543563389
 31
0.0
1001
DBPROPERTIES
1002
{
1000
PbHidd
1002
}
  0
ARC
  5
259
330
1F
100
AcDbEntity
  8
HIDDEN
100
AcDbCircle
 10
0.0
 20
0.0000000000000196
 30
0.0
 40
80.0
100
AcDbArc
 50
230.999984820783
 51
236.999998851393
1001
DBPROPERTIES
1002
{
1000
PbHidd
1002
}
  0
LINE
  5
25A
330
1F
100
AcDbEntity
  8
HIDDEN
100
AcDbLine
 10
-50.34563128398703
 20
-62.17167691655763
 30
0.0
 11
-50.34563128398703
 21
-62.17167691655763
 31
0.0
1001
DBPROPERTIES
1002
{
1000
PbHidd
1002
}
  0
LINE
  5
25B
330
1F
100
AcDbEntity
  8
HIDDEN
100
AcDbLine
 10
62.17167691655764
 20
-50.34563128398702
 30
0.0
 11
62.17167691655764
 21
-50.34563128398702
 31
0.0
1001
DBPROPERTIES
1002
{
1000
PbHidd
1002
}
  0
ARC
  5
25C
330
1F
100
AcDbEntity
  8
HIDDEN
100
AcDbCircle
 10
0.0
 20
0.0000000000000196
 30
0.0
 40
80.0
100
AcDbArc
 50
315.0000093619842
 51
321.0000233925941
1001
DBPROPERTIES
1002
{
1000
PbHidd
1002
}
  0
LINE
  5
25D
330
1F
100
AcDbEntity
  8
HIDDEN
100
AcDbLine
 10
56.56854249492378
 20
-56.5685424949238
 30
0.0
 11
56.56854249492378
 21
-56.5685424949238
 31
0.0
1001
DBPROPERTIES
1002
{
1000
PbHidd
1002
}
  0
LINE
  5
25E
330
1F
100
AcDbEntity
  8
HIDDEN
100
AcDbLine
 10
-56.5685424949238
 20
-56.56854249492378
 30
0.0
 11
-56.5685424949238
 21
-56.56854249492378
 31
0.0
1001
DBPROPERTIES
1002
{
1000
PbHidd
1002
}
  0
ARC
  5
25F
330
1F
100
AcDbEntity
  8
HIDDEN
100
AcDbCircle
 10
0.0
 20
0.0000000000000196
 30
0.0
 40
80.0
100
AcDbArc
 50
219.0000140553425
 51
225.0000280859525
1001
DBPROPERTIES
1002
{
1000
PbHidd
1002
}
  0
LINE
  5
260
330
1F
100
AcDbEntity
  8
HIDDEN
100
AcDbLine
 10
-62.17167691655767
 20
-50.34563128398696
 30
0.0
 11
-62.17167691655767
 21
-50.34563128398696
 31
0.0
1001
DBPROPERTIES
1002
{
1000
PbHidd
1002
}
  0
LINE
  5
261
330
1F
100
AcDbEntity
  8
HIDDEN
100
AcDbLine
 10
71.2805219350694
 20
-36.31923997916378
 30
0.0
 11
71.2805219350694
 21
-36.31923997916378
 31
0.0
1001
DBPROPERTIES
1002
{
1000
PbHidd
1002
}
  0
ARC
  5
262
330
1F
100
AcDbEntity
  8
HIDDEN
100
AcDbCircle
 10
0.0
 20
0.0000000000000196
 30
0.0
 40
80.0
100
AcDbArc
 50
326.9999801274246
 51
332.9999941580346
1001
DBPROPERTIES
1002
{
1000
PbHidd
1002
}
  0
LINE
  5
263
330
1F
100
AcDbEntity
  8
HIDDEN
100
AcDbLine
 10
67.0936454356339
 20
-43.57112280120219
 30
0.0
 11
67.0936454356339
 21
-43.57112280120219
 31
0.0
1001
DBPROPERTIES
1002
{
1000
PbHidd
1002
}
  0
LINE
  5
264
330
1F
100
AcDbEntity
  8
HIDDEN
100
AcDbLine
 10
-67.09364543563392
 20
-43.57112280120214
 30
0.0
 11
-67.09364543563392
 21
-43.57112280120214
 31
0.0
1001
DBPROPERTIES
1002
{
1000
PbHidd
1002
}
  0
ARC
  5
265
330
1F
100
AcDbEntity
  8
HIDDEN
100
AcDbCircle
 10
0.0
 20
0.0000000000000196
 30
0.0
 40
80.0
100
AcDbArc
 50
206.9999859941226
 51
213.0000000247326
1001
DBPROPERTIES
1002
{
1000
PbHidd
1002
}
  0
LINE
  5
266
330
1F
100
AcDbEntity
  8
HIDDEN
100
AcDbLine
 10
-71.28052193506943
 20
-36.31923997916372
 30
0.0
 11
-71.28052193506943
 21
-36.31923997916372
 31
0.0
1001
DBPROPERTIES
1002
{
1000
PbHidd
1002
}
  0
LINE
  5
267
330
1F
100
AcDbEntity
  8
HIDDEN
100
AcDbLine
 10
77.27406610312545
 20
-20.70552360820172
 30
0.0
 11
77.27406610312545
 21
-20.70552360820171
 31
0.0
1001
DBPROPERTIES
1002
{
1000
PbHidd
1002
}
  0
ARC
  5
268
330
1F
100
AcDbEntity
  8
HIDDEN
100
AcDbCircle
 10
0.0
 20
0.0000000000000196
 30
0.0
 40
80.0
100
AcDbArc
 50
339.0000081886445
 51
345.0000222192546
1001
DBPROPERTIES
1002
{
1000
PbHidd
1002
}
  0
LINE
  5
269
330
1F
100
AcDbEntity
  8
HIDDEN
100
AcDbLine
 10
74.68643411977612
 20
-28.66943596362406
 30
0.0
 11
74.68643411977612
 21
-28.66943596362407
 31
0.0
1001
DBPROPERTIES
1002
{
1000
PbHidd
1002
}
  0
LINE
  5
26A
330
1F
100
AcDbEntity
  8
HIDDEN
100
AcDbLine
 10
-74.68643411977612
 20
-28.669435963624
 30
0.0
 11
-74.68643411977612
 21
-28.669435963624
 31
0.0
1001
DBPROPERTIES
1002
{
1000
PbHidd
1002
}
  0
ARC
  5
26B
330
1F
100
AcDbEntity
  8
HIDDEN
100
AcDbCircle
 10
0.0
 20
0.0000000000000196
 30
0.0
 40
80.0
100
AcDbArc
 50
195.0000152286821
 51
200.9999719635126
1001
DBPROPERTIES
1002
{
1000
PbHidd
1002
}
  0
LINE
  5
26C
330
1F
100
AcDbEntity
  8
HIDDEN
100
AcDbLine
 10
-77.27406610312546
 20
-20.70552360820164
 30
0.0
 11
-77.27406610312546
 21
-20.70552360820165
 31
0.0
1001
DBPROPERTIES
1002
{
1000
PbHidd
1002
}
  0
LINE
  5
26D
330
1F
100
AcDbEntity
  8
HIDDEN
100
AcDbLine
 10
79.89036278036592
 20
-4.186876499435535
 30
0.0
 11
79.89036278036592
 21
-4.186876499435528
 31
0.0
1001
DBPROPERTIES
1002
{
1000
PbHidd
1002
}
  0
ARC
  5
26E
330
1F
100
AcDbEntity
  8
HIDDEN
100
AcDbCircle
 10
0.0
 20
0.0000000000000196
 30
0.0
 40
80.0
100
AcDbArc
 50
350.9999789540851
 51
356.999992984695
1001
DBPROPERTIES
1002
{
1000
PbHidd
1002
}
  0
LINE
  5
26F
330
1F
100
AcDbEntity
  8
HIDDEN
100
AcDbLine
 10
79.015067247611
 20
-12.51475720321849
 30
0.0
 11
79.015067247611
 21
-12.51475720321849
 31
0.0
1001
DBPROPERTIES
1002
{
1000
PbHidd
1002
}
  0
LINE
  5
270
330
1F
100
AcDbEntity
  8
HIDDEN
100
AcDbLine
 10
-79.01506724761103
 20
-12.51475720321845
 30
0.0
 11
-79.01506724761103
 21
-12.51475720321844
 31
0.0
1001
DBPROPERTIES
1002
{
1000
PbHidd
1002
}
  0
ARC
  5
271
330
1F
100
AcDbEntity
  8
HIDDEN
100
AcDbCircle
 10
0.0
 20
0.0000000000000196
 30
0.0
 40
80.0
100
AcDbArc
 50
182.9999871674622
 51
189.0000011980722
1001
DBPROPERTIES
1002
{
1000
PbHidd
1002
}
  0
LINE
  5
272
330
1F
100
AcDbEntity
  8
HIDDEN
100
AcDbLine
 10
-79.89036278036592
 20
-4.186876499435479
 30
0.0
 11
-79.89036278036592
 21
-4.186876499435487
 31
0.0
1001
DBPROPERTIES
1002
{
1000
PbHidd
1002
}
  0
LINE
  5
273
330
1F
100
AcDbEntity
  8
HIDDEN
100
AcDbLine
 10
79.01506724761103
 20
12.51475720321839
 30
0.0
 11
79.01506724761103
 21
12.5147572032184
 31
0.0
1001
DBPROPERTIES
1002
{
1000
PbHidd
1002
}
  0
ARC
  5
274
330
1F
100
AcDbEntity
  8
HIDDEN
100
AcDbCircle
 10
0.0
 20
0.0000000000000196
 30
0.0
 40
80.0
100
AcDbArc
 50
3.00000701530499
 51
9.000021045914972
1001
DBPROPERTIES
1002
{
1000
PbHidd
1002
}
  0
LINE
  5
275
330
1F
100
AcDbEntity
  8
HIDDEN
100
AcDbLine
 10
79.89036278036593
 20
4.186876499435441
 30
0.0
 11
79.89036278036593
 21
4.186876499435434
 31
0.0
1001
DBPROPERTIES
1002
{
1000
PbHidd
1002
}
  0
LINE
  5
276
330
1F
100
AcDbEntity
  8
HIDDEN
100
AcDbLine
 10
-79.89036278036592
 20
4.186876499435517
 30
0.0
 11
-79.89036278036592
 21
4.186876499435524
 31
0.0
1001
DBPROPERTIES
1002
{
1000
PbHidd
1002
}
  0
ARC
  5
277
330
1F
100
AcDbEntity
  8
HIDDEN
100
AcDbCircle
 10
0.0
 20
0.0000000000000196
 30
0.0
 40
80.0
100
AcDbArc
 50
170.9999988019279
 51
177.0000128325378
1001
DBPROPERTIES
1002
{
1000
PbHidd
1002
}
  0
LINE
  5
278
330
1F
100
AcDbEntity
  8
HIDDEN
100
AcDbLine
 10
-79.01506724761103
 20
12.51475720321849
 30
0.0
 11
-79.01506724761103
 21
12.51475720321848
 31
0.0
1001
DBPROPERTIES
1002
{
1000
PbHidd
1002
}
  0
LINE
  5
279
330
1F
100
AcDbEntity
  8
HIDDEN
100
AcDbLine
 10
74.68643411977617
 20
28.66943596362397
 30
0.0
 11
74.68643411977617
 21
28.66943596362398
 31
0.0
1001
DBPROPERTIES
1002
{
1000
PbHidd
1002
}
  0
ARC
  5
27A
330
1F
100
AcDbEntity
  8
HIDDEN
100
AcDbCircle
 10
0.0
 20
0.0000000000000196
 30
0.0
 40
80.0
100
AcDbArc
 50
14.99997778074544
 51
20.99999181135542
1001
DBPROPERTIES
1002
{
1000
PbHidd
1002
}
  0
LINE
  5
27B
330
1F
100
AcDbEntity
  8
HIDDEN
100
AcDbLine
 10
77.27406610312548
 20
20.70552360820162
 30
0.0
 11
77.27406610312548
 21
20.70552360820162
 31
0.0
1001
DBPROPERTIES
1002
{
1000
PbHidd
1002
}
  0
LINE
  5
27C
330
1F
100
AcDbEntity
  8
HIDDEN
100
AcDbLine
 10
-77.27406610312545
 20
20.70552360820167
 30
0.0
 11
-77.27406610312545
 21
20.70552360820167
 31
0.0
1001
DBPROPERTIES
1002
{
1000
PbHidd
1002
}
  0
ARC
  5
27D
330
1F
100
AcDbEntity
  8
HIDDEN
100
AcDbCircle
 10
0.0
 20
0.0000000000000196
 30
0.0
 40
80.0
100
AcDbArc
 50
159.0000280364874
 51
164.9999847713179
1001
DBPROPERTIES
1002
{
1000
PbHidd
1002
}
  0
LINE
  5
27E
330
1F
100
AcDbEntity
  8
HIDDEN
100
AcDbLine
 10
-74.68643411977615
 20
28.66943596362404
 30
0.0
 11
-74.68643411977615
 21
28.66943596362403
 31
0.0
1001
DBPROPERTIES
1002
{
1000
PbHidd
1002
}
  0
LINE
  5
27F
330
1F
100
AcDbEntity
  8
HIDDEN
100
AcDbLine
 10
67.09364543563393
 20
43.57112280120215
 30
0.0
 11
67.09364543563393
 21
43.57112280120215
 31
0.0
1001
DBPROPERTIES
1002
{
1000
PbHidd
1002
}
  0
ARC
  5
280
330
1F
100
AcDbEntity
  8
HIDDEN
100
AcDbCircle
 10
0.0
 20
0.0000000000000196
 30
0.0
 40
80.0
100
AcDbArc
 50
27.0000058419654
 51
33.00001987257539
1001
DBPROPERTIES
1002
{
1000
PbHidd
1002
}
  0
LINE
  5
281
330
1F
100
AcDbEntity
  8
HIDDEN
100
AcDbLine
 10
71.28052193506946
 20
36.31923997916373
 30
0.0
 11
71.28052193506946
 21
36.31923997916373
 31
0.0
1001
DBPROPERTIES
1002
{
1000
PbHidd
1002
}
  0
LINE
  5
282
330
1F
100
AcDbEntity
  8
HIDDEN
100
AcDbLine
 10
-71.28052193506943
 20
36.31923997916378
 30
0.0
 11
-71.28052193506943
 21
36.31923997916378
 31
0.0
1001
DBPROPERTIES
1002
{
1000
PbHidd
1002
}
  0
ARC
  5
283
330
1F
100
AcDbEntity
  8
HIDDEN
100
AcDbCircle
 10
0.0
 20
0.0000000000000196
 30
0.0
 40
80.0
100
AcDbArc
 50
146.9999999752674
 51
153.0000140058774
1001
DBPROPERTIES
1002
{
1000
PbHidd
1002
}
  0
LINE
  5
284
330
1F
100
AcDbEntity
  8
HIDDEN
100
AcDbLine
 10
-67.09364543563393
 20
43.5711228012022
 30
0.0
 11
-67.09364543563393
 21
43.5711228012022
 31
0.0
1001
DBPROPERTIES
1002
{
1000
PbHidd
1002
}
  0
LINE
  5
285
330
1F
100
AcDbEntity
  8
HIDDEN
100
AcDbLine
 10
56.56854249492385
 20
56.56854249492377
 30
0.0
 11
56.56854249492385
 21
56.56854249492377
 31
0.0
1001
DBPROPERTIES
1002
{
1000
PbHidd
1002
}
  0
ARC
  5
286
330
1F
100
AcDbEntity
  8
HIDDEN
100
AcDbCircle
 10
0.0
 20
0.0000000000000196
 30
0.0
 40
80.0
100
AcDbArc
 50
38.99997660740585
 51
44.99999063801582
1001
DBPROPERTIES
1002
{
1000
PbHidd
1002
}
  0
LINE
  5
287
330
1F
100
AcDbEntity
  8
HIDDEN
100
AcDbLine
 10
62.17167691655771
 20
50.34563128398695
 30
0.0
 11
62.17167691655771
 21
50.34563128398695
 31
0.0
1001
DBPROPERTIES
1002
{
1000
PbHidd
1002
}
  0
LINE
  5
288
330
1F
100
AcDbEntity
  8
HIDDEN
100
AcDbLine
 10
-62.17167691655768
 20
50.34563128398703
 30
0.0
 11
-62.17167691655768
 21
50.34563128398703
 31
0.0
1001
DBPROPERTIES
1002
{
1000
PbHidd
1002
}
  0
ARC
  5
289
330
1F
100
AcDbEntity
  8
HIDDEN
100
AcDbCircle
 10
0.0
 20
0.0000000000000196
 30
0.0
 40
80.0
100
AcDbArc
 50
134.9999719140475
 51
140.9999859446575
1001
DBPROPERTIES
1002
{
1000
PbHidd
1002
}
  0
LINE
  5
28A
330
1F
100
AcDbEntity
  8
HIDDEN
100
AcDbLine
 10
-56.56854249492381
 20
56.56854249492382
 30
0.0
 11
-56.56854249492381
 21
56.56854249492382
 31
0.0
1001
DBPROPERTIES
1002
{
1000
PbHidd
1002
}
  0
LINE
  5
28B
330
1F
100
AcDbEntity
  8
HIDDEN
100
AcDbLine
 10
43.57112280120221
 20
67.09364543563392
 30
0.0
 11
43.57112280120221
 21
67.09364543563392
 31
0.0
1001
DBPROPERTIES
1002
{
1000
PbHidd
1002
}
  0
ARC
  5
28C
330
1F
100
AcDbEntity
  8
HIDDEN
100
AcDbCircle
 10
0.0
 20
0.0000000000000196
 30
0.0
 40
80.0
100
AcDbArc
 50
51.00000466862581
 51
57.0000186992358
1001
DBPROPERTIES
1002
{
1000
PbHidd
1002
}
  0
LINE
  5
28D
330
1F
100
AcDbEntity
  8
HIDDEN
100
AcDbLine
 10
50.34563128398704
 20
62.17167691655767
 30
0.0
 11
50.34563128398704
 21
62.17167691655767
 31
0.0
1001
DBPROPERTIES
1002
{
1000
PbHidd
1002
}
  0
LINE
  5
28E
330
1F
100
AcDbEntity
  8
HIDDEN
100
AcDbLine
 10
-50.345631283987
 20
62.17167691655769
 30
0.0
 11
-50.345631283987
 21
62.17167691655769
 31
0.0
1001
DBPROPERTIES
1002
{
1000
PbHidd
1002
}
  0
ARC
  5
28F
330
1F
100
AcDbEntity
  8
HIDDEN
100
AcDbCircle
 10
0.0
 20
0.0000000000000196
 30
0.0
 40
80.0
100
AcDbArc
 50
123.000001148607
 51
129.000015179217
1001
DBPROPERTIES
1002
{
1000
PbHidd
1002
}
  0
LINE
  5
290
330
1F
100
AcDbEntity
  8
HIDDEN
100
AcDbLine
 10
-43.57112280120217
 20
67.09364543563395
 30
0.0
 11
-43.57112280120217
 21
67.09364543563395
 31
0.0
1001
DBPROPERTIES
1002
{
1000
PbHidd
1002
}
  0
LINE
  5
291
330
1F
100
AcDbEntity
  8
HIDDEN
100
AcDbLine
 10
28.66943596362406
 20
74.68643411977615
 30
0.0
 11
28.66943596362406
 21
74.68643411977615
 31
0.0
1001
DBPROPERTIES
1002
{
1000
PbHidd
1002
}
  0
ARC
  5
292
330
1F
100
AcDbEntity
  8
HIDDEN
100
AcDbCircle
 10
0.0
 20
0.0000000000000196
 30
0.0
 40
80.0
100
AcDbArc
 50
62.99997543406626
 51
68.99998946467625
1001
DBPROPERTIES
1002
{
1000
PbHidd
1002
}
  0
LINE
  5
293
330
1F
100
AcDbEntity
  8
HIDDEN
100
AcDbLine
 10
36.31923997916379
 20
71.28052193506944
 30
0.0
 11
36.31923997916379
 21
71.28052193506944
 31
0.0
1001
DBPROPERTIES
1002
{
1000
PbHidd
1002
}
  0
LINE
  5
294
330
1F
100
AcDbEntity
  8
HIDDEN
100
AcDbLine
 10
-36.31923997916373
 20
71.28052193506946
 30
0.0
 11
-36.31923997916373
 21
71.28052193506946
 31
0.0
1001
DBPROPERTIES
1002
{
1000
PbHidd
1002
}
  0
ARC
  5
295
330
1F
100
AcDbEntity
  8
HIDDEN
100
AcDbCircle
 10
0.0
 20
0.0000000000000196
 30
0.0
 40
80.0
100
AcDbArc
 50
110.9999730873871
 51
116.9999871179971
1001
DBPROPERTIES
1002
{
1000
PbHidd
1002
}
  0
LINE
  5
296
330
1F
100
AcDbEntity
  8
HIDDEN
100
AcDbLine
 10
-28.66943596362401
 20
74.68643411977617
 30
0.0
 11
-28.66943596362401
 21
74.68643411977617
 31
0.0
1001
DBPROPERTIES
1002
{
1000
PbHidd
1002
}
  0
LINE
  5
297
330
1F
100
AcDbEntity
  8
HIDDEN
100
AcDbLine
 10
12.51475720321855
 20
79.01506724761103
 30
0.0
 11
12.51475720321855
 21
79.01506724761103
 31
0.0
1001
DBPROPERTIES
1002
{
1000
PbHidd
1002
}
  0
ARC
  5
298
330
1F
100
AcDbEntity
  8
HIDDEN
100
AcDbCircle
 10
0.0
 20
0.0000000000000196
 30
0.0
 40
80.0
100
AcDbArc
 50
75.00000349528622
 51
81.0000175258962
1001
DBPROPERTIES
1002
{
1000
PbHidd
1002
}
  0
LINE
  5
299
330
1F
100
AcDbEntity
  8
HIDDEN
100
AcDbLine
 10
20.70552360820173
 20
77.27406610312548
 30
0.0
 11
20.70552360820173
 21
77.27406610312548
 31
0.0
1001
DBPROPERTIES
1002
{
1000
PbHidd
1002
}
  0
ARC
  5
29A
330
1F
100
AcDbEntity
  8
HIDDEN
100
AcDbCircle
 10
0.0
 20
0.0000000000000196
 30
0.0
 40
80.0
100
AcDbArc
 50
99.00000232194662
 51
105.0000163525566
1001
DBPROPERTIES
1002
{
1000
PbHidd
1002
}
  0
LINE
  5
29B
330
1F
100
AcDbEntity
  8
HIDDEN
100
AcDbLine
 10
-12.51475720321846
 20
79.01506724761104
 30
0.0
 11
-12.51475720321846
 21
79.01506724761104
 31
0.0
1001
DBPROPERTIES
1002
{
1000
PbHidd
1002
}
  0
LINE
  5
29C
330
1F
100
AcDbEntity
  8
HIDDEN
100
AcDbLine
 10
-20.70552360820166
 20
77.27406610312549
 30
0.0
 11
-20.70552360820166
 21
77.27406610312549
 31
0.0
1001
DBPROPERTIES
1002
{
1000
PbHidd
1002
}
  0
ARC
  5
29D
330
1F
100
AcDbEntity
  8
HIDDEN
100
AcDbCircle
 10
0.0
 20
0.0000000000000196
 30
0.0
 40
112.0
100
AcDbArc
 50
89.99998127603165
 51
99.00000232194662
1001
DBPROPERTIES
1002
{
1000
PbHidd
1002
}
  0
LINE
  5
29E
330
1F
100
AcDbEntity
  8
HIDDEN
100
AcDbLine
 10
-12.51475720321845
 20
79.01506724761097
 30
0.0
 11
-17.52066008450584
 21
110.6210941466554
 31
0.0
1001
DBPROPERTIES
1002
{
1000
PbHidd
1002
}
  0
LINE
  5
29F
330
1F
100
AcDbEntity
  8
HIDDEN
100
AcDbLine
 10
-28.98773305148232
 20
108.1836925443757
 30
0.0
 11
-20.70552360820165
 21
77.27406610312548
 31
0.0
1001
DBPROPERTIES
1002
{
1000
PbHidd
1002
}
  0
ARC
  5
2A0
330
1F
100
AcDbEntity
  8
HIDDEN
100
AcDbCircle
 10
0.0
 20
0.0000000000000196
 30
0.0
 40
112.0
100
AcDbArc
 50
105.0000163525566
 51
110.9999730873871
1001
DBPROPERTIES
1002
{
1000
PbHidd
1002
}
  0
LINE
  5
2A1
330
1F
100
AcDbEntity
  8
HIDDEN
100
AcDbLine
 10
-28.669435963624
 20
74.68643411977612
 30
0.0
 11
-40.1372103490736
 21
104.5610077676866
 31
0.0
1001
DBPROPERTIES
1002
{
1000
PbHidd
1002
}
  0
LINE
  5
2A2
330
1F
100
AcDbEntity
  8
HIDDEN
100
AcDbLine
 10
-50.84693597082922
 20
99.79273070909721
 30
0.0
 11
-36.31923997916374
 21
71.28052193506946
 31
0.0
1001
DBPROPERTIES
1002
{
1000
PbHidd
1002
}
  0
ARC
  5
2A3
330
1F
100
AcDbEntity
  8
HIDDEN
100
AcDbCircle
 10
0.0
 20
0.0000000000000196
 30
0.0
 40
112.0
100
AcDbArc
 50
116.9999871179971
 51
123.000001148607
1001
DBPROPERTIES
1002
{
1000
PbHidd
1002
}
  0
LINE
  5
2A4
330
1F
100
AcDbEntity
  8
HIDDEN
100
AcDbLine
 10
-43.57112280120214
 20
67.0936454356339
 30
0.0
 11
-60.99957192168299
 21
93.93110360988744
 31
0.0
1001
DBPROPERTIES
1002
{
1000
PbHidd
1002
}
  0
LINE
  5
2A5
330
1F
100
AcDbEntity
  8
HIDDEN
100
AcDbLine
 10
-70.48388379758175
 20
87.04034768318071
 30
0.0
 11
-50.34563128398698
 21
62.17167691655767
 31
0.0
1001
DBPROPERTIES
1002
{
1000
PbHidd
1002
}
  0
ARC
  5
2A6
330
1F
100
AcDbEntity
  8
HIDDEN
100
AcDbCircle
 10
0.0
 20
0.0000000000000196
 30
0.0
 40
112.0
100
AcDbArc
 50
129.000015179217
 51
134.9999719140475
1001
DBPROPERTIES
1002
{
1000
PbHidd
1002
}
  0
LINE
  5
2A7
330
1F
100
AcDbEntity
  8
HIDDEN
100
AcDbLine
 10
-56.5685424949238
 20
56.5685424949238
 30
0.0
 11
-79.1959594928933
 21
79.19595949289331
 31
0.0
1001
DBPROPERTIES
1002
{
1000
PbHidd
1002
}
  0
LINE
  5
2A8
330
1F
100
AcDbEntity
  8
HIDDEN
100
AcDbLine
 10
-87.04034768318073
 20
70.48388379758183
 30
0.0
 11
-62.17167691655769
 21
50.34563128398703
 31
0.0
1001
DBPROPERTIES
1002
{
1000
PbHidd
1002
}
  0
ARC
  5
2A9
330
1F
100
AcDbEntity
  8
HIDDEN
100
AcDbCircle
 10
0.0
 20
0.0000000000000196
 30
0.0
 40
112.0
100
AcDbArc
 50
140.9999859446575
 51
146.9999999752674
1001
DBPROPERTIES
1002
{
1000
PbHidd
1002
}
  0
LINE
  5
2AA
330
1F
100
AcDbEntity
  8
HIDDEN
100
AcDbLine
 10
-67.09364543563389
 20
43.57112280120216
 30
0.0
 11
-93.93110360988743
 21
60.99957192168302
 31
0.0
1001
DBPROPERTIES
1002
{
1000
PbHidd
1002
}
  0
LINE
  5
2AB
330
1F
100
AcDbEntity
  8
HIDDEN
100
AcDbLine
 10
-99.79273070909711
 20
50.84693597082924
 30
0.0
 11
-71.28052193506937
 21
36.31923997916375
 31
0.0
1001
DBPROPERTIES
1002
{
1000
PbHidd
1002
}
  0
ARC
  5
2AC
330
1F
100
AcDbEntity
  8
HIDDEN
100
AcDbCircle
 10
0.0
 20
0.0000000000000196
 30
0.0
 40
112.0
100
AcDbArc
 50
153.0000140058774
 51
159.0000280364874
1001
DBPROPERTIES
1002
{
1000
PbHidd
1002
}
  0
LINE
  5
2AD
330
1F
100
AcDbEntity
  8
HIDDEN
100
AcDbLine
 10
-74.68643411977611
 20
28.66943596362402
 30
0.0
 11
-104.5610077676865
 21
40.13721034907361
 31
0.0
1001
DBPROPERTIES
1002
{
1000
PbHidd
1002
}
  0
LINE
  5
2AE
330
1F
100
AcDbEntity
  8
HIDDEN
100
AcDbLine
 10
-108.1836925443756
 20
28.98773305148233
 30
0.0
 11
-77.27406610312543
 21
20.70552360820167
 31
0.0
1001
DBPROPERTIES
1002
{
1000
PbHidd
1002
}
  0
ARC
  5
2AF
330
1F
100
AcDbEntity
  8
HIDDEN
100
AcDbCircle
 10
0.0
 20
0.0000000000000196
 30
0.0
 40
112.0
100
AcDbArc
 50
164.9999847713179
 51
170.9999988019279
1001
DBPROPERTIES
1002
{
1000
PbHidd
1002
}
  0
LINE
  5
2B0
330
1F
100
AcDbEntity
  8
HIDDEN
100
AcDbLine
 10
-79.01506724761097
 20
12.51475720321848
 30
0.0
 11
-110.6210941466553
 21
17.52066008450586
 31
0.0
1001
DBPROPERTIES
1002
{
1000
PbHidd
1002
}
  0
LINE
  5
2B1
330
1F
100
AcDbEntity
  8
HIDDEN
100
AcDbLine
 10
-111.8465078925122
 20
5.861627099209725
 30
0.0
 11
-79.89036278036588
 21
4.186876499435519
 31
0.0
1001
DBPROPERTIES
1002
{
1000
PbHidd
1002
}
  0
ARC
  5
2B2
330
1F
100
AcDbEntity
  8
HIDDEN
100
AcDbCircle
 10
0.0
 20
0.0000000000000196
 30
0.0
 40
112.0
100
AcDbArc
 50
177.0000128325378
 51
182.9999871674622
1001
DBPROPERTIES
1002
{
1000
PbHidd
1002
}
  0
LINE
  5
2B3
330
1F
100
AcDbEntity
  8
HIDDEN
100
AcDbLine
 10
-79.89036278036588
 20
-4.186876499435481
 30
0.0
 11
-111.8465078925122
 21
-5.861627099209672
 31
0.0
1001
DBPROPERTIES
1002
{
1000
PbHidd
1002
}
  0
LINE
  5
2B4
330
1F
100
AcDbEntity
  8
HIDDEN
100
AcDbLine
 10
-110.6210941466554
 20
-17.52066008450582
 30
0.0
 11
-79.01506724761103
 21
-12.51475720321844
 31
0.0
1001
DBPROPERTIES
1002
{
1000
PbHidd
1002
}
  0
ARC
  5
2B5
330
1F
100
AcDbEntity
  8
HIDDEN
100
AcDbCircle
 10
0.0
 20
0.0000000000000196
 30
0.0
 40
112.0
100
AcDbArc
 50
189.0000011980722
 51
195.0000152286821
1001
DBPROPERTIES
1002
{
1000
PbHidd
1002
}
  0
LINE
  5
2B6
330
1F
100
AcDbEntity
  8
HIDDEN
100
AcDbLine
 10
-77.27406610312542
 20
-20.70552360820163
 30
0.0
 11
-108.1836925443756
 21
-28.98773305148228
 31
0.0
1001
DBPROPERTIES
1002
{
1000
PbHidd
1002
}
  0
LINE
  5
2B7
330
1F
100
AcDbEntity
  8
HIDDEN
100
AcDbLine
 10
-104.5610077676866
 20
-40.13721034907358
 30
0.0
 11
-74.68643411977612
 21
-28.66943596362399
 31
0.0
1001
DBPROPERTIES
1002
{
1000
PbHidd
1002
}
  0
ARC
  5
2B8
330
1F
100
AcDbEntity
  8
HIDDEN
100
AcDbCircle
 10
0.0
 20
0.0000000000000196
 30
0.0
 40
112.0
100
AcDbArc
 50
200.9999719635126
 51
206.9999859941226
1001
DBPROPERTIES
1002
{
1000
PbHidd
1002
}
  0
LINE
  5
2B9
330
1F
100
AcDbEntity
  8
HIDDEN
100
AcDbLine
 10
-71.2805219350694
 20
-36.31923997916371
 30
0.0
 11
-99.79273070909713
 21
-50.84693597082918
 31
0.0
1001
DBPROPERTIES
1002
{
1000
PbHidd
1002
}
  0
LINE
  5
2BA
330
1F
100
AcDbEntity
  8
HIDDEN
100
AcDbLine
 10
-93.93110360988749
 20
-60.999571921683
 30
0.0
 11
-67.09364543563393
 21
-43.57112280120214
 31
0.0
1001
DBPROPERTIES
1002
{
1000
PbHidd
1002
}
  0
ARC
  5
2BB
330
1F
100
AcDbEntity
  8
HIDDEN
100
AcDbCircle
 10
0.0
 20
0.0000000000000196
 30
0.0
 40
112.0
100
AcDbArc
 50
213.0000000247326
 51
219.0000140553425
1001
DBPROPERTIES
1002
{
1000
PbHidd
1002
}
  0
LINE
  5
2BC
330
1F
100
AcDbEntity
  8
HIDDEN
100
AcDbLine
 10
-62.17167691655763
 20
-50.34563128398695
 30
0.0
 11
-87.0403476831807
 21
-70.48388379758171
 31
0.0
1001
DBPROPERTIES
1002
{
1000
PbHidd
1002
}
  0
LINE
  5
2BD
330
1F
100
AcDbEntity
  8
HIDDEN
100
AcDbLine
 10
-79.19595949289328
 20
-79.19595949289325
 30
0.0
 11
-56.56854249492378
 21
-56.56854249492375
 31
0.0
1001
DBPROPERTIES
1002
{
1000
PbHidd
1002
}
  0
ARC
  5
2BE
330
1F
100
AcDbEntity
  8
HIDDEN
100
AcDbCircle
 10
0.0
 20
0.0000000000000196
 30
0.0
 40
112.0
100
AcDbArc
 50
225.0000280859525
 51
230.999984820783
1001
DBPROPERTIES
1002
{
1000
PbHidd
1002
}
  0
LINE
  5
2BF
330
1F
100
AcDbEntity
  8
HIDDEN
100
AcDbLine
 10
-50.34563128398699
 20
-62.1716769165576
 30
0.0
 11
-70.48388379758177
 21
-87.04034768318061
 31
0.0
1001
DBPROPERTIES
1002
{
1000
PbHidd
1002
}
  0
LINE
  5
2C0
330
1F
100
AcDbEntity
  8
HIDDEN
100
AcDbLine
 10
-60.99957192168305
 20
-93.93110360988742
 30
0.0
 11
-43.57112280120219
 21
-67.09364543563387
 31
0.0
1001
DBPROPERTIES
1002
{
1000
PbHidd
1002
}
  0
ARC
  5
2C1
330
1F
100
AcDbEntity
  8
HIDDEN
100
AcDbCircle
 10
0.0
 20
0.0000000000000196
 30
0.0
 40
112.0
100
AcDbArc
 50
236.999998851393
 51
243.0000128820029
1001
DBPROPERTIES
1002
{
1000
PbHidd
1002
}
  0
LINE
  5
2C2
330
1F
100
AcDbEntity
  8
HIDDEN
100
AcDbLine
 10
-36.31923997916373
 20
-71.28052193506936
 30
0.0
 11
-50.84693597082922
 21
-99.7927307090971
 31
0.0
1001
DBPROPERTIES
1002
{
1000
PbHidd
1002
}
  0
LINE
  5
2C3
330
1F
100
AcDbEntity
  8
HIDDEN
100
AcDbLine
 10
-40.13721034907363
 20
-104.5610077676865
 30
0.0
 11
-28.66943596362402
 21
-74.68643411977608
 31
0.0
1001
DBPROPERTIES
1002
{
1000
PbHidd
1002
}
  0
ARC
  5
2C4
330
1F
100
AcDbEntity
  8
HIDDEN
100
AcDbCircle
 10
0.0
 20
0.0000000000000196
 30
0.0
 40
112.0
100
AcDbArc
 50
249.0000269126129
 51
254.9999836474434
1001
DBPROPERTIES
1002
{
1000
PbHidd
1002
}
  0
LINE
  5
2C5
330
1F
100
AcDbEntity
  8
HIDDEN
100
AcDbLine
 10
-20.70552360820167
 20
-77.27406610312539
 30
0.0
 11
-28.98773305148233
 21
-108.1836925443755
 31
0.0
1001
DBPROPERTIES
1002
{
1000
PbHidd
1002
}
  0
LINE
  5
2C6
330
1F
100
AcDbEntity
  8
HIDDEN
100
AcDbLine
 10
-17.52066008450589
 20
-110.6210941466554
 30
0.0
 11
-12.51475720321849
 21
-79.01506724761099
 31
0.0
1001
DBPROPERTIES
1002
{
1000
PbHidd
1002
}
  0
ARC
  5
2C7
330
1F
100
AcDbEntity
  8
HIDDEN
100
AcDbCircle
 10
0.0
 20
0.0000000000000196
 30
0.0
 40
112.0
100
AcDbArc
 50
260.9999976780534
 51
267.0000117086634
1001
DBPROPERTIES
1002
{
1000
PbHidd
1002
}
  0
LINE
  5
2C8
330
1F
100
AcDbEntity
  8
HIDDEN
100
AcDbLine
 10
-4.186876499435544
 20
-79.89036278036585
 30
0.0
 11
-5.861627099209763
 21
-111.8465078925122
 31
0.0
1001
DBPROPERTIES
1002
{
1000
PbHidd
1002
}
  0
LINE
  5
2C9
330
1F
100
AcDbEntity
  8
HIDDEN
100
AcDbLine
 10
5.861627099209642
 20
-111.8465078925122
 30
0.0
 11
4.186876499435458
 21
-79.89036278036588
 31
0.0
1001
DBPROPERTIES
1002
{
1000
PbHidd
1002
}
  0
ARC
  5
2CA
330
1F
100
AcDbEntity
  8
HIDDEN
100
AcDbCircle
 10
0.0
 20
0.0000000000000196
 30
0.0
 40
112.0
100
AcDbArc
 50
273.0000257392733
 51
278.9999824741038
1001
DBPROPERTIES
1002
{
1000
PbHidd
1002
}
  0
LINE
  5
2CB
330
1F
100
AcDbEntity
  8
HIDDEN
100
AcDbLine
 10
12.51475720321844
 20
-79.01506724761094
 30
0.0
 11
17.52066008450582
 21
-110.6210941466553
 31
0.0
1001
DBPROPERTIES
1002
{
1000
PbHidd
1002
}
  0
LINE
  5
2CC
330
1F
100
AcDbEntity
  8
HIDDEN
100
AcDbLine
 10
28.98773305148229
 20
-108.1836925443756
 30
0.0
 11
20.70552360820163
 21
-77.27406610312545
 31
0.0
1001
DBPROPERTIES
1002
{
1000
PbHidd
1002
}
  0
ARC
  5
2CD
330
1F
100
AcDbEntity
  8
HIDDEN
100
AcDbCircle
 10
0.0
 20
0.0000000000000196
 30
0.0
 40
112.0
100
AcDbArc
 50
284.9999965047138
 51
291.0000105353237
1001
DBPROPERTIES
1002
{
1000
PbHidd
1002
}
  0
LINE
  5
2CE
330
1F
100
AcDbEntity
  8
HIDDEN
100
AcDbLine
 10
28.66943596362397
 20
-74.68643411977608
 30
0.0
 11
40.13721034907355
 21
-104.5610077676865
 31
0.0
1001
DBPROPERTIES
1002
{
1000
PbHidd
1002
}
  0
LINE
  5
2CF
330
1F
100
AcDbEntity
  8
HIDDEN
100
AcDbLine
 10
50.84693597082918
 20
-99.79273070909719
 30
0.0
 11
36.3192399791637
 21
-71.28052193506943
 31
0.0
1001
DBPROPERTIES
1002
{
1000
PbHidd
1002
}
  0
ARC
  5
2D0
330
1F
100
AcDbEntity
  8
HIDDEN
100
AcDbCircle
 10
0.0
 20
0.0000000000000196
 30
0.0
 40
112.0
100
AcDbArc
 50
297.0000245659338
 51
302.9999813007643
1001
DBPROPERTIES
1002
{
1000
PbHidd
1002
}
  0
LINE
  5
2D1
330
1F
100
AcDbEntity
  8
HIDDEN
100
AcDbLine
 10
43.57112280120212
 20
-67.0936454356339
 30
0.0
 11
60.99957192168294
 21
-93.93110360988746
 31
0.0
1001
DBPROPERTIES
1002
{
1000
PbHidd
1002
}
  0
LINE
  5
2D2
330
1F
100
AcDbEntity
  8
HIDDEN
100
AcDbLine
 10
70.48388379758171
 20
-87.04034768318073
 30
0.0
 11
50.34563128398693
 21
-62.17167691655766
 31
0.0
1001
DBPROPERTIES
1002
{
1000
PbHidd
1002
}
  0
ARC
  5
2D3
330
1F
100
AcDbEntity
  8
HIDDEN
100
AcDbCircle
 10
0.0
 20
0.0000000000000196
 30
0.0
 40
112.0
100
AcDbArc
 50
308.9999953313742
 51
315.0000093619842
1001
DBPROPERTIES
1002
{
1000
PbHidd
1002
}
  0
LINE
  5
2D4
330
1F
100
AcDbEntity
  8
HIDDEN
100
AcDbLine
 10
56.56854249492375
 20
-56.56854249492378
 30
0.0
 11
79.19595949289325
 21
-79.19595949289328
 31
0.0
1001
DBPROPERTIES
1002
{
1000
PbHidd
1002
}
  0
LINE
  5
2D5
330
1F
100
AcDbEntity
  8
HIDDEN
100
AcDbLine
 10
87.04034768318064
 20
-70.48388379758177
 30
0.0
 11
62.17167691655762
 21
-50.34563128398699
 31
0.0
1001
DBPROPERTIES
1002
{
1000
PbHidd
1002
}
  0
ARC
  5
2D6
330
1F
100
AcDbEntity
  8
HIDDEN
100
AcDbCircle
 10
0.0
 20
0.0000000000000196
 30
0.0
 40
112.0
100
AcDbArc
 50
321.0000233925941
 51
326.9999801274246
1001
DBPROPERTIES
1002
{
1000
PbHidd
1002
}
  0
LINE
  5
2D7
330
1F
100
AcDbEntity
  8
HIDDEN
100
AcDbLine
 10
67.09364543563387
 20
-43.57112280120218
 30
0.0
 11
93.93110360988743
 21
-60.99957192168304
 31
0.0
1001
DBPROPERTIES
1002
{
1000
PbHidd
1002
}
  0
LINE
  5
2D8
330
1F
100
AcDbEntity
  8
HIDDEN
100
AcDbLine
 10
99.79273070909719
 20
-50.84693597082929
 30
0.0
 11
71.2805219350694
 21
-36.31923997916377
 31
0.0
1001
DBPROPERTIES
1002
{
1000
PbHidd
1002
}
  0
ARC
  5
2D9
330
1F
100
AcDbEntity
  8
HIDDEN
100
AcDbCircle
 10
0.0
 20
0.0000000000000196
 30
0.0
 40
112.0
100
AcDbArc
 50
332.9999941580346
 51
339.0000081886445
1001
DBPROPERTIES
1002
{
1000
PbHidd
1002
}
  0
LINE
  5
2DA
330
1F
100
AcDbEntity
  8
HIDDEN
100
AcDbLine
 10
74.6864341197761
 20
-28.66943596362405
 30
0.0
 11
104.5610077676865
 21
-40.13721034907367
 31
0.0
1001
DBPROPERTIES
1002
{
1000
PbHidd
1002
}
  0
LINE
  5
2DB
330
1F
100
AcDbEntity
  8
HIDDEN
100
AcDbLine
 10
108.1836925443756
 20
-28.9877330514824
 30
0.0
 11
77.27406610312545
 21
-20.70552360820171
 31
0.0
1001
DBPROPERTIES
1002
{
1000
PbHidd
1002
}
  0
ARC
  5
2DC
330
1F
100
AcDbEntity
  8
HIDDEN
100
AcDbCircle
 10
0.0
 20
0.0000000000000196
 30
0.0
 40
112.0
100
AcDbArc
 50
345.0000222192546
 51
350.9999789540851
1001
DBPROPERTIES
1002
{
1000
PbHidd
1002
}
  0
LINE
  5
2DD
330
1F
100
AcDbEntity
  8
HIDDEN
100
AcDbLine
 10
79.01506724761096
 20
-12.51475720321848
 30
0.0
 11
110.6210941466553
 21
-17.52066008450587
 31
0.0
1001
DBPROPERTIES
1002
{
1000
PbHidd
1002
}
  0
LINE
  5
2DE
330
1F
100
AcDbEntity
  8
HIDDEN
100
AcDbLine
 10
111.8465078925122
 20
-5.861627099209739
 30
0.0
 11
79.89036278036588
 21
-4.186876499435529
 31
0.0
1001
DBPROPERTIES
1002
{
1000
PbHidd
1002
}
  0
ARC
  5
2DF
330
1F
100
AcDbEntity
  8
HIDDEN
100
AcDbCircle
 10
0.0
 20
0.0000000000000196
 30
0.0
 40
112.0
100
AcDbArc
 50
356.999992984695
 51
3.00000701530499
1001
DBPROPERTIES
1002
{
1000
PbHidd
1002
}
  0
LINE
  5
2E0
330
1F
100
AcDbEntity
  8
HIDDEN
100
AcDbLine
 10
79.89036278036589
 20
4.186876499435437
 30
0.0
 11
111.8465078925122
 21
5.86162709920961
 31
0.0
1001
DBPROPERTIES
1002
{
1000
PbHidd
1002
}
  0
LINE
  5
2E1
330
1F
100
AcDbEntity
  8
HIDDEN
100
AcDbLine
 10
110.6210941466555
 20
17.52066008450576
 30
0.0
 11
79.01506724761103
 21
12.5147572032184
 31
0.0
1001
DBPROPERTIES
1002
{
1000
PbHidd
1002
}
  0
ARC
  5
2E2
330
1F
100
AcDbEntity
  8
HIDDEN
100
AcDbCircle
 10
0.0
 20
0.0000000000000196
 30
0.0
 40
112.0
100
AcDbArc
 50
9.000021045914972
 51
14.99997778074544
1001
DBPROPERTIES
1002
{
1000
PbHidd
1002
}
  0
LINE
  5
2E3
330
1F
100
AcDbEntity
  8
HIDDEN
100
AcDbLine
 10
77.27406610312543
 20
20.70552360820161
 30
0.0
 11
108.1836925443756
 21
28.98773305148224
 31
0.0
1001
DBPROPERTIES
1002
{
1000
PbHidd
1002
}
  0
LINE
  5
2E4
330
1F
100
AcDbEntity
  8
HIDDEN
100
AcDbLine
 10
104.5610077676866
 20
40.13721034907354
 30
0.0
 11
74.68643411977615
 21
28.66943596362397
 31
0.0
1001
DBPROPERTIES
1002
{
1000
PbHidd
1002
}
  0
ARC
  5
2E5
330
1F
100
AcDbEntity
  8
HIDDEN
100
AcDbCircle
 10
0.0
 20
0.0000000000000196
 30
0.0
 40
112.0
100
AcDbArc
 50
20.99999181135542
 51
27.0000058419654
1001
DBPROPERTIES
1002
{
1000
PbHidd
1002
}
  0
LINE
  5
2E6
330
1F
100
AcDbEntity
  8
HIDDEN
100
AcDbLine
 10
71.28052193506942
 20
36.31923997916371
 30
0.0
 11
99.79273070909713
 21
50.84693597082916
 31
0.0
1001
DBPROPERTIES
1002
{
1000
PbHidd
1002
}
  0
LINE
  5
2E7
330
1F
100
AcDbEntity
  8
HIDDEN
100
AcDbLine
 10
93.93110360988751
 20
60.99957192168301
 30
0.0
 11
67.09364543563393
 21
43.57112280120215
 31
0.0
1001
DBPROPERTIES
1002
{
1000
PbHidd
1002
}
  0
ARC
  5
2E8
330
1F
100
AcDbEntity
  8
HIDDEN
100
AcDbCircle
 10
0.0
 20
0.0000000000000196
 30
0.0
 40
112.0
100
AcDbArc
 50
33.00001987257539
 51
38.99997660740585
1001
DBPROPERTIES
1002
{
1000
PbHidd
1002
}
  0
LINE
  5
2E9
330
1F
100
AcDbEntity
  8
HIDDEN
100
AcDbLine
 10
62.1716769165577
 20
50.34563128398693
 30
0.0
 11
87.04034768318077
 21
70.4838837975817
 31
0.0
1001
DBPROPERTIES
1002
{
1000
PbHidd
1002
}
  0
LINE
  5
2EA
330
1F
100
AcDbEntity
  8
HIDDEN
100
AcDbLine
 10
79.1959594928934
 20
79.19595949289327
 30
0.0
 11
56.56854249492385
 21
56.56854249492376
 31
0.0
1001
DBPROPERTIES
1002
{
1000
PbHidd
1002
}
  0
ARC
  5
2EB
330
1F
100
AcDbEntity
  8
HIDDEN
100
AcDbCircle
 10
0.0
 20
0.0000000000000196
 30
0.0
 40
112.0
100
AcDbArc
 50
44.99999063801582
 51
51.00000466862581
1001
DBPROPERTIES
1002
{
1000
PbHidd
1002
}
  0
LINE
  5
2EC
330
1F
100
AcDbEntity
  8
HIDDEN
100
AcDbLine
 10
50.345631283987
 20
62.17167691655762
 30
0.0
 11
70.48388379758178
 21
87.04034768318063
 31
0.0
1001
DBPROPERTIES
1002
{
1000
PbHidd
1002
}
  0
LINE
  5
2ED
330
1F
100
AcDbEntity
  8
HIDDEN
100
AcDbLine
 10
60.99957192168306
 20
93.93110360988743
 30
0.0
 11
43.57112280120221
 21
67.0936454356339
 31
0.0
1001
DBPROPERTIES
1002
{
1000
PbHidd
1002
}
  0
ARC
  5
2EE
330
1F
100
AcDbEntity
  8
HIDDEN
100
AcDbCircle
 10
0.0
 20
0.0000000000000196
 30
0.0
 40
112.0
100
AcDbArc
 50
57.0000186992358
 51
62.99997543406626
1001
DBPROPERTIES
1002
{
1000
PbHidd
1002
}
  0
LINE
  5
2EF
330
1F
100
AcDbEntity
  8
HIDDEN
100
AcDbLine
 10
36.31923997916377
 20
71.28052193506942
 30
0.0
 11
50.84693597082926
 21
99.79273070909716
 31
0.0
1001
DBPROPERTIES
1002
{
1000
PbHidd
1002
}
  0
LINE
  5
2F0
330
1F
100
AcDbEntity
  8
HIDDEN
100
AcDbLine
 10
40.13721034907368
 20
104.5610077676866
 30
0.0
 11
28.66943596362406
 21
74.68643411977615
 31
0.0
1001
DBPROPERTIES
1002
{
1000
PbHidd
1002
}
  0
ARC
  5
2F1
330
1F
100
AcDbEntity
  8
HIDDEN
100
AcDbCircle
 10
0.0
 20
0.0000000000000196
 30
0.0
 40
112.0
100
AcDbArc
 50
68.99998946467625
 51
75.00000349528622
1001
DBPROPERTIES
1002
{
1000
PbHidd
1002
}
  0
LINE
  5
2F2
330
1F
100
AcDbEntity
  8
HIDDEN
100
AcDbLine
 10
20.70552360820172
 20
77.27406610312542
 30
0.0
 11
28.9877330514824
 21
108.1836925443756
 31
0.0
1001
DBPROPERTIES
1002
{
1000
PbHidd
1002
}
  0
LINE
  5
2F3
330
1F
100
AcDbEntity
  8
HIDDEN
100
AcDbLine
 10
17.52066008450597
 20
110.6210941466554
 30
0.0
 11
12.51475720321855
 21
79.01506724761103
 31
0.0
1001
DBPROPERTIES
1002
{
1000
PbHidd
1002
}
  0
LINE
  5
2F4
330
1F
100
AcDbEntity
  8
HIDDEN
100
AcDbLine
 10
-17.52066008450585
 20
110.6210941466554
 30
0.0
 11
-17.52066008450585
 21
110.6210941466554
 31
0.0
1001
DBPROPERTIES
1002
{
1000
PbHidd
1002
}
  0
LINE
  5
2F5
330
1F
100
AcDbEntity
  8
HIDDEN
100
AcDbLine
 10
7.284631588706793
 20
45.99335372704689
 30
0.0
 11
10.95041255281623
 21
69.13818384165965
 31
0.0
1001
DBPROPERTIES
1002
{
1000
PbHidd
1002
}
  0
LINE
  5
2F6
330
1F
100
AcDbEntity
  8
HIDDEN
100
AcDbLine
 10
7.28463158870679
 20
45.99335372704689
 30
0.0
 11
7.28463158870679
 21
45.99335372704689
 31
0.0
1001
DBPROPERTIES
1002
{
1000
PbHidd
1002
}
  0
LINE
  5
2F7
330
1F
100
AcDbEntity
  8
HIDDEN
100
AcDbLine
 10
16.68800085049283
 20
43.47372852721967
 30
0.0
 11
25.08575646817106
 21
65.35062985480413
 31
0.0
1001
DBPROPERTIES
1002
{
1000
PbHidd
1002
}
  0
LINE
  5
2F8
330
1F
100
AcDbEntity
  8
HIDDEN
100
AcDbLine
 10
16.68800085049283
 20
43.47372852721967
 30
0.0
 11
16.68800085049283
 21
43.47372852721967
 31
0.0
1001
DBPROPERTIES
1002
{
1000
PbHidd
1002
}
  0
LINE
  5
2F9
330
1F
100
AcDbEntity
  8
HIDDEN
100
AcDbLine
 10
40.13721034907369
 20
104.5610077676866
 30
0.0
 11
40.13721034907369
 21
104.5610077676866
 31
0.0
1001
DBPROPERTIES
1002
{
1000
PbHidd
1002
}
  0
LINE
  5
2FA
330
1F
100
AcDbEntity
  8
HIDDEN
100
AcDbLine
 10
50.84693597082929
 20
99.7927307090972
 30
0.0
 11
50.84693597082929
 21
99.7927307090972
 31
0.0
1001
DBPROPERTIES
1002
{
1000
PbHidd
1002
}
  0
LINE
  5
2FB
330
1F
100
AcDbEntity
  8
HIDDEN
100
AcDbLine
 10
60.99957192168309
 20
93.93110360988747
 30
0.0
 11
60.99957192168309
 21
93.93110360988747
 31
0.0
1001
DBPROPERTIES
1002
{
1000
PbHidd
1002
}
  0
LINE
  5
2FC
330
1F
100
AcDbEntity
  8
HIDDEN
100
AcDbLine
 10
25.36202439719978
 20
39.05409278065855
 30
0.0
 11
38.12473245105193
 21
58.70693975617966
 31
0.0
1001
DBPROPERTIES
1002
{
1000
PbHidd
1002
}
  0
LINE
  5
2FD
330
1F
100
AcDbEntity
  8
HIDDEN
100
AcDbLine
 10
25.36202439719977
 20
39.05409278065855
 30
0.0
 11
25.36202439719977
 21
39.05409278065855
 31
0.0
1001
DBPROPERTIES
1002
{
1000
PbHidd
1002
}
  0
LINE
  5
2FE
330
1F
100
AcDbEntity
  8
HIDDEN
100
AcDbLine
 10
70.48388379758184
 20
87.04034768318071
 30
0.0
 11
70.48388379758184
 21
87.04034768318071
 31
0.0
1001
DBPROPERTIES
1002
{
1000
PbHidd
1002
}
  0
LINE
  5
2FF
330
1F
100
AcDbEntity
  8
HIDDEN
100
AcDbLine
 10
79.1959594928934
 20
79.19595949289327
 30
0.0
 11
79.1959594928934
 21
79.19595949289327
 31
0.0
1001
DBPROPERTIES
1002
{
1000
PbHidd
1002
}
  0
LINE
  5
300
330
1F
100
AcDbEntity
  8
HIDDEN
100
AcDbLine
 10
32.92760577725358
 20
32.92760577725353
 30
0.0
 11
49.49747468305837
 21
49.4974746830583
 31
0.0
1001
DBPROPERTIES
1002
{
1000
PbHidd
1002
}
  0
LINE
  5
301
330
1F
100
AcDbEntity
  8
HIDDEN
100
AcDbLine
 10
32.92760577725358
 20
32.92760577725353
 30
0.0
 11
32.92760577725358
 21
32.92760577725353
 31
0.0
1001
DBPROPERTIES
1002
{
1000
PbHidd
1002
}
  0
LINE
  5
302
330
1F
100
AcDbEntity
  8
HIDDEN
100
AcDbLine
 10
87.0403476831808
 20
70.48388379758173
 30
0.0
 11
87.0403476831808
 21
70.48388379758173
 31
0.0
1001
DBPROPERTIES
1002
{
1000
PbHidd
1002
}
  0
LINE
  5
303
330
1F
100
AcDbEntity
  8
HIDDEN
100
AcDbLine
 10
93.93110360988751
 20
60.99957192168301
 30
0.0
 11
93.93110360988751
 21
60.99957192168301
 31
0.0
1001
DBPROPERTIES
1002
{
1000
PbHidd
1002
}
  0
LINE
  5
304
330
1F
100
AcDbEntity
  8
HIDDEN
100
AcDbLine
 10
39.05409278065857
 20
25.36202439719974
 30
0.0
 11
58.70693975617969
 21
38.12473245105188
 31
0.0
1001
DBPROPERTIES
1002
{
1000
PbHidd
1002
}
  0
LINE
  5
305
330
1F
100
AcDbEntity
  8
HIDDEN
100
AcDbLine
 10
39.05409278065857
 20
25.36202439719974
 30
0.0
 11
39.05409278065857
 21
25.36202439719974
 31
0.0
1001
DBPROPERTIES
1002
{
1000
PbHidd
1002
}
  0
LINE
  5
306
330
1F
100
AcDbEntity
  8
HIDDEN
100
AcDbLine
 10
99.79273070909721
 20
50.84693597082922
 30
0.0
 11
99.79273070909721
 21
50.84693597082921
 31
0.0
1001
DBPROPERTIES
1002
{
1000
PbHidd
1002
}
  0
LINE
  5
307
330
1F
100
AcDbEntity
  8
HIDDEN
100
AcDbLine
 10
104.5610077676866
 20
40.13721034907357
 30
0.0
 11
104.5610077676866
 21
40.13721034907358
 31
0.0
1001
DBPROPERTIES
1002
{
1000
PbHidd
1002
}
  0
LINE
  5
308
330
1F
100
AcDbEntity
  8
HIDDEN
100
AcDbLine
 10
43.47372852721968
 20
16.68800085049278
 30
0.0
 11
65.35062985480413
 21
25.08575646817097
 31
0.0
1001
DBPROPERTIES
1002
{
1000
PbHidd
1002
}
  0
LINE
  5
309
330
1F
100
AcDbEntity
  8
HIDDEN
100
AcDbLine
 10
43.47372852721968
 20
16.68800085049278
 30
0.0
 11
43.47372852721968
 21
16.68800085049278
 31
0.0
1001
DBPROPERTIES
1002
{
1000
PbHidd
1002
}
  0
LINE
  5
30A
330
1F
100
AcDbEntity
  8
HIDDEN
100
AcDbLine
 10
108.1836925443757
 20
28.98773305148227
 30
0.0
 11
108.1836925443757
 21
28.98773305148226
 31
0.0
1001
DBPROPERTIES
1002
{
1000
PbHidd
1002
}
  0
LINE
  5
30B
330
1F
100
AcDbEntity
  8
HIDDEN
100
AcDbLine
 10
110.6210941466554
 20
17.52066008450576
 30
0.0
 11
110.6210941466554
 21
17.52066008450576
 31
0.0
1001
DBPROPERTIES
1002
{
1000
PbHidd
1002
}
  0
LINE
  5
30C
330
1F
100
AcDbEntity
  8
HIDDEN
100
AcDbLine
 10
45.9933537270469
 20
7.284631588706706
 30
0.0
 11
69.13818384165965
 21
10.9504125528161
 31
0.0
1001
DBPROPERTIES
1002
{
1000
PbHidd
1002
}
  0
LINE
  5
30D
330
1F
100
AcDbEntity
  8
HIDDEN
100
AcDbLine
 10
45.9933537270469
 20
7.284631588706711
 30
0.0
 11
45.9933537270469
 21
7.284631588706711
 31
0.0
1001
DBPROPERTIES
1002
{
1000
PbHidd
1002
}
  0
LINE
  5
30E
330
1F
100
AcDbEntity
  8
HIDDEN
100
AcDbLine
 10
111.8465078925123
 20
5.861627099209619
 30
0.0
 11
111.8465078925123
 21
5.861627099209613
 31
0.0
1001
DBPROPERTIES
1002
{
1000
PbHidd
1002
}
  0
LINE
  5
30F
330
1F
100
AcDbEntity
  8
HIDDEN
100
AcDbLine
 10
111.8465078925123
 20
-5.861627099209744
 30
0.0
 11
111.8465078925123
 21
-5.861627099209739
 31
0.0
1001
DBPROPERTIES
1002
{
1000
PbHidd
1002
}
  0
LINE
  5
310
330
1F
100
AcDbEntity
  8
HIDDEN
100
AcDbLine
 10
46.50284866840462
 20
-2.43711102904643
 30
0.0
 11
69.90406743282016
 21
-3.663516937006089
 31
0.0
1001
DBPROPERTIES
1002
{
1000
PbHidd
1002
}
  0
LINE
  5
311
330
1F
100
AcDbEntity
  8
HIDDEN
100
AcDbLine
 10
46.50284866840463
 20
-2.437111029046428
 30
0.0
 11
46.50284866840463
 21
-2.437111029046428
 31
0.0
1001
DBPROPERTIES
1002
{
1000
PbHidd
1002
}
  0
LINE
  5
312
330
1F
100
AcDbEntity
  8
HIDDEN
100
AcDbLine
 10
110.6210941466554
 20
-17.52066008450588
 30
0.0
 11
110.6210941466554
 21
-17.52066008450588
 31
0.0
1001
DBPROPERTIES
1002
{
1000
PbHidd
1002
}
  0
LINE
  5
313
330
1F
100
AcDbEntity
  8
HIDDEN
100
AcDbLine
 10
108.1836925443756
 20
-28.9877330514824
 30
0.0
 11
108.1836925443756
 21
-28.98773305148239
 31
0.0
1001
DBPROPERTIES
1002
{
1000
PbHidd
1002
}
  0
LINE
  5
314
330
1F
100
AcDbEntity
  8
HIDDEN
100
AcDbLine
 10
44.97994597752759
 20
-12.05234020027408
 30
0.0
 11
67.61480784023476
 21
-18.1173331571765
 31
0.0
1001
DBPROPERTIES
1002
{
1000
PbHidd
1002
}
  0
LINE
  5
315
330
1F
100
AcDbEntity
  8
HIDDEN
100
AcDbLine
 10
44.97994597752759
 20
-12.05234020027408
 30
0.0
 11
44.97994597752759
 21
-12.05234020027408
 31
0.0
1001
DBPROPERTIES
1002
{
1000
PbHidd
1002
}
  0
LINE
  5
316
330
1F
100
AcDbEntity
  8
HIDDEN
100
AcDbLine
 10
104.5610077676866
 20
-40.13721034907369
 30
0.0
 11
104.5610077676866
 21
-40.1372103490737
 31
0.0
1001
DBPROPERTIES
1002
{
1000
PbHidd
1002
}
  0
LINE
  5
317
330
1F
100
AcDbEntity
  8
HIDDEN
100
AcDbLine
 10
99.79273070909719
 20
-50.84693597082929
 30
0.0
 11
99.79273070909719
 21
-50.84693597082928
 31
0.0
1001
DBPROPERTIES
1002
{
1000
PbHidd
1002
}
  0
LINE
  5
318
330
1F
100
AcDbEntity
  8
HIDDEN
100
AcDbLine
 10
41.49120380970497
 20
-21.14082427120491
 30
0.0
 11
62.37045669318573
 21
-31.77933498176831
 31
0.0
1001
DBPROPERTIES
1002
{
1000
PbHidd
1002
}
  0
LINE
  5
319
330
1F
100
AcDbEntity
  8
HIDDEN
100
AcDbLine
 10
41.49120380970498
 20
-21.14082427120491
 30
0.0
 11
41.49120380970498
 21
-21.14082427120491
 31
0.0
1001
DBPROPERTIES
1002
{
1000
PbHidd
1002
}
  0
LINE
  5
31A
330
1F
100
AcDbEntity
  8
HIDDEN
100
AcDbLine
 10
93.93110360988746
 20
-60.99957192168306
 30
0.0
 11
93.93110360988746
 21
-60.99957192168307
 31
0.0
1001
DBPROPERTIES
1002
{
1000
PbHidd
1002
}
  0
LINE
  5
31B
330
1F
100
AcDbEntity
  8
HIDDEN
100
AcDbLine
 10
87.0403476831807
 20
-70.48388379758181
 30
0.0
 11
87.0403476831807
 21
-70.48388379758181
 31
0.0
1001
DBPROPERTIES
1002
{
1000
PbHidd
1002
}
  0
LINE
  5
31C
330
1F
100
AcDbEntity
  8
HIDDEN
100
AcDbLine
 10
36.18909693851292
 20
-29.30535287655409
 30
0.0
 11
54.40021730198794
 21
-44.05242737348863
 31
0.0
1001
DBPROPERTIES
1002
{
1000
PbHidd
1002
}
  0
LINE
  5
31D
330
1F
100
AcDbEntity
  8
HIDDEN
100
AcDbLine
 10
36.18909693851292
 20
-29.3053528765541
 30
0.0
 11
36.18909693851292
 21
-29.3053528765541
 31
0.0
1001
DBPROPERTIES
1002
{
1000
PbHidd
1002
}
  0
LINE
  5
31E
330
1F
100
AcDbEntity
  8
HIDDEN
100
AcDbLine
 10
79.1959594928933
 20
-79.19595949289332
 30
0.0
 11
79.1959594928933
 21
-79.19595949289332
 31
0.0
1001
DBPROPERTIES
1002
{
1000
PbHidd
1002
}
  0
LINE
  5
31F
330
1F
100
AcDbEntity
  8
HIDDEN
100
AcDbLine
 10
70.48388379758174
 20
-87.04034768318076
 30
0.0
 11
70.48388379758174
 21
-87.04034768318076
 31
0.0
1001
DBPROPERTIES
1002
{
1000
PbHidd
1002
}
  0
LINE
  5
320
330
1F
100
AcDbEntity
  8
HIDDEN
100
AcDbLine
 10
29.30535287655407
 20
-36.18909693851294
 30
0.0
 11
44.05242737348858
 21
-54.40021730198796
 31
0.0
1001
DBPROPERTIES
1002
{
1000
PbHidd
1002
}
  0
LINE
  5
321
330
1F
100
AcDbEntity
  8
HIDDEN
100
AcDbLine
 10
29.30535287655407
 20
-36.18909693851294
 30
0.0
 11
29.30535287655407
 21
-36.18909693851294
 31
0.0
1001
DBPROPERTIES
1002
{
1000
PbHidd
1002
}
  0
LINE
  5
322
330
1F
100
AcDbEntity
  8
HIDDEN
100
AcDbLine
 10
60.99957192168296
 20
-93.9311036098875
 30
0.0
 11
60.99957192168296
 21
-93.9311036098875
 31
0.0
1001
DBPROPERTIES
1002
{
1000
PbHidd
1002
}
  0
LINE
  5
323
330
1F
100
AcDbEntity
  8
HIDDEN
100
AcDbLine
 10
50.84693597082919
 20
-99.7927307090972
 30
0.0
 11
50.84693597082919
 21
-99.7927307090972
 31
0.0
1001
DBPROPERTIES
1002
{
1000
PbHidd
1002
}
  0
LINE
  5
324
330
1F
100
AcDbEntity
  8
HIDDEN
100
AcDbLine
 10
21.14082427120487
 20
-41.49120380970499
 30
0.0
 11
31.77933498176824
 21
-62.37045669318574
 31
0.0
1001
DBPROPERTIES
1002
{
1000
PbHidd
1002
}
  0
LINE
  5
325
330
1F
100
AcDbEntity
  8
HIDDEN
100
AcDbLine
 10
21.14082427120487
 20
-41.49120380970499
 30
0.0
 11
21.14082427120487
 21
-41.49120380970499
 31
0.0
1001
DBPROPERTIES
1002
{
1000
PbHidd
1002
}
  0
LINE
  5
326
330
1F
100
AcDbEntity
  8
HIDDEN
100
AcDbLine
 10
40.13721034907358
 20
-104.5610077676866
 30
0.0
 11
40.13721034907358
 21
-104.5610077676866
 31
0.0
1001
DBPROPERTIES
1002
{
1000
PbHidd
1002
}
  0
LINE
  5
327
330
1F
100
AcDbEntity
  8
HIDDEN
100
AcDbLine
 10
28.98773305148229
 20
-108.1836925443756
 30
0.0
 11
28.98773305148229
 21
-108.1836925443756
 31
0.0
1001
DBPROPERTIES
1002
{
1000
PbHidd
1002
}
  0
LINE
  5
328
330
1F
100
AcDbEntity
  8
HIDDEN
100
AcDbLine
 10
12.05234020027403
 20
-44.9799459775276
 30
0.0
 11
18.11733315717643
 21
-67.61480784023476
 31
0.0
1001
DBPROPERTIES
1002
{
1000
PbHidd
1002
}
  0
LINE
  5
329
330
1F
100
AcDbEntity
  8
HIDDEN
100
AcDbLine
 10
12.05234020027404
 20
-44.9799459775276
 30
0.0
 11
12.05234020027404
 21
-44.9799459775276
 31
0.0
1001
DBPROPERTIES
1002
{
1000
PbHidd
1002
}
  0
LINE
  5
32A
330
1F
100
AcDbEntity
  8
HIDDEN
100
AcDbLine
 10
17.52066008450583
 20
-110.6210941466554
 30
0.0
 11
17.52066008450583
 21
-110.6210941466554
 31
0.0
1001
DBPROPERTIES
1002
{
1000
PbHidd
1002
}
  0
LINE
  5
32B
330
1F
100
AcDbEntity
  8
HIDDEN
100
AcDbLine
 10
5.861627099209644
 20
-111.8465078925122
 30
0.0
 11
5.861627099209644
 21
-111.8465078925122
 31
0.0
1001
DBPROPERTIES
1002
{
1000
PbHidd
1002
}
  0
LINE
  5
32C
330
1F
100
AcDbEntity
  8
HIDDEN
100
AcDbLine
 10
2.437111029046389
 20
-46.50284866840464
 30
0.0
 11
3.663516937006026
 21
-69.90406743282014
 31
0.0
1001
DBPROPERTIES
1002
{
1000
PbHidd
1002
}
  0
LINE
  5
32D
330
1F
100
AcDbEntity
  8
HIDDEN
100
AcDbLine
 10
2.437111029046394
 20
-46.50284866840464
 30
0.0
 11
2.437111029046394
 21
-46.50284866840464
 31
0.0
1001
DBPROPERTIES
1002
{
1000
PbHidd
1002
}
  0
LINE
  5
32E
330
1F
100
AcDbEntity
  8
HIDDEN
100
AcDbLine
 10
-5.861627099209766
 20
-111.8465078925122
 30
0.0
 11
-5.861627099209766
 21
-111.8465078925122
 31
0.0
1001
DBPROPERTIES
1002
{
1000
PbHidd
1002
}
  0
LINE
  5
32F
330
1F
100
AcDbEntity
  8
HIDDEN
100
AcDbLine
 10
-17.52066008450589
 20
-110.6210941466554
 30
0.0
 11
-17.52066008450589
 21
-110.6210941466554
 31
0.0
1001
DBPROPERTIES
1002
{
1000
PbHidd
1002
}
  0
LINE
  5
330
330
1F
100
AcDbEntity
  8
HIDDEN
100
AcDbLine
 10
-7.284631588706764
 20
-45.99335372704689
 30
0.0
 11
-10.95041255281618
 21
-69.13818384165963
 31
0.0
1001
DBPROPERTIES
1002
{
1000
PbHidd
1002
}
  0
LINE
  5
331
330
1F
100
AcDbEntity
  8
HIDDEN
100
AcDbLine
 10
-7.284631588706763
 20
-45.99335372704689
 30
0.0
 11
-7.284631588706763
 21
-45.99335372704689
 31
0.0
1001
DBPROPERTIES
1002
{
1000
PbHidd
1002
}
  0
LINE
  5
332
330
1F
100
AcDbEntity
  8
HIDDEN
100
AcDbLine
 10
-28.98773305148235
 20
-108.1836925443756
 30
0.0
 11
-28.98773305148235
 21
-108.1836925443756
 31
0.0
1001
DBPROPERTIES
1002
{
1000
PbHidd
1002
}
  0
LINE
  5
333
330
1F
100
AcDbEntity
  8
HIDDEN
100
AcDbLine
 10
-40.13721034907365
 20
-104.5610077676866
 30
0.0
 11
-40.13721034907365
 21
-104.5610077676866
 31
0.0
1001
DBPROPERTIES
1002
{
1000
PbHidd
1002
}
  0
LINE
  5
334
330
1F
100
AcDbEntity
  8
HIDDEN
100
AcDbLine
 10
-16.68800085049282
 20
-43.47372852721966
 30
0.0
 11
-25.08575646817103
 21
-65.3506298548041
 31
0.0
1001
DBPROPERTIES
1002
{
1000
PbHidd
1002
}
  0
LINE
  5
335
330
1F
100
AcDbEntity
  8
HIDDEN
100
AcDbLine
 10
-16.68800085049282
 20
-43.47372852721967
 30
0.0
 11
-16.68800085049282
 21
-43.47372852721967
 31
0.0
1001
DBPROPERTIES
1002
{
1000
PbHidd
1002
}
  0
LINE
  5
336
330
1F
100
AcDbEntity
  8
HIDDEN
100
AcDbLine
 10
-50.84693597082926
 20
-99.79273070909717
 30
0.0
 11
-50.84693597082926
 21
-99.79273070909717
 31
0.0
1001
DBPROPERTIES
1002
{
1000
PbHidd
1002
}
  0
LINE
  5
337
330
1F
100
AcDbEntity
  8
HIDDEN
100
AcDbLine
 10
-60.99957192168308
 20
-93.93110360988744
 30
0.0
 11
-60.99957192168308
 21
-93.93110360988744
 31
0.0
1001
DBPROPERTIES
1002
{
1000
PbHidd
1002
}
  0
LINE
  5
338
330
1F
100
AcDbEntity
  8
HIDDEN
100
AcDbLine
 10
-25.36202439719978
 20
-39.05409278065855
 30
0.0
 11
-38.12473245105191
 21
-58.70693975617964
 31
0.0
1001
DBPROPERTIES
1002
{
1000
PbHidd
1002
}
  0
LINE
  5
339
330
1F
100
AcDbEntity
  8
HIDDEN
100
AcDbLine
 10
-25.36202439719977
 20
-39.05409278065855
 30
0.0
 11
-25.36202439719977
 21
-39.05409278065855
 31
0.0
1001
DBPROPERTIES
1002
{
1000
PbHidd
1002
}
  0
LINE
  5
33A
330
1F
100
AcDbEntity
  8
HIDDEN
100
AcDbLine
 10
-70.48388379758183
 20
-87.04034768318068
 30
0.0
 11
-70.48388379758183
 21
-87.04034768318068
 31
0.0
1001
DBPROPERTIES
1002
{
1000
PbHidd
1002
}
  0
LINE
  5
33B
330
1F
100
AcDbEntity
  8
HIDDEN
100
AcDbLine
 10
-79.19595949289332
 20
-79.1959594928933
 30
0.0
 11
-79.19595949289332
 21
-79.1959594928933
 31
0.0
1001
DBPROPERTIES
1002
{
1000
PbHidd
1002
}
  0
LINE
  5
33C
330
1F
100
AcDbEntity
  8
HIDDEN
100
AcDbLine
 10
-32.92760577725355
 20
-32.92760577725353
 30
0.0
 11
-49.49747468305832
 21
-49.4974746830583
 31
0.0
1001
DBPROPERTIES
1002
{
1000
PbHidd
1002
}
  0
LINE
  5
33D
330
1F
100
AcDbEntity
  8
HIDDEN
100
AcDbLine
 10
-32.92760577725355
 20
-32.92760577725354
 30
0.0
 11
-32.92760577725355
 21
-32.92760577725354
 31
0.0
1001
DBPROPERTIES
1002
{
1000
PbHidd
1002
}
  0
LINE
  5
33E
330
1F
100
AcDbEntity
  8
HIDDEN
100
AcDbLine
 10
-87.04034768318073
 20
-70.48388379758177
 30
0.0
 11
-87.04034768318073
 21
-70.48388379758177
 31
0.0
1001
DBPROPERTIES
1002
{
1000
PbHidd
1002
}
  0
LINE
  5
33F
330
1F
100
AcDbEntity
  8
HIDDEN
100
AcDbLine
 10
-93.93110360988749
 20
-60.999571921683
 30
0.0
 11
-93.93110360988749
 21
-60.99957192168299
 31
0.0
1001
DBPROPERTIES
1002
{
1000
PbHidd
1002
}
  0
LINE
  5
340
330
1F
100
AcDbEntity
  8
HIDDEN
100
AcDbLine
 10
-39.05409278065858
 20
-25.36202439719974
 30
0.0
 11
-58.70693975617969
 21
-38.12473245105187
 31
0.0
1001
DBPROPERTIES
1002
{
1000
PbHidd
1002
}
  0
LINE
  5
341
330
1F
100
AcDbEntity
  8
HIDDEN
100
AcDbLine
 10
-39.05409278065857
 20
-25.36202439719975
 30
0.0
 11
-39.05409278065857
 21
-25.36202439719975
 31
0.0
1001
DBPROPERTIES
1002
{
1000
PbHidd
1002
}
  0
LINE
  5
342
330
1F
100
AcDbEntity
  8
HIDDEN
100
AcDbLine
 10
-99.79273070909719
 20
-50.8469359708292
 30
0.0
 11
-99.79273070909719
 21
-50.84693597082921
 31
0.0
1001
DBPROPERTIES
1002
{
1000
PbHidd
1002
}
  0
LINE
  5
343
330
1F
100
AcDbEntity
  8
HIDDEN
100
AcDbLine
 10
-104.5610077676866
 20
-40.1372103490736
 30
0.0
 11
-104.5610077676866
 21
-40.13721034907359
 31
0.0
1001
DBPROPERTIES
1002
{
1000
PbHidd
1002
}
  0
LINE
  5
344
330
1F
100
AcDbEntity
  8
HIDDEN
100
AcDbLine
 10
-43.47372852721968
 20
-16.6880008504928
 30
0.0
 11
-65.35062985480411
 21
-25.08575646817099
 31
0.0
1001
DBPROPERTIES
1002
{
1000
PbHidd
1002
}
  0
LINE
  5
345
330
1F
100
AcDbEntity
  8
HIDDEN
100
AcDbLine
 10
-43.47372852721968
 20
-16.6880008504928
 30
0.0
 11
-43.47372852721968
 21
-16.6880008504928
 31
0.0
1001
DBPROPERTIES
1002
{
1000
PbHidd
1002
}
  0
LINE
  5
346
330
1F
100
AcDbEntity
  8
HIDDEN
100
AcDbLine
 10
-108.1836925443756
 20
-28.98773305148229
 30
0.0
 11
-108.1836925443756
 21
-28.9877330514823
 31
0.0
1001
DBPROPERTIES
1002
{
1000
PbHidd
1002
}
  0
LINE
  5
347
330
1F
100
AcDbEntity
  8
HIDDEN
100
AcDbLine
 10
-110.6210941466554
 20
-17.52066008450582
 30
0.0
 11
-110.6210941466554
 21
-17.52066008450581
 31
0.0
1001
DBPROPERTIES
1002
{
1000
PbHidd
1002
}
  0
LINE
  5
348
330
1F
100
AcDbEntity
  8
HIDDEN
100
AcDbLine
 10
-45.99335372704689
 20
-7.284631588706731
 30
0.0
 11
-69.13818384165964
 21
-10.95041255281614
 31
0.0
1001
DBPROPERTIES
1002
{
1000
PbHidd
1002
}
  0
LINE
  5
349
330
1F
100
AcDbEntity
  8
HIDDEN
100
AcDbLine
 10
-45.99335372704689
 20
-7.284631588706736
 30
0.0
 11
-45.99335372704689
 21
-7.284631588706736
 31
0.0
1001
DBPROPERTIES
1002
{
1000
PbHidd
1002
}
  0
LINE
  5
34A
330
1F
100
AcDbEntity
  8
HIDDEN
100
AcDbLine
 10
-111.8465078925123
 20
-5.86162709920967
 30
0.0
 11
-111.8465078925123
 21
-5.861627099209676
 31
0.0
1001
DBPROPERTIES
1002
{
1000
PbHidd
1002
}
  0
LINE
  5
34B
330
1F
100
AcDbEntity
  8
HIDDEN
100
AcDbLine
 10
-111.8465078925123
 20
5.861627099209729
 30
0.0
 11
-111.8465078925123
 21
5.861627099209734
 31
0.0
1001
DBPROPERTIES
1002
{
1000
PbHidd
1002
}
  0
LINE
  5
34C
330
1F
100
AcDbEntity
  8
HIDDEN
100
AcDbLine
 10
-46.50284866840462
 20
2.437111029046423
 30
0.0
 11
-69.90406743282016
 21
3.663516937006079
 31
0.0
1001
DBPROPERTIES
1002
{
1000
PbHidd
1002
}
  0
LINE
  5
34D
330
1F
100
AcDbEntity
  8
HIDDEN
100
AcDbLine
 10
-46.50284866840463
 20
2.437111029046425
 30
0.0
 11
-46.50284866840463
 21
2.437111029046425
 31
0.0
1001
DBPROPERTIES
1002
{
1000
PbHidd
1002
}
  0
LINE
  5
34E
330
1F
100
AcDbEntity
  8
HIDDEN
100
AcDbLine
 10
-110.6210941466554
 20
17.52066008450588
 30
0.0
 11
-110.6210941466554
 21
17.52066008450587
 31
0.0
1001
DBPROPERTIES
1002
{
1000
PbHidd
1002
}
  0
LINE
  5
34F
330
1F
100
AcDbEntity
  8
HIDDEN
100
AcDbLine
 10
-108.1836925443756
 20
28.98773305148235
 30
0.0
 11
-108.1836925443756
 21
28.98773305148235
 31
0.0
1001
DBPROPERTIES
1002
{
1000
PbHidd
1002
}
  0
LINE
  5
350
330
1F
100
AcDbEntity
  8
HIDDEN
100
AcDbLine
 10
-44.9799459775276
 20
12.05234020027405
 30
0.0
 11
-67.61480784023479
 21
18.11733315717646
 31
0.0
1001
DBPROPERTIES
1002
{
1000
PbHidd
1002
}
  0
LINE
  5
351
330
1F
100
AcDbEntity
  8
HIDDEN
100
AcDbLine
 10
-44.9799459775276
 20
12.05234020027405
 30
0.0
 11
-44.9799459775276
 21
12.05234020027405
 31
0.0
1001
DBPROPERTIES
1002
{
1000
PbHidd
1002
}
  0
LINE
  5
352
330
1F
100
AcDbEntity
  8
HIDDEN
100
AcDbLine
 10
-104.5610077676866
 20
40.13721034907365
 30
0.0
 11
-104.5610077676866
 21
40.13721034907364
 31
0.0
1001
DBPROPERTIES
1002
{
1000
PbHidd
1002
}
  0
LINE
  5
353
330
1F
100
AcDbEntity
  8
HIDDEN
100
AcDbLine
 10
-99.79273070909719
 20
50.84693597082927
 30
0.0
 11
-99.79273070909719
 21
50.84693597082928
 31
0.0
1001
DBPROPERTIES
1002
{
1000
PbHidd
1002
}
  0
LINE
  5
354
330
1F
100
AcDbEntity
  8
HIDDEN
100
AcDbLine
 10
-41.49120380970496
 20
21.1408242712049
 30
0.0
 11
-62.37045669318573
 21
31.77933498176829
 31
0.0
1001
DBPROPERTIES
1002
{
1000
PbHidd
1002
}
  0
LINE
  5
355
330
1F
100
AcDbEntity
  8
HIDDEN
100
AcDbLine
 10
-41.49120380970497
 20
21.1408242712049
 30
0.0
 11
-41.49120380970497
 21
21.1408242712049
 31
0.0
1001
DBPROPERTIES
1002
{
1000
PbHidd
1002
}
  0
LINE
  5
356
330
1F
100
AcDbEntity
  8
HIDDEN
100
AcDbLine
 10
-93.93110360988749
 20
60.99957192168306
 30
0.0
 11
-93.93110360988749
 21
60.99957192168306
 31
0.0
1001
DBPROPERTIES
1002
{
1000
PbHidd
1002
}
  0
LINE
  5
357
330
1F
100
AcDbEntity
  8
HIDDEN
100
AcDbLine
 10
-87.04034768318074
 20
70.48388379758181
 30
0.0
 11
-87.04034768318074
 21
70.48388379758181
 31
0.0
1001
DBPROPERTIES
1002
{
1000
PbHidd
1002
}
  0
LINE
  5
358
330
1F
100
AcDbEntity
  8
HIDDEN
100
AcDbLine
 10
-36.18909693851293
 20
29.3053528765541
 30
0.0
 11
-54.40021730198796
 21
44.05242737348864
 31
0.0
1001
DBPROPERTIES
1002
{
1000
PbHidd
1002
}
  0
LINE
  5
359
330
1F
100
AcDbEntity
  8
HIDDEN
100
AcDbLine
 10
-36.18909693851293
 20
29.30535287655409
 30
0.0
 11
-36.18909693851293
 21
29.30535287655409
 31
0.0
1001
DBPROPERTIES
1002
{
1000
PbHidd
1002
}
  0
LINE
  5
35A
330
1F
100
AcDbEntity
  8
HIDDEN
100
AcDbLine
 10
-79.19595949289332
 20
79.19595949289332
 30
0.0
 11
-79.19595949289332
 21
79.19595949289332
 31
0.0
1001
DBPROPERTIES
1002
{
1000
PbHidd
1002
}
  0
LINE
  5
35B
330
1F
100
AcDbEntity
  8
HIDDEN
100
AcDbLine
 10
-70.4838837975818
 20
87.04034768318076
 30
0.0
 11
-70.4838837975818
 21
87.04034768318076
 31
0.0
1001
DBPROPERTIES
1002
{
1000
PbHidd
1002
}
  0
LINE
  5
35C
330
1F
100
AcDbEntity
  8
HIDDEN
100
AcDbLine
 10
-29.30535287655408
 20
36.18909693851292
 30
0.0
 11
-44.05242737348862
 21
54.40021730198796
 31
0.0
1001
DBPROPERTIES
1002
{
1000
PbHidd
1002
}
  0
LINE
  5
35D
330
1F
100
AcDbEntity
  8
HIDDEN
100
AcDbLine
 10
-29.30535287655408
 20
36.18909693851293
 30
0.0
 11
-29.30535287655408
 21
36.18909693851293
 31
0.0
1001
DBPROPERTIES
1002
{
1000
PbHidd
1002
}
  0
LINE
  5
35E
330
1F
100
AcDbEntity
  8
HIDDEN
100
AcDbLine
 10
-60.99957192168302
 20
93.9311036098875
 30
0.0
 11
-60.99957192168302
 21
93.9311036098875
 31
0.0
1001
DBPROPERTIES
1002
{
1000
PbHidd
1002
}
  0
LINE
  5
35F
330
1F
100
AcDbEntity
  8
HIDDEN
100
AcDbLine
 10
-50.84693597082923
 20
99.79273070909721
 30
0.0
 11
-50.84693597082923
 21
99.79273070909721
 31
0.0
1001
DBPROPERTIES
1002
{
1000
PbHidd
1002
}
  0
LINE
  5
360
330
1F
100
AcDbEntity
  8
HIDDEN
100
AcDbLine
 10
-21.14082427120488
 20
41.49120380970499
 30
0.0
 11
-31.77933498176827
 21
62.37045669318576
 31
0.0
1001
DBPROPERTIES
1002
{
1000
PbHidd
1002
}
  0
LINE
  5
361
330
1F
100
AcDbEntity
  8
HIDDEN
100
AcDbLine
 10
-21.14082427120488
 20
41.49120380970499
 30
0.0
 11
-21.14082427120488
 21
41.49120380970499
 31
0.0
1001
DBPROPERTIES
1002
{
1000
PbHidd
1002
}
  0
LINE
  5
362
330
1F
100
AcDbEntity
  8
HIDDEN
100
AcDbLine
 10
-40.13721034907362
 20
104.5610077676866
 30
0.0
 11
-40.13721034907362
 21
104.5610077676866
 31
0.0
1001
DBPROPERTIES
1002
{
1000
PbHidd
1002
}
  0
LINE
  5
363
330
1F
100
AcDbEntity
  8
HIDDEN
100
AcDbLine
 10
-28.98773305148232
 20
108.1836925443757
 30
0.0
 11
-28.98773305148232
 21
108.1836925443757
 31
0.0
1001
DBPROPERTIES
1002
{
1000
PbHidd
1002
}
  0
LINE
  5
364
330
1F
100
AcDbEntity
  8
HIDDEN
100
AcDbLine
 10
-12.05234020027404
 20
44.9799459775276
 30
0.0
 11
-18.11733315717645
 21
67.61480784023479
 31
0.0
1001
DBPROPERTIES
1002
{
1000
PbHidd
1002
}
  0
LINE
  5
365
330
1F
100
AcDbEntity
  8
HIDDEN
100
AcDbLine
 10
-12.05234020027404
 20
44.9799459775276
 30
0.0
 11
-12.05234020027404
 21
44.9799459775276
 31
0.0
1001
DBPROPERTIES
1002
{
1000
PbHidd
1002
}
  0
LINE
  5
366
330
1F
100
AcDbEntity
  8
HIDDEN
100
AcDbLine
 10
28.98773305148242
 20
108.1836925443756
 30
0.0
 11
28.98773305148242
 21
108.1836925443756
 31
0.0
1001
DBPROPERTIES
1002
{
1000
PbHidd
1002
}
  0
ARC
  5
367
330
1F
100
AcDbEntity
  8
HIDDEN
100
AcDbCircle
 10
0.0
 20
0.0
 30
0.0
 40
46.56666666666666
100
AcDbArc
 50
75.00000349528622
 51
81.0000175258962
1001
DBPROPERTIES
1002
{
1000
PbHidd
1002
}
  0
ARC
  5
368
330
1F
100
AcDbEntity
  8
HIDDEN
100
AcDbCircle
 10
0.0
 20
0.0000000000000265
 30
0.0
 40
101.0
100
AcDbArc
 50
81.0000175258962
 51
99.00000232194662
1001
DBPROPERTIES
1002
{
1000
PbHidd
1002
}
  0
ARC
  5
369
330
1F
100
AcDbEntity
  8
HIDDEN
100
AcDbCircle
 10
0.0
 20
0.0000000000000265
 30
0.0
 40
101.0
100
AcDbArc
 50
68.99998946467625
 51
75.00000349528622
1001
DBPROPERTIES
1002
{
1000
PbHidd
1002
}
  0
ARC
  5
36A
330
1F
100
AcDbEntity
  8
HIDDEN
100
AcDbCircle
 10
0.0
 20
0.0000000000000265
 30
0.0
 40
101.0
100
AcDbArc
 50
57.0000186992358
 51
62.99997543406626
1001
DBPROPERTIES
1002
{
1000
PbHidd
1002
}
  0
ARC
  5
36B
330
1F
100
AcDbEntity
  8
HIDDEN
100
AcDbCircle
 10
0.0
 20
0.0000000000000265
 30
0.0
 40
101.0
100
AcDbArc
 50
44.99999063801582
 51
51.00000466862581
1001
DBPROPERTIES
1002
{
1000
PbHidd
1002
}
  0
ARC
  5
36C
330
1F
100
AcDbEntity
  8
HIDDEN
100
AcDbCircle
 10
0.0
 20
0.0000000000000265
 30
0.0
 40
101.0
100
AcDbArc
 50
33.00001987257539
 51
38.99997660740585
1001
DBPROPERTIES
1002
{
1000
PbHidd
1002
}
  0
ARC
  5
36D
330
1F
100
AcDbEntity
  8
HIDDEN
100
AcDbCircle
 10
0.0
 20
0.0000000000000265
 30
0.0
 40
101.0
100
AcDbArc
 50
20.99999181135542
 51
27.0000058419654
1001
DBPROPERTIES
1002
{
1000
PbHidd
1002
}
  0
ARC
  5
36E
330
1F
100
AcDbEntity
  8
HIDDEN
100
AcDbCircle
 10
0.0
 20
0.0000000000000265
 30
0.0
 40
101.0
100
AcDbArc
 50
9.000021045914972
 51
14.99997778074544
1001
DBPROPERTIES
1002
{
1000
PbHidd
1002
}
  0
ARC
  5
36F
330
1F
100
AcDbEntity
  8
HIDDEN
100
AcDbCircle
 10
0.0
 20
0.0000000000000265
 30
0.0
 40
101.0
100
AcDbArc
 50
0.0
 51
3.00000701530499
1001
DBPROPERTIES
1002
{
1000
PbHidd
1002
}
  0
ARC
  5
370
330
1F
100
AcDbEntity
  8
HIDDEN
100
AcDbCircle
 10
0.0
 20
0.0000000000000265
 30
0.0
 40
101.0
100
AcDbArc
 50
345.0000222192546
 51
350.9999789540851
1001
DBPROPERTIES
1002
{
1000
PbHidd
1002
}
  0
ARC
  5
371
330
1F
100
AcDbEntity
  8
HIDDEN
100
AcDbCircle
 10
0.0
 20
0.0000000000000265
 30
0.0
 40
101.0
100
AcDbArc
 50
332.9999941580346
 51
339.0000081886445
1001
DBPROPERTIES
1002
{
1000
PbHidd
1002
}
  0
ARC
  5
372
330
1F
100
AcDbEntity
  8
HIDDEN
100
AcDbCircle
 10
0.0
 20
0.0000000000000265
 30
0.0
 40
101.0
100
AcDbArc
 50
321.0000233925941
 51
326.9999801274246
1001
DBPROPERTIES
1002
{
1000
PbHidd
1002
}
  0
ARC
  5
373
330
1F
100
AcDbEntity
  8
HIDDEN
100
AcDbCircle
 10
0.0
 20
0.0000000000000265
 30
0.0
 40
101.0
100
AcDbArc
 50
308.9999953313742
 51
315.0000093619842
1001
DBPROPERTIES
1002
{
1000
PbHidd
1002
}
  0
ARC
  5
374
330
1F
100
AcDbEntity
  8
HIDDEN
100
AcDbCircle
 10
0.0
 20
0.0000000000000265
 30
0.0
 40
101.0
100
AcDbArc
 50
297.0000245659338
 51
302.9999813007643
1001
DBPROPERTIES
1002
{
1000
PbHidd
1002
}
  0
ARC
  5
375
330
1F
100
AcDbEntity
  8
HIDDEN
100
AcDbCircle
 10
0.0
 20
0.0000000000000265
 30
0.0
 40
101.0
100
AcDbArc
 50
284.9999965047138
 51
291.0000105353237
1001
DBPROPERTIES
1002
{
1000
PbHidd
1002
}
  0
ARC
  5
376
330
1F
100
AcDbEntity
  8
HIDDEN
100
AcDbCircle
 10
0.0
 20
0.0000000000000265
 30
0.0
 40
101.0
100
AcDbArc
 50
273.0000257392733
 51
278.9999824741038
1001
DBPROPERTIES
1002
{
1000
PbHidd
1002
}
  0
ARC
  5
377
330
1F
100
AcDbEntity
  8
HIDDEN
100
AcDbCircle
 10
0.0
 20
0.0000000000000265
 30
0.0
 40
101.0
100
AcDbArc
 50
260.9999976780534
 51
267.0000117086634
1001
DBPROPERTIES
1002
{
1000
PbHidd
1002
}
  0
ARC
  5
378
330
1F
100
AcDbEntity
  8
HIDDEN
100
AcDbCircle
 10
0.0
 20
0.0000000000000265
 30
0.0
 40
101.0
100
AcDbArc
 50
249.0000269126129
 51
254.9999836474434
1001
DBPROPERTIES
1002
{
1000
PbHidd
1002
}
  0
ARC
  5
379
330
1F
100
AcDbEntity
  8
HIDDEN
100
AcDbCircle
 10
0.0
 20
0.0000000000000265
 30
0.0
 40
101.0
100
AcDbArc
 50
236.999998851393
 51
243.0000128820029
1001
DBPROPERTIES
1002
{
1000
PbHidd
1002
}
  0
ARC
  5
37A
330
1F
100
AcDbEntity
  8
HIDDEN
100
AcDbCircle
 10
0.0
 20
0.0000000000000265
 30
0.0
 40
101.0
100
AcDbArc
 50
225.0000280859525
 51
230.999984820783
1001
DBPROPERTIES
1002
{
1000
PbHidd
1002
}
  0
ARC
  5
37B
330
1F
100
AcDbEntity
  8
HIDDEN
100
AcDbCircle
 10
0.0
 20
0.0000000000000265
 30
0.0
 40
101.0
100
AcDbArc
 50
213.0000000247326
 51
219.0000140553425
1001
DBPROPERTIES
1002
{
1000
PbHidd
1002
}
  0
ARC
  5
37C
330
1F
100
AcDbEntity
  8
HIDDEN
100
AcDbCircle
 10
0.0
 20
0.0000000000000265
 30
0.0
 40
101.0
100
AcDbArc
 50
200.9999719635126
 51
206.9999859941226
1001
DBPROPERTIES
1002
{
1000
PbHidd
1002
}
  0
ARC
  5
37D
330
1F
100
AcDbEntity
  8
HIDDEN
100
AcDbCircle
 10
0.0
 20
0.0000000000000265
 30
0.0
 40
101.0
100
AcDbArc
 50
189.0000011980722
 51
195.0000152286821
1001
DBPROPERTIES
1002
{
1000
PbHidd
1002
}
  0
ARC
  5
37E
330
1F
100
AcDbEntity
  8
HIDDEN
100
AcDbCircle
 10
0.0
 20
0.0000000000000265
 30
0.0
 40
101.0
100
AcDbArc
 50
177.0000128325378
 51
180.0000198478428
1001
DBPROPERTIES
1002
{
1000
PbHidd
1002
}
  0
ARC
  5
37F
330
1F
100
AcDbEntity
  8
HIDDEN
100
AcDbCircle
 10
0.0
 20
0.0000000000000265
 30
0.0
 40
101.0
100
AcDbArc
 50
164.9999847713179
 51
170.9999988019279
1001
DBPROPERTIES
1002
{
1000
PbHidd
1002
}
  0
ARC
  5
380
330
1F
100
AcDbEntity
  8
HIDDEN
100
AcDbCircle
 10
0.0
 20
0.0000000000000265
 30
0.0
 40
101.0
100
AcDbArc
 50
153.0000140058774
 51
159.0000280364874
1001
DBPROPERTIES
1002
{
1000
PbHidd
1002
}
  0
ARC
  5
381
330
1F
100
AcDbEntity
  8
HIDDEN
100
AcDbCircle
 10
0.0
 20
0.0000000000000265
 30
0.0
 40
101.0
100
AcDbArc
 50
140.9999859446575
 51
146.9999999752674
1001
DBPROPERTIES
1002
{
1000
PbHidd
1002
}
  0
ARC
  5
382
330
1F
100
AcDbEntity
  8
HIDDEN
100
AcDbCircle
 10
0.0
 20
0.0000000000000265
 30
0.0
 40
101.0
100
AcDbArc
 50
129.000015179217
 51
134.9999719140475
1001
DBPROPERTIES
1002
{
1000
PbHidd
1002
}
  0
ARC
  5
383
330
1F
100
AcDbEntity
  8
HIDDEN
100
AcDbCircle
 10
0.0
 20
0.0000000000000265
 30
0.0
 40
101.0
100
AcDbArc
 50
116.9999871179971
 51
123.000001148607
1001
DBPROPERTIES
1002
{
1000
PbHidd
1002
}
  0
ARC
  5
384
330
1F
100
AcDbEntity
  8
HIDDEN
100
AcDbCircle
 10
0.0
 20
0.0000000000000265
 30
0.0
 40
101.0
100
AcDbArc
 50
105.0000163525566
 51
110.9999730873871
1001
DBPROPERTIES
1002
{
1000
PbHidd
1002
}
  0
ARC
  5
385
330
1F
100
AcDbEntity
  8
HIDDEN
100
AcDbCircle
 10
0.0
 20
0.0
 30
0.0
 40
46.56666666666666
100
AcDbArc
 50
62.99997543406626
 51
68.99998946467625
1001
DBPROPERTIES
1002
{
1000
PbHidd
1002
}
  0
ARC
  5
386
330
1F
100
AcDbEntity
  8
HIDDEN
100
AcDbCircle
 10
0.0
 20
0.0
 30
0.0
 40
46.56666666666666
100
AcDbArc
 50
51.00000466862581
 51
57.0000186992358
1001
DBPROPERTIES
1002
{
1000
PbHidd
1002
}
  0
ARC
  5
387
330
1F
100
AcDbEntity
  8
HIDDEN
100
AcDbCircle
 10
0.0
 20
0.0
 30
0.0
 40
46.56666666666666
100
AcDbArc
 50
38.99997660740585
 51
44.99999063801582
1001
DBPROPERTIES
1002
{
1000
PbHidd
1002
}
  0
ARC
  5
388
330
1F
100
AcDbEntity
  8
HIDDEN
100
AcDbCircle
 10
0.0
 20
0.0
 30
0.0
 40
46.56666666666666
100
AcDbArc
 50
27.0000058419654
 51
33.00001987257539
1001
DBPROPERTIES
1002
{
1000
PbHidd
1002
}
  0
ARC
  5
389
330
1F
100
AcDbEntity
  8
HIDDEN
100
AcDbCircle
 10
0.0
 20
0.0
 30
0.0
 40
46.56666666666666
100
AcDbArc
 50
14.99997778074544
 51
20.99999181135542
1001
DBPROPERTIES
1002
{
1000
PbHidd
1002
}
  0
ARC
  5
38A
330
1F
100
AcDbEntity
  8
HIDDEN
100
AcDbCircle
 10
0.0
 20
0.0
 30
0.0
 40
46.56666666666666
100
AcDbArc
 50
3.00000701530499
 51
9.000021045914972
1001
DBPROPERTIES
1002
{
1000
PbHidd
1002
}
  0
ARC
  5
38B
330
1F
100
AcDbEntity
  8
HIDDEN
100
AcDbCircle
 10
0.0
 20
0.0
 30
0.0
 40
46.56666666666666
100
AcDbArc
 50
350.9999789540851
 51
356.999992984695
1001
DBPROPERTIES
1002
{
1000
PbHidd
1002
}
  0
ARC
  5
38C
330
1F
100
AcDbEntity
  8
HIDDEN
100
AcDbCircle
 10
0.0
 20
0.0
 30
0.0
 40
46.56666666666667
100
AcDbArc
 50
339.0000081886445
 51
345.0000222192546
1001
DBPROPERTIES
1002
{
1000
PbHidd
1002
}
  0
ARC
  5
38D
330
1F
100
AcDbEntity
  8
HIDDEN
100
AcDbCircle
 10
0.0
 20
0.0
 30
0.0
 40
46.56666666666666
100
AcDbArc
 50
326.9999801274246
 51
332.9999941580346
1001
DBPROPERTIES
1002
{
1000
PbHidd
1002
}
  0
ARC
  5
38E
330
1F
100
AcDbEntity
  8
HIDDEN
100
AcDbCircle
 10
0.0
 20
0.0
 30
0.0
 40
46.56666666666666
100
AcDbArc
 50
315.0000093619842
 51
321.0000233925941
1001
DBPROPERTIES
1002
{
1000
PbHidd
1002
}
  0
ARC
  5
38F
330
1F
100
AcDbEntity
  8
HIDDEN
100
AcDbCircle
 10
0.0
 20
0.0
 30
0.0
 40
46.56666666666666
100
AcDbArc
 50
302.9999813007643
 51
308.9999953313742
1001
DBPROPERTIES
1002
{
1000
PbHidd
1002
}
  0
ARC
  5
390
330
1F
100
AcDbEntity
  8
HIDDEN
100
AcDbCircle
 10
0.0
 20
0.0
 30
0.0
 40
46.56666666666666
100
AcDbArc
 50
291.0000105353237
 51
297.0000245659338
1001
DBPROPERTIES
1002
{
1000
PbHidd
1002
}
  0
ARC
  5
391
330
1F
100
AcDbEntity
  8
HIDDEN
100
AcDbCircle
 10
0.0
 20
0.0
 30
0.0
 40
46.56666666666666
100
AcDbArc
 50
278.9999824741038
 51
284.9999965047138
1001
DBPROPERTIES
1002
{
1000
PbHidd
1002
}
  0
ARC
  5
392
330
1F
100
AcDbEntity
  8
HIDDEN
100
AcDbCircle
 10
0.0
 20
0.0
 30
0.0
 40
46.56666666666666
100
AcDbArc
 50
267.0000117086634
 51
273.0000257392733
1001
DBPROPERTIES
1002
{
1000
PbHidd
1002
}
  0
ARC
  5
393
330
1F
100
AcDbEntity
  8
HIDDEN
100
AcDbCircle
 10
0.0
 20
0.0
 30
0.0
 40
46.56666666666666
100
AcDbArc
 50
254.9999836474434
 51
260.9999976780534
1001
DBPROPERTIES
1002
{
1000
PbHidd
1002
}
  0
ARC
  5
394
330
1F
100
AcDbEntity
  8
HIDDEN
100
AcDbCircle
 10
0.0
 20
0.0
 30
0.0
 40
46.56666666666666
100
AcDbArc
 50
243.0000128820029
 51
249.0000269126129
1001
DBPROPERTIES
1002
{
1000
PbHidd
1002
}
  0
ARC
  5
395
330
1F
100
AcDbEntity
  8
HIDDEN
100
AcDbCircle
 10
0.0
 20
0.0
 30
0.0
 40
46.56666666666666
100
AcDbArc
 50
230.999984820783
 51
236.999998851393
1001
DBPROPERTIES
1002
{
1000
PbHidd
1002
}
  0
ARC
  5
396
330
1F
100
AcDbEntity
  8
HIDDEN
100
AcDbCircle
 10
0.0
 20
0.0
 30
0.0
 40
46.56666666666666
100
AcDbArc
 50
219.0000140553425
 51
225.0000280859525
1001
DBPROPERTIES
1002
{
1000
PbHidd
1002
}
  0
ARC
  5
397
330
1F
100
AcDbEntity
  8
HIDDEN
100
AcDbCircle
 10
0.0
 20
0.0
 30
0.0
 40
46.56666666666666
100
AcDbArc
 50
206.9999859941226
 51
213.0000000247326
1001
DBPROPERTIES
1002
{
1000
PbHidd
1002
}
  0
ARC
  5
398
330
1F
100
AcDbEntity
  8
HIDDEN
100
AcDbCircle
 10
0.0
 20
0.0
 30
0.0
 40
46.56666666666666
100
AcDbArc
 50
195.0000152286821
 51
200.9999719635126
1001
DBPROPERTIES
1002
{
1000
PbHidd
1002
}
  0
ARC
  5
399
330
1F
100
AcDbEntity
  8
HIDDEN
100
AcDbCircle
 10
0.0
 20
0.0
 30
0.0
 40
46.56666666666666
100
AcDbArc
 50
182.9999871674622
 51
189.0000011980722
1001
DBPROPERTIES
1002
{
1000
PbHidd
1002
}
  0
ARC
  5
39A
330
1F
100
AcDbEntity
  8
HIDDEN
100
AcDbCircle
 10
0.0
 20
0.0
 30
0.0
 40
46.56666666666666
100
AcDbArc
 50
170.9999988019279
 51
177.0000128325378
1001
DBPROPERTIES
1002
{
1000
PbHidd
1002
}
  0
ARC
  5
39B
330
1F
100
AcDbEntity
  8
HIDDEN
100
AcDbCircle
 10
0.0
 20
0.0
 30
0.0
 40
46.56666666666666
100
AcDbArc
 50
159.0000280364874
 51
164.9999847713179
1001
DBPROPERTIES
1002
{
1000
PbHidd
1002
}
  0
ARC
  5
39C
330
1F
100
AcDbEntity
  8
HIDDEN
100
AcDbCircle
 10
0.0
 20
0.0
 30
0.0
 40
46.56666666666666
100
AcDbArc
 50
146.9999999752674
 51
153.0000140058774
1001
DBPROPERTIES
1002
{
1000
PbHidd
1002
}
  0
ARC
  5
39D
330
1F
100
AcDbEntity
  8
HIDDEN
100
AcDbCircle
 10
0.0
 20
0.0
 30
0.0
 40
46.56666666666666
100
AcDbArc
 50
134.9999719140475
 51
140.9999859446575
1001
DBPROPERTIES
1002
{
1000
PbHidd
1002
}
  0
ARC
  5
39E
330
1F
100
AcDbEntity
  8
HIDDEN
100
AcDbCircle
 10
0.0
 20
0.0
 30
0.0
 40
46.56666666666666
100
AcDbArc
 50
123.000001148607
 51
129.000015179217
1001
DBPROPERTIES
1002
{
1000
PbHidd
1002
}
  0
ARC
  5
39F
330
1F
100
AcDbEntity
  8
HIDDEN
100
AcDbCircle
 10
0.0
 20
0.0
 30
0.0
 40
46.56666666666666
100
AcDbArc
 50
110.9999730873871
 51
116.9999871179971
1001
DBPROPERTIES
1002
{
1000
PbHidd
1002
}
  0
ARC
  5
3A0
330
1F
100
AcDbEntity
  8
HIDDEN
100
AcDbCircle
 10
0.0
 20
0.0
 30
0.0
 40
46.56666666666666
100
AcDbArc
 50
99.00000232194662
 51
105.0000163525566
1001
DBPROPERTIES
1002
{
1000
PbHidd
1002
}
  0
ARC
  5
3A1
330
1F
100
AcDbEntity
  8
HIDDEN
100
AcDbCircle
 10
0.0
 20
0.0
 30
0.0
 40
91.8032786885246
100
AcDbArc
 50
270.0000187239684
 51
89.99998127603165
1001
DBPROPERTIES
1002
{
1000
PbHidd
1002
}
  0
LINE
  5
3A2
330
1F
100
AcDbEntity
  8
THICK
100
AcDbLine
 10
-79.452591201592
 20
48.97343016844761
 30
0.0
 11
-178.8323263719761
 21
173.5916764395326
 31
0.0
1001
DBPROPERTIES
1002
{
1000
PbThick
1002
}
  0
LINE
  5
3A3
330
1F
100
AcDbEntity
  8
THICK
100
AcDbLine
 10
-127.2340810254704
 20
214.7399040163962
 30
0.0
 11
-27.18770725464272
 21
89.28571938079996
 31
0.0
1001
DBPROPERTIES
1002
{
1000
PbThick
1002
}
  0
ELLIPSE
  5
3A4
330
1F
100
AcDbEntity
  8
THICK
100
AcDbEllipse
 10
-81.94316492158673
 20
105.0217011985315
 30
0.0
 11
-76.81394358899595
 21
96.32163864006129
 31
0.0
210
0.0
220
0.0
230
1.0
 40
0.7071067811865475
 41
0.0
 42
0.3884862281828487
1001
DBPROPERTIES
1002
{
1000
PbThick
1002
}
  0
ELLIPSE
  5
3A5
330
1F
100
AcDbEntity
  8
THICK
100
AcDbEllipse
 10
-81.94316492158673
 20
105.0217011985315
 30
0.0
 11
-76.81394358899595
 21
96.32163864006129
 31
0.0
210
0.0
220
0.0
230
1.0
 40
0.7071067811865475
 41
-0.3884862281828485
 42
0.0
1001
DBPROPERTIES
1002
{
1000
PbThick
1002
}
  0
LINE
  5
3A6
330
1F
100
AcDbEntity
  8
HIDDEN
100
AcDbLine
 10
-28.63486585648266
 20
88.8321764255067
 30
0.0
 11
-128.339757711467
 21
213.8581562826063
 31
0.0
1001
DBPROPERTIES
1002
{
1000
PbHidd
1002
}
  0
LINE
  5
3A7
330
1F
100
AcDbEntity
  8
HIDDEN
100
AcDbLine
 10
-128.339757711467
 20
213.8581562826062
 30
0.0
 11
-127.2340810254704
 21
214.7399040163961
 31
0.0
1001
DBPROPERTIES
1002
{
1000
PbHidd
1002
}
  0
LINE
  5
3A8
330
1F
100
AcDbEntity
  8
THICK
100
AcDbLine
 10
-80.23311120298835
 20
47.68394884864311
 30
0.0
 11
-179.9380030579726
 21
172.7099287057426
 31
0.0
1001
DBPROPERTIES
1002
{
1000
PbThick
1002
}
  0
LINE
  5
3A9
330
1F
100
AcDbEntity
  8
THICK
100
AcDbLine
 10
-179.9380030579726
 20
172.7099287057426
 30
0.0
 11
-178.8323263719761
 21
173.5916764395326
 31
0.0
1001
DBPROPERTIES
1002
{
1000
PbThick
1002
}
  0
ELLIPSE
  5
3AA
330
1F
100
AcDbEntity
  8
HIDDEN
100
AcDbEllipse
 10
-83.04884160758328
 20
104.1399534647416
 30
0.0
 11
76.81394358899595
 21
-96.32163864006129
 31
0.0
210
0.0
220
0.0
230
1.0
 40
0.7071067811865475
 41
2.753106425406945
 42
3.141592653589793
1001
DBPROPERTIES
1002
{
1000
PbHidd
1002
}
  0
ELLIPSE
  5
3AB
330
1F
100
AcDbEntity
  8
THICK
100
AcDbEllipse
 10
-83.04884160758328
 20
104.1399534647416
 30
0.0
 11
76.81394358899595
 21
-96.32163864006129
 31
0.0
210
0.0
220
0.0
230
1.0
 40
0.7071067811865475
 41
-3.141592653589793
 42
-2.753106425406945
1001
DBPROPERTIES
1002
{
1000
PbThick
1002
}
  0
LINE
  5
3AC
330
1F
100
AcDbEntity
  8
THICK
100
AcDbLine
 10
88.56126553393281
 20
233.3637503949471
 30
0.0
 11
52.85512813752487
 21
76.92494095335353
 31
0.0
1001
DBPROPERTIES
1002
{
1000
PbThick
1002
}
  0
ELLIPSE
  5
3AD
330
1F
100
AcDbEntity
  8
THICK
100
AcDbEllipse
 10
31.01854467872473
 20
129.5457057799059
 30
0.0
 11
27.41457906341796
 21
120.1111187808007
 31
0.0
210
0.0
220
0.0
230
1.0
 40
0.7071067811865475
 41
0.0
 42
0.3884862281828485
1001
DBPROPERTIES
1002
{
1000
PbThick
1002
}
  0
ELLIPSE
  5
3AE
330
1F
100
AcDbEntity
  8
THICK
100
AcDbEllipse
 10
31.01854467872473
 20
129.5457057799059
 30
0.0
 11
27.41457906341796
 21
120.1111187808007
 31
0.0
210
0.0
220
0.0
230
1.0
 40
0.7071067811865475
 41
-0.3884862281828484
 42
0.0
1001
DBPROPERTIES
1002
{
1000
PbThick
1002
}
  0
LINE
  5
3AF
330
1F
100
AcDbEntity
  8
THICK
100
AcDbLine
 10
-11.24891083530163
 20
92.65297143713488
 30
0.0
 11
24.21930599923054
 21
248.0493827882179
 31
0.0
1001
DBPROPERTIES
1002
{
1000
PbThick
1002
}
  0
LINE
  5
3B0
330
1F
100
AcDbEntity
  8
HIDDEN
100
AcDbLine
 10
51.59824534650567
 20
77.77359570106618
 30
0.0
 11
87.18250925818919
 21
233.67844251766
 31
0.0
1001
DBPROPERTIES
1002
{
1000
PbHidd
1002
}
  0
LINE
  5
3B1
330
1F
100
AcDbEntity
  8
HIDDEN
100
AcDbLine
 10
87.18250925818923
 20
233.6784425176602
 30
0.0
 11
88.56126553393285
 21
233.3637503949472
 31
0.0
1001
DBPROPERTIES
1002
{
1000
PbHidd
1002
}
  0
LINE
  5
3B2
330
1F
100
AcDbEntity
  8
THICK
100
AcDbLine
 10
-12.7437141881966
 20
92.45922809433709
 30
0.0
 11
22.84054972348691
 21
248.3640749109309
 31
0.0
1001
DBPROPERTIES
1002
{
1000
PbThick
1002
}
  0
LINE
  5
3B3
330
1F
100
AcDbEntity
  8
THICK
100
AcDbLine
 10
22.84054972348696
 20
248.3640749109311
 30
0.0
 11
24.21930599923058
 21
248.0493827882181
 31
0.0
1001
DBPROPERTIES
1002
{
1000
PbThick
1002
}
  0
ELLIPSE
  5
3B4
330
1F
100
AcDbEntity
  8
HIDDEN
100
AcDbEllipse
 10
29.63978840298111
 20
129.8603979026189
 30
0.0
 11
-27.41457906341796
 21
-120.1111187808007
 31
0.0
210
0.0
220
0.0
230
1.0
 40
0.7071067811865475
 41
2.753106425406945
 42
3.141592653589793
1001
DBPROPERTIES
1002
{
1000
PbHidd
1002
}
  0
ELLIPSE
  5
3B5
330
1F
100
AcDbEntity
  8
THICK
100
AcDbEllipse
 10
29.63978840298111
 20
129.8603979026189
 30
0.0
 11
-27.41457906341796
 21
-120.1111187808007
 31
0.0
210
0.0
220
0.0
230
1.0
 40
0.7071067811865475
 41
3.141592653589793
 42
3.530078881772642
1001
DBPROPERTIES
1002
{
1000
PbThick
1002
}
  0
LINE
  5
3B6
330
1F
100
AcDbEntity
  8
THICK
100
AcDbLine
 10
65.4254288259344
 20
66.56293543747668
 30
0.0
 11
209.0333069692085
 21
135.7208446120819
 31
0.0
1001
DBPROPERTIES
1002
{
1000
PbThick
1002
}
  0
LINE
  5
3B7
330
1F
100
AcDbEntity
  8
THICK
100
AcDbLine
 10
237.6681728256912
 20
76.259932973117
 30
0.0
 11
93.09697399400937
 21
6.638113005202413
 31
0.0
1001
DBPROPERTIES
1002
{
1000
PbThick
1002
}
  0
ELLIPSE
  5
3B8
330
1F
100
AcDbEntity
  8
THICK
100
AcDbEllipse
 10
120.6226574729554
 20
56.51915165819516
 30
0.0
 11
110.999364525578
 21
53.45447665928314
 31
0.0
210
0.0
220
0.0
230
1.0
 40
0.7071067811865476
 41
0.0
 42
0.3884862281828483
1001
DBPROPERTIES
1002
{
1000
PbThick
1002
}
  0
ELLIPSE
  5
3B9
330
1F
100
AcDbEntity
  8
THICK
100
AcDbEllipse
 10
120.6226574729554
 20
56.51915165819516
 30
0.0
 11
110.999364525578
 21
53.45447665928314
 31
0.0
210
0.0
220
0.0
230
1.0
 40
0.7071067811865476
 41
-0.3884862281828486
 42
0.0
1001
DBPROPERTIES
1002
{
1000
PbThick
1002
}
  0
LINE
  5
3BA
330
1F
100
AcDbEntity
  8
HIDDEN
100
AcDbLine
 10
92.9768253911849
 20
8.149911121491364
 30
0.0
 11
237.054568557338
 21
77.53409536538054
 31
0.0
1001
DBPROPERTIES
1002
{
1000
PbHidd
1002
}
  0
LINE
  5
3BB
330
1F
100
AcDbEntity
  8
HIDDEN
100
AcDbLine
 10
237.0545685573381
 20
77.5340953653806
 30
0.0
 11
237.6681728256913
 21
76.25993297311706
 31
0.0
1001
DBPROPERTIES
1002
{
1000
PbHidd
1002
}
  0
LINE
  5
3BC
330
1F
100
AcDbEntity
  8
THICK
100
AcDbLine
 10
64.34195953470224
 20
67.6108227604563
 30
0.0
 11
208.4197027008553
 21
136.9950070043454
 31
0.0
1001
DBPROPERTIES
1002
{
1000
PbThick
1002
}
  0
LINE
  5
3BD
330
1F
100
AcDbEntity
  8
THICK
100
AcDbLine
 10
208.4197027008554
 20
136.9950070043455
 30
0.0
 11
209.0333069692086
 21
135.720844612082
 31
0.0
1001
DBPROPERTIES
1002
{
1000
PbThick
1002
}
  0
ELLIPSE
  5
3BE
330
1F
100
AcDbEntity
  8
HIDDEN
100
AcDbEllipse
 10
120.0090532046022
 20
57.7933140504587
 30
0.0
 11
-110.999364525578
 21
-53.45447665928314
 31
0.0
210
0.0
220
0.0
230
1.0
 40
0.7071067811865476
 41
2.753106425406945
 42
3.141592653589793
1001
DBPROPERTIES
1002
{
1000
PbHidd
1002
}
  0
ELLIPSE
  5
3BF
330
1F
100
AcDbEntity
  8
THICK
100
AcDbEllipse
 10
120.0090532046022
 20
57.7933140504587
 30
0.0
 11
-110.999364525578
 21
-53.45447665928314
 31
0.0
210
0.0
220
0.0
230
1.0
 40
0.7071067811865476
 41
3.141592653589793
 42
3.530078881772642
1001
DBPROPERTIES
1002
{
1000
PbThick
1002
}
  0
LINE
  5
3C0
330
1F
100
AcDbEntity
  8
THICK
100
AcDbLine
 10
92.83308614571068
 20
-9.650348583038848
 30
0.0
 11
236.4409642889848
 21
-78.8082577576441
 31
0.0
1001
DBPROPERTIES
1002
{
1000
PbThick
1002
}
  0
LINE
  5
3C1
330
1F
100
AcDbEntity
  8
THICK
100
AcDbLine
 10
207.8060984325021
 20
-138.269169396609
 30
0.0
 11
63.23489960082031
 21
-68.64734942869444
 31
0.0
1001
DBPROPERTIES
1002
{
1000
PbThick
1002
}
  0
ELLIPSE
  5
3C2
330
1F
100
AcDbEntity
  8
THICK
100
AcDbEllipse
 10
119.395448936249
 20
-59.0674764427223
 30
0.0
 11
110.9993645255781
 21
-53.45447665928319
 31
0.0
210
0.0
220
0.0
230
1.0
 40
0.7071067811865475
 41
0.0
 42
0.3884862281828484
1001
DBPROPERTIES
1002
{
1000
PbThick
1002
}
  0
ELLIPSE
  5
3C3
330
1F
100
AcDbEntity
  8
THICK
100
AcDbEllipse
 10
119.395448936249
 20
-59.0674764427223
 30
0.0
 11
110.9993645255781
 21
-53.45447665928319
 31
0.0
210
0.0
220
0.0
230
1.0
 40
0.7071067811865475
 41
-0.3884862281828485
 42
0.0
1001
DBPROPERTIES
1002
{
1000
PbThick
1002
}
  0
LINE
  5
3C4
330
1F
100
AcDbEntity
  8
HIDDEN
100
AcDbLine
 10
64.34195953470224
 20
-67.61082276045633
 30
0.0
 11
208.4197027008553
 21
-136.9950070043455
 31
0.0
1001
DBPROPERTIES
1002
{
1000
PbHidd
1002
}
  0
LINE
  5
3C5
330
1F
100
AcDbEntity
  8
HIDDEN
100
AcDbLine
 10
208.4197027008555
 20
-136.9950070043456
 30
0.0
 11
207.8060984325022
 21
-138.2691693966091
 31
0.0
1001
DBPROPERTIES
1002
{
1000
PbHidd
1002
}
  0
LINE
  5
3C6
330
1F
100
AcDbEntity
  8
THICK
100
AcDbLine
 10
92.97682539118493
 20
-8.149911121491392
 30
0.0
 11
237.0545685573379
 21
-77.53409536538057
 31
0.0
1001
DBPROPERTIES
1002
{
1000
PbThick
1002
}
  0
LINE
  5
3C7
330
1F
100
AcDbEntity
  8
THICK
100
AcDbLine
 10
237.0545685573381
 20
-77.53409536538067
 30
0.0
 11
236.4409642889849
 21
-78.8082577576442
 31
0.0
1001
DBPROPERTIES
1002
{
1000
PbThick
1002
}
  0
ELLIPSE
  5
3C8
330
1F
100
AcDbEntity
  8
HIDDEN
100
AcDbEllipse
 10
120.0090532046022
 20
-57.79331405045876
 30
0.0
 11
-110.9993645255781
 21
53.45447665928319
 31
0.0
210
0.0
220
0.0
230
1.0
 40
0.7071067811865475
 41
2.753106425406944
 42
3.141592653589793
1001
DBPROPERTIES
1002
{
1000
PbHidd
1002
}
  0
ELLIPSE
  5
3C9
330
1F
100
AcDbEntity
  8
THICK
100
AcDbEllipse
 10
120.0090532046022
 20
-57.79331405045876
 30
0.0
 11
-110.9993645255781
 21
53.45447665928319
 31
0.0
210
0.0
220
0.0
230
1.0
 40
0.7071067811865475
 41
3.141592653589793
 42
3.530078881772642
1001
DBPROPERTIES
1002
{
1000
PbThick
1002
}
  0
LINE
  5
3CA
330
1F
100
AcDbEntity
  8
THICK
100
AcDbLine
 10
21.46179344774322
 20
-248.6787670336439
 30
0.0
 11
-14.24434394866467
 21
-92.2399575920503
 31
0.0
1001
DBPROPERTIES
1002
{
1000
PbThick
1002
}
  0
ELLIPSE
  5
3CB
330
1F
100
AcDbEntity
  8
THICK
100
AcDbEllipse
 10
28.26103212723743
 20
-130.1750900253318
 30
0.0
 11
27.41457906341792
 21
-120.1111187808007
 31
0.0
210
0.0
220
0.0
230
1.0
 40
0.7071067811865476
 41
0.0
 42
0.3884862281828484
1001
DBPROPERTIES
1002
{
1000
PbThick
1002
}
  0
ELLIPSE
  5
3CC
330
1F
100
AcDbEntity
  8
THICK
100
AcDbEllipse
 10
28.26103212723743
 20
-130.1750900253318
 30
0.0
 11
27.41457906341792
 21
-120.1111187808007
 31
0.0
210
0.0
220
0.0
230
1.0
 40
0.7071067811865476
 41
-0.3884862281828484
 42
0.0
1001
DBPROPERTIES
1002
{
1000
PbThick
1002
}
  0
LINE
  5
3CD
330
1F
100
AcDbEntity
  8
THICK
100
AcDbLine
 10
50.33553614791337
 20
-78.5967232892899
 30
0.0
 11
85.80375298244547
 21
-233.9931346403729
 31
0.0
1001
DBPROPERTIES
1002
{
1000
PbThick
1002
}
  0
LINE
  5
3CE
330
1F
100
AcDbEntity
  8
HIDDEN
100
AcDbLine
 10
-12.74371418819662
 20
-92.4592280943371
 30
0.0
 11
22.84054972348684
 21
-248.3640749109309
 31
0.0
1001
DBPROPERTIES
1002
{
1000
PbHidd
1002
}
  0
LINE
  5
3CF
330
1F
100
AcDbEntity
  8
HIDDEN
100
AcDbLine
 10
22.84054972348688
 20
-248.3640749109311
 30
0.0
 11
21.46179344774326
 21
-248.678767033644
 31
0.0
1001
DBPROPERTIES
1002
{
1000
PbHidd
1002
}
  0
LINE
  5
3D0
330
1F
100
AcDbEntity
  8
THICK
100
AcDbLine
 10
51.59824534650566
 20
-77.77359570106623
 30
0.0
 11
87.1825092581891
 21
-233.67844251766
 31
0.0
1001
DBPROPERTIES
1002
{
1000
PbThick
1002
}
  0
LINE
  5
3D1
330
1F
100
AcDbEntity
  8
THICK
100
AcDbLine
 10
87.18250925818914
 20
-233.6784425176602
 30
0.0
 11
85.80375298244552
 21
-233.9931346403731
 31
0.0
1001
DBPROPERTIES
1002
{
1000
PbThick
1002
}
  0
ELLIPSE
  5
3D2
330
1F
100
AcDbEntity
  8
HIDDEN
100
AcDbEllipse
 10
29.63978840298106
 20
-129.8603979026189
 30
0.0
 11
-27.41457906341792
 21
120.1111187808007
 31
0.0
210
0.0
220
0.0
230
1.0
 40
0.7071067811865476
 41
2.753106425406945
 42
3.141592653589793
1001
DBPROPERTIES
1002
{
1000
PbHidd
1002
}
  0
ELLIPSE
  5
3D3
330
1F
100
AcDbEntity
  8
THICK
100
AcDbEllipse
 10
29.63978840298106
 20
-129.8603979026189
 30
0.0
 11
-27.41457906341792
 21
120.1111187808007
 31
0.0
210
0.0
220
0.0
230
1.0
 40
0.7071067811865476
 41
3.141592653589793
 42
3.530078881772642
1001
DBPROPERTIES
1002
{
1000
PbThick
1002
}
  0
LINE
  5
3D4
330
1F
100
AcDbEntity
  8
THICK
100
AcDbLine
 10
-30.06569922707946
 20
-88.35816227773134
 30
0.0
 11
-129.4454343974636
 21
-212.9764085488162
 31
0.0
1001
DBPROPERTIES
1002
{
1000
PbThick
1002
}
  0
LINE
  5
3D5
330
1F
100
AcDbEntity
  8
THICK
100
AcDbLine
 10
-181.0436797439693
 20
-171.8281809719527
 30
0.0
 11
-80.99730597314152
 21
-46.37399633635646
 31
0.0
1001
DBPROPERTIES
1002
{
1000
PbThick
1002
}
  0
ELLIPSE
  5
3D6
330
1F
100
AcDbEntity
  8
THICK
100
AcDbEllipse
 10
-84.15451829357987
 20
-103.2582057309516
 30
0.0
 11
-76.813943588996
 21
-96.32163864006127
 31
0.0
210
0.0
220
0.0
230
1.0
 40
0.7071067811865476
 41
0.0
 42
0.3884862281828484
1001
DBPROPERTIES
1002
{
1000
PbThick
1002
}
  0
ELLIPSE
  5
3D7
330
1F
100
AcDbEntity
  8
THICK
100
AcDbEllipse
 10
-84.15451829357987
 20
-103.2582057309516
 30
0.0
 11
-76.813943588996
 21
-96.32163864006127
 31
0.0
210
0.0
220
0.0
230
1.0
 40
0.7071067811865476
 41
-0.3884862281828487
 42
0.0
1001
DBPROPERTIES
1002
{
1000
PbThick
1002
}
  0
LINE
  5
3D8
330
1F
100
AcDbEntity
  8
HIDDEN
100
AcDbLine
 10
-80.23311120298837
 20
-47.6839488486431
 30
0.0
 11
-179.9380030579727
 21
-172.7099287057426
 31
0.0
1001
DBPROPERTIES
1002
{
1000
PbHidd
1002
}
  0
LINE
  5
3D9
330
1F
100
AcDbEntity
  8
HIDDEN
100
AcDbLine
 10
-179.9380030579727
 20
-172.7099287057426
 30
0.0
 11
-181.0436797439692
 21
-171.8281809719527
 31
0.0
1001
DBPROPERTIES
1002
{
1000
PbHidd
1002
}
  0
LINE
  5
3DA
330
1F
100
AcDbEntity
  8
THICK
100
AcDbLine
 10
-28.63486585648269
 20
-88.8321764255067
 30
0.0
 11
-128.339757711467
 21
-213.8581562826062
 31
0.0
1001
DBPROPERTIES
1002
{
1000
PbThick
1002
}
  0
LINE
  5
3DB
330
1F
100
AcDbEntity
  8
THICK
100
AcDbLine
 10
-128.339757711467
 20
-213.8581562826062
 30
0.0
 11
-129.4454343974635
 21
-212.9764085488163
 31
0.0
1001
DBPROPERTIES
1002
{
1000
PbThick
1002
}
  0
ELLIPSE
  5
3DC
330
1F
100
AcDbEntity
  8
HIDDEN
100
AcDbEllipse
 10
-83.04884160758331
 20
-104.1399534647416
 30
0.0
 11
76.813943588996
 21
96.32163864006127
 31
0.0
210
0.0
220
0.0
230
1.0
 40
0.7071067811865476
 41
2.753106425406945
 42
3.141592653589793
1001
DBPROPERTIES
1002
{
1000
PbHidd
1002
}
  0
ELLIPSE
  5
3DD
330
1F
100
AcDbEntity
  8
THICK
100
AcDbEllipse
 10
-83.04884160758331
 20
-104.1399534647416
 30
0.0
 11
76.813943588996
 21
96.32163864006127
 31
0.0
210
0.0
220
0.0
230
1.0
 40
0.7071067811865476
 41
-3.141592653589793
 42
-2.753106425406945
1001
DBPROPERTIES
1002
{
1000
PbThick
1002
}
  0
LINE
  5
3DE
330
1F
100
AcDbEntity
  8
THICK
100
AcDbLine
 10
-87.82684985558548
 20
-31.58410289299911
 30
0.0
 11
-247.21956947043
 21
-31.58410289299909
 31
0.0
1001
DBPROPERTIES
1002
{
1000
PbThick
1002
}
  0
LINE
  5
3DF
330
1F
100
AcDbEntity
  8
THICK
100
AcDbLine
 10
-247.2195694704301
 20
34.41253001774531
 30
0.0
 11
-86.75764455590578
 21
34.4125300177453
 31
0.0
1001
DBPROPERTIES
1002
{
1000
PbThick
1002
}
  0
ELLIPSE
  5
3E0
330
1F
100
AcDbEntity
  8
THICK
100
AcDbEllipse
 10
-133.2
 20
1.414213562373108
 30
0.0
 11
-123.2
 21
7.543575139545844E-15
 31
0.0
210
0.0
220
0.0
230
1.0
 40
0.7071067811865476
 41
0.0
 42
0.3884862281828484
1001
DBPROPERTIES
1002
{
1000
PbThick
1002
}
  0
ELLIPSE
  5
3E1
330
1F
100
AcDbEntity
  8
THICK
100
AcDbEllipse
 10
-133.2
 20
1.414213562373108
 30
0.0
 11
-123.2
 21
7.543575139545844E-15
 31
0.0
210
0.0
220
0.0
230
1.0
 40
0.7071067811865476
 41
-0.3884862281828486
 42
0.0
1001
DBPROPERTIES
1002
{
1000
PbThick
1002
}
  0
LINE
  5
3E2
330
1F
100
AcDbEntity
  8
HIDDEN
100
AcDbLine
 10
-87.30533902472528
 20
32.99831645537221
 30
0.0
 11
-247.2195694704301
 21
32.99831645537222
 31
0.0
1001
DBPROPERTIES
1002
{
1000
PbHidd
1002
}
  0
LINE
  5
3E3
330
1F
100
AcDbEntity
  8
HIDDEN
100
AcDbLine
 10
-247.2195694704301
 20
32.99831645537222
 30
0.0
 11
-247.2195694704301
 21
34.41253001774531
 31
0.0
1001
DBPROPERTIES
1002
{
1000
PbHidd
1002
}
  0
LINE
  5
3E4
330
1F
100
AcDbEntity
  8
THICK
100
AcDbLine
 10
-87.30533902472528
 20
-32.9983164553722
 30
0.0
 11
-247.21956947043
 21
-32.99831645537219
 31
0.0
1001
DBPROPERTIES
1002
{
1000
PbThick
1002
}
  0
LINE
  5
3E5
330
1F
100
AcDbEntity
  8
THICK
100
AcDbLine
 10
-247.21956947043
 20
-32.99831645537219
 30
0.0
 11
-247.21956947043
 21
-31.5841028929991
 31
0.0
1001
DBPROPERTIES
1002
{
1000
PbThick
1002
}
  0
ELLIPSE
  5
3E6
330
1F
100
AcDbEntity
  8
HIDDEN
100
AcDbEllipse
 10
-133.2
 20
0.0000000000000135
 30
0.0
 11
123.2
 21
-7.543575139545844E-15
 31
0.0
210
0.0
220
0.0
230
1.0
 40
0.7071067811865476
 41
2.753106425406945
 42
3.141592653589793
1001
DBPROPERTIES
1002
{
1000
PbHidd
1002
}
  0
ELLIPSE
  5
3E7
330
1F
100
AcDbEntity
  8
THICK
100
AcDbEllipse
 10
-133.2
 20
0.0000000000000135
 30
0.0
 11
123.2
 21
-7.543575139545844E-15
 31
0.0
210
0.0
220
0.0
230
1.0
 40
0.7071067811865476
 41
3.141592653589793
 42
3.530078881772642
1001
DBPROPERTIES
1002
{
1000
PbThick
1002
}
  0
ARC
  5
3E8
330
1F
100
AcDbEntity
  8
THICK
100
AcDbCircle
 10
0.0
 20
0.0
 30
0.0
 40
82.33333333333333
100
AcDbArc
 50
180.0000198478428
 51
0.0
1001
DBPROPERTIES
1002
{
1000
PbThick
1002
}
  0
ARC
  5
3E9
330
1F
100
AcDbEntity
  8
THICK
100
AcDbCircle
 10
0.0000000000000007
 20
0.0
 30
0.0
 40
93.33333333333333
100
AcDbArc
 50
180.0000198478428
 51
270.0000187239684
1001
DBPROPERTIES
1002
{
1000
PbThick
1002
}
  0
ARC
  5
3EA
330
1F
100
AcDbEntity
  8
HIDDEN
100
AcDbCircle
 10
0.0
 20
0.0
 30
0.0
 40
316.5
100
AcDbArc
 50
89.99998127603165
 51
179.9999801521572
1001
DBPROPERTIES
1002
{
1000
PbHidd
1002
}
  0
ARC
  5
3EB
330
1F
100
AcDbEntity
  8
HIDDEN
100
AcDbCircle
 10
0.0
 20
0.0
 30
0.0
 40
316.5
100
AcDbArc
 50
0.0
 51
89.99998127603165
1001
DBPROPERTIES
1002
{
1000
PbHidd
1002
}
  0
ARC
  5
3EC
330
1F
100
AcDbEntity
  8
THICK
100
AcDbCircle
 10
0.0000000000000007
 20
0.0000000000000013
 30
0.0
 40
327.5
100
AcDbArc
 50
180.0000198478428
 51
270.0000187239684
1001
DBPROPERTIES
1002
{
1000
PbThick
1002
}
  0
ARC
  5
3ED
330
1F
100
AcDbEntity
  8
THICK
100
AcDbCircle
 10
0.0000000000000007
 20
0.0000000000000013
 30
0.0
 40
327.5
100
AcDbArc
 50
270.0000187239684
 51
0.0
1001
DBPROPERTIES
1002
{
1000
PbThick
1002
}
  0
ARC
  5
3EE
330
1F
100
AcDbEntity
  8
THICK
100
AcDbCircle
 10
0.0000000000000007
 20
0.0000000000000013
 30
0.0
 40
327.5
100
AcDbArc
 50
0.0
 51
89.99998127603165
1001
DBPROPERTIES
1002
{
1000
PbThick
1002
}
  0
ARC
  5
3EF
330
1F
100
AcDbEntity
  8
HIDDEN
100
AcDbCircle
 10
0.0
 20
0.0
 30
0.0
 40
282.0
100
AcDbArc
 50
270.0000187239684
 51
89.99998127603165
1001
DBPROPERTIES
1002
{
1000
PbHidd
1002
}
  0
ARC
  5
3F0
330
1F
100
AcDbEntity
  8
HIDDEN
100
AcDbCircle
 10
0.0
 20
0.0
 30
0.0
 40
282.0
100
AcDbArc
 50
89.99998127603165
 51
270.0000187239684
1001
DBPROPERTIES
1002
{
1000
PbHidd
1002
}
  0
ARC
  5
3F1
330
1F
100
AcDbEntity
  8
THICK
100
AcDbCircle
 10
0.0000000000000007
 20
0.0000000000000013
 30
0.0
 40
327.5
100
AcDbArc
 50
89.99998127603165
 51
180.0000198478428
1001
DBPROPERTIES
1002
{
1000
PbThick
1002
}
  0
ARC
  5
3F2
330
1F
100
AcDbEntity
  8
HIDDEN
100
AcDbCircle
 10
0.0
 20
0.0
 30
0.0
 40
316.5
100
AcDbArc
 50
179.9999801521572
 51
0.0
1001
DBPROPERTIES
1002
{
1000
PbHidd
1002
}
  0
LINE
  5
3F3
330
1F
100
AcDbEntity
  8
THICK
100
AcDbLine
 10
-158.7571089965393
 20
201.3433394510553
 30
0.0
 11
-159.8627825372076
 21
200.4615942255809
 31
0.0
1001
DBPROPERTIES
1002
{
1000
PbThick
1002
}
  0
LINE
  5
3F4
330
1F
100
AcDbEntity
  8
THICK
100
AcDbLine
 10
58.4331242940184
 20
249.6568244347445
 30
0.0
 11
57.05436780112275
 21
249.971516607021
 31
0.0
1001
DBPROPERTIES
1002
{
1000
PbThick
1002
}
  0
LINE
  5
3F5
330
1F
100
AcDbEntity
  8
THICK
100
AcDbLine
 10
231.6220231809779
 20
109.973625862107
 30
0.0
 11
231.0084188443846
 21
111.2477883960726
 31
0.0
1001
DBPROPERTIES
1002
{
1000
PbThick
1002
}
  0
LINE
  5
3F6
330
1F
100
AcDbEntity
  8
THICK
100
AcDbLine
 10
230.3948130715189
 20
-112.5219539124886
 30
0.0
 11
231.0084188443846
 21
-111.2477883960726
 31
0.0
1001
DBPROPERTIES
1002
{
1000
PbThick
1002
}
  0
LINE
  5
3F7
330
1F
100
AcDbEntity
  8
THICK
100
AcDbLine
 10
55.67560965309194
 20
-250.2862091570713
 30
0.0
 11
57.0543678011227
 21
-249.971516607021
 31
0.0
1001
DBPROPERTIES
1002
{
1000
PbThick
1002
}
  0
LINE
  5
3F8
330
1F
100
AcDbEntity
  8
THICK
100
AcDbLine
 10
-160.9684607414232
 20
-199.5798452810517
 30
0.0
 11
-159.8627825372077
 21
-200.4615942255809
 31
0.0
1001
DBPROPERTIES
1002
{
1000
PbThick
1002
}
  0
LINE
  5
3F9
330
1F
100
AcDbEntity
  8
THICK
100
AcDbLine
 10
-256.4
 20
1.414214313030253
 30
0.0
 11
-256.4
 21
0.000000000000021
 31
0.0
1001
DBPROPERTIES
1002
{
1000
PbThick
1002
}
  0
ENDSEC
  0
SECTION
  2
OBJECTS
  0
DICTIONARY
  5
C
330
0
100
AcDbDictionary
  3
ACAD_GROUP
350
D
  3
ACAD_LAYOUT
350
1A
  3
ACAD_MATERIAL
350
43
  3
ACAD_MLEADERSTYLE
350
6B
  3
ACAD_MLINESTYLE
350
17
  3
ACAD_PLOTSETTINGS
350
19
  3
ACAD_SCALELIST
350
47
  3
ACAD_VISUALSTYLE
350
2A
  3
ACDBVARIABLEDICTIONARY
350
3FA
1001
ACAD
1000
TREAT_AS_HARD
1070
     0
  0
DICTIONARY
  5
D
102
{ACAD_REACTORS
330
C
102
}
330
C
100
AcDbDictionary
1001
ACAD
1000
TREAT_AS_HARD
1070
     0
  0
DICTIONARY
  5
1A
102
{ACAD_REACTORS
330
C
102
}
330
C
100
AcDbDictionary
1001
ACAD
1000
TREAT_AS_HARD
1070
     0
  0
DICTIONARY
  5
43
102
{ACAD_REACTORS
330
C
102
}
330
C
100
AcDbDictionary
  3
BYBLOCK
350
45
  3
BYLAYER
350
44
  3
GLOBAL
350
46
1001
ACAD
1000
TREAT_AS_HARD
1070
     0
  0
DICTIONARY
  5
6B
102
{ACAD_REACTORS
330
C
102
}
330
C
100
AcDbDictionary
  3
STANDARD
350
6C
1001
ACAD
1000
TREAT_AS_HARD
1070
     0
  0
DICTIONARY
  5
17
102
{ACAD_REACTORS
330
C
102
}
330
C
100
AcDbDictionary
  3
STANDARD
350
18
1001
ACAD
1000
TREAT_AS_HARD
1070
     0
  0
DICTIONARY
  5
19
102
{ACAD_REACTORS
330
C
102
}
330
C
100
AcDbDictionary
1001
ACAD
1000
TREAT_AS_HARD
1070
     0
  0
DICTIONARY
  5
47
102
{ACAD_REACTORS
330
C
102
}
330
C
100
AcDbDictionary
  3
A0
350
48
  3
A1
350
49
  3
A2
350
4A
  3
A3
350
4B
  3
A4
350
4C
  3
A5
350
4D
  3
A6
350
4E
  3
A7
350
4F
  3
A8
350
50
  3
A9
350
51
  3
B0
350
52
  3
B1
350
53
  3
B2
350
54
  3
B3
350
55
  3
B4
350
56
  3
B5
350
57
  3
B6
350
58
  3
B7
350
59
  3
B8
350
5A
  3
B9
350
5B
  3
C0
350
5C
  3
C1
350
5D
  3
C2
350
5E
  3
C3
350
5F
  3
C4
350
60
  3
C5
350
61
  3
C6
350
62
  3
C7
350
63
  3
C8
350
64
  3
C9
350
65
  3
D0
350
66
  3
D1
350
67
  3
D2
350
68
1001
ACAD
1000
TREAT_AS_HARD
1070
     0
  0
DICTIONARY
  5
2A
102
{ACAD_REACTORS
330
C
102
}
330
C
100
AcDbDictionary
  3
2DWIREFRAME
350
2F
  3
BASIC
350
32
  3
BRIGHTEN
350
36
  3
COLORCHANGE
350
3A
  3
CONCEPTUAL
350
34
  3
DIM
350
35
  3
EDGECOLOROFF
350
3D
  3
FACEPATTERN
350
39
  3
FLAT
350
2B
  3
FLATWITHEDGES
350
2C
  3
GOURAUD
350
2D
  3
GOURAUDWITHEDGES
350
2E
  3
HIDDEN
350
31
  3
JITTEROFF
350
3B
  3
LINEPATTERN
350
38
  3
OVERHANGOFF
350
3C
  3
REALISTIC
350
33
  3
SHADED
350
42
  3
SHADED_WITH_EDGES
350
41
  3
SHADES_OF_GRAY
350
3E
  3
SKETCHY
350
3F
  3
THICKEN
350
37
  3
WIREFRAME
350
30
  3
X-RAY
350
40
1001
ACAD
1000
TREAT_AS_HARD
1070
     0
  0
DICTIONARY
  5
3FA
102
{ACAD_REACTORS
330
C
102
}
330
C
100
AcDbDictionary
  3
CANNOSCALE
350
405
  3
CENTEREXE
350
401
  3
CENTERLTYPEFILE
350
402
  3
CMLEADERSTYLE
350
3FC
  3
CTABLESTYLE
350
3FB
  3
DIMASSOC
350
403
  3
HIDETEXT
350
404
  3
MSLTSCALE
350
406
  3
PSOLHEIGHT
350
3FE
  3
PSOLWIDTH
350
3FD
1001
ACAD
1000
TREAT_AS_HARD
1070
     0
  0
MATERIAL
  5
45
102
{ACAD_REACTORS
330
43
102
}
102
{ACAD_XDICTIONARY
360
409
102
}
330
43
100
AcDbMaterial
  1
BYBLOCK
  0
MATERIAL
  5
44
102
{ACAD_REACTORS
330
43
102
}
102
{ACAD_XDICTIONARY
360
407
102
}
330
43
100
AcDbMaterial
  1
BYLAYER
  0
MATERIAL
  5
46
102
{ACAD_REACTORS
330
43
102
}
102
{ACAD_XDICTIONARY
360
40B
102
}
330
43
100
AcDbMaterial
  1
GLOBAL
  0
ACAD_PROXY_OBJECT
  5
6C
102
{ACAD_REACTORS
330
6B
102
}
330
6B
100
AcDbZombieObject
 90
      499
 91
      505
 93
      610
310
40901902A4063FBFFFFFE0000000000000020400000000000020404214DD185B99185C990000000000000104090141901A00000000000004100000000000000041025764000000000000039000
340
14
340
0
340
11
340
0
 94
        0
1001
ACAD_MLEADERVER
1070
     2
  0
MLINESTYLE
  5
18
102
{ACAD_REACTORS
330
17
102
}
330
17
100
AcDbMlineStyle
  2
Standard
 70
     0
  3

 62
   256
 51
90.0
 52
90.0
 71
     2
 49
0.5
 62
   256
  6
BYLAYER
 49
-0.5
 62
   256
  6
BYLAYER
  0
ACAD_PROXY_OBJECT
  5
48
102
{ACAD_REACTORS
330
47
102
}
330
47
100
AcDbZombieObject
 90
      499
 91
      503
 93
       41
310
903313A31580
  0
ACAD_PROXY_OBJECT
  5
49
102
{ACAD_REACTORS
330
47
102
}
330
47
100
AcDbZombieObject
 90
      499
 91
      503
 93
      105
310
903313A324000000000000004000
  0
ACAD_PROXY_OBJECT
  5
4A
102
{ACAD_REACTORS
330
47
102
}
330
47
100
AcDbZombieObject
 90
      499
 91
      503
 93
      105
310
903313A344000000000000104000
  0
ACAD_PROXY_OBJECT
  5
4B
102
{ACAD_REACTORS
330
47
102
}
330
47
100
AcDbZombieObject
 90
      499
 91
      503
 93
      105
310
903313A354000000000000144000
  0
ACAD_PROXY_OBJECT
  5
4C
102
{ACAD_REACTORS
330
47
102
}
330
47
100
AcDbZombieObject
 90
      499
 91
      503
 93
      105
310
903313A384000000000000204000
  0
ACAD_PROXY_OBJECT
  5
4D
102
{ACAD_REACTORS
330
47
102
}
330
47
100
AcDbZombieObject
 90
      499
 91
      503
 93
      113
310
904313A31304000000000000244000
  0
ACAD_PROXY_OBJECT
  5
4E
102
{ACAD_REACTORS
330
47
102
}
330
47
100
AcDbZombieObject
 90
      499
 91
      503
 93
      113
310
904313A31364000000000000304000
  0
ACAD_PROXY_OBJECT
  5
4F
102
{ACAD_REACTORS
330
47
102
}
330
47
100
AcDbZombieObject
 90
      499
 91
      503
 93
      113
310
904313A32304000000000000344000
  0
ACAD_PROXY_OBJECT
  5
50
102
{ACAD_REACTORS
330
47
102
}
330
47
100
AcDbZombieObject
 90
      499
 91
      503
 93
      113
310
904313A333040000000000003E4000
  0
ACAD_PROXY_OBJECT
  5
51
102
{ACAD_REACTORS
330
47
102
}
330
47
100
AcDbZombieObject
 90
      499
 91
      503
 93
      113
310
904313A34304000000000000444000
  0
ACAD_PROXY_OBJECT
  5
52
102
{ACAD_REACTORS
330
47
102
}
330
47
100
AcDbZombieObject
 90
      499
 91
      503
 93
      113
310
904313A35304000000000000494000
  0
ACAD_PROXY_OBJECT
  5
53
102
{ACAD_REACTORS
330
47
102
}
330
47
100
AcDbZombieObject
 90
      499
 91
      503
 93
      121
310
905313A3130304000000000000594000
  0
ACAD_PROXY_OBJECT
  5
54
102
{ACAD_REACTORS
330
47
102
}
330
47
100
AcDbZombieObject
 90
      499
 91
      503
 93
      105
310
903323A310000000000000010100
  0
ACAD_PROXY_OBJECT
  5
55
102
{ACAD_REACTORS
330
47
102
}
330
47
100
AcDbZombieObject
 90
      499
 91
      503
 93
      105
310
903343A310000000000000410100
  0
ACAD_PROXY_OBJECT
  5
56
102
{ACAD_REACTORS
330
47
102
}
330
47
100
AcDbZombieObject
 90
      499
 91
      503
 93
      105
310
903383A310000000000000810100
  0
ACAD_PROXY_OBJECT
  5
57
102
{ACAD_REACTORS
330
47
102
}
330
47
100
AcDbZombieObject
 90
      499
 91
      503
 93
      113
310
90431303A310000000000000910100
  0
ACAD_PROXY_OBJECT
  5
58
102
{ACAD_REACTORS
330
47
102
}
330
47
100
AcDbZombieObject
 90
      499
 91
      503
 93
      121
310
9053130303A310000000000001650100
  0
ACAD_PROXY_OBJECT
  5
59
102
{ACAD_REACTORS
330
47
102
}
330
47
100
AcDbZombieObject
 90
      499
 91
      503
 93
      257
310
90E312F31323822203D2031272D3022000000000000200FC000000000000284000
  0
ACAD_PROXY_OBJECT
  5
5A
102
{ACAD_REACTORS
330
47
102
}
330
47
100
AcDbZombieObject
 90
      499
 91
      503
 93
      249
310
90D312F363422203D2031272D3022000000000000240FC000000000000284000
  0
ACAD_PROXY_OBJECT
  5
5B
102
{ACAD_REACTORS
330
47
102
}
330
47
100
AcDbZombieObject
 90
      499
 91
      503
 93
      249
310
90D312F333222203D2031272D3022000000000000280FC000000000000284000
  0
ACAD_PROXY_OBJECT
  5
5C
102
{ACAD_REACTORS
330
47
102
}
330
47
100
AcDbZombieObject
 90
      499
 91
      503
 93
      249
310
90D312F313622203D2031272D30220000000000002C0FC000000000000284000
  0
ACAD_PROXY_OBJECT
  5
5D
102
{ACAD_REACTORS
330
47
102
}
330
47
100
AcDbZombieObject
 90
      499
 91
      503
 93
      249
310
90D332F333222203D2031272D30220000000000002E0FC000000000000284000
  0
ACAD_PROXY_OBJECT
  5
5E
102
{ACAD_REACTORS
330
47
102
}
330
47
100
AcDbZombieObject
 90
      499
 91
      503
 93
      241
310
90C312F3822203D2031272D3022000000000000300FC000000000000284000
  0
ACAD_PROXY_OBJECT
  5
5F
102
{ACAD_REACTORS
330
47
102
}
330
47
100
AcDbZombieObject
 90
      499
 91
      503
 93
      249
310
90D332F313622203D2031272D3022000000000000320FC000000000000284000
  0
ACAD_PROXY_OBJECT
  5
60
102
{ACAD_REACTORS
330
47
102
}
330
47
100
AcDbZombieObject
 90
      499
 91
      503
 93
      241
310
90C312F3422203D2031272D3022000000000000340FC000000000000284000
  0
ACAD_PROXY_OBJECT
  5
61
102
{ACAD_REACTORS
330
47
102
}
330
47
100
AcDbZombieObject
 90
      499
 91
      503
 93
      241
310
90C332F3822203D2031272D3022000000000000360FC000000000000284000
  0
ACAD_PROXY_OBJECT
  5
62
102
{ACAD_REACTORS
330
47
102
}
330
47
100
AcDbZombieObject
 90
      499
 91
      503
 93
      241
310
90C312F3222203D2031272D3022000000000000380FC000000000000284000
  0
ACAD_PROXY_OBJECT
  5
63
102
{ACAD_REACTORS
330
47
102
}
330
47
100
AcDbZombieObject
 90
      499
 91
      503
 93
      241
310
90C332F3422203D2031272D30220000000000003A0FC000000000000284000
  0
ACAD_PROXY_OBJECT
  5
64
102
{ACAD_REACTORS
330
47
102
}
330
47
100
AcDbZombieObject
 90
      499
 91
      503
 93
      161
310
90A3122203D2031272D30224000000000000284000
  0
ACAD_PROXY_OBJECT
  5
65
102
{ACAD_REACTORS
330
47
102
}
330
47
100
AcDbZombieObject
 90
      499
 91
      503
 93
      257
310
90E312D312F3222203D2031272D30220000000000003E0FC000000000000284000
  0
ACAD_PROXY_OBJECT
  5
66
102
{ACAD_REACTORS
330
47
102
}
330
47
100
AcDbZombieObject
 90
      499
 91
      503
 93
      225
310
90A3322203D2031272D302200000000000002100000000000000284000
  0
ACAD_PROXY_OBJECT
  5
67
102
{ACAD_REACTORS
330
47
102
}
330
47
100
AcDbZombieObject
 90
      499
 91
      503
 93
      225
310
90A3622203D2031272D302200000000000006100000000000000284000
  0
ACAD_PROXY_OBJECT
  5
68
102
{ACAD_REACTORS
330
47
102
}
330
47
100
AcDbZombieObject
 90
      499
 91
      503
 93
      249
310
90D31272D3022203D2031272D30220000000000000A100000000000000284000
  0
ACAD_PROXY_OBJECT
  5
2F
102
{ACAD_REACTORS
330
2A
102
}
330
2A
100
AcDbZombieObject
 90
      499
 91
      501
 93
      436
310
42CC9915DA5C99599C985B595049028333333333333E33F0000000000000F90107901411070040501600405405064090741402480A0340
1001
ACAD
1000
AcDbSavedByObjectVersion
1070
     0
  0
ACAD_PROXY_OBJECT
  5
32
102
{ACAD_REACTORS
330
2A
102
}
330
2A
100
AcDbZombieObject
 90
      499
 91
      501
 93
      388
310
4150985CDA58D07406404333333333333E33F0000000000000F90107A41107004050150841D405064090741402480A0350
1001
ACAD
1000
AcDbSavedByObjectVersion
1070
     0
  0
ACAD_PROXY_OBJECT
  5
36
102
{ACAD_REACTORS
330
2A
102
}
330
2A
100
AcDbZombieObject
 90
      499
 91
      501
 93
      428
310
42109C9A59DA1D195B90C409028333333333333E33F0000000000000F9010790141107004050150841D405064090741402480A029950
1001
ACAD
1000
AcDbSavedByObjectVersion
1070
     0
  0
ACAD_PROXY_OBJECT
  5
3A
102
{ACAD_REACTORS
330
2A
102
}
330
2A
100
AcDbZombieObject
 90
      499
 91
      501
 93
      452
310
42D0DBDB1BDC90DA185B99D95104090240C333333333333E33F0000000000000F90108901411070040501508421405064090741402480A0350
1001
ACAD
1000
AcDbSavedByObjectVersion
1070
     0
  0
ACAD_PROXY_OBJECT
  5
34
102
{ACAD_REACTORS
330
2A
102
}
330
2A
100
AcDbZombieObject
 90
      499
 91
      501
 93
      500
310
4290DBDB98D95C1D1D585B10940D028333333333333E33F0000000000000F90107902409070040501000000000018199010841D405064090740C02480A0340
1001
ACAD
1000
AcDbSavedByObjectVersion
1070
     0
  0
ACAD_PROXY_OBJECT
  5
35
102
{ACAD_REACTORS
330
2A
102
}
330
2A
100
AcDbZombieObject
 90
      499
 91
      501
 93
      412
310
40D11A5B50B409028333333333333E33F0000000000000F9010790141107004050150841D405064090741402480A02677FFFFFD0
1001
ACAD
1000
AcDbSavedByObjectVersion
1070
     0
  0
ACAD_PROXY_OBJECT
  5
3D
102
{ACAD_REACTORS
330
2A
102
}
330
2A
100
AcDbZombieObject
 90
      499
 91
      501
 93
      452
310
43115919D950DBDB1BDC93D999916409028333333333333E33F0000000000000F9010790141107004050150841D405064090741402480A0350
1001
ACAD
1000
AcDbSavedByObjectVersion
1070
     0
  0
ACAD_PROXY_OBJECT
  5
39
102
{ACAD_REACTORS
330
2A
102
}
330
2A
100
AcDbZombieObject
 90
      499
 91
      501
 93
      444
310
42D19858D95C185D1D195C9B90F409028333333333333E33F0000000000000F9010790141107004050150841D405064090741402480A0350
1001
ACAD
1000
AcDbSavedByObjectVersion
1070
     0
  0
ACAD_PROXY_OBJECT
  5
2B
102
{ACAD_REACTORS
330
2A
102
}
330
2A
100
AcDbZombieObject
 90
      499
 91
      501
 93
      380
310
41119B185D240901404333333333333E33F0000000000000F9010740A907004050150841D405064090741402480A1B50
1001
ACAD
1000
AcDbSavedByObjectVersion
1070
     0
  0
ACAD_PROXY_OBJECT
  5
2C
102
{ACAD_REACTORS
330
2A
102
}
330
2A
100
AcDbZombieObject
 90
      499
 91
      501
 93
      468
310
43519B185D15DA5D1A115919D95CD0140901404333333333333E33F0000000000000F90107409019070040501600405405064090741402480A1B50
1001
ACAD
1000
AcDbSavedByObjectVersion
1070
     0
  0
ACAD_PROXY_OBJECT
  5
2D
102
{ACAD_REACTORS
330
2A
102
}
330
2A
100
AcDbZombieObject
 90
      499
 91
      501
 93
      404
310
41D1DBDD5C985D5910240902404333333333333E33F0000000000000F9010740A9070040501641D405064090741402480A1B50
1001
ACAD
1000
AcDbSavedByObjectVersion
1070
     0
  0
ACAD_PROXY_OBJECT
  5
2E
102
{ACAD_REACTORS
330
2A
102
}
330
2A
100
AcDbZombieObject
 90
      499
 91
      501
 93
      492
310
4411DBDD5C985D5915DA5D1A115919D95CD0340902404333333333333E33F0000000000000F90107409019070040501600405405064090741402480A1B50
1001
ACAD
1000
AcDbSavedByObjectVersion
1070
     0
  0
ACAD_PROXY_OBJECT
  5
31
102
{ACAD_REACTORS
330
2A
102
}
330
2A
100
AcDbZombieObject
 90
      499
 91
      501
 93
      476
310
41921A5919195B90640502408333333333333E33F0000000000000F901079024090700405020000000000001110200405405064090740C02480A0340
1001
ACAD
1000
AcDbSavedByObjectVersion
1070
     0
  0
ACAD_PROXY_OBJECT
  5
3B
102
{ACAD_REACTORS
330
2A
102
}
330
2A
100
AcDbZombieObject
 90
      499
 91
      501
 93
      428
310
42529A5D1D195C93D999914409028333333333333E33F0000000000000F9010790141107004050150A41D405064090741402480A0350
1001
ACAD
1000
AcDbSavedByObjectVersion
1070
     0
  0
ACAD_PROXY_OBJECT
  5
38
102
{ACAD_REACTORS
330
2A
102
}
330
2A
100
AcDbZombieObject
 90
      499
 91
      501
 93
      444
310
42D31A5B995C185D1D195C9B90E409028333333333333E33F0000000000000F9010790141107004050750841D405064090741402483A0350
1001
ACAD
1000
AcDbSavedByObjectVersion
1070
     0
  0
ACAD_PROXY_OBJECT
  5
3C
102
{ACAD_REACTORS
330
2A
102
}
330
2A
100
AcDbZombieObject
 90
      499
 91
      501
 93
      444
310
42D3DD995C9A185B99D3D999915409028333333333333E33F0000000000000F9010790141107004050150941D405064090741402480A0350
1001
ACAD
1000
AcDbSavedByObjectVersion
1070
     0
  0
ACAD_PROXY_OBJECT
  5
33
102
{ACAD_REACTORS
330
2A
102
}
330
2A
100
AcDbZombieObject
 90
      499
 91
      501
 93
      428
310
425499585B1A5CDD1A58D08409038333333333333E33F0000000000000F9010740A907004050150800405405064090740C02480A1B40
1001
ACAD
1000
AcDbSavedByObjectVersion
1070
     0
  0
ACAD_PROXY_OBJECT
  5
42
102
{ACAD_REACTORS
330
2A
102
}
330
2A
100
AcDbZombieObject
 90
      499
 91
      501
 93
      420
310
4194DA1859195911B40902404333333333333E33F0000000000000F9010740A41107004050150800405405064090840C02480A0B40
1001
ACAD
1000
AcDbSavedByObjectVersion
1070
     0
  0
ACAD_PROXY_OBJECT
  5
41
102
{ACAD_REACTORS
330
2A
102
}
330
2A
100
AcDbZombieObject
 90
      499
 91
      501
 93
      516
310
4454DA18591959081DDA5D1A08195919D95CD1A40902404333333333333E33F0000000000000F901074090142907004050250800405405064090740C02480A0B40
1001
ACAD
1000
AcDbSavedByObjectVersion
1070
     0
  0
ACAD_PROXY_OBJECT
  5
3E
102
{ACAD_REACTORS
330
2A
102
}
330
2A
100
AcDbZombieObject
 90
      499
 91
      501
 93
      532
310
4394DA1859195CC81BD98811DC985E5174090240C333333333333E33F0000000000000F901079024090741D01000000000000111010841D405064090740C02480A0340
1001
ACAD
1000
AcDbSavedByObjectVersion
1070
     0
  0
ACAD_PROXY_OBJECT
  5
3F
102
{ACAD_REACTORS
330
2A
102
}
330
2A
100
AcDbZombieObject
 90
      499
 91
      501
 93
      476
310
41D4DAD95D18DA1E51840502408333333333333E33F0000000000000F901079024090741D01000000000000111010B41D405064090741802480A0340
1001
ACAD
1000
AcDbSavedByObjectVersion
1070
     0
  0
ACAD_PROXY_OBJECT
  5
37
102
{ACAD_REACTORS
330
2A
102
}
330
2A
100
AcDbZombieObject
 90
      499
 91
      501
 93
      412
310
41D51A1A58DAD95B90D409028333333333333E33F0000000000000F9010790141107004050150C41D405064090741402480A0350
1001
ACAD
1000
AcDbSavedByObjectVersion
1070
     0
  0
ACAD_PROXY_OBJECT
  5
30
102
{ACAD_REACTORS
330
2A
102
}
330
2A
100
AcDbZombieObject
 90
      499
 91
      501
 93
      420
310
4255DA5C99599C985B595059028333333333333E33F0000000000000F90107901411070040501600405405064090740C02480A0340
1001
ACAD
1000
AcDbSavedByObjectVersion
1070
     0
  0
ACAD_PROXY_OBJECT
  5
40
102
{ACAD_REACTORS
330
2A
102
}
330
2A
100
AcDbZombieObject
 90
      499
 91
      501
 93
      404
310
41560B54985E51940902404000000000000E03F0000000000000F9010740501907004050150841D405064090740C02480A1B40
1001
ACAD
1000
AcDbSavedByObjectVersion
1070
     0
  0
DICTIONARYVAR
  5
405
102
{ACAD_REACTORS
330
3FA
102
}
330
3FA
100
DictionaryVariables
280
     0
  1
1:1
  0
DICTIONARYVAR
  5
401
102
{ACAD_REACTORS
330
3FA
102
}
330
3FA
100
DictionaryVariables
280
     0
  1
3.500000
  0
DICTIONARYVAR
  5
402
102
{ACAD_REACTORS
330
3FA
102
}
330
3FA
100
DictionaryVariables
280
     0
  1
acadiso.lin
  0
DICTIONARYVAR
  5
3FC
102
{ACAD_REACTORS
330
3FA
102
}
330
3FA
100
DictionaryVariables
280
     0
  1
Standard
  0
DICTIONARYVAR
  5
3FB
102
{ACAD_REACTORS
330
3FA
102
}
330
3FA
100
DictionaryVariables
280
     0
  1
Standard
  0
DICTIONARYVAR
  5
403
102
{ACAD_REACTORS
330
3FA
102
}
330
3FA
100
DictionaryVariables
280
     0
  1
2
  0
DICTIONARYVAR
  5
404
102
{ACAD_REACTORS
330
3FA
102
}
330
3FA
100
DictionaryVariables
280
     0
  1
1
  0
DICTIONARYVAR
  5
406
102
{ACAD_REACTORS
330
3FA
102
}
330
3FA
100
DictionaryVariables
280
     0
  1
1
  0
DICTIONARYVAR
  5
3FE
102
{ACAD_REACTORS
330
3FA
102
}
330
3FA
100
DictionaryVariables
280
     0
  1
80.000000
  0
DICTIONARYVAR
  5
3FD
102
{ACAD_REACTORS
330
3FA
102
}
330
3FA
100
DictionaryVariables
280
     0
  1
5.000000
  0
DICTIONARY
  5
409
330
45
100
AcDbDictionary
  3
ACAD_XREC_ROUNDTRIP
360
40A
1001
ACAD
1000
TREAT_AS_HARD
1070
     1
  0
DICTIONARY
  5
407
330
44
100
AcDbDictionary
  3
ACAD_XREC_ROUNDTRIP
360
408
1001
ACAD
1000
TREAT_AS_HARD
1070
     1
  0
DICTIONARY
  5
40B
330
46
100
AcDbDictionary
  3
ACAD_XREC_ROUNDTRIP
360
40C
1001
ACAD
1000
TREAT_AS_HARD
1070
     1
  0
XRECORD
  5
40A
102
{ACAD_REACTORS
330
409
102
}
330
409
100
AcDbXrecord
102
MATERIAL
148
0.0
149
0.0
149
0.0
 93
        0
 94
      127
282
     0
 72
     1
 77
     1
171
     1
175
     1
179
     1
273
     0
  0
XRECORD
  5
408
102
{ACAD_REACTORS
330
407
102
}
330
407
100
AcDbXrecord
102
MATERIAL
148
0.0
149
0.0
149
0.0
 93
        0
 94
      127
282
     0
 72
     1
 77
     1
171
     1
175
     1
179
     1
273
     0
  0
XRECORD
  5
40C
102
{ACAD_REACTORS
330
40B
102
}
330
40B
100
AcDbXrecord
102
MATERIAL
148
0.0
149
0.0
149
0.0
 93
        0
 94
      127
282
     0
 72
     1
 77
     1
171
     1
175
     1
179
     1
273
     0
  0
ENDSEC
  0
EOF
