  0
SECTION
  2
HEADER
  9
$ACADVER
  1
AC1012
  9
$DWGCODEPAGE
  3
ansi_1252
  9
$INSBASE
 10
0.0
 20
0.0
 30
0.0
  9
$EXTMIN
 10
1.000000000000000E+20
 20
1.000000000000000E+20
 30
1.000000000000000E+20
  9
$EXTMAX
 10
-1.000000000000000E+20
 20
-1.000000000000000E+20
 30
-1.000000000000000E+20
  9
$LIMMIN
 10
0.0
 20
0.0
  9
$LIMMAX
 10
420.0
 20
297.0
  9
$ORTHOMODE
 70
     0
  9
$REGENMODE
 70
     1
  9
$FILLMODE
 70
     1
  9
$QTEXTMODE
 70
     0
  9
$MIRRTEXT
 70
     1
  9
$DRAGMODE
 70
     2
  9
$LTSCALE
 40
1.0
  9
$OSMODE
 70
    37
  9
$ATTMODE
 70
     1
  9
$TEXTSIZE
 40
2.5
  9
$TRACEWID
 40
1.0
  9
$TEXTSTYLE
  7
STANDARD
  9
$CLAYER
  8
0
  9
$CELTYPE
  6
BYLAYER
  9
$CECOLOR
 62
   256
  9
$CELTSCALE
 40
1.0
  9
$DELOBJ
 70
     1
  9
$DISPSILH
 70
     0
  9
$DIMSCALE
 40
1.0
  9
$DIMASZ
 40
2.5
  9
$DIMEXO
 40
0.625
  9
$DIMDLI
 40
3.75
  9
$DIMRND
 40
0.0
  9
$DIMDLE
 40
0.0
  9
$DIMEXE
 40
1.25
  9
$DIMTP
 40
0.0
  9
$DIMTM
 40
0.0
  9
$DIMTXT
 40
2.5
  9
$DIMCEN
 40
2.5
  9
$DIMTSZ
 40
0.0
  9
$DIMTOL
 70
     0
  9
$DIMLIM
 70
     0
  9
$DIMTIH
 70
     0
  9
$DIMTOH
 70
     0
  9
$DIMSE1
 70
     0
  9
$DIMSE2
 70
     0
  9
$DIMTAD
 70
     1
  9
$DIMZIN
 70
     8
  9
$DIMBLK
  1

  9
$DIMASO
 70
     1
  9
$DIMSHO
 70
     1
  9
$DIMPOST
  1

  9
$DIMAPOST
  1

  9
$DIMALT
 70
     0
  9
$DIMALTD
 70
     3
  9
$DIMALTF
 40
0.03937007874016
  9
$DIMLFAC
 40
1.0
  9
$DIMTOFL
 70
     1
  9
$DIMTVP
 40
0.0
  9
$DIMTIX
 70
     0
  9
$DIMSOXD
 70
     0
  9
$DIMSAH
 70
     0
  9
$DIMBLK1
  1

  9
$DIMBLK2
  1

  9
$DIMSTYLE
  2
ISO-25
  9
$DIMCLRD
 70
     0
  9
$DIMCLRE
 70
     0
  9
$DIMCLRT
 70
     0
  9
$DIMTFAC
 40
1.0
  9
$DIMGAP
 40
0.625
  9
$DIMJUST
 70
     0
  9
$DIMSD1
 70
     0
  9
$DIMSD2
 70
     0
  9
$DIMTOLJ
 70
     0
  9
$DIMTZIN
 70
     8
  9
$DIMALTZ
 70
     0
  9
$DIMALTTZ
 70
     0
  9
$DIMFIT
 70
     3
  9
$DIMUPT
 70
     0
  9
$DIMUNIT
 70
     2
  9
$DIMDEC
 70
     2
  9
$DIMTDEC
 70
     2
  9
$DIMALTU
 70
     2
  9
$DIMALTTD
 70
     3
  9
$DIMTXSTY
  7
STANDARD
  9
$DIMAUNIT
 70
     0
  9
$LUNITS
 70
     2
  9
$LUPREC
 70
     4
  9
$SKETCHINC
 40
1.0
  9
$FILLETRAD
 40
10.0
  9
$AUNITS
 70
     0
  9
$AUPREC
 70
     0
  9
$MENU
  1
.
  9
$ELEVATION
 40
0.0
  9
$PELEVATION
 40
0.0
  9
$THICKNESS
 40
0.0
  9
$LIMCHECK
 70
     0
  9
$CHAMFERA
 40
0.0
  9
$CHAMFERB
 40
0.0
  9
$CHAMFERC
 40
0.0
  9
$CHAMFERD
 40
0.0
  9
$SKPOLY
 70
     0
  9
$TDCREATE
 40
2457980.602219583
  9
$TDUPDATE
 40
2457980.602222106
  9
$TDINDWG
 40
0.0000000116
  9
$TDUSRTIMER
 40
0.0000000116
  9
$USRTIMER
 70
     1
  9
$ANGBASE
 50
0.0
  9
$ANGDIR
 70
     0
  9
$PDMODE
 70
     0
  9
$PDSIZE
 40
0.0
  9
$PLINEWID
 40
0.0
  9
$COORDS
 70
     1
  9
$SPLFRAME
 70
     0
  9
$SPLINETYPE
 70
     6
  9
$SPLINESEGS
 70
     8
  9
$ATTDIA
 70
     0
  9
$ATTREQ
 70
     1
  9
$HANDLING
 70
     1
  9
$HANDSEED
  5
49A
  9
$SURFTAB1
 70
     6
  9
$SURFTAB2
 70
     6
  9
$SURFTYPE
 70
     6
  9
$SURFU
 70
     6
  9
$SURFV
 70
     6
  9
$UCSNAME
  2

  9
$UCSORG
 10
0.0
 20
0.0
 30
0.0
  9
$UCSXDIR
 10
1.0
 20
0.0
 30
0.0
  9
$UCSYDIR
 10
0.0
 20
1.0
 30
0.0
  9
$PUCSNAME
  2

  9
$PUCSORG
 10
0.0
 20
0.0
 30
0.0
  9
$PUCSXDIR
 10
1.0
 20
0.0
 30
0.0
  9
$PUCSYDIR
 10
0.0
 20
1.0
 30
0.0
  9
$USERI1
 70
     0
  9
$USERI2
 70
     0
  9
$USERI3
 70
     0
  9
$USERI4
 70
     0
  9
$USERI5
 70
     0
  9
$USERR1
 40
0.0
  9
$USERR2
 40
0.0
  9
$USERR3
 40
0.0
  9
$USERR4
 40
0.0
  9
$USERR5
 40
0.0
  9
$WORLDVIEW
 70
     1
  9
$SHADEDGE
 70
     3
  9
$SHADEDIF
 70
    70
  9
$TILEMODE
 70
     1
  9
$MAXACTVP
 70
    64
  9
$PINSBASE
 10
0.0
 20
0.0
 30
0.0
  9
$PLIMCHECK
 70
     0
  9
$PEXTMIN
 10
1.000000000000000E+20
 20
1.000000000000000E+20
 30
1.000000000000000E+20
  9
$PEXTMAX
 10
-1.000000000000000E+20
 20
-1.000000000000000E+20
 30
-1.000000000000000E+20
  9
$PLIMMIN
 10
0.0
 20
0.0
  9
$PLIMMAX
 10
420.0
 20
297.0
  9
$UNITMODE
 70
     0
  9
$VISRETAIN
 70
     1
  9
$PLINEGEN
 70
     0
  9
$PSLTSCALE
 70
     1
  9
$TREEDEPTH
 70
  3020
  9
$PICKSTYLE
 70
     1
  9
$CMLSTYLE
  2
STANDARD
  9
$CMLJUST
 70
     0
  9
$CMLSCALE
 40
20.0
  9
$SAVEIMAGES
 70
     1
  0
ENDSEC
  0
SECTION
  2
CLASSES
  0
CLASS
  1
ACDBDICTIONARYWDFLT
  2
AcDbDictionaryWithDefault
  3
ObjectDBX Classes
 90
    32768
280
     0
281
     0
  0
CLASS
  1
VISUALSTYLE
  2
AcDbVisualStyle
  3
ObjectDBX Classes
 90
     4095
280
     0
281
     0
  0
CLASS
  1
MATERIAL
  2
AcDbMaterial
  3
ObjectDBX Classes
 90
     1153
280
     0
281
     0
  0
CLASS
  1
SCALE
  2
AcDbScale
  3
ObjectDBX Classes
 90
     1153
280
     0
281
     0
  0
CLASS
  1
TABLESTYLE
  2
AcDbTableStyle
  3
ObjectDBX Classes
 90
     4095
280
     0
281
     0
  0
CLASS
  1
MLEADERSTYLE
  2
AcDbMLeaderStyle
  3
ACDB_MLEADERSTYLE_CLASS
 90
     4095
280
     0
281
     0
  0
CLASS
  1
SUN
  2
AcDbSun
  3
SCENEOE
 90
     1153
280
     0
281
     0
  0
CLASS
  1
DICTIONARYVAR
  2
AcDbDictionaryVar
  3
ObjectDBX Classes
 90
        0
280
     0
281
     0
  0
CLASS
  1
XRECORD
  2
AcDbXrecord
  3
ObjectDBX Classes
 90
    32768
280
     0
281
     0
  0
CLASS
  1
LWPOLYLINE
  2
AcDbPolyline
  3
ObjectDBX Classes
 90
    32768
280
     0
281
     1
  0
CLASS
  1
HATCH
  2
AcDbHatch
  3
ObjectDBX Classes
 90
    32768
280
     0
281
     1
  0
CLASS
  1
ACDBPLACEHOLDER
  2
AcDbPlaceHolder
  3
ObjectDBX Classes
 90
        0
280
     0
281
     0
  0
CLASS
  1
LAYOUT
  2
AcDbLayout
  3
ObjectDBX Classes
 90
        0
280
     0
281
     0
  0
ENDSEC
  0
SECTION
  2
TABLES
  0
TABLE
  2
VPORT
  5
8
330
0
100
AcDbSymbolTable
 70
     1
  0
VPORT
  5
29
330
8
100
AcDbSymbolTableRecord
100
AcDbViewportTableRecord
  2
*ACTIVE
 70
     0
 10
0.0
 20
0.0
 11
1.0
 21
1.0
 12
0.0
 22
0.0
 13
0.0
 23
0.0
 14
10.0
 24
10.0
 15
10.0
 25
10.0
 16
0.0
 26
0.0
 36
1.0
 17
0.0000000000000568
 27
0.0
 37
0.0
 40
496.74
 41
0.9999999999999999
 42
50.0
 43
0.0
 44
0.0
 50
0.0
 51
0.0
 71
     0
 72
   100
 73
     1
 74
     3
 75
     0
 76
     0
 77
     0
 78
     0
  0
ENDTAB
  0
TABLE
  2
LTYPE
  5
5
330
0
100
AcDbSymbolTable
 70
     1
  0
LTYPE
  5
14
330
5
100
AcDbSymbolTableRecord
100
AcDbLinetypeTableRecord
  2
BYBLOCK
 70
     0
  3

 72
    65
 73
     0
 40
0.0
  0
LTYPE
  5
15
330
5
100
AcDbSymbolTableRecord
100
AcDbLinetypeTableRecord
  2
BYLAYER
 70
     0
  3

 72
    65
 73
     0
 40
0.0
  0
LTYPE
  5
16
330
5
100
AcDbSymbolTableRecord
100
AcDbLinetypeTableRecord
  2
CONTINUOUS
 70
     0
  3
Solid line
 72
    65
 73
     0
 40
0.0
  0
ENDTAB
  0
TABLE
  2
LAYER
  5
2
330
0
100
AcDbSymbolTable
 70
     4
  0
LAYER
  5
10
330
2
100
AcDbSymbolTableRecord
100
AcDbLayerTableRecord
  2
0
 70
     0
 62
     7
  6
CONTINUOUS
  0
LAYER
  5
6E
330
2
100
AcDbSymbolTableRecord
100
AcDbLayerTableRecord
  2
THICK
 70
     0
 62
     7
  6
CONTINUOUS
  0
LAYER
  5
6F
330
2
100
AcDbSymbolTableRecord
100
AcDbLayerTableRecord
  2
HIDDEN
 70
     0
 62
     7
  6
CONTINUOUS
  0
LAYER
  5
70
330
2
100
AcDbSymbolTableRecord
100
AcDbLayerTableRecord
  2
HASHLINES
 70
     0
 62
     7
  6
CONTINUOUS
  0
ENDTAB
  0
TABLE
  2
STYLE
  5
3
330
0
100
AcDbSymbolTable
 70
     1
  0
STYLE
  5
11
330
3
100
AcDbSymbolTableRecord
100
AcDbTextStyleTableRecord
  2
STANDARD
 70
     0
 40
0.0
 41
1.0
 50
0.0
 71
     0
 42
2.5
  3
txt
  4

  0
ENDTAB
  0
TABLE
  2
VIEW
  5
6
330
0
100
AcDbSymbolTable
 70
     0
  0
ENDTAB
  0
TABLE
  2
UCS
  5
7
330
0
100
AcDbSymbolTable
 70
     0
  0
ENDTAB
  0
TABLE
  2
APPID
  5
9
330
0
100
AcDbSymbolTable
 70
     3
  0
APPID
  5
12
330
9
100
AcDbSymbolTableRecord
100
AcDbRegAppTableRecord
  2
ACAD
 70
     0
  0
APPID
  5
71
330
9
100
AcDbSymbolTableRecord
100
AcDbRegAppTableRecord
  2
DBPROPERTIES
 70
     0
  0
APPID
  5
499
330
9
100
AcDbSymbolTableRecord
100
AcDbRegAppTableRecord
  2
ACAD_MLEADERVER
 70
     0
  0
ENDTAB
  0
TABLE
  2
DIMSTYLE
  5
A
330
0
100
AcDbSymbolTable
 70
     1
  0
DIMSTYLE
105
27
330
A
100
AcDbSymbolTableRecord
100
AcDbDimStyleTableRecord
  2
ISO-25
 70
     0
  3

  4

  5

  6

  7

 40
1.0
 41
2.5
 42
0.625
 43
3.75
 44
1.25
 45
0.0
 46
0.0
 47
0.0
 48
0.0
140
2.5
141
2.5
142
0.0
143
0.03937007874016
144
1.0
145
0.0
146
1.0
147
0.625
 71
     0
 72
     0
 73
     0
 74
     0
 75
     0
 76
     0
 77
     1
 78
     8
170
     0
171
     3
172
     1
173
     0
174
     0
175
     0
176
     0
177
     0
178
     0
270
     2
271
     2
272
     2
273
     2
274
     3
340
11
275
     0
280
     0
281
     0
282
     0
283
     0
284
     8
285
     0
286
     0
287
     3
288
     0
  0
ENDTAB
  0
TABLE
  2
BLOCK_RECORD
  5
1
330
0
100
AcDbSymbolTable
 70
     0
  0
BLOCK_RECORD
  5
1F
330
1
100
AcDbSymbolTableRecord
100
AcDbBlockTableRecord
  2
*MODEL_SPACE
  0
BLOCK_RECORD
  5
1B
330
1
100
AcDbSymbolTableRecord
100
AcDbBlockTableRecord
  2
*PAPER_SPACE
  0
ENDTAB
  0
ENDSEC
  0
SECTION
  2
BLOCKS
  0
BLOCK
  5
20
330
1F
100
AcDbEntity
  8
0
100
AcDbBlockBegin
  2
*MODEL_SPACE
 70
     0
 10
0.0
 20
0.0
 30
0.0
  3
*MODEL_SPACE
  1

  0
ENDBLK
  5
21
330
1F
100
AcDbEntity
  8
0
100
AcDbBlockEnd
  0
BLOCK
  5
1C
330
1B
100
AcDbEntity
 67
     1
  8
0
100
AcDbBlockBegin
  2
*PAPER_SPACE
 70
     0
 10
0.0
 20
0.0
 30
0.0
  3
*PAPER_SPACE
  1

  0
ENDBLK
  5
1D
330
1B
100
AcDbEntity
 67
     1
  8
0
100
AcDbBlockEnd
  0
ENDSEC
  0
SECTION
  2
ENTITIES
  0
ARC
  5
72
330
1F
100
AcDbEntity
  8
THICK
100
AcDbCircle
 10
0.0
 20
0.0
 30
0.0
 40
232.5
100
AcDbArc
 50
180.0000198478428
 51
270.0000187239684
1001
DBPROPERTIES
1002
{
1000
PbThick
1002
}
  0
ARC
  5
73
330
1F
100
AcDbEntity
  8
THICK
100
AcDbCircle
 10
0.0
 20
0.0
 30
0.0
 40
232.5
100
AcDbArc
 50
270.0000187239684
 51
0.0
1001
DBPROPERTIES
1002
{
1000
PbThick
1002
}
  0
ARC
  5
74
330
1F
100
AcDbEntity
  8
THICK
100
AcDbCircle
 10
0.0
 20
0.0
 30
0.0
 40
232.5
100
AcDbArc
 50
0.0
 51
180.0000198478428
1001
DBPROPERTIES
1002
{
1000
PbThick
1002
}
  0
ARC
  5
75
330
1F
100
AcDbEntity
  8
THICK
100
AcDbCircle
 10
159.0990257669732
 20
159.0990257669731
 30
0.0
 40
5.999999999999999
100
AcDbArc
 50
225.0000280859525
 51
44.99999063801582
1001
DBPROPERTIES
1002
{
1000
PbThick
1002
}
  0
ARC
  5
76
330
1F
100
AcDbEntity
  8
THICK
100
AcDbCircle
 10
159.0990257669732
 20
159.0990257669731
 30
0.0
 40
5.999999999999999
100
AcDbArc
 50
44.99999063801582
 51
225.0000280859525
1001
DBPROPERTIES
1002
{
1000
PbThick
1002
}
  0
ARC
  5
77
330
1F
100
AcDbEntity
  8
THICK
100
AcDbCircle
 10
225.0
 20
-0.0000000000000551
 30
0.0
 40
6.0
100
AcDbArc
 50
180.0000198478428
 51
0.0
1001
DBPROPERTIES
1002
{
1000
PbThick
1002
}
  0
ARC
  5
78
330
1F
100
AcDbEntity
  8
THICK
100
AcDbCircle
 10
225.0
 20
-0.0000000000000551
 30
0.0
 40
6.0
100
AcDbArc
 50
0.0
 51
180.0000198478428
1001
DBPROPERTIES
1002
{
1000
PbThick
1002
}
  0
ARC
  5
79
330
1F
100
AcDbEntity
  8
THICK
100
AcDbCircle
 10
159.0990257669732
 20
-159.0990257669732
 30
0.0
 40
6.0
100
AcDbArc
 50
134.9999719140475
 51
315.0000093619842
1001
DBPROPERTIES
1002
{
1000
PbThick
1002
}
  0
ARC
  5
7A
330
1F
100
AcDbEntity
  8
THICK
100
AcDbCircle
 10
159.0990257669732
 20
-159.0990257669732
 30
0.0
 40
6.0
100
AcDbArc
 50
315.0000093619842
 51
134.9999719140475
1001
DBPROPERTIES
1002
{
1000
PbThick
1002
}
  0
ARC
  5
7B
330
1F
100
AcDbEntity
  8
THICK
100
AcDbCircle
 10
-0.0000000000000413
 20
-225.0
 30
0.0
 40
6.0
100
AcDbArc
 50
89.99998127603165
 51
270.0000187239684
1001
DBPROPERTIES
1002
{
1000
PbThick
1002
}
  0
ARC
  5
7C
330
1F
100
AcDbEntity
  8
THICK
100
AcDbCircle
 10
-0.0000000000000413
 20
-225.0
 30
0.0
 40
6.0
100
AcDbArc
 50
270.0000187239684
 51
89.99998127603165
1001
DBPROPERTIES
1002
{
1000
PbThick
1002
}
  0
ARC
  5
7D
330
1F
100
AcDbEntity
  8
THICK
100
AcDbCircle
 10
-159.0990257669732
 20
-159.0990257669732
 30
0.0
 40
5.999999999999999
100
AcDbArc
 50
44.99999063801582
 51
225.0000280859525
1001
DBPROPERTIES
1002
{
1000
PbThick
1002
}
  0
ARC
  5
7E
330
1F
100
AcDbEntity
  8
THICK
100
AcDbCircle
 10
-159.0990257669732
 20
-159.0990257669732
 30
0.0
 40
5.999999999999999
100
AcDbArc
 50
225.0000280859525
 51
44.99999063801582
1001
DBPROPERTIES
1002
{
1000
PbThick
1002
}
  0
ARC
  5
7F
330
1F
100
AcDbEntity
  8
THICK
100
AcDbCircle
 10
-225.0
 20
0.0000000000000276
 30
0.0
 40
6.0
100
AcDbArc
 50
0.0
 51
180.0000198478428
1001
DBPROPERTIES
1002
{
1000
PbThick
1002
}
  0
ARC
  5
80
330
1F
100
AcDbEntity
  8
THICK
100
AcDbCircle
 10
-225.0
 20
0.0000000000000276
 30
0.0
 40
6.0
100
AcDbArc
 50
180.0000198478428
 51
0.0
1001
DBPROPERTIES
1002
{
1000
PbThick
1002
}
  0
ARC
  5
81
330
1F
100
AcDbEntity
  8
THICK
100
AcDbCircle
 10
-159.0990257669732
 20
159.0990257669732
 30
0.0
 40
5.999999999999999
100
AcDbArc
 50
315.0000093619842
 51
134.9999719140475
1001
DBPROPERTIES
1002
{
1000
PbThick
1002
}
  0
ARC
  5
82
330
1F
100
AcDbEntity
  8
THICK
100
AcDbCircle
 10
-159.0990257669732
 20
159.0990257669732
 30
0.0
 40
5.999999999999999
100
AcDbArc
 50
134.9999719140475
 51
315.0000093619842
1001
DBPROPERTIES
1002
{
1000
PbThick
1002
}
  0
ARC
  5
83
330
1F
100
AcDbEntity
  8
THICK
100
AcDbCircle
 10
0.0000000000000138
 20
225.0
 30
0.0
 40
6.0
100
AcDbArc
 50
270.0000187239684
 51
89.99998127603165
1001
DBPROPERTIES
1002
{
1000
PbThick
1002
}
  0
ARC
  5
84
330
1F
100
AcDbEntity
  8
THICK
100
AcDbCircle
 10
0.0000000000000138
 20
225.0
 30
0.0
 40
6.0
100
AcDbArc
 50
89.99998127603165
 51
270.0000187239684
1001
DBPROPERTIES
1002
{
1000
PbThick
1002
}
  0
ARC
  5
85
330
1F
100
AcDbEntity
  8
THICK
100
AcDbCircle
 10
0.0
 20
0.0
 30
0.0
 40
200.0
100
AcDbArc
 50
270.0000187239684
 51
89.99998127603165
1001
DBPROPERTIES
1002
{
1000
PbThick
1002
}
  0
ARC
  5
86
330
1F
100
AcDbEntity
  8
THICK
100
AcDbCircle
 10
0.0
 20
0.0
 30
0.0
 40
200.0
100
AcDbArc
 50
89.99998127603165
 51
270.0000187239684
1001
DBPROPERTIES
1002
{
1000
PbThick
1002
}
  0
ARC
  5
87
330
1F
100
AcDbEntity
  8
THICK
100
AcDbCircle
 10
0.0000000000000007
 20
0.0
 30
0.0
 40
66.66666666666667
100
AcDbArc
 50
270.0000187239684
 51
300.4693986070099
1001
DBPROPERTIES
1002
{
1000
PbThick
1002
}
  0
ELLIPSE
  5
88
330
1F
100
AcDbEntity
  8
HIDDEN
100
AcDbEllipse
 10
0.0
 20
0.0
 30
0.0
 11
-64.99519414545492
 21
14.834728930421
 31
0.0
210
0.0
220
0.0
230
1.0
 40
0.9999999999999998
 41
-1.346396851538483
 42
-1.218557541697831
1001
DBPROPERTIES
1002
{
1000
PbHidd
1002
}
  0
ARC
  5
89
330
1F
100
AcDbEntity
  8
HIDDEN
100
AcDbCircle
 10
0.0000000000000007
 20
0.0
 30
0.0
 40
66.66666666666667
100
AcDbArc
 50
251.6103653314494
 51
252.1333612068448
1001
DBPROPERTIES
1002
{
1000
PbHidd
1002
}
  0
ARC
  5
8A
330
1F
100
AcDbEntity
  8
THICK
100
AcDbCircle
 10
0.0000000000000007
 20
0.0
 30
0.0
 40
66.66666666666667
100
AcDbArc
 50
252.1333612068448
 51
270.0000187239684
1001
DBPROPERTIES
1002
{
1000
PbThick
1002
}
  0
ELLIPSE
  5
8B
330
1F
100
AcDbEntity
  8
HIDDEN
100
AcDbEllipse
 10
0.0
 20
0.0
 30
0.0
 11
-52.122098831202
 21
41.56598679058226
 31
0.0
210
0.0
220
0.0
230
1.0
 40
0.9999999999999998
 41
1.878187988196086
 42
1.923035111891962
1001
DBPROPERTIES
1002
{
1000
PbHidd
1002
}
  0
ARC
  5
8C
330
1F
100
AcDbEntity
  8
HIDDEN
100
AcDbCircle
 10
0.0000000000000007
 20
0.0
 30
0.0
 40
66.66666666666667
100
AcDbArc
 50
200.1817882320658
 51
200.7047841074612
1001
DBPROPERTIES
1002
{
1000
PbHidd
1002
}
  0
ARC
  5
8D
330
1F
100
AcDbEntity
  8
THICK
100
AcDbCircle
 10
0.0000000000000007
 20
0.0
 30
0.0
 40
66.66666666666667
100
AcDbArc
 50
200.7047841074612
 51
249.0408215076263
1001
DBPROPERTIES
1002
{
1000
PbThick
1002
}
  0
ELLIPSE
  5
8E
330
1F
100
AcDbEntity
  8
HIDDEN
100
AcDbEllipse
 10
0.0
 20
0.0
 30
0.0
 11
4.082021179407924E-15
 21
66.66666666666667
 31
0.0
210
0.0
220
0.0
230
1.0
 40
1.0
 41
1.878187988196086
 42
1.923035111891962
1001
DBPROPERTIES
1002
{
1000
PbHidd
1002
}
  0
ARC
  5
8F
330
1F
100
AcDbEntity
  8
THICK
100
AcDbCircle
 10
0.0000000000000007
 20
0.0
 30
0.0
 40
66.66666666666667
100
AcDbArc
 50
180.0000198478428
 51
197.6122444082426
1001
DBPROPERTIES
1002
{
1000
PbThick
1002
}
  0
ARC
  5
90
330
1F
100
AcDbEntity
  8
HIDDEN
100
AcDbCircle
 10
0.0000000000000007
 20
0.0
 30
0.0
 40
66.66666666666667
100
AcDbArc
 50
148.7532508283678
 51
149.2762467037632
1001
DBPROPERTIES
1002
{
1000
PbHidd
1002
}
  0
ARC
  5
91
330
1F
100
AcDbEntity
  8
THICK
100
AcDbCircle
 10
0.0000000000000007
 20
0.0
 30
0.0
 40
66.66666666666667
100
AcDbArc
 50
149.2762467037632
 51
180.0000198478428
1001
DBPROPERTIES
1002
{
1000
PbThick
1002
}
  0
ELLIPSE
  5
92
330
1F
100
AcDbEntity
  8
HIDDEN
100
AcDbEllipse
 10
0.0
 20
0.0
 30
0.0
 11
52.122098831202
 21
41.56598679058224
 31
0.0
210
0.0
220
0.0
230
1.0
 40
1.0
 41
1.878187988196086
 42
1.923035111891962
1001
DBPROPERTIES
1002
{
1000
PbHidd
1002
}
  0
ARC
  5
93
330
1F
100
AcDbEntity
  8
HIDDEN
100
AcDbCircle
 10
0.0000000000000007
 20
0.0
 30
0.0
 40
66.66666666666667
100
AcDbArc
 50
97.3246737289841
 51
97.84766960437952
1001
DBPROPERTIES
1002
{
1000
PbHidd
1002
}
  0
ARC
  5
94
330
1F
100
AcDbEntity
  8
THICK
100
AcDbCircle
 10
0.0000000000000007
 20
0.0
 30
0.0
 40
66.66666666666667
100
AcDbArc
 50
97.84766960437952
 51
146.183649708765
1001
DBPROPERTIES
1002
{
1000
PbThick
1002
}
  0
ARC
  5
95
330
1F
100
AcDbEntity
  8
HIDDEN
100
AcDbCircle
 10
0.0000000000000007
 20
0.0
 30
0.0
 40
66.66666666666667
100
AcDbArc
 50
45.89609662960044
 51
46.41909250499585
1001
DBPROPERTIES
1002
{
1000
PbHidd
1002
}
  0
ARC
  5
96
330
1F
100
AcDbEntity
  8
THICK
100
AcDbCircle
 10
0.0000000000000007
 20
0.0
 30
0.0
 40
66.66666666666667
100
AcDbArc
 50
46.41909250499585
 51
89.99998127603165
1001
DBPROPERTIES
1002
{
1000
PbThick
1002
}
  0
ELLIPSE
  5
97
330
1F
100
AcDbEntity
  8
HIDDEN
100
AcDbEllipse
 10
0.0
 20
0.0
 30
0.0
 11
-28.92558260783719
 21
60.0645911934946
 31
0.0
210
0.0
220
0.0
230
1.0
 40
1.0
 41
-1.263404665393707
 42
-1.218557541697832
1001
DBPROPERTIES
1002
{
1000
PbHidd
1002
}
  0
ARC
  5
98
330
1F
100
AcDbEntity
  8
THICK
100
AcDbCircle
 10
0.0000000000000007
 20
0.0
 30
0.0
 40
66.66666666666667
100
AcDbArc
 50
0.0
 51
43.32655280577723
1001
DBPROPERTIES
1002
{
1000
PbThick
1002
}
  0
ARC
  5
99
330
1F
100
AcDbEntity
  8
HIDDEN
100
AcDbCircle
 10
0.0000000000000007
 20
0.0
 30
0.0
 40
66.66666666666667
100
AcDbArc
 50
354.4675195302167
 51
354.9905154056122
1001
DBPROPERTIES
1002
{
1000
PbHidd
1002
}
  0
ARC
  5
9A
330
1F
100
AcDbEntity
  8
THICK
100
AcDbCircle
 10
0.0000000000000007
 20
0.0
 30
0.0
 40
66.66666666666667
100
AcDbArc
 50
354.9905154056122
 51
0.0
1001
DBPROPERTIES
1002
{
1000
PbThick
1002
}
  0
ELLIPSE
  5
9B
330
1F
100
AcDbEntity
  8
HIDDEN
100
AcDbEllipse
 10
0.0
 20
0.0
 30
0.0
 11
60.06459119349465
 21
-28.92558260783724
 31
0.0
210
0.0
220
0.0
230
1.0
 40
0.9999999999999998
 41
0.3073916614011897
 42
0.3522387850970656
1001
DBPROPERTIES
1002
{
1000
PbHidd
1002
}
  0
ARC
  5
9C
330
1F
100
AcDbEntity
  8
HIDDEN
100
AcDbCircle
 10
0.0000000000000007
 20
0.0
 30
0.0
 40
66.66666666666667
100
AcDbArc
 50
303.0389424308331
 51
303.5619383062285
1001
DBPROPERTIES
1002
{
1000
PbHidd
1002
}
  0
ARC
  5
9D
330
1F
100
AcDbEntity
  8
THICK
100
AcDbCircle
 10
0.0000000000000007
 20
0.0
 30
0.0
 40
66.66666666666667
100
AcDbArc
 50
303.5619383062285
 51
351.8979757063935
1001
DBPROPERTIES
1002
{
1000
PbThick
1002
}
  0
ELLIPSE
  5
9E
330
1F
100
AcDbEntity
  8
HIDDEN
100
AcDbEllipse
 10
0.0
 20
0.0
 30
0.0
 11
14.83472893042096
 21
-64.99519414545493
 31
0.0
210
0.0
220
0.0
230
1.0
 40
0.9999999999999998
 41
-0.2243994752564138
 42
0.352238785097065
1001
DBPROPERTIES
1002
{
1000
PbHidd
1002
}
  0
ARC
  5
9F
330
1F
100
AcDbEntity
  8
THICK
100
AcDbCircle
 10
0.0
 20
0.0
 30
0.0
 40
55.66666666666667
100
AcDbArc
 50
0.0
 51
89.99998127603165
1001
DBPROPERTIES
1002
{
1000
PbThick
1002
}
  0
LINE
  5
A0
330
1F
100
AcDbEntity
  8
THICK
100
AcDbLine
 10
48.49700927734375
 20
45.74368286132812
 30
0.0
 11
48.25965118408203
 21
45.98711776733398
 31
0.0
1001
DBPROPERTIES
1002
{
1000
PbThick
1002
}
  0
LINE
  5
A1
330
1F
100
AcDbEntity
  8
THICK
100
AcDbLine
 10
48.25965118408203
 20
45.98711776733398
 30
0.0
 11
48.00741195678711
 21
46.22952651977539
 31
0.0
1001
DBPROPERTIES
1002
{
1000
PbThick
1002
}
  0
LINE
  5
A2
330
1F
100
AcDbEntity
  8
THICK
100
AcDbLine
 10
48.00741195678711
 20
46.22952651977539
 30
0.0
 11
47.74088287353516
 21
46.46934509277344
 31
0.0
1001
DBPROPERTIES
1002
{
1000
PbThick
1002
}
  0
LINE
  5
A3
330
1F
100
AcDbEntity
  8
THICK
100
AcDbLine
 10
47.74088287353516
 20
46.46934509277344
 30
0.0
 11
47.46094131469727
 21
46.70522689819336
 31
0.0
1001
DBPROPERTIES
1002
{
1000
PbThick
1002
}
  0
LINE
  5
A4
330
1F
100
AcDbEntity
  8
THICK
100
AcDbLine
 10
47.46094131469727
 20
46.70522689819336
 30
0.0
 11
47.16852569580078
 21
46.93587875366211
 31
0.0
1001
DBPROPERTIES
1002
{
1000
PbThick
1002
}
  0
LINE
  5
A5
330
1F
100
AcDbEntity
  8
THICK
100
AcDbLine
 10
47.16852569580078
 20
46.93587875366211
 30
0.0
 11
46.86492538452148
 21
47.1602783203125
 31
0.0
1001
DBPROPERTIES
1002
{
1000
PbThick
1002
}
  0
LINE
  5
A6
330
1F
100
AcDbEntity
  8
THICK
100
AcDbLine
 10
46.86492538452148
 20
47.1602783203125
 30
0.0
 11
46.72269058227539
 21
47.35935211181641
 31
0.0
1001
DBPROPERTIES
1002
{
1000
PbThick
1002
}
  0
LINE
  5
A7
330
1F
100
AcDbEntity
  8
THICK
100
AcDbLine
 10
46.72269058227539
 20
47.35935211181641
 30
0.0
 11
46.57542037963867
 21
47.55434036254883
 31
0.0
1001
DBPROPERTIES
1002
{
1000
PbThick
1002
}
  0
LINE
  5
A8
330
1F
100
AcDbEntity
  8
THICK
100
AcDbLine
 10
46.57542037963867
 20
47.55434036254883
 30
0.0
 11
46.42340469360352
 21
47.74481964111328
 31
0.0
1001
DBPROPERTIES
1002
{
1000
PbThick
1002
}
  0
LINE
  5
A9
330
1F
100
AcDbEntity
  8
THICK
100
AcDbLine
 10
46.42340469360352
 20
47.74481964111328
 30
0.0
 11
46.26718902587891
 21
47.93052673339844
 31
0.0
1001
DBPROPERTIES
1002
{
1000
PbThick
1002
}
  0
LINE
  5
AA
330
1F
100
AcDbEntity
  8
THICK
100
AcDbLine
 10
46.26718902587891
 20
47.93052673339844
 30
0.0
 11
46.10727310180664
 21
48.11117935180664
 31
0.0
1001
DBPROPERTIES
1002
{
1000
PbThick
1002
}
  0
LINE
  5
AB
330
1F
100
AcDbEntity
  8
THICK
100
AcDbLine
 10
46.10727310180664
 20
48.11117935180664
 30
0.0
 11
45.94429779052734
 21
48.28658294677734
 31
0.0
1001
DBPROPERTIES
1002
{
1000
PbThick
1002
}
  0
LINE
  5
AC
330
1F
100
AcDbEntity
  8
HIDDEN
100
AcDbLine
 10
45.94429779052734
 20
48.28658294677734
 30
0.0
 11
46.02303314208984
 21
48.21778106689453
 31
0.0
1001
DBPROPERTIES
1002
{
1000
PbHidd
1002
}
  0
LINE
  5
AD
330
1F
100
AcDbEntity
  8
HIDDEN
100
AcDbLine
 10
46.02303314208984
 20
48.21778106689453
 30
0.0
 11
46.1005859375
 21
48.14886093139648
 31
0.0
1001
DBPROPERTIES
1002
{
1000
PbHidd
1002
}
  0
LINE
  5
AE
330
1F
100
AcDbEntity
  8
HIDDEN
100
AcDbLine
 10
46.1005859375
 20
48.14886093139648
 30
0.0
 11
46.17679595947266
 21
48.07975387573242
 31
0.0
1001
DBPROPERTIES
1002
{
1000
PbHidd
1002
}
  0
LINE
  5
AF
330
1F
100
AcDbEntity
  8
HIDDEN
100
AcDbLine
 10
46.17679595947266
 20
48.07975387573242
 30
0.0
 11
46.25168609619141
 21
48.01053237915039
 31
0.0
1001
DBPROPERTIES
1002
{
1000
PbHidd
1002
}
  0
LINE
  5
B0
330
1F
100
AcDbEntity
  8
HIDDEN
100
AcDbLine
 10
46.25168609619141
 20
48.01053237915039
 30
0.0
 11
46.32524108886719
 21
47.94123458862305
 31
0.0
1001
DBPROPERTIES
1002
{
1000
PbHidd
1002
}
  0
LINE
  5
B1
330
1F
100
AcDbEntity
  8
HIDDEN
100
AcDbLine
 10
46.32524108886719
 20
47.94123458862305
 30
0.0
 11
46.3974609375
 21
47.87191390991211
 31
0.0
1001
DBPROPERTIES
1002
{
1000
PbHidd
1002
}
  0
ARC
  5
B2
330
1F
100
AcDbEntity
  8
THICK
100
AcDbCircle
 10
0.0000000000000007
 20
0.0
 30
0.0
 40
66.66666666666667
100
AcDbArc
 50
89.99998127603165
 51
94.7551299051609
1001
DBPROPERTIES
1002
{
1000
PbThick
1002
}
  0
LINE
  5
B3
330
1F
100
AcDbEntity
  8
THICK
100
AcDbLine
 10
-5.526463031768799
 20
66.43721008300781
 30
0.0
 11
-5.86477518081665
 21
66.40341186523438
 31
0.0
1001
DBPROPERTIES
1002
{
1000
PbThick
1002
}
  0
LINE
  5
B4
330
1F
100
AcDbEntity
  8
THICK
100
AcDbLine
 10
-5.86477518081665
 20
66.40341186523438
 30
0.0
 11
-6.211565971374512
 21
66.35734558105469
 31
0.0
1001
DBPROPERTIES
1002
{
1000
PbThick
1002
}
  0
LINE
  5
B5
330
1F
100
AcDbEntity
  8
THICK
100
AcDbLine
 10
-6.211565971374512
 20
66.35734558105469
 30
0.0
 11
-6.565243721008301
 21
66.2984848022461
 31
0.0
1001
DBPROPERTIES
1002
{
1000
PbThick
1002
}
  0
LINE
  5
B6
330
1F
100
AcDbEntity
  8
THICK
100
AcDbLine
 10
-6.565243721008301
 20
66.2984848022461
 30
0.0
 11
-6.924205780029297
 21
66.22669219970703
 31
0.0
1001
DBPROPERTIES
1002
{
1000
PbThick
1002
}
  0
LINE
  5
B7
330
1F
100
AcDbEntity
  8
THICK
100
AcDbLine
 10
-6.924205780029297
 20
66.22669219970703
 30
0.0
 11
-7.286853313446045
 21
66.14188385009766
 31
0.0
1001
DBPROPERTIES
1002
{
1000
PbThick
1002
}
  0
LINE
  5
B8
330
1F
100
AcDbEntity
  8
THICK
100
AcDbLine
 10
-7.286853313446045
 20
66.14188385009766
 30
0.0
 11
-7.651586532592773
 21
66.04442596435547
 31
0.0
1001
DBPROPERTIES
1002
{
1000
PbThick
1002
}
  0
LINE
  5
B9
330
1F
100
AcDbEntity
  8
THICK
100
AcDbLine
 10
-7.651586532592773
 20
66.04442596435547
 30
0.0
 11
-7.895913600921631
 21
66.05734252929688
 31
0.0
1001
DBPROPERTIES
1002
{
1000
PbThick
1002
}
  0
LINE
  5
BA
330
1F
100
AcDbEntity
  8
THICK
100
AcDbLine
 10
-7.895913600921631
 20
66.05734252929688
 30
0.0
 11
-8.140181541442871
 21
66.06377410888672
 31
0.0
1001
DBPROPERTIES
1002
{
1000
PbThick
1002
}
  0
LINE
  5
BB
330
1F
100
AcDbEntity
  8
THICK
100
AcDbLine
 10
-8.140181541442871
 20
66.06377410888672
 30
0.0
 11
-8.383882522583008
 21
66.06369018554688
 31
0.0
1001
DBPROPERTIES
1002
{
1000
PbThick
1002
}
  0
LINE
  5
BC
330
1F
100
AcDbEntity
  8
THICK
100
AcDbLine
 10
-8.383882522583008
 20
66.06369018554688
 30
0.0
 11
-8.626474380493164
 21
66.05734252929688
 31
0.0
1001
DBPROPERTIES
1002
{
1000
PbThick
1002
}
  0
LINE
  5
BD
330
1F
100
AcDbEntity
  8
THICK
100
AcDbLine
 10
-8.626474380493164
 20
66.05734252929688
 30
0.0
 11
-8.867420196533203
 21
66.04495239257812
 31
0.0
1001
DBPROPERTIES
1002
{
1000
PbThick
1002
}
  0
LINE
  5
BE
330
1F
100
AcDbEntity
  8
THICK
100
AcDbLine
 10
-8.867420196533203
 20
66.04495239257812
 30
0.0
 11
-9.106171607971191
 21
66.02689361572266
 31
0.0
1001
DBPROPERTIES
1002
{
1000
PbThick
1002
}
  0
LINE
  5
BF
330
1F
100
AcDbEntity
  8
HIDDEN
100
AcDbLine
 10
-9.106171607971191
 20
66.02689361572266
 30
0.0
 11
-9.003286361694336
 21
66.04554748535156
 31
0.0
1001
DBPROPERTIES
1002
{
1000
PbHidd
1002
}
  0
LINE
  5
C0
330
1F
100
AcDbEntity
  8
HIDDEN
100
AcDbLine
 10
-9.003286361694336
 20
66.04554748535156
 30
0.0
 11
-8.901049613952637
 21
66.0632095336914
 31
0.0
1001
DBPROPERTIES
1002
{
1000
PbHidd
1002
}
  0
LINE
  5
C1
330
1F
100
AcDbEntity
  8
HIDDEN
100
AcDbLine
 10
-8.901049613952637
 20
66.0632095336914
 30
0.0
 11
-8.799505233764648
 21
66.07966613769531
 31
0.0
1001
DBPROPERTIES
1002
{
1000
PbHidd
1002
}
  0
LINE
  5
C2
330
1F
100
AcDbEntity
  8
HIDDEN
100
AcDbLine
 10
-8.799505233764648
 20
66.07966613769531
 30
0.0
 11
-8.698691368103027
 21
66.09508514404297
 31
0.0
1001
DBPROPERTIES
1002
{
1000
PbHidd
1002
}
  0
LINE
  5
C3
330
1F
100
AcDbEntity
  8
HIDDEN
100
AcDbLine
 10
-8.698691368103027
 20
66.09508514404297
 30
0.0
 11
-8.598651885986328
 21
66.10940551757812
 31
0.0
1001
DBPROPERTIES
1002
{
1000
PbHidd
1002
}
  0
LINE
  5
C4
330
1F
100
AcDbEntity
  8
HIDDEN
100
AcDbLine
 10
-8.598651885986328
 20
66.10940551757812
 30
0.0
 11
-8.499425888061523
 21
66.12264251708984
 31
0.0
1001
DBPROPERTIES
1002
{
1000
PbHidd
1002
}
  0
LINE
  5
C5
330
1F
100
AcDbEntity
  8
THICK
100
AcDbLine
 10
-55.38839340209961
 20
37.10215759277344
 30
0.0
 11
-55.57290649414062
 21
36.81658554077148
 31
0.0
1001
DBPROPERTIES
1002
{
1000
PbThick
1002
}
  0
LINE
  5
C6
330
1F
100
AcDbEntity
  8
THICK
100
AcDbLine
 10
-55.57290649414062
 20
36.81658554077148
 30
0.0
 11
-55.75310897827148
 21
36.51673126220703
 31
0.0
1001
DBPROPERTIES
1002
{
1000
PbThick
1002
}
  0
LINE
  5
C7
330
1F
100
AcDbEntity
  8
THICK
100
AcDbLine
 10
-55.75310897827148
 20
36.51673126220703
 30
0.0
 11
-55.92760848999023
 21
36.20351791381836
 31
0.0
1001
DBPROPERTIES
1002
{
1000
PbThick
1002
}
  0
LINE
  5
C8
330
1F
100
AcDbEntity
  8
THICK
100
AcDbLine
 10
-55.92760848999023
 20
36.20351791381836
 30
0.0
 11
-56.09528350830078
 21
35.87810516357422
 31
0.0
1001
DBPROPERTIES
1002
{
1000
PbThick
1002
}
  0
LINE
  5
C9
330
1F
100
AcDbEntity
  8
THICK
100
AcDbLine
 10
-56.09528350830078
 20
35.87810516357422
 30
0.0
 11
-56.25508499145508
 21
35.54169845581055
 31
0.0
1001
DBPROPERTIES
1002
{
1000
PbThick
1002
}
  0
LINE
  5
CA
330
1F
100
AcDbEntity
  8
THICK
100
AcDbLine
 10
-56.25508499145508
 20
35.54169845581055
 30
0.0
 11
-56.40629577636719
 21
35.19577407836914
 31
0.0
1001
DBPROPERTIES
1002
{
1000
PbThick
1002
}
  0
LINE
  5
CB
330
1F
100
AcDbEntity
  8
THICK
100
AcDbLine
 10
-56.40629577636719
 20
35.19577407836914
 30
0.0
 11
-56.56873321533203
 21
35.0128059387207
 31
0.0
1001
DBPROPERTIES
1002
{
1000
PbThick
1002
}
  0
LINE
  5
CC
330
1F
100
AcDbEntity
  8
THICK
100
AcDbLine
 10
-56.56873321533203
 20
35.0128059387207
 30
0.0
 11
-56.72605895996094
 21
34.82583999633789
 31
0.0
1001
DBPROPERTIES
1002
{
1000
PbThick
1002
}
  0
LINE
  5
CD
330
1F
100
AcDbEntity
  8
THICK
100
AcDbLine
 10
-56.72605895996094
 20
34.82583999633789
 30
0.0
 11
-56.87793731689453
 21
34.63525390625
 31
0.0
1001
DBPROPERTIES
1002
{
1000
PbThick
1002
}
  0
LINE
  5
CE
330
1F
100
AcDbEntity
  8
THICK
100
AcDbLine
 10
-56.87793731689453
 20
34.63525390625
 30
0.0
 11
-57.02422714233398
 21
34.44162750244141
 31
0.0
1001
DBPROPERTIES
1002
{
1000
PbThick
1002
}
  0
LINE
  5
CF
330
1F
100
AcDbEntity
  8
THICK
100
AcDbLine
 10
-57.02422714233398
 20
34.44162750244141
 30
0.0
 11
-57.16476821899414
 21
34.24552536010742
 31
0.0
1001
DBPROPERTIES
1002
{
1000
PbThick
1002
}
  0
LINE
  5
D0
330
1F
100
AcDbEntity
  8
THICK
100
AcDbLine
 10
-57.16476821899414
 20
34.24552536010742
 30
0.0
 11
-57.29950714111328
 21
34.04760360717773
 31
0.0
1001
DBPROPERTIES
1002
{
1000
PbThick
1002
}
  0
LINE
  5
D1
330
1F
100
AcDbEntity
  8
HIDDEN
100
AcDbLine
 10
-57.29950714111328
 20
34.04760360717773
 30
0.0
 11
-57.24994659423828
 21
34.13967132568359
 31
0.0
1001
DBPROPERTIES
1002
{
1000
PbHidd
1002
}
  0
LINE
  5
D2
330
1F
100
AcDbEntity
  8
HIDDEN
100
AcDbLine
 10
-57.24994659423828
 20
34.13967132568359
 30
0.0
 11
-57.20001220703125
 21
34.23061752319336
 31
0.0
1001
DBPROPERTIES
1002
{
1000
PbHidd
1002
}
  0
LINE
  5
D3
330
1F
100
AcDbEntity
  8
HIDDEN
100
AcDbLine
 10
-57.20001220703125
 20
34.23061752319336
 30
0.0
 11
-57.14959716796875
 21
34.32029342651367
 31
0.0
1001
DBPROPERTIES
1002
{
1000
PbHidd
1002
}
  0
LINE
  5
D4
330
1F
100
AcDbEntity
  8
HIDDEN
100
AcDbLine
 10
-57.14959716796875
 20
34.32029342651367
 30
0.0
 11
-57.09877777099609
 21
34.40871047973633
 31
0.0
1001
DBPROPERTIES
1002
{
1000
PbHidd
1002
}
  0
LINE
  5
D5
330
1F
100
AcDbEntity
  8
HIDDEN
100
AcDbLine
 10
-57.09877777099609
 20
34.40871047973633
 30
0.0
 11
-57.04758453369141
 21
34.49584197998047
 31
0.0
1001
DBPROPERTIES
1002
{
1000
PbHidd
1002
}
  0
LINE
  5
D6
330
1F
100
AcDbEntity
  8
HIDDEN
100
AcDbLine
 10
-57.04758453369141
 20
34.49584197998047
 30
0.0
 11
-56.99607086181641
 21
34.5816764831543
 31
0.0
1001
DBPROPERTIES
1002
{
1000
PbHidd
1002
}
  0
ARC
  5
D7
330
1F
100
AcDbEntity
  8
THICK
100
AcDbCircle
 10
0.0
 20
0.0
 30
0.0
 40
55.66666666666667
100
AcDbArc
 50
89.99998127603165
 51
180.0000198478428
1001
DBPROPERTIES
1002
{
1000
PbThick
1002
}
  0
ARC
  5
D8
330
1F
100
AcDbEntity
  8
HIDDEN
100
AcDbCircle
 10
0.0
 20
0.0
 30
0.0
 40
65.57377049180329
100
AcDbArc
 50
89.99998127603165
 51
270.0000187239684
1001
DBPROPERTIES
1002
{
1000
PbHidd
1002
}
  0
ARC
  5
D9
330
1F
100
AcDbEntity
  8
HIDDEN
100
AcDbCircle
 10
0.0
 20
0.0000000000000187
 30
0.0
 40
69.0
100
AcDbArc
 50
180.0000198478428
 51
182.9999871674622
1001
DBPROPERTIES
1002
{
1000
PbHidd
1002
}
  0
ARC
  5
DA
330
1F
100
AcDbEntity
  8
HIDDEN
100
AcDbCircle
 10
0.0
 20
0.0000000000000187
 30
0.0
 40
69.0
100
AcDbArc
 50
356.999992984695
 51
0.0
1001
DBPROPERTIES
1002
{
1000
PbHidd
1002
}
  0
ARC
  5
DB
330
1F
100
AcDbEntity
  8
HIDDEN
100
AcDbCircle
 10
0.0
 20
0.0000000000000139
 30
0.0
 40
80.0
100
AcDbArc
 50
81.0000175258962
 51
89.99998127603165
1001
DBPROPERTIES
1002
{
1000
PbHidd
1002
}
  0
LINE
  5
DC
330
1F
100
AcDbEntity
  8
HIDDEN
100
AcDbLine
 10
12.51475720321855
 20
79.01506724761101
 30
0.0
 11
12.51475720321855
 21
79.01506724761101
 31
0.0
1001
DBPROPERTIES
1002
{
1000
PbHidd
1002
}
  0
ARC
  5
DD
330
1F
100
AcDbEntity
  8
HIDDEN
100
AcDbCircle
 10
0.0
 20
0.0000000000000104
 30
0.0
 40
81.63265306122449
100
AcDbArc
 50
270.0000187239684
 51
299.6394119449834
1001
DBPROPERTIES
1002
{
1000
PbHidd
1002
}
  0
ARC
  5
DE
330
1F
100
AcDbEntity
  8
THICK
100
AcDbCircle
 10
0.0
 20
0.0000000000000104
 30
0.0
 40
81.63265306122449
100
AcDbArc
 50
299.6394119449834
 51
316.4638019369844
1001
DBPROPERTIES
1002
{
1000
PbThick
1002
}
  0
ARC
  5
DF
330
1F
100
AcDbEntity
  8
HIDDEN
100
AcDbCircle
 10
0.0
 20
0.0000000000000104
 30
0.0
 40
81.63265306122449
100
AcDbArc
 50
316.4638019369844
 51
351.0679890443671
1001
DBPROPERTIES
1002
{
1000
PbHidd
1002
}
  0
ARC
  5
E0
330
1F
100
AcDbEntity
  8
THICK
100
AcDbCircle
 10
0.0
 20
0.0000000000000104
 30
0.0
 40
81.63265306122449
100
AcDbArc
 50
351.0679890443671
 51
7.892379036368063
1001
DBPROPERTIES
1002
{
1000
PbThick
1002
}
  0
ARC
  5
E1
330
1F
100
AcDbEntity
  8
HIDDEN
100
AcDbCircle
 10
0.0
 20
0.0000000000000104
 30
0.0
 40
81.63265306122449
100
AcDbArc
 50
7.892379036368063
 51
42.49656614375072
1001
DBPROPERTIES
1002
{
1000
PbHidd
1002
}
  0
ARC
  5
E2
330
1F
100
AcDbEntity
  8
THICK
100
AcDbCircle
 10
0.0
 20
0.0000000000000104
 30
0.0
 40
81.63265306122449
100
AcDbArc
 50
42.49656614375072
 51
59.32095613575172
1001
DBPROPERTIES
1002
{
1000
PbThick
1002
}
  0
ARC
  5
E3
330
1F
100
AcDbEntity
  8
HIDDEN
100
AcDbCircle
 10
0.0
 20
0.0000000000000104
 30
0.0
 40
81.63265306122449
100
AcDbArc
 50
59.32095613575172
 51
89.99998127603165
1001
DBPROPERTIES
1002
{
1000
PbHidd
1002
}
  0
LINE
  5
E4
330
1F
100
AcDbEntity
  8
HIDDEN
100
AcDbLine
 10
6.541330654447141
 20
-81.37014832899982
 30
0.0
 11
6.541330654447141
 21
-81.37014832899982
 31
0.0
1001
DBPROPERTIES
1002
{
1000
PbHidd
1002
}
  0
LINE
  5
E5
330
1F
100
AcDbEntity
  8
HIDDEN
100
AcDbLine
 10
10.51941823592024
 20
-80.9520344759292
 30
0.0
 11
10.51941823592024
 21
-80.9520344759292
 31
0.0
1001
DBPROPERTIES
1002
{
1000
PbHidd
1002
}
  0
LINE
  5
E6
330
1F
100
AcDbEntity
  8
HIDDEN
100
AcDbLine
 10
81.37014832899985
 20
6.541330654447138
 30
0.0
 11
81.37014832899985
 21
6.541330654447137
 31
0.0
1001
DBPROPERTIES
1002
{
1000
PbHidd
1002
}
  0
LINE
  5
E7
330
1F
100
AcDbEntity
  8
HIDDEN
100
AcDbLine
 10
80.95203447592922
 20
10.51941823592024
 30
0.0
 11
80.95203447592922
 21
10.51941823592024
 31
0.0
1001
DBPROPERTIES
1002
{
1000
PbHidd
1002
}
  0
LINE
  5
E8
330
1F
100
AcDbEntity
  8
HIDDEN
100
AcDbLine
 10
80.95203447592921
 20
-10.51941823592026
 30
0.0
 11
80.95203447592921
 21
-10.51941823592026
 31
0.0
1001
DBPROPERTIES
1002
{
1000
PbHidd
1002
}
  0
LINE
  5
E9
330
1F
100
AcDbEntity
  8
HIDDEN
100
AcDbLine
 10
81.37014832899983
 20
-6.541330654447172
 30
0.0
 11
81.37014832899983
 21
-6.541330654447171
 31
0.0
1001
DBPROPERTIES
1002
{
1000
PbHidd
1002
}
  0
LINE
  5
EA
330
1F
100
AcDbEntity
  8
HIDDEN
100
AcDbLine
 10
10.51941823592026
 20
80.95203447592922
 30
0.0
 11
10.51941823592026
 21
80.95203447592922
 31
0.0
1001
DBPROPERTIES
1002
{
1000
PbHidd
1002
}
  0
LINE
  5
EB
330
1F
100
AcDbEntity
  8
HIDDEN
100
AcDbLine
 10
6.541330654447178
 20
81.37014832899985
 30
0.0
 11
6.541330654447178
 21
81.37014832899985
 31
0.0
1001
DBPROPERTIES
1002
{
1000
PbHidd
1002
}
  0
ARC
  5
EC
330
1F
100
AcDbEntity
  8
HIDDEN
100
AcDbCircle
 10
0.0
 20
0.0000000000000139
 30
0.0
 40
57.14285714285715
100
AcDbArc
 50
270.0000187239684
 51
273.0000257392733
1001
DBPROPERTIES
1002
{
1000
PbHidd
1002
}
  0
LINE
  5
ED
330
1F
100
AcDbEntity
  8
HIDDEN
100
AcDbLine
 10
2.990626071025329
 20
-57.06454484311849
 30
0.0
 11
2.990626071025329
 21
-57.06454484311849
 31
0.0
1001
DBPROPERTIES
1002
{
1000
PbHidd
1002
}
  0
ARC
  5
EE
330
1F
100
AcDbEntity
  8
THICK
100
AcDbCircle
 10
0.0
 20
0.0000000000000018
 30
0.0
 40
107.0484136948249
100
AcDbArc
 50
347.0054890937714
 51
0.0
1001
DBPROPERTIES
1002
{
1000
PbThick
1002
}
  0
ARC
  5
EF
330
1F
100
AcDbEntity
  8
HIDDEN
100
AcDbCircle
 10
0.0
 20
0.0000000000000018
 30
0.0
 40
107.0484136948249
100
AcDbArc
 50
320.7887738535294
 51
347.0054890937714
1001
DBPROPERTIES
1002
{
1000
PbHidd
1002
}
  0
ARC
  5
F0
330
1F
100
AcDbEntity
  8
THICK
100
AcDbCircle
 10
0.0
 20
0.0000000000000018
 30
0.0
 40
107.0484136948249
100
AcDbArc
 50
295.5769119943878
 51
320.7887738535294
1001
DBPROPERTIES
1002
{
1000
PbThick
1002
}
  0
ARC
  5
F1
330
1F
100
AcDbEntity
  8
HIDDEN
100
AcDbCircle
 10
0.0
 20
0.0000000000000018
 30
0.0
 40
107.0484136948249
100
AcDbArc
 50
269.3601967541458
 51
295.5769119943878
1001
DBPROPERTIES
1002
{
1000
PbHidd
1002
}
  0
ARC
  5
F2
330
1F
100
AcDbEntity
  8
THICK
100
AcDbCircle
 10
0.0
 20
0.0000000000000018
 30
0.0
 40
107.0484136948249
100
AcDbArc
 50
244.1483348950041
 51
269.3601967541458
1001
DBPROPERTIES
1002
{
1000
PbThick
1002
}
  0
ARC
  5
F3
330
1F
100
AcDbEntity
  8
HIDDEN
100
AcDbCircle
 10
0.0
 20
0.0000000000000018
 30
0.0
 40
107.0484136948249
100
AcDbArc
 50
217.9316196547621
 51
244.1483348950041
1001
DBPROPERTIES
1002
{
1000
PbHidd
1002
}
  0
ARC
  5
F4
330
1F
100
AcDbEntity
  8
THICK
100
AcDbCircle
 10
0.0
 20
0.0000000000000018
 30
0.0
 40
107.0484136948249
100
AcDbArc
 50
192.7197577956204
 51
217.9316196547621
1001
DBPROPERTIES
1002
{
1000
PbThick
1002
}
  0
ARC
  5
F5
330
1F
100
AcDbEntity
  8
HIDDEN
100
AcDbCircle
 10
0.0
 20
0.0000000000000018
 30
0.0
 40
107.0484136948249
100
AcDbArc
 50
179.9999801521572
 51
192.7197577956204
1001
DBPROPERTIES
1002
{
1000
PbHidd
1002
}
  0
ARC
  5
F6
330
1F
100
AcDbEntity
  8
HIDDEN
100
AcDbCircle
 10
0.0
 20
0.000000000000002
 30
0.0
 40
108.7484136948249
100
AcDbArc
 50
180.0000198478428
 51
184.9462102059626
1001
DBPROPERTIES
1002
{
1000
PbHidd
1002
}
  0
ARC
  5
F7
330
1F
100
AcDbEntity
  8
HIDDEN
100
AcDbCircle
 10
0.0
 20
0.000000000000002
 30
0.0
 40
108.7484136948249
100
AcDbArc
 50
184.9462102059626
 51
187.0537781595717
1001
DBPROPERTIES
1002
{
1000
PbHidd
1002
}
  0
ARC
  5
F8
330
1F
100
AcDbEntity
  8
THICK
100
AcDbCircle
 10
0.0
 20
0.000000000000002
 30
0.0
 40
108.7484136948249
100
AcDbArc
 50
243.9462526806615
 51
262.9462207165537
1001
DBPROPERTIES
1002
{
1000
PbThick
1002
}
  0
ARC
  5
F9
330
1F
100
AcDbEntity
  8
HIDDEN
100
AcDbCircle
 10
0.0
 20
0.000000000000002
 30
0.0
 40
108.7484136948249
100
AcDbArc
 50
218.1464788279362
 51
243.9462526806615
1001
DBPROPERTIES
1002
{
1000
PbHidd
1002
}
  0
ARC
  5
FA
330
1F
100
AcDbEntity
  8
THICK
100
AcDbCircle
 10
0.0
 20
0.000000000000002
 30
0.0
 40
108.7484136948249
100
AcDbArc
 50
192.5176755812778
 51
218.1464788279362
1001
DBPROPERTIES
1002
{
1000
PbThick
1002
}
  0
ARC
  5
FB
330
1F
100
AcDbEntity
  8
HIDDEN
100
AcDbCircle
 10
0.0
 20
0.000000000000002
 30
0.0
 40
108.7484136948249
100
AcDbArc
 50
187.0537781595717
 51
192.5176755812778
1001
DBPROPERTIES
1002
{
1000
PbHidd
1002
}
  0
ARC
  5
FC
330
1F
100
AcDbEntity
  8
THICK
100
AcDbCircle
 10
0.0
 20
0.000000000000002
 30
0.0
 40
108.7484136948249
100
AcDbArc
 50
262.9462207165537
 51
265.053788670163
1001
DBPROPERTIES
1002
{
1000
PbThick
1002
}
  0
ARC
  5
FD
330
1F
100
AcDbEntity
  8
HIDDEN
100
AcDbCircle
 10
0.0
 20
0.000000000000002
 30
0.0
 40
108.7484136948249
100
AcDbArc
 50
269.5750559273199
 51
274.9461914819942
1001
DBPROPERTIES
1002
{
1000
PbHidd
1002
}
  0
ARC
  5
FE
330
1F
100
AcDbEntity
  8
THICK
100
AcDbCircle
 10
0.0
 20
0.000000000000002
 30
0.0
 40
108.7484136948249
100
AcDbArc
 50
265.053788670163
 51
269.5750559273199
1001
DBPROPERTIES
1002
{
1000
PbThick
1002
}
  0
ARC
  5
FF
330
1F
100
AcDbEntity
  8
HIDDEN
100
AcDbCircle
 10
0.0
 20
0.000000000000002
 30
0.0
 40
108.7484136948249
100
AcDbArc
 50
274.9461914819942
 51
277.0538167313829
1001
DBPROPERTIES
1002
{
1000
PbHidd
1002
}
  0
ARC
  5
100
330
1F
100
AcDbEntity
  8
THICK
100
AcDbCircle
 10
0.0
 20
0.000000000000002
 30
0.0
 40
108.7484136948249
100
AcDbArc
 50
346.8034068794288
 51
352.9462019925854
1001
DBPROPERTIES
1002
{
1000
PbThick
1002
}
  0
ARC
  5
101
330
1F
100
AcDbEntity
  8
HIDDEN
100
AcDbCircle
 10
0.0
 20
0.000000000000002
 30
0.0
 40
108.7484136948249
100
AcDbArc
 50
321.0036330267035
 51
346.8034068794288
1001
DBPROPERTIES
1002
{
1000
PbHidd
1002
}
  0
ARC
  5
102
330
1F
100
AcDbEntity
  8
THICK
100
AcDbCircle
 10
0.0
 20
0.000000000000002
 30
0.0
 40
108.7484136948249
100
AcDbArc
 50
295.3748297800452
 51
321.0036330267035
1001
DBPROPERTIES
1002
{
1000
PbThick
1002
}
  0
ARC
  5
103
330
1F
100
AcDbEntity
  8
HIDDEN
100
AcDbCircle
 10
0.0
 20
0.000000000000002
 30
0.0
 40
108.7484136948249
100
AcDbArc
 50
277.0538167313829
 51
295.3748297800452
1001
DBPROPERTIES
1002
{
1000
PbHidd
1002
}
  0
ARC
  5
104
330
1F
100
AcDbEntity
  8
THICK
100
AcDbCircle
 10
0.0
 20
0.000000000000002
 30
0.0
 40
108.7484136948249
100
AcDbArc
 50
352.9462019925854
 51
355.0537699461946
1001
DBPROPERTIES
1002
{
1000
PbThick
1002
}
  0
ARC
  5
105
330
1F
100
AcDbEntity
  8
THICK
100
AcDbCircle
 10
0.0
 20
0.000000000000002
 30
0.0
 40
108.7484136948249
100
AcDbArc
 50
355.0537699461946
 51
0.0
1001
DBPROPERTIES
1002
{
1000
PbThick
1002
}
  0
ARC
  5
106
330
1F
100
AcDbEntity
  8
HIDDEN
100
AcDbCircle
 10
0.0
 20
0.000000000000002
 30
0.0
 40
105.0854227795802
100
AcDbArc
 50
0.0
 51
4.909446163357972
1001
DBPROPERTIES
1002
{
1000
PbHidd
1002
}
  0
ARC
  5
107
330
1F
100
AcDbEntity
  8
THICK
100
AcDbCircle
 10
0.0
 20
0.0000000000000018
 30
0.0
 40
103.3854227795802
100
AcDbArc
 50
0.0
 51
4.891512584370377
1001
DBPROPERTIES
1002
{
1000
PbThick
1002
}
  0
ARC
  5
108
330
1F
100
AcDbEntity
  8
HIDDEN
100
AcDbCircle
 10
0.0
 20
0.0000000000000018
 30
0.0
 40
103.3854227795802
100
AcDbArc
 50
175.108449967693
 51
180.0000198478428
1001
DBPROPERTIES
1002
{
1000
PbHidd
1002
}
  0
ARC
  5
109
330
1F
100
AcDbEntity
  8
HIDDEN
100
AcDbCircle
 10
0.0
 20
0.000000000000002
 30
0.0
 40
105.0854227795802
100
AcDbArc
 50
175.0905163887053
 51
180.0000198478428
1001
DBPROPERTIES
1002
{
1000
PbHidd
1002
}
  0
ARC
  5
10A
330
1F
100
AcDbEntity
  8
HIDDEN
100
AcDbCircle
 10
0.0
 20
0.0000000000000115
 30
0.0
 40
50.0
100
AcDbArc
 50
270.0000187239684
 51
273.0000257392733
1001
DBPROPERTIES
1002
{
1000
PbHidd
1002
}
  0
LINE
  5
10B
330
1F
100
AcDbEntity
  8
HIDDEN
100
AcDbLine
 10
2.616797812147162
 20
-49.93147673772867
 30
0.0
 11
2.616797812147162
 21
-49.93147673772868
 31
0.0
1001
DBPROPERTIES
1002
{
1000
PbHidd
1002
}
  0
LINE
  5
10C
330
1F
100
AcDbEntity
  8
HIDDEN
100
AcDbLine
 10
-1.739298279140517
 20
-33.18778820501034
 30
0.0
 11
-1.739298279140517
 21
-33.18778820501034
 31
0.0
1001
DBPROPERTIES
1002
{
1000
PbHidd
1002
}
  0
LINE
  5
10D
330
1F
100
AcDbEntity
  8
HIDDEN
100
AcDbLine
 10
-2.616797812147219
 20
-49.93147673772866
 30
0.0
 11
-1.73929827914052
 21
-33.18778820501033
 31
0.0
1001
DBPROPERTIES
1002
{
1000
PbHidd
1002
}
  0
LINE
  5
10E
330
1F
100
AcDbEntity
  8
HIDDEN
100
AcDbLine
 10
-2.61679781214722
 20
-49.93147673772867
 30
0.0
 11
-2.61679781214722
 21
-49.93147673772867
 31
0.0
1001
DBPROPERTIES
1002
{
1000
PbHidd
1002
}
  0
ARC
  5
10F
330
1F
100
AcDbEntity
  8
HIDDEN
100
AcDbCircle
 10
0.0
 20
0.0000000000000115
 30
0.0
 40
50.0
100
AcDbArc
 50
267.0000117086634
 51
270.0000187239684
1001
DBPROPERTIES
1002
{
1000
PbHidd
1002
}
  0
LINE
  5
110
330
1F
100
AcDbEntity
  8
HIDDEN
100
AcDbLine
 10
5.198838721503664
 20
-32.82417585244507
 30
0.0
 11
5.198838721503664
 21
-32.82417585244507
 31
0.0
1001
DBPROPERTIES
1002
{
1000
PbHidd
1002
}
  0
LINE
  5
111
330
1F
100
AcDbEntity
  8
HIDDEN
100
AcDbLine
 10
7.821723252011527
 20
-49.38441702975686
 30
0.0
 11
5.198838721503662
 21
-32.82417585244507
 31
0.0
1001
DBPROPERTIES
1002
{
1000
PbHidd
1002
}
  0
LINE
  5
112
330
1F
100
AcDbEntity
  8
HIDDEN
100
AcDbLine
 10
7.821723252011529
 20
-49.38441702975688
 30
0.0
 11
7.821723252011529
 21
-49.38441702975687
 31
0.0
1001
DBPROPERTIES
1002
{
1000
PbHidd
1002
}
  0
ARC
  5
113
330
1F
100
AcDbEntity
  8
HIDDEN
100
AcDbCircle
 10
0.0
 20
0.0000000000000115
 30
0.0
 40
50.0
100
AcDbArc
 50
278.9999824741038
 51
284.9999965047138
1001
DBPROPERTIES
1002
{
1000
PbHidd
1002
}
  0
LINE
  5
114
330
1F
100
AcDbEntity
  8
HIDDEN
100
AcDbLine
 10
12.94095225512602
 20
-48.29629131445339
 30
0.0
 11
12.94095225512602
 21
-48.2962913144534
 31
0.0
1001
DBPROPERTIES
1002
{
1000
PbHidd
1002
}
  0
LINE
  5
115
330
1F
100
AcDbEntity
  8
HIDDEN
100
AcDbLine
 10
-8.601419598907116
 20
-32.10093496034003
 30
0.0
 11
-8.601419598907116
 21
-32.10093496034003
 31
0.0
1001
DBPROPERTIES
1002
{
1000
PbHidd
1002
}
  0
LINE
  5
116
330
1F
100
AcDbEntity
  8
HIDDEN
100
AcDbLine
 10
-12.94095225512605
 20
-48.29629131445338
 30
0.0
 11
-8.601419598907118
 21
-32.10093496034003
 31
0.0
1001
DBPROPERTIES
1002
{
1000
PbHidd
1002
}
  0
LINE
  5
117
330
1F
100
AcDbEntity
  8
HIDDEN
100
AcDbLine
 10
-12.94095225512605
 20
-48.2962913144534
 30
0.0
 11
-12.94095225512605
 21
-48.29629131445339
 31
0.0
1001
DBPROPERTIES
1002
{
1000
PbHidd
1002
}
  0
ARC
  5
118
330
1F
100
AcDbEntity
  8
HIDDEN
100
AcDbCircle
 10
0.0
 20
0.0000000000000115
 30
0.0
 40
50.0
100
AcDbArc
 50
254.9999836474434
 51
260.9999976780534
1001
DBPROPERTIES
1002
{
1000
PbHidd
1002
}
  0
LINE
  5
119
330
1F
100
AcDbEntity
  8
HIDDEN
100
AcDbLine
 10
-7.82172325201156
 20
-49.38441702975686
 30
0.0
 11
-7.82172325201156
 21
-49.38441702975687
 31
0.0
1001
DBPROPERTIES
1002
{
1000
PbHidd
1002
}
  0
LINE
  5
11A
330
1F
100
AcDbEntity
  8
HIDDEN
100
AcDbLine
 10
11.90976152322213
 20
-31.02598950725701
 30
0.0
 11
11.90976152322213
 21
-31.02598950725701
 31
0.0
1001
DBPROPERTIES
1002
{
1000
PbHidd
1002
}
  0
LINE
  5
11B
330
1F
100
AcDbEntity
  8
HIDDEN
100
AcDbLine
 10
17.91839747726498
 20
-46.67902132486007
 30
0.0
 11
11.90976152322213
 21
-31.02598950725701
 31
0.0
1001
DBPROPERTIES
1002
{
1000
PbHidd
1002
}
  0
LINE
  5
11C
330
1F
100
AcDbEntity
  8
HIDDEN
100
AcDbLine
 10
17.91839747726499
 20
-46.67902132486008
 30
0.0
 11
17.91839747726499
 21
-46.67902132486007
 31
0.0
1001
DBPROPERTIES
1002
{
1000
PbHidd
1002
}
  0
ARC
  5
11D
330
1F
100
AcDbEntity
  8
HIDDEN
100
AcDbCircle
 10
0.0
 20
0.0000000000000115
 30
0.0
 40
50.0
100
AcDbArc
 50
291.0000105353237
 51
297.0000245659338
1001
DBPROPERTIES
1002
{
1000
PbHidd
1002
}
  0
LINE
  5
11E
330
1F
100
AcDbEntity
  8
HIDDEN
100
AcDbLine
 10
22.69952498697732
 20
-44.55032620941838
 30
0.0
 11
22.69952498697732
 21
-44.55032620941839
 31
0.0
1001
DBPROPERTIES
1002
{
1000
PbHidd
1002
}
  0
LINE
  5
11F
330
1F
100
AcDbEntity
  8
HIDDEN
100
AcDbLine
 10
-15.08761760801094
 20
-29.61111682052675
 30
0.0
 11
-15.08761760801094
 21
-29.61111682052675
 31
0.0
1001
DBPROPERTIES
1002
{
1000
PbHidd
1002
}
  0
LINE
  5
120
330
1F
100
AcDbEntity
  8
HIDDEN
100
AcDbLine
 10
-22.69952498697734
 20
-44.55032620941837
 30
0.0
 11
-15.08761760801094
 21
-29.61111682052674
 31
0.0
1001
DBPROPERTIES
1002
{
1000
PbHidd
1002
}
  0
LINE
  5
121
330
1F
100
AcDbEntity
  8
HIDDEN
100
AcDbLine
 10
-22.69952498697735
 20
-44.55032620941838
 30
0.0
 11
-22.69952498697735
 21
-44.55032620941837
 31
0.0
1001
DBPROPERTIES
1002
{
1000
PbHidd
1002
}
  0
ARC
  5
122
330
1F
100
AcDbEntity
  8
HIDDEN
100
AcDbCircle
 10
0.0
 20
0.0000000000000115
 30
0.0
 40
50.0
100
AcDbArc
 50
243.0000128820029
 51
249.0000269126129
1001
DBPROPERTIES
1002
{
1000
PbHidd
1002
}
  0
LINE
  5
123
330
1F
100
AcDbEntity
  8
HIDDEN
100
AcDbLine
 10
-17.91839747726502
 20
-46.67902132486006
 30
0.0
 11
-17.91839747726502
 21
-46.67902132486007
 31
0.0
1001
DBPROPERTIES
1002
{
1000
PbHidd
1002
}
  0
LINE
  5
124
330
1F
100
AcDbEntity
  8
HIDDEN
100
AcDbLine
 10
18.10017059699938
 20
-27.87181854138626
 30
0.0
 11
18.10017059699938
 21
-27.87181854138626
 31
0.0
1001
DBPROPERTIES
1002
{
1000
PbHidd
1002
}
  0
LINE
  5
125
330
1F
100
AcDbEntity
  8
HIDDEN
100
AcDbLine
 10
27.23195175075132
 20
-41.93352839727119
 30
0.0
 11
18.10017059699938
 21
-27.87181854138626
 31
0.0
1001
DBPROPERTIES
1002
{
1000
PbHidd
1002
}
  0
LINE
  5
126
330
1F
100
AcDbEntity
  8
HIDDEN
100
AcDbLine
 10
27.23195175075133
 20
-41.9335283972712
 30
0.0
 11
27.23195175075133
 21
-41.9335283972712
 31
0.0
1001
DBPROPERTIES
1002
{
1000
PbHidd
1002
}
  0
ARC
  5
127
330
1F
100
AcDbEntity
  8
HIDDEN
100
AcDbCircle
 10
0.0
 20
0.0000000000000115
 30
0.0
 40
50.0
100
AcDbArc
 50
302.9999813007643
 51
308.9999953313742
1001
DBPROPERTIES
1002
{
1000
PbHidd
1002
}
  0
LINE
  5
128
330
1F
100
AcDbEntity
  8
HIDDEN
100
AcDbLine
 10
31.46601955249184
 20
-38.85729807284854
 30
0.0
 11
31.46601955249184
 21
-38.85729807284855
 31
0.0
1001
DBPROPERTIES
1002
{
1000
PbHidd
1002
}
  0
LINE
  5
129
330
1F
100
AcDbEntity
  8
HIDDEN
100
AcDbLine
 10
-20.91441432922294
 20
-25.82715078575332
 30
0.0
 11
-20.91441432922294
 21
-25.82715078575332
 31
0.0
1001
DBPROPERTIES
1002
{
1000
PbHidd
1002
}
  0
LINE
  5
12A
330
1F
100
AcDbEntity
  8
HIDDEN
100
AcDbLine
 10
-31.46601955249188
 20
-38.85729807284851
 30
0.0
 11
-20.91441432922294
 21
-25.82715078575331
 31
0.0
1001
DBPROPERTIES
1002
{
1000
PbHidd
1002
}
  0
LINE
  5
12B
330
1F
100
AcDbEntity
  8
HIDDEN
100
AcDbLine
 10
-31.46601955249189
 20
-38.85729807284851
 30
0.0
 11
-31.46601955249189
 21
-38.85729807284851
 31
0.0
1001
DBPROPERTIES
1002
{
1000
PbHidd
1002
}
  0
ARC
  5
12C
330
1F
100
AcDbEntity
  8
HIDDEN
100
AcDbCircle
 10
0.0
 20
0.0000000000000115
 30
0.0
 40
50.0
100
AcDbArc
 50
230.999984820783
 51
236.999998851393
1001
DBPROPERTIES
1002
{
1000
PbHidd
1002
}
  0
LINE
  5
12D
330
1F
100
AcDbEntity
  8
HIDDEN
100
AcDbLine
 10
-27.23195175075137
 20
-41.93352839727117
 30
0.0
 11
-27.23195175075137
 21
-41.93352839727118
 31
0.0
1001
DBPROPERTIES
1002
{
1000
PbHidd
1002
}
  0
LINE
  5
12E
330
1F
100
AcDbEntity
  8
HIDDEN
100
AcDbLine
 10
23.49951536143292
 20
-23.49951536143293
 30
0.0
 11
23.49951536143292
 21
-23.49951536143293
 31
0.0
1001
DBPROPERTIES
1002
{
1000
PbHidd
1002
}
  0
LINE
  5
12F
330
1F
100
AcDbEntity
  8
HIDDEN
100
AcDbLine
 10
35.35533905932735
 20
-35.35533905932737
 30
0.0
 11
23.49951536143292
 21
-23.49951536143293
 31
0.0
1001
DBPROPERTIES
1002
{
1000
PbHidd
1002
}
  0
LINE
  5
130
330
1F
100
AcDbEntity
  8
HIDDEN
100
AcDbLine
 10
35.35533905932736
 20
-35.35533905932738
 30
0.0
 11
35.35533905932736
 21
-35.35533905932737
 31
0.0
1001
DBPROPERTIES
1002
{
1000
PbHidd
1002
}
  0
ARC
  5
131
330
1F
100
AcDbEntity
  8
HIDDEN
100
AcDbCircle
 10
0.0
 20
0.0000000000000115
 30
0.0
 40
50.0
100
AcDbArc
 50
315.0000093619842
 51
321.0000233925941
1001
DBPROPERTIES
1002
{
1000
PbHidd
1002
}
  0
LINE
  5
132
330
1F
100
AcDbEntity
  8
HIDDEN
100
AcDbLine
 10
38.85729807284854
 20
-31.46601955249188
 30
0.0
 11
38.85729807284854
 21
-31.46601955249189
 31
0.0
1001
DBPROPERTIES
1002
{
1000
PbHidd
1002
}
  0
LINE
  5
133
330
1F
100
AcDbEntity
  8
HIDDEN
100
AcDbLine
 10
-25.82715078575333
 20
-20.91441432922292
 30
0.0
 11
-25.82715078575333
 21
-20.91441432922292
 31
0.0
1001
DBPROPERTIES
1002
{
1000
PbHidd
1002
}
  0
LINE
  5
134
330
1F
100
AcDbEntity
  8
HIDDEN
100
AcDbLine
 10
-38.85729807284852
 20
-31.46601955249184
 30
0.0
 11
-25.82715078575333
 21
-20.91441432922292
 31
0.0
1001
DBPROPERTIES
1002
{
1000
PbHidd
1002
}
  0
LINE
  5
135
330
1F
100
AcDbEntity
  8
HIDDEN
100
AcDbLine
 10
-38.85729807284854
 20
-31.46601955249186
 30
0.0
 11
-38.85729807284854
 21
-31.46601955249185
 31
0.0
1001
DBPROPERTIES
1002
{
1000
PbHidd
1002
}
  0
ARC
  5
136
330
1F
100
AcDbEntity
  8
HIDDEN
100
AcDbCircle
 10
0.0
 20
0.0000000000000115
 30
0.0
 40
50.0
100
AcDbArc
 50
219.0000140553425
 51
225.0000280859525
1001
DBPROPERTIES
1002
{
1000
PbHidd
1002
}
  0
LINE
  5
137
330
1F
100
AcDbEntity
  8
HIDDEN
100
AcDbLine
 10
-35.35533905932738
 20
-35.35533905932736
 30
0.0
 11
-35.35533905932738
 21
-35.35533905932736
 31
0.0
1001
DBPROPERTIES
1002
{
1000
PbHidd
1002
}
  0
LINE
  5
138
330
1F
100
AcDbEntity
  8
HIDDEN
100
AcDbLine
 10
27.87181854138625
 20
-18.10017059699941
 30
0.0
 11
27.87181854138625
 21
-18.10017059699941
 31
0.0
1001
DBPROPERTIES
1002
{
1000
PbHidd
1002
}
  0
LINE
  5
139
330
1F
100
AcDbEntity
  8
HIDDEN
100
AcDbLine
 10
41.93352839727118
 20
-27.23195175075137
 30
0.0
 11
27.87181854138625
 21
-18.10017059699941
 31
0.0
1001
DBPROPERTIES
1002
{
1000
PbHidd
1002
}
  0
LINE
  5
13A
330
1F
100
AcDbEntity
  8
HIDDEN
100
AcDbLine
 10
41.93352839727119
 20
-27.23195175075137
 30
0.0
 11
41.93352839727119
 21
-27.23195175075136
 31
0.0
1001
DBPROPERTIES
1002
{
1000
PbHidd
1002
}
  0
ARC
  5
13B
330
1F
100
AcDbEntity
  8
HIDDEN
100
AcDbCircle
 10
0.0
 20
0.0000000000000115
 30
0.0
 40
50.0
100
AcDbArc
 50
326.9999801274246
 51
332.9999941580346
1001
DBPROPERTIES
1002
{
1000
PbHidd
1002
}
  0
LINE
  5
13C
330
1F
100
AcDbEntity
  8
HIDDEN
100
AcDbLine
 10
44.55032620941838
 20
-22.69952498697736
 30
0.0
 11
44.55032620941838
 21
-22.69952498697737
 31
0.0
1001
DBPROPERTIES
1002
{
1000
PbHidd
1002
}
  0
LINE
  5
13D
330
1F
100
AcDbEntity
  8
HIDDEN
100
AcDbLine
 10
-29.61111682052676
 20
-15.08761760801093
 30
0.0
 11
-29.61111682052676
 21
-15.08761760801093
 31
0.0
1001
DBPROPERTIES
1002
{
1000
PbHidd
1002
}
  0
LINE
  5
13E
330
1F
100
AcDbEntity
  8
HIDDEN
100
AcDbLine
 10
-44.55032620941838
 20
-22.69952498697732
 30
0.0
 11
-29.61111682052676
 21
-15.08761760801093
 31
0.0
1001
DBPROPERTIES
1002
{
1000
PbHidd
1002
}
  0
LINE
  5
13F
330
1F
100
AcDbEntity
  8
HIDDEN
100
AcDbLine
 10
-44.55032620941839
 20
-22.69952498697733
 30
0.0
 11
-44.55032620941839
 21
-22.69952498697733
 31
0.0
1001
DBPROPERTIES
1002
{
1000
PbHidd
1002
}
  0
ARC
  5
140
330
1F
100
AcDbEntity
  8
HIDDEN
100
AcDbCircle
 10
0.0
 20
0.0000000000000115
 30
0.0
 40
50.0
100
AcDbArc
 50
206.9999859941226
 51
213.0000000247326
1001
DBPROPERTIES
1002
{
1000
PbHidd
1002
}
  0
LINE
  5
141
330
1F
100
AcDbEntity
  8
HIDDEN
100
AcDbLine
 10
-41.9335283972712
 20
-27.23195175075134
 30
0.0
 11
-41.9335283972712
 21
-27.23195175075134
 31
0.0
1001
DBPROPERTIES
1002
{
1000
PbHidd
1002
}
  0
LINE
  5
142
330
1F
100
AcDbEntity
  8
HIDDEN
100
AcDbLine
 10
31.02598950725699
 20
-11.90976152322216
 30
0.0
 11
31.02598950725699
 21
-11.90976152322216
 31
0.0
1001
DBPROPERTIES
1002
{
1000
PbHidd
1002
}
  0
LINE
  5
143
330
1F
100
AcDbEntity
  8
HIDDEN
100
AcDbLine
 10
46.67902132486007
 20
-17.91839747726504
 30
0.0
 11
31.02598950725699
 21
-11.90976152322217
 31
0.0
1001
DBPROPERTIES
1002
{
1000
PbHidd
1002
}
  0
LINE
  5
144
330
1F
100
AcDbEntity
  8
HIDDEN
100
AcDbLine
 10
46.67902132486007
 20
-17.91839747726505
 30
0.0
 11
46.67902132486007
 21
-17.91839747726504
 31
0.0
1001
DBPROPERTIES
1002
{
1000
PbHidd
1002
}
  0
ARC
  5
145
330
1F
100
AcDbEntity
  8
HIDDEN
100
AcDbCircle
 10
0.0
 20
0.0000000000000115
 30
0.0
 40
50.0
100
AcDbArc
 50
339.0000081886445
 51
345.0000222192546
1001
DBPROPERTIES
1002
{
1000
PbHidd
1002
}
  0
LINE
  5
146
330
1F
100
AcDbEntity
  8
HIDDEN
100
AcDbLine
 10
48.29629131445341
 20
-12.94095225512607
 30
0.0
 11
48.29629131445341
 21
-12.94095225512608
 31
0.0
1001
DBPROPERTIES
1002
{
1000
PbHidd
1002
}
  0
LINE
  5
147
330
1F
100
AcDbEntity
  8
HIDDEN
100
AcDbLine
 10
-32.10093496034003
 20
-8.601419598907098
 30
0.0
 11
-32.10093496034003
 21
-8.601419598907098
 31
0.0
1001
DBPROPERTIES
1002
{
1000
PbHidd
1002
}
  0
LINE
  5
148
330
1F
100
AcDbEntity
  8
HIDDEN
100
AcDbLine
 10
-48.2962913144534
 20
-12.94095225512602
 30
0.0
 11
-32.10093496034003
 21
-8.601419598907095
 31
0.0
1001
DBPROPERTIES
1002
{
1000
PbHidd
1002
}
  0
LINE
  5
149
330
1F
100
AcDbEntity
  8
HIDDEN
100
AcDbLine
 10
-48.29629131445341
 20
-12.94095225512603
 30
0.0
 11
-48.29629131445341
 21
-12.94095225512602
 31
0.0
1001
DBPROPERTIES
1002
{
1000
PbHidd
1002
}
  0
ARC
  5
14A
330
1F
100
AcDbEntity
  8
HIDDEN
100
AcDbCircle
 10
0.0
 20
0.0000000000000115
 30
0.0
 40
50.0
100
AcDbArc
 50
195.0000152286821
 51
200.9999719635126
1001
DBPROPERTIES
1002
{
1000
PbHidd
1002
}
  0
LINE
  5
14B
330
1F
100
AcDbEntity
  8
HIDDEN
100
AcDbLine
 10
-46.67902132486009
 20
-17.918397477265
 30
0.0
 11
-46.67902132486009
 21
-17.918397477265
 31
0.0
1001
DBPROPERTIES
1002
{
1000
PbHidd
1002
}
  0
LINE
  5
14C
330
1F
100
AcDbEntity
  8
HIDDEN
100
AcDbLine
 10
32.82417585244507
 20
-5.19883872150368
 30
0.0
 11
32.82417585244507
 21
-5.19883872150368
 31
0.0
1001
DBPROPERTIES
1002
{
1000
PbHidd
1002
}
  0
LINE
  5
14D
330
1F
100
AcDbEntity
  8
HIDDEN
100
AcDbLine
 10
49.38441702975687
 20
-7.821723252011555
 30
0.0
 11
32.82417585244506
 21
-5.19883872150368
 31
0.0
1001
DBPROPERTIES
1002
{
1000
PbHidd
1002
}
  0
LINE
  5
14E
330
1F
100
AcDbEntity
  8
HIDDEN
100
AcDbLine
 10
49.38441702975689
 20
-7.82172325201156
 30
0.0
 11
49.38441702975689
 21
-7.821723252011553
 31
0.0
1001
DBPROPERTIES
1002
{
1000
PbHidd
1002
}
  0
ARC
  5
14F
330
1F
100
AcDbEntity
  8
HIDDEN
100
AcDbCircle
 10
0.0
 20
0.0000000000000115
 30
0.0
 40
50.0
100
AcDbArc
 50
350.9999789540851
 51
356.999992984695
1001
DBPROPERTIES
1002
{
1000
PbHidd
1002
}
  0
LINE
  5
150
330
1F
100
AcDbEntity
  8
HIDDEN
100
AcDbLine
 10
49.93147673772869
 20
-2.616797812147203
 30
0.0
 11
49.93147673772869
 21
-2.61679781214721
 31
0.0
1001
DBPROPERTIES
1002
{
1000
PbHidd
1002
}
  0
LINE
  5
151
330
1F
100
AcDbEntity
  8
HIDDEN
100
AcDbLine
 10
-33.18778820501034
 20
-1.73929827914049
 30
0.0
 11
-33.18778820501034
 21
-1.73929827914049
 31
0.0
1001
DBPROPERTIES
1002
{
1000
PbHidd
1002
}
  0
LINE
  5
152
330
1F
100
AcDbEntity
  8
HIDDEN
100
AcDbLine
 10
-49.93147673772869
 20
-2.616797812147174
 30
0.0
 11
-33.18778820501034
 21
-1.739298279140488
 31
0.0
1001
DBPROPERTIES
1002
{
1000
PbHidd
1002
}
  0
LINE
  5
153
330
1F
100
AcDbEntity
  8
HIDDEN
100
AcDbLine
 10
-49.9314767377287
 20
-2.616797812147178
 30
0.0
 11
-49.9314767377287
 21
-2.61679781214717
 31
0.0
1001
DBPROPERTIES
1002
{
1000
PbHidd
1002
}
  0
ARC
  5
154
330
1F
100
AcDbEntity
  8
HIDDEN
100
AcDbCircle
 10
0.0
 20
0.0000000000000115
 30
0.0
 40
50.0
100
AcDbArc
 50
182.9999871674622
 51
189.0000011980722
1001
DBPROPERTIES
1002
{
1000
PbHidd
1002
}
  0
LINE
  5
155
330
1F
100
AcDbEntity
  8
HIDDEN
100
AcDbLine
 10
-49.38441702975689
 20
-7.821723252011521
 30
0.0
 11
-49.38441702975689
 21
-7.821723252011528
 31
0.0
1001
DBPROPERTIES
1002
{
1000
PbHidd
1002
}
  0
LINE
  5
156
330
1F
100
AcDbEntity
  8
HIDDEN
100
AcDbLine
 10
33.18778820501034
 20
1.739298279140472
 30
0.0
 11
33.18778820501034
 21
1.739298279140472
 31
0.0
1001
DBPROPERTIES
1002
{
1000
PbHidd
1002
}
  0
LINE
  5
157
330
1F
100
AcDbEntity
  8
HIDDEN
100
AcDbLine
 10
49.93147673772869
 20
2.616797812147146
 30
0.0
 11
33.18778820501034
 21
1.739298279140469
 31
0.0
1001
DBPROPERTIES
1002
{
1000
PbHidd
1002
}
  0
LINE
  5
158
330
1F
100
AcDbEntity
  8
HIDDEN
100
AcDbLine
 10
49.9314767377287
 20
2.616797812147144
 30
0.0
 11
49.9314767377287
 21
2.616797812147151
 31
0.0
1001
DBPROPERTIES
1002
{
1000
PbHidd
1002
}
  0
ARC
  5
159
330
1F
100
AcDbEntity
  8
HIDDEN
100
AcDbCircle
 10
0.0
 20
0.0000000000000115
 30
0.0
 40
50.0
100
AcDbArc
 50
3.00000701530499
 51
9.000021045914972
1001
DBPROPERTIES
1002
{
1000
PbHidd
1002
}
  0
LINE
  5
15A
330
1F
100
AcDbEntity
  8
HIDDEN
100
AcDbLine
 10
49.3844170297569
 20
7.821723252011505
 30
0.0
 11
49.3844170297569
 21
7.821723252011498
 31
0.0
1001
DBPROPERTIES
1002
{
1000
PbHidd
1002
}
  0
LINE
  5
15B
330
1F
100
AcDbEntity
  8
HIDDEN
100
AcDbLine
 10
-32.82417585244507
 20
5.198838721503677
 30
0.0
 11
-32.82417585244507
 21
5.198838721503677
 31
0.0
1001
DBPROPERTIES
1002
{
1000
PbHidd
1002
}
  0
LINE
  5
15C
330
1F
100
AcDbEntity
  8
HIDDEN
100
AcDbLine
 10
-49.38441702975687
 20
7.82172325201155
 30
0.0
 11
-32.82417585244506
 21
5.198838721503676
 31
0.0
1001
DBPROPERTIES
1002
{
1000
PbHidd
1002
}
  0
LINE
  5
15D
330
1F
100
AcDbEntity
  8
HIDDEN
100
AcDbLine
 10
-49.38441702975689
 20
7.821723252011551
 30
0.0
 11
-49.38441702975689
 21
7.821723252011558
 31
0.0
1001
DBPROPERTIES
1002
{
1000
PbHidd
1002
}
  0
ARC
  5
15E
330
1F
100
AcDbEntity
  8
HIDDEN
100
AcDbCircle
 10
0.0
 20
0.0000000000000115
 30
0.0
 40
50.0
100
AcDbArc
 50
170.9999988019279
 51
177.0000128325378
1001
DBPROPERTIES
1002
{
1000
PbHidd
1002
}
  0
LINE
  5
15F
330
1F
100
AcDbEntity
  8
HIDDEN
100
AcDbLine
 10
-49.9314767377287
 20
2.616797812147209
 30
0.0
 11
-49.9314767377287
 21
2.616797812147202
 31
0.0
1001
DBPROPERTIES
1002
{
1000
PbHidd
1002
}
  0
LINE
  5
160
330
1F
100
AcDbEntity
  8
HIDDEN
100
AcDbLine
 10
32.10093496034003
 20
8.601419598907086
 30
0.0
 11
32.10093496034003
 21
8.601419598907086
 31
0.0
1001
DBPROPERTIES
1002
{
1000
PbHidd
1002
}
  0
LINE
  5
161
330
1F
100
AcDbEntity
  8
HIDDEN
100
AcDbLine
 10
48.29629131445341
 20
12.94095225512601
 30
0.0
 11
32.10093496034003
 21
8.601419598907084
 31
0.0
1001
DBPROPERTIES
1002
{
1000
PbHidd
1002
}
  0
LINE
  5
162
330
1F
100
AcDbEntity
  8
HIDDEN
100
AcDbLine
 10
48.29629131445343
 20
12.94095225512601
 30
0.0
 11
48.29629131445343
 21
12.94095225512601
 31
0.0
1001
DBPROPERTIES
1002
{
1000
PbHidd
1002
}
  0
ARC
  5
163
330
1F
100
AcDbEntity
  8
HIDDEN
100
AcDbCircle
 10
0.0
 20
0.0000000000000115
 30
0.0
 40
50.0
100
AcDbArc
 50
14.99997778074544
 51
20.99999181135542
1001
DBPROPERTIES
1002
{
1000
PbHidd
1002
}
  0
LINE
  5
164
330
1F
100
AcDbEntity
  8
HIDDEN
100
AcDbLine
 10
46.6790213248601
 20
17.91839747726499
 30
0.0
 11
46.6790213248601
 21
17.91839747726498
 31
0.0
1001
DBPROPERTIES
1002
{
1000
PbHidd
1002
}
  0
LINE
  5
165
330
1F
100
AcDbEntity
  8
HIDDEN
100
AcDbLine
 10
-31.025989507257
 20
11.90976152322215
 30
0.0
 11
-31.025989507257
 21
11.90976152322215
 31
0.0
1001
DBPROPERTIES
1002
{
1000
PbHidd
1002
}
  0
LINE
  5
166
330
1F
100
AcDbEntity
  8
HIDDEN
100
AcDbLine
 10
-46.67902132486007
 20
17.91839747726502
 30
0.0
 11
-31.02598950725699
 21
11.90976152322215
 31
0.0
1001
DBPROPERTIES
1002
{
1000
PbHidd
1002
}
  0
LINE
  5
167
330
1F
100
AcDbEntity
  8
HIDDEN
100
AcDbLine
 10
-46.67902132486009
 20
17.91839747726502
 30
0.0
 11
-46.67902132486009
 21
17.91839747726503
 31
0.0
1001
DBPROPERTIES
1002
{
1000
PbHidd
1002
}
  0
ARC
  5
168
330
1F
100
AcDbEntity
  8
HIDDEN
100
AcDbCircle
 10
0.0
 20
0.0000000000000115
 30
0.0
 40
50.0
100
AcDbArc
 50
159.0000280364874
 51
164.9999847713179
1001
DBPROPERTIES
1002
{
1000
PbHidd
1002
}
  0
LINE
  5
169
330
1F
100
AcDbEntity
  8
HIDDEN
100
AcDbLine
 10
-48.29629131445342
 20
12.94095225512605
 30
0.0
 11
-48.29629131445342
 21
12.94095225512605
 31
0.0
1001
DBPROPERTIES
1002
{
1000
PbHidd
1002
}
  0
LINE
  5
16A
330
1F
100
AcDbEntity
  8
HIDDEN
100
AcDbLine
 10
29.61111682052676
 20
15.08761760801093
 30
0.0
 11
29.61111682052676
 21
15.08761760801093
 31
0.0
1001
DBPROPERTIES
1002
{
1000
PbHidd
1002
}
  0
LINE
  5
16B
330
1F
100
AcDbEntity
  8
HIDDEN
100
AcDbLine
 10
44.55032620941839
 20
22.69952498697732
 30
0.0
 11
29.61111682052676
 21
15.08761760801093
 31
0.0
1001
DBPROPERTIES
1002
{
1000
PbHidd
1002
}
  0
LINE
  5
16C
330
1F
100
AcDbEntity
  8
HIDDEN
100
AcDbLine
 10
44.5503262094184
 20
22.69952498697733
 30
0.0
 11
44.5503262094184
 21
22.69952498697733
 31
0.0
1001
DBPROPERTIES
1002
{
1000
PbHidd
1002
}
  0
ARC
  5
16D
330
1F
100
AcDbEntity
  8
HIDDEN
100
AcDbCircle
 10
0.0
 20
0.0000000000000115
 30
0.0
 40
50.0
100
AcDbArc
 50
27.0000058419654
 51
33.00001987257539
1001
DBPROPERTIES
1002
{
1000
PbHidd
1002
}
  0
LINE
  5
16E
330
1F
100
AcDbEntity
  8
HIDDEN
100
AcDbLine
 10
41.93352839727122
 20
27.23195175075134
 30
0.0
 11
41.93352839727122
 21
27.23195175075134
 31
0.0
1001
DBPROPERTIES
1002
{
1000
PbHidd
1002
}
  0
LINE
  5
16F
330
1F
100
AcDbEntity
  8
HIDDEN
100
AcDbLine
 10
-27.87181854138625
 20
18.1001705969994
 30
0.0
 11
-27.87181854138625
 21
18.1001705969994
 31
0.0
1001
DBPROPERTIES
1002
{
1000
PbHidd
1002
}
  0
LINE
  5
170
330
1F
100
AcDbEntity
  8
HIDDEN
100
AcDbLine
 10
-41.93352839727119
 20
27.23195175075136
 30
0.0
 11
-27.87181854138624
 21
18.1001705969994
 31
0.0
1001
DBPROPERTIES
1002
{
1000
PbHidd
1002
}
  0
LINE
  5
171
330
1F
100
AcDbEntity
  8
HIDDEN
100
AcDbLine
 10
-41.9335283972712
 20
27.23195175075137
 30
0.0
 11
-41.9335283972712
 21
27.23195175075138
 31
0.0
1001
DBPROPERTIES
1002
{
1000
PbHidd
1002
}
  0
ARC
  5
172
330
1F
100
AcDbEntity
  8
HIDDEN
100
AcDbCircle
 10
0.0
 20
0.0000000000000115
 30
0.0
 40
50.0
100
AcDbArc
 50
146.9999999752674
 51
153.0000140058774
1001
DBPROPERTIES
1002
{
1000
PbHidd
1002
}
  0
LINE
  5
173
330
1F
100
AcDbEntity
  8
HIDDEN
100
AcDbLine
 10
-44.5503262094184
 20
22.69952498697737
 30
0.0
 11
-44.5503262094184
 21
22.69952498697736
 31
0.0
1001
DBPROPERTIES
1002
{
1000
PbHidd
1002
}
  0
LINE
  5
174
330
1F
100
AcDbEntity
  8
HIDDEN
100
AcDbLine
 10
25.82715078575335
 20
20.91441432922291
 30
0.0
 11
25.82715078575335
 21
20.91441432922291
 31
0.0
1001
DBPROPERTIES
1002
{
1000
PbHidd
1002
}
  0
LINE
  5
175
330
1F
100
AcDbEntity
  8
HIDDEN
100
AcDbLine
 10
38.85729807284856
 20
31.46601955249184
 30
0.0
 11
25.82715078575334
 21
20.91441432922291
 31
0.0
1001
DBPROPERTIES
1002
{
1000
PbHidd
1002
}
  0
LINE
  5
176
330
1F
100
AcDbEntity
  8
HIDDEN
100
AcDbLine
 10
38.85729807284857
 20
31.46601955249184
 30
0.0
 11
38.85729807284857
 21
31.46601955249185
 31
0.0
1001
DBPROPERTIES
1002
{
1000
PbHidd
1002
}
  0
ARC
  5
177
330
1F
100
AcDbEntity
  8
HIDDEN
100
AcDbCircle
 10
0.0
 20
0.0000000000000115
 30
0.0
 40
50.0
100
AcDbArc
 50
38.99997660740585
 51
44.99999063801582
1001
DBPROPERTIES
1002
{
1000
PbHidd
1002
}
  0
LINE
  5
178
330
1F
100
AcDbEntity
  8
HIDDEN
100
AcDbLine
 10
35.35533905932741
 20
35.35533905932736
 30
0.0
 11
35.35533905932741
 21
35.35533905932735
 31
0.0
1001
DBPROPERTIES
1002
{
1000
PbHidd
1002
}
  0
LINE
  5
179
330
1F
100
AcDbEntity
  8
HIDDEN
100
AcDbLine
 10
-23.49951536143293
 20
23.49951536143293
 30
0.0
 11
-23.49951536143293
 21
23.49951536143293
 31
0.0
1001
DBPROPERTIES
1002
{
1000
PbHidd
1002
}
  0
LINE
  5
17A
330
1F
100
AcDbEntity
  8
HIDDEN
100
AcDbLine
 10
-35.35533905932737
 20
35.35533905932738
 30
0.0
 11
-23.49951536143292
 21
23.49951536143293
 31
0.0
1001
DBPROPERTIES
1002
{
1000
PbHidd
1002
}
  0
LINE
  5
17B
330
1F
100
AcDbEntity
  8
HIDDEN
100
AcDbLine
 10
-35.35533905932738
 20
35.35533905932738
 30
0.0
 11
-35.35533905932738
 21
35.35533905932739
 31
0.0
1001
DBPROPERTIES
1002
{
1000
PbHidd
1002
}
  0
ARC
  5
17C
330
1F
100
AcDbEntity
  8
HIDDEN
100
AcDbCircle
 10
0.0
 20
0.0000000000000115
 30
0.0
 40
50.0
100
AcDbArc
 50
134.9999719140475
 51
140.9999859446575
1001
DBPROPERTIES
1002
{
1000
PbHidd
1002
}
  0
LINE
  5
17D
330
1F
100
AcDbEntity
  8
HIDDEN
100
AcDbLine
 10
-38.85729807284855
 20
31.46601955249189
 30
0.0
 11
-38.85729807284855
 21
31.46601955249188
 31
0.0
1001
DBPROPERTIES
1002
{
1000
PbHidd
1002
}
  0
LINE
  5
17E
330
1F
100
AcDbEntity
  8
HIDDEN
100
AcDbLine
 10
20.91441432922294
 20
25.82715078575332
 30
0.0
 11
20.91441432922294
 21
25.82715078575332
 31
0.0
1001
DBPROPERTIES
1002
{
1000
PbHidd
1002
}
  0
LINE
  5
17F
330
1F
100
AcDbEntity
  8
HIDDEN
100
AcDbLine
 10
31.46601955249189
 20
38.85729807284852
 30
0.0
 11
20.91441432922294
 21
25.82715078575331
 31
0.0
1001
DBPROPERTIES
1002
{
1000
PbHidd
1002
}
  0
LINE
  5
180
330
1F
100
AcDbEntity
  8
HIDDEN
100
AcDbLine
 10
31.4660195524919
 20
38.85729807284854
 30
0.0
 11
31.4660195524919
 21
38.85729807284854
 31
0.0
1001
DBPROPERTIES
1002
{
1000
PbHidd
1002
}
  0
ARC
  5
181
330
1F
100
AcDbEntity
  8
HIDDEN
100
AcDbCircle
 10
0.0
 20
0.0000000000000115
 30
0.0
 40
50.0
100
AcDbArc
 50
51.00000466862581
 51
57.0000186992358
1001
DBPROPERTIES
1002
{
1000
PbHidd
1002
}
  0
LINE
  5
182
330
1F
100
AcDbEntity
  8
HIDDEN
100
AcDbLine
 10
27.23195175075139
 20
41.93352839727121
 30
0.0
 11
27.23195175075139
 21
41.9335283972712
 31
0.0
1001
DBPROPERTIES
1002
{
1000
PbHidd
1002
}
  0
LINE
  5
183
330
1F
100
AcDbEntity
  8
HIDDEN
100
AcDbLine
 10
-18.10017059699939
 20
27.87181854138625
 30
0.0
 11
-18.10017059699939
 21
27.87181854138625
 31
0.0
1001
DBPROPERTIES
1002
{
1000
PbHidd
1002
}
  0
LINE
  5
184
330
1F
100
AcDbEntity
  8
HIDDEN
100
AcDbLine
 10
-27.23195175075135
 20
41.9335283972712
 30
0.0
 11
-18.10017059699939
 21
27.87181854138625
 31
0.0
1001
DBPROPERTIES
1002
{
1000
PbHidd
1002
}
  0
LINE
  5
185
330
1F
100
AcDbEntity
  8
HIDDEN
100
AcDbLine
 10
-27.23195175075135
 20
41.93352839727122
 30
0.0
 11
-27.23195175075135
 21
41.93352839727122
 31
0.0
1001
DBPROPERTIES
1002
{
1000
PbHidd
1002
}
  0
ARC
  5
186
330
1F
100
AcDbEntity
  8
HIDDEN
100
AcDbCircle
 10
0.0
 20
0.0000000000000115
 30
0.0
 40
50.0
100
AcDbArc
 50
123.000001148607
 51
129.000015179217
1001
DBPROPERTIES
1002
{
1000
PbHidd
1002
}
  0
LINE
  5
187
330
1F
100
AcDbEntity
  8
HIDDEN
100
AcDbLine
 10
-31.46601955249187
 20
38.85729807284856
 30
0.0
 11
-31.46601955249187
 21
38.85729807284856
 31
0.0
1001
DBPROPERTIES
1002
{
1000
PbHidd
1002
}
  0
LINE
  5
188
330
1F
100
AcDbEntity
  8
HIDDEN
100
AcDbLine
 10
15.08761760801095
 20
29.61111682052675
 30
0.0
 11
15.08761760801095
 21
29.61111682052675
 31
0.0
1001
DBPROPERTIES
1002
{
1000
PbHidd
1002
}
  0
LINE
  5
189
330
1F
100
AcDbEntity
  8
HIDDEN
100
AcDbLine
 10
22.69952498697737
 20
44.55032620941839
 30
0.0
 11
15.08761760801095
 21
29.61111682052674
 31
0.0
1001
DBPROPERTIES
1002
{
1000
PbHidd
1002
}
  0
LINE
  5
18A
330
1F
100
AcDbEntity
  8
HIDDEN
100
AcDbLine
 10
22.69952498697737
 20
44.55032620941839
 30
0.0
 11
22.69952498697737
 21
44.5503262094184
 31
0.0
1001
DBPROPERTIES
1002
{
1000
PbHidd
1002
}
  0
ARC
  5
18B
330
1F
100
AcDbEntity
  8
HIDDEN
100
AcDbCircle
 10
0.0
 20
0.0000000000000115
 30
0.0
 40
50.0
100
AcDbArc
 50
62.99997543406626
 51
68.99998946467625
1001
DBPROPERTIES
1002
{
1000
PbHidd
1002
}
  0
LINE
  5
18C
330
1F
100
AcDbEntity
  8
HIDDEN
100
AcDbLine
 10
17.91839747726504
 20
46.6790213248601
 30
0.0
 11
17.91839747726504
 21
46.67902132486009
 31
0.0
1001
DBPROPERTIES
1002
{
1000
PbHidd
1002
}
  0
LINE
  5
18D
330
1F
100
AcDbEntity
  8
HIDDEN
100
AcDbLine
 10
-11.90976152322214
 20
31.02598950725701
 30
0.0
 11
-11.90976152322214
 21
31.02598950725701
 31
0.0
1001
DBPROPERTIES
1002
{
1000
PbHidd
1002
}
  0
LINE
  5
18E
330
1F
100
AcDbEntity
  8
HIDDEN
100
AcDbLine
 10
-17.918397477265
 20
46.67902132486009
 30
0.0
 11
-11.90976152322213
 21
31.025989507257
 31
0.0
1001
DBPROPERTIES
1002
{
1000
PbHidd
1002
}
  0
LINE
  5
18F
330
1F
100
AcDbEntity
  8
HIDDEN
100
AcDbLine
 10
-17.91839747726501
 20
46.6790213248601
 30
0.0
 11
-17.91839747726501
 21
46.67902132486011
 31
0.0
1001
DBPROPERTIES
1002
{
1000
PbHidd
1002
}
  0
ARC
  5
190
330
1F
100
AcDbEntity
  8
HIDDEN
100
AcDbCircle
 10
0.0
 20
0.0000000000000115
 30
0.0
 40
50.0
100
AcDbArc
 50
110.9999730873871
 51
116.9999871179971
1001
DBPROPERTIES
1002
{
1000
PbHidd
1002
}
  0
LINE
  5
191
330
1F
100
AcDbEntity
  8
HIDDEN
100
AcDbLine
 10
-22.69952498697733
 20
44.55032620941842
 30
0.0
 11
-22.69952498697733
 21
44.55032620941841
 31
0.0
1001
DBPROPERTIES
1002
{
1000
PbHidd
1002
}
  0
LINE
  5
192
330
1F
100
AcDbEntity
  8
HIDDEN
100
AcDbLine
 10
8.601419598907134
 20
32.10093496034003
 30
0.0
 11
8.601419598907134
 21
32.10093496034003
 31
0.0
1001
DBPROPERTIES
1002
{
1000
PbHidd
1002
}
  0
LINE
  5
193
330
1F
100
AcDbEntity
  8
HIDDEN
100
AcDbLine
 10
12.94095225512608
 20
48.29629131445341
 30
0.0
 11
8.601419598907137
 21
32.10093496034002
 31
0.0
1001
DBPROPERTIES
1002
{
1000
PbHidd
1002
}
  0
LINE
  5
194
330
1F
100
AcDbEntity
  8
HIDDEN
100
AcDbLine
 10
12.94095225512609
 20
48.29629131445342
 30
0.0
 11
12.94095225512609
 21
48.29629131445343
 31
0.0
1001
DBPROPERTIES
1002
{
1000
PbHidd
1002
}
  0
ARC
  5
195
330
1F
100
AcDbEntity
  8
HIDDEN
100
AcDbCircle
 10
0.0
 20
0.0000000000000115
 30
0.0
 40
50.0
100
AcDbArc
 50
75.00000349528622
 51
81.0000175258962
1001
DBPROPERTIES
1002
{
1000
PbHidd
1002
}
  0
LINE
  5
196
330
1F
100
AcDbEntity
  8
HIDDEN
100
AcDbLine
 10
7.821723252011591
 20
49.3844170297569
 30
0.0
 11
7.821723252011591
 21
49.3844170297569
 31
0.0
1001
DBPROPERTIES
1002
{
1000
PbHidd
1002
}
  0
LINE
  5
197
330
1F
100
AcDbEntity
  8
HIDDEN
100
AcDbLine
 10
-5.198838721503669
 20
32.82417585244507
 30
0.0
 11
-5.198838721503669
 21
32.82417585244507
 31
0.0
1001
DBPROPERTIES
1002
{
1000
PbHidd
1002
}
  0
LINE
  5
198
330
1F
100
AcDbEntity
  8
HIDDEN
100
AcDbLine
 10
-7.821723252011538
 20
49.38441702975689
 30
0.0
 11
-5.198838721503667
 21
32.82417585244507
 31
0.0
1001
DBPROPERTIES
1002
{
1000
PbHidd
1002
}
  0
LINE
  5
199
330
1F
100
AcDbEntity
  8
HIDDEN
100
AcDbLine
 10
-7.821723252011539
 20
49.3844170297569
 30
0.0
 11
-7.821723252011539
 21
49.38441702975691
 31
0.0
1001
DBPROPERTIES
1002
{
1000
PbHidd
1002
}
  0
ARC
  5
19A
330
1F
100
AcDbEntity
  8
HIDDEN
100
AcDbCircle
 10
0.0
 20
0.0000000000000115
 30
0.0
 40
50.0
100
AcDbArc
 50
99.00000232194662
 51
105.0000163525566
1001
DBPROPERTIES
1002
{
1000
PbHidd
1002
}
  0
LINE
  5
19B
330
1F
100
AcDbEntity
  8
HIDDEN
100
AcDbLine
 10
-12.94095225512603
 20
48.29629131445343
 30
0.0
 11
-12.94095225512603
 21
48.29629131445343
 31
0.0
1001
DBPROPERTIES
1002
{
1000
PbHidd
1002
}
  0
ARC
  5
19C
330
1F
100
AcDbEntity
  8
HIDDEN
100
AcDbCircle
 10
0.0
 20
0.0000000000000104
 30
0.0
 40
81.63265306122449
100
AcDbArc
 50
89.99998127603165
 51
93.92508594735487
1001
DBPROPERTIES
1002
{
1000
PbHidd
1002
}
  0
ARC
  5
19D
330
1F
100
AcDbEntity
  8
THICK
100
AcDbCircle
 10
0.0
 20
0.0000000000000104
 30
0.0
 40
81.63265306122449
100
AcDbArc
 50
93.92508594735487
 51
110.7495332351354
1001
DBPROPERTIES
1002
{
1000
PbThick
1002
}
  0
ARC
  5
19E
330
1F
100
AcDbEntity
  8
HIDDEN
100
AcDbCircle
 10
0.0
 20
0.0000000000000104
 30
0.0
 40
81.63265306122449
100
AcDbArc
 50
110.7495332351354
 51
145.3536630467385
1001
DBPROPERTIES
1002
{
1000
PbHidd
1002
}
  0
ARC
  5
19F
330
1F
100
AcDbEntity
  8
THICK
100
AcDbCircle
 10
0.0
 20
0.0000000000000104
 30
0.0
 40
81.63265306122449
100
AcDbArc
 50
145.3536630467385
 51
162.1781103345191
1001
DBPROPERTIES
1002
{
1000
PbThick
1002
}
  0
ARC
  5
1A0
330
1F
100
AcDbEntity
  8
HIDDEN
100
AcDbCircle
 10
0.0
 20
0.0000000000000104
 30
0.0
 40
81.63265306122449
100
AcDbArc
 50
162.1781103345191
 51
196.782257746216
1001
DBPROPERTIES
1002
{
1000
PbHidd
1002
}
  0
ARC
  5
1A1
330
1F
100
AcDbEntity
  8
THICK
100
AcDbCircle
 10
0.0
 20
0.0000000000000104
 30
0.0
 40
81.63265306122449
100
AcDbArc
 50
196.782257746216
 51
213.6066477382171
1001
DBPROPERTIES
1002
{
1000
PbThick
1002
}
  0
ARC
  5
1A2
330
1F
100
AcDbEntity
  8
HIDDEN
100
AcDbCircle
 10
0.0
 20
0.0000000000000104
 30
0.0
 40
81.63265306122449
100
AcDbArc
 50
213.6066477382171
 51
248.2108348455997
1001
DBPROPERTIES
1002
{
1000
PbHidd
1002
}
  0
ARC
  5
1A3
330
1F
100
AcDbEntity
  8
THICK
100
AcDbCircle
 10
0.0
 20
0.0000000000000104
 30
0.0
 40
81.63265306122449
100
AcDbArc
 50
248.2108348455997
 51
265.0352248376007
1001
DBPROPERTIES
1002
{
1000
PbThick
1002
}
  0
ARC
  5
1A4
330
1F
100
AcDbEntity
  8
HIDDEN
100
AcDbCircle
 10
0.0
 20
0.0000000000000104
 30
0.0
 40
81.63265306122449
100
AcDbArc
 50
265.0352248376007
 51
270.0000187239684
1001
DBPROPERTIES
1002
{
1000
PbHidd
1002
}
  0
ARC
  5
1A5
330
1F
100
AcDbEntity
  8
HIDDEN
100
AcDbCircle
 10
0.0
 20
0.000000000000002
 30
0.0
 40
105.0854227795802
100
AcDbArc
 50
187.0905047542396
 51
262.9094941218858
1001
DBPROPERTIES
1002
{
1000
PbHidd
1002
}
  0
LINE
  5
1A6
330
1F
100
AcDbEntity
  8
HIDDEN
100
AcDbLine
 10
-13.35442580388663
 20
-107.9253297080406
 30
0.0
 11
-13.12638573786279
 21
-105.7556734097248
 31
0.0
1001
DBPROPERTIES
1002
{
1000
PbHidd
1002
}
  0
LINE
  5
1A7
330
1F
100
AcDbEntity
  8
HIDDEN
100
AcDbLine
 10
-105.7556734097249
 20
-13.12638573786279
 30
0.0
 11
-107.9253297080406
 21
-13.35442580388663
 31
0.0
1001
DBPROPERTIES
1002
{
1000
PbHidd
1002
}
  0
LINE
  5
1A8
330
1F
100
AcDbEntity
  8
HIDDEN
100
AcDbLine
 10
-9.1482981563897
 20
-106.1737872627953
 30
0.0
 11
-9.376338222413546
 21
-108.3434435611112
 31
0.0
1001
DBPROPERTIES
1002
{
1000
PbHidd
1002
}
  0
ARC
  5
1A9
330
1F
100
AcDbEntity
  8
HIDDEN
100
AcDbCircle
 10
0.0
 20
0.000000000000002
 30
0.0
 40
105.0854227795802
100
AcDbArc
 50
265.0905152648309
 51
274.9094648873264
1001
DBPROPERTIES
1002
{
1000
PbHidd
1002
}
  0
LINE
  5
1AA
330
1F
100
AcDbEntity
  8
HIDDEN
100
AcDbLine
 10
9.376338222413526
 20
-108.3434435611112
 30
0.0
 11
9.148298156389682
 21
-106.1737872627953
 31
0.0
1001
DBPROPERTIES
1002
{
1000
PbHidd
1002
}
  0
ARC
  5
1AB
330
1F
100
AcDbEntity
  8
HIDDEN
100
AcDbCircle
 10
0.0
 20
0.000000000000002
 30
0.0
 40
108.7484136948249
100
AcDbArc
 50
175.0537897940374
 51
180.0000198478428
1001
DBPROPERTIES
1002
{
1000
PbHidd
1002
}
  0
LINE
  5
1AC
330
1F
100
AcDbEntity
  8
HIDDEN
100
AcDbLine
 10
-106.1737872627955
 20
9.148298156389712
 30
0.0
 11
-108.3434435611112
 21
9.376338222413548
 31
0.0
1001
DBPROPERTIES
1002
{
1000
PbHidd
1002
}
  0
ARC
  5
1AD
330
1F
100
AcDbEntity
  8
HIDDEN
100
AcDbCircle
 10
0.0
 20
0.000000000000002
 30
0.0
 40
105.0854227795802
100
AcDbArc
 50
180.0000198478428
 51
184.9094836112947
1001
DBPROPERTIES
1002
{
1000
PbHidd
1002
}
  0
LINE
  5
1AE
330
1F
100
AcDbEntity
  8
HIDDEN
100
AcDbLine
 10
-108.3434435611112
 20
-9.376338222413528
 30
0.0
 11
-106.1737872627955
 21
-9.148298156389698
 31
0.0
1001
DBPROPERTIES
1002
{
1000
PbHidd
1002
}
  0
ARC
  5
1AF
330
1F
100
AcDbEntity
  8
HIDDEN
100
AcDbCircle
 10
0.0
 20
0.000000000000002
 30
0.0
 40
105.0854227795802
100
AcDbArc
 50
277.0905433260509
 51
352.9094753979176
1001
DBPROPERTIES
1002
{
1000
PbHidd
1002
}
  0
LINE
  5
1B0
330
1F
100
AcDbEntity
  8
HIDDEN
100
AcDbLine
 10
107.9253297080406
 20
-13.35442580388664
 30
0.0
 11
105.7556734097246
 21
-13.12638573786279
 31
0.0
1001
DBPROPERTIES
1002
{
1000
PbHidd
1002
}
  0
LINE
  5
1B1
330
1F
100
AcDbEntity
  8
HIDDEN
100
AcDbLine
 10
13.12638573786278
 20
-105.7556734097247
 30
0.0
 11
13.35442580388663
 21
-107.9253297080406
 31
0.0
1001
DBPROPERTIES
1002
{
1000
PbHidd
1002
}
  0
ARC
  5
1B2
330
1F
100
AcDbEntity
  8
HIDDEN
100
AcDbCircle
 10
0.0
 20
0.000000000000002
 30
0.0
 40
108.7484136948249
100
AcDbArc
 50
166.7179414242381
 51
172.9462218404283
1001
DBPROPERTIES
1002
{
1000
PbHidd
1002
}
  0
ARC
  5
1B3
330
1F
100
AcDbEntity
  8
THICK
100
AcDbCircle
 10
0.0
 20
0.000000000000002
 30
0.0
 40
108.7484136948249
100
AcDbArc
 50
141.0890808818003
 51
166.7179414242381
1001
DBPROPERTIES
1002
{
1000
PbThick
1002
}
  0
ARC
  5
1B4
330
1F
100
AcDbEntity
  8
HIDDEN
100
AcDbCircle
 10
0.0
 20
0.000000000000002
 30
0.0
 40
108.7484136948249
100
AcDbArc
 50
115.2893643248544
 51
141.0890808818003
1001
DBPROPERTIES
1002
{
1000
PbHidd
1002
}
  0
ARC
  5
1B5
330
1F
100
AcDbEntity
  8
THICK
100
AcDbCircle
 10
0.0
 20
0.000000000000002
 30
0.0
 40
108.7484136948249
100
AcDbArc
 50
97.05377928344626
 51
115.2893643248544
1001
DBPROPERTIES
1002
{
1000
PbThick
1002
}
  0
LINE
  5
1B6
330
1F
100
AcDbEntity
  8
HIDDEN
100
AcDbLine
 10
-13.12638573786275
 20
105.7556734097247
 30
0.0
 11
-13.3544258038866
 21
107.9253297080406
 31
0.0
1001
DBPROPERTIES
1002
{
1000
PbHidd
1002
}
  0
ARC
  5
1B7
330
1F
100
AcDbEntity
  8
HIDDEN
100
AcDbCircle
 10
0.0
 20
0.000000000000002
 30
0.0
 40
105.0854227795802
100
AcDbArc
 50
97.09050587811413
 51
172.9094952457604
1001
DBPROPERTIES
1002
{
1000
PbHidd
1002
}
  0
LINE
  5
1B8
330
1F
100
AcDbEntity
  8
HIDDEN
100
AcDbLine
 10
-107.9253297080406
 20
13.35442580388664
 30
0.0
 11
-105.7556734097249
 21
13.12638573786281
 31
0.0
1001
DBPROPERTIES
1002
{
1000
PbHidd
1002
}
  0
LINE
  5
1B9
330
1F
100
AcDbEntity
  8
HIDDEN
100
AcDbLine
 10
106.1737872627952
 20
-9.148298156389696
 30
0.0
 11
108.3434435611112
 21
-9.376338222413555
 31
0.0
1001
DBPROPERTIES
1002
{
1000
PbHidd
1002
}
  0
ARC
  5
1BA
330
1F
100
AcDbEntity
  8
HIDDEN
100
AcDbCircle
 10
0.0
 20
0.000000000000002
 30
0.0
 40
105.0854227795802
100
AcDbArc
 50
355.090553836642
 51
0.0
1001
DBPROPERTIES
1002
{
1000
PbHidd
1002
}
  0
LINE
  5
1BB
330
1F
100
AcDbEntity
  8
HIDDEN
100
AcDbLine
 10
108.3434435611111
 20
9.376338222413505
 30
0.0
 11
106.1737872627952
 21
9.14829815638965
 31
0.0
1001
DBPROPERTIES
1002
{
1000
PbHidd
1002
}
  0
ARC
  5
1BC
330
1F
100
AcDbEntity
  8
THICK
100
AcDbCircle
 10
0.0
 20
0.000000000000002
 30
0.0
 40
108.7484136948249
100
AcDbArc
 50
0.0
 51
4.946230053805371
1001
DBPROPERTIES
1002
{
1000
PbThick
1002
}
  0
ARC
  5
1BD
330
1F
100
AcDbEntity
  8
THICK
100
AcDbCircle
 10
0.0
 20
0.000000000000002
 30
0.0
 40
108.7484136948249
100
AcDbArc
 50
89.66056107819615
 51
94.94621132983701
1001
DBPROPERTIES
1002
{
1000
PbThick
1002
}
  0
ARC
  5
1BE
330
1F
100
AcDbEntity
  8
HIDDEN
100
AcDbCircle
 10
0.0
 20
0.000000000000002
 30
0.0
 40
108.7484136948249
100
AcDbArc
 50
85.0538085180058
 51
89.66056107819615
1001
DBPROPERTIES
1002
{
1000
PbHidd
1002
}
  0
LINE
  5
1BF
330
1F
100
AcDbEntity
  8
HIDDEN
100
AcDbLine
 10
9.148298156389732
 20
106.1737872627953
 30
0.0
 11
9.376338222413581
 21
108.3434435611112
 31
0.0
1001
DBPROPERTIES
1002
{
1000
PbHidd
1002
}
  0
ARC
  5
1C0
330
1F
100
AcDbEntity
  8
HIDDEN
100
AcDbCircle
 10
0.0
 20
0.000000000000002
 30
0.0
 40
105.0854227795802
100
AcDbArc
 50
85.09053511267369
 51
94.90948473516914
1001
DBPROPERTIES
1002
{
1000
PbHidd
1002
}
  0
LINE
  5
1C1
330
1F
100
AcDbEntity
  8
HIDDEN
100
AcDbLine
 10
-9.376338222413505
 20
108.3434435611112
 30
0.0
 11
-9.148298156389659
 21
106.1737872627954
 31
0.0
1001
DBPROPERTIES
1002
{
1000
PbHidd
1002
}
  0
ARC
  5
1C2
330
1F
100
AcDbEntity
  8
THICK
100
AcDbCircle
 10
0.0
 20
0.0000000000000018
 30
0.0
 40
103.3854227795802
100
AcDbArc
 50
244.6069876100064
 51
262.8915605428983
1001
DBPROPERTIES
1002
{
1000
PbThick
1002
}
  0
ARC
  5
1C3
330
1F
100
AcDbEntity
  8
HIDDEN
100
AcDbCircle
 10
0.0
 20
0.0000000000000018
 30
0.0
 40
103.3854227795802
100
AcDbArc
 50
217.4438606837672
 51
244.6069876100064
1001
DBPROPERTIES
1002
{
1000
PbHidd
1002
}
  0
ARC
  5
1C4
330
1F
100
AcDbEntity
  8
THICK
100
AcDbCircle
 10
0.0
 20
0.0000000000000018
 30
0.0
 40
103.3854227795802
100
AcDbArc
 50
193.1784105106227
 51
217.4438606837672
1001
DBPROPERTIES
1002
{
1000
PbThick
1002
}
  0
ARC
  5
1C5
330
1F
100
AcDbEntity
  8
HIDDEN
100
AcDbCircle
 10
0.0
 20
0.0000000000000018
 30
0.0
 40
103.3854227795802
100
AcDbArc
 50
187.1084383332272
 51
193.1784105106227
1001
DBPROPERTIES
1002
{
1000
PbHidd
1002
}
  0
ARC
  5
1C6
330
1F
100
AcDbEntity
  8
HIDDEN
100
AcDbCircle
 10
0.0
 20
0.0000000000000018
 30
0.0
 40
103.3854227795802
100
AcDbArc
 50
268.8724377831509
 51
274.8915313083387
1001
DBPROPERTIES
1002
{
1000
PbHidd
1002
}
  0
ARC
  5
1C7
330
1F
100
AcDbEntity
  8
THICK
100
AcDbCircle
 10
0.0
 20
0.0000000000000018
 30
0.0
 40
103.3854227795802
100
AcDbArc
 50
265.1084488438185
 51
268.8724377831509
1001
DBPROPERTIES
1002
{
1000
PbThick
1002
}
  0
ARC
  5
1C8
330
1F
100
AcDbEntity
  8
HIDDEN
100
AcDbCircle
 10
0.0
 20
0.0000000000000018
 30
0.0
 40
103.3854227795802
100
AcDbArc
 50
180.0000198478428
 51
184.891550032307
1001
DBPROPERTIES
1002
{
1000
PbHidd
1002
}
  0
ARC
  5
1C9
330
1F
100
AcDbEntity
  8
THICK
100
AcDbCircle
 10
0.0
 20
0.0000000000000018
 30
0.0
 40
103.3854227795802
100
AcDbArc
 50
347.4641418087737
 51
352.8915418189299
1001
DBPROPERTIES
1002
{
1000
PbThick
1002
}
  0
ARC
  5
1CA
330
1F
100
AcDbEntity
  8
HIDDEN
100
AcDbCircle
 10
0.0
 20
0.0000000000000018
 30
0.0
 40
103.3854227795802
100
AcDbArc
 50
320.3010148825345
 51
347.4641418087737
1001
DBPROPERTIES
1002
{
1000
PbHidd
1002
}
  0
ARC
  5
1CB
330
1F
100
AcDbEntity
  8
THICK
100
AcDbCircle
 10
0.0
 20
0.0000000000000018
 30
0.0
 40
103.3854227795802
100
AcDbArc
 50
296.03556470939
 51
320.3010148825345
1001
DBPROPERTIES
1002
{
1000
PbThick
1002
}
  0
ARC
  5
1CC
330
1F
100
AcDbEntity
  8
HIDDEN
100
AcDbCircle
 10
0.0
 20
0.0000000000000018
 30
0.0
 40
103.3854227795802
100
AcDbArc
 50
277.1084769050384
 51
296.03556470939
1001
DBPROPERTIES
1002
{
1000
PbHidd
1002
}
  0
ARC
  5
1CD
330
1F
100
AcDbEntity
  8
HIDDEN
100
AcDbCircle
 10
0.0
 20
0.0000000000000018
 30
0.0
 40
103.3854227795802
100
AcDbArc
 50
166.0152659842897
 51
172.8915616667728
1001
DBPROPERTIES
1002
{
1000
PbHidd
1002
}
  0
ARC
  5
1CE
330
1F
100
AcDbEntity
  8
THICK
100
AcDbCircle
 10
0.0
 20
0.0000000000000018
 30
0.0
 40
103.3854227795802
100
AcDbArc
 50
141.7498158111452
 51
166.0152659842897
1001
DBPROPERTIES
1002
{
1000
PbThick
1002
}
  0
ARC
  5
1CF
330
1F
100
AcDbEntity
  8
HIDDEN
100
AcDbCircle
 10
0.0
 20
0.0000000000000018
 30
0.0
 40
103.3854227795802
100
AcDbArc
 50
114.586688884906
 51
141.7498158111452
1001
DBPROPERTIES
1002
{
1000
PbHidd
1002
}
  0
ARC
  5
1D0
330
1F
100
AcDbEntity
  8
THICK
100
AcDbCircle
 10
0.0
 20
0.0000000000000018
 30
0.0
 40
103.3854227795802
100
AcDbArc
 50
97.10843945710174
 51
114.586688884906
1001
DBPROPERTIES
1002
{
1000
PbThick
1002
}
  0
ARC
  5
1D1
330
1F
100
AcDbEntity
  8
THICK
100
AcDbCircle
 10
0.0
 20
0.0000000000000018
 30
0.0
 40
103.3854227795802
100
AcDbArc
 50
355.1084874156296
 51
0.0
1001
DBPROPERTIES
1002
{
1000
PbThick
1002
}
  0
ARC
  5
1D2
330
1F
100
AcDbEntity
  8
THICK
100
AcDbCircle
 10
0.0
 20
0.0000000000000018
 30
0.0
 40
103.3854227795802
100
AcDbArc
 50
90.32129600754102
 51
94.89155115618154
1001
DBPROPERTIES
1002
{
1000
PbThick
1002
}
  0
ARC
  5
1D3
330
1F
100
AcDbEntity
  8
HIDDEN
100
AcDbCircle
 10
0.0
 20
0.0000000000000018
 30
0.0
 40
103.3854227795802
100
AcDbArc
 50
85.10846869166127
 51
90.32129600754102
1001
DBPROPERTIES
1002
{
1000
PbHidd
1002
}
  0
ARC
  5
1D4
330
1F
100
AcDbEntity
  8
HIDDEN
100
AcDbCircle
 10
0.0
 20
0.0000000000000018
 30
0.0
 40
103.3854227795802
100
AcDbArc
 50
63.15811178552237
 51
82.89152309496157
1001
DBPROPERTIES
1002
{
1000
PbHidd
1002
}
  0
ARC
  5
1D5
330
1F
100
AcDbEntity
  8
THICK
100
AcDbCircle
 10
0.0
 20
0.0000000000000018
 30
0.0
 40
103.3854227795802
100
AcDbArc
 50
38.89271890815736
 51
63.15811178552237
1001
DBPROPERTIES
1002
{
1000
PbThick
1002
}
  0
ARC
  5
1D6
330
1F
100
AcDbEntity
  8
HIDDEN
100
AcDbCircle
 10
0.0
 20
0.0000000000000018
 30
0.0
 40
103.3854227795802
100
AcDbArc
 50
11.72959198191821
 51
38.89271890815736
1001
DBPROPERTIES
1002
{
1000
PbHidd
1002
}
  0
ARC
  5
1D7
330
1F
100
AcDbEntity
  8
THICK
100
AcDbCircle
 10
0.0
 20
0.0000000000000018
 30
0.0
 40
103.3854227795802
100
AcDbArc
 50
7.108458181070072
 51
11.72959198191821
1001
DBPROPERTIES
1002
{
1000
PbThick
1002
}
  0
ARC
  5
1D8
330
1F
100
AcDbEntity
  8
HIDDEN
100
AcDbCircle
 10
0.0
 20
0.000000000000002
 30
0.0
 40
105.0854227795802
100
AcDbArc
 50
7.090524602082476
 51
82.90945667394918
1001
DBPROPERTIES
1002
{
1000
PbHidd
1002
}
  0
ARC
  5
1D9
330
1F
100
AcDbEntity
  8
HIDDEN
100
AcDbCircle
 10
0.0
 20
0.0000000000000018
 30
0.0
 40
107.0484136948249
100
AcDbArc
 50
166.5030249552846
 51
180.0000198478428
1001
DBPROPERTIES
1002
{
1000
PbHidd
1002
}
  0
ARC
  5
1DA
330
1F
100
AcDbEntity
  8
THICK
100
AcDbCircle
 10
0.0
 20
0.0000000000000018
 30
0.0
 40
107.0484136948249
100
AcDbArc
 50
141.2912203919225
 51
166.5030249552846
1001
DBPROPERTIES
1002
{
1000
PbThick
1002
}
  0
ARC
  5
1DB
330
1F
100
AcDbEntity
  8
HIDDEN
100
AcDbCircle
 10
0.0
 20
0.0000000000000018
 30
0.0
 40
107.0484136948249
100
AcDbArc
 50
115.0744478559009
 51
141.2912203919225
1001
DBPROPERTIES
1002
{
1000
PbHidd
1002
}
  0
ARC
  5
1DC
330
1F
100
AcDbEntity
  8
THICK
100
AcDbCircle
 10
0.0
 20
0.0000000000000018
 30
0.0
 40
107.0484136948249
100
AcDbArc
 50
89.86264329253879
 51
115.0744478559009
1001
DBPROPERTIES
1002
{
1000
PbThick
1002
}
  0
ARC
  5
1DD
330
1F
100
AcDbEntity
  8
HIDDEN
100
AcDbCircle
 10
0.0
 20
0.0000000000000018
 30
0.0
 40
107.0484136948249
100
AcDbArc
 50
63.64587075651723
 51
89.86264329253879
1001
DBPROPERTIES
1002
{
1000
PbHidd
1002
}
  0
ARC
  5
1DE
330
1F
100
AcDbEntity
  8
THICK
100
AcDbCircle
 10
0.0
 20
0.0000000000000018
 30
0.0
 40
107.0484136948249
100
AcDbArc
 50
38.43406619315513
 51
63.64587075651723
1001
DBPROPERTIES
1002
{
1000
PbThick
1002
}
  0
ARC
  5
1DF
330
1F
100
AcDbEntity
  8
HIDDEN
100
AcDbCircle
 10
0.0
 20
0.0000000000000018
 30
0.0
 40
107.0484136948249
100
AcDbArc
 50
12.21729365713357
 51
38.43406619315513
1001
DBPROPERTIES
1002
{
1000
PbHidd
1002
}
  0
ARC
  5
1E0
330
1F
100
AcDbEntity
  8
THICK
100
AcDbCircle
 10
0.0
 20
0.0000000000000018
 30
0.0
 40
107.0484136948249
100
AcDbArc
 50
0.0
 51
12.21729365713357
1001
DBPROPERTIES
1002
{
1000
PbThick
1002
}
  0
LINE
  5
1E1
330
1F
100
AcDbEntity
  8
HIDDEN
100
AcDbLine
 10
13.1263857378628
 20
105.7556734097247
 30
0.0
 11
9.148298156389714
 21
106.1737872627953
 31
0.0
1001
DBPROPERTIES
1002
{
1000
PbHidd
1002
}
  0
LINE
  5
1E2
330
1F
100
AcDbEntity
  8
THICK
100
AcDbLine
 10
106.1737872627952
 20
9.148298156389659
 30
0.0
 11
105.7556734097246
 21
13.12638573786275
 31
0.0
1001
DBPROPERTIES
1002
{
1000
PbThick
1002
}
  0
LINE
  5
1E3
330
1F
100
AcDbEntity
  8
THICK
100
AcDbLine
 10
105.7556734097246
 20
-13.12638573786279
 30
0.0
 11
106.1737872627952
 21
-9.1482981563897
 31
0.0
1001
DBPROPERTIES
1002
{
1000
PbThick
1002
}
  0
LINE
  5
1E4
330
1F
100
AcDbEntity
  8
HIDDEN
100
AcDbLine
 10
9.14829815638965
 20
-106.1737872627953
 30
0.0
 11
13.12638573786274
 21
-105.7556734097247
 31
0.0
1001
DBPROPERTIES
1002
{
1000
PbHidd
1002
}
  0
LINE
  5
1E5
330
1F
100
AcDbEntity
  8
THICK
100
AcDbLine
 10
-13.12638573786279
 20
-105.7556734097247
 30
0.0
 11
-9.1482981563897
 21
-106.1737872627954
 31
0.0
1001
DBPROPERTIES
1002
{
1000
PbThick
1002
}
  0
LINE
  5
1E6
330
1F
100
AcDbEntity
  8
HIDDEN
100
AcDbLine
 10
-106.1737872627955
 20
-9.148298156389693
 30
0.0
 11
-105.7556734097249
 21
-13.12638573786279
 31
0.0
1001
DBPROPERTIES
1002
{
1000
PbHidd
1002
}
  0
LINE
  5
1E7
330
1F
100
AcDbEntity
  8
HIDDEN
100
AcDbLine
 10
-105.7556734097249
 20
13.1263857378628
 30
0.0
 11
-106.1737872627955
 21
9.148298156389707
 31
0.0
1001
DBPROPERTIES
1002
{
1000
PbHidd
1002
}
  0
LINE
  5
1E8
330
1F
100
AcDbEntity
  8
THICK
100
AcDbLine
 10
-9.148298156389664
 20
106.1737872627953
 30
0.0
 11
-13.12638573786275
 21
105.7556734097247
 31
0.0
1001
DBPROPERTIES
1002
{
1000
PbThick
1002
}
  0
ARC
  5
1E9
330
1F
100
AcDbEntity
  8
THICK
100
AcDbCircle
 10
0.0
 20
0.000000000000002
 30
0.0
 40
108.7484136948249
100
AcDbArc
 50
4.946230053805371
 51
7.053798007414591
1001
DBPROPERTIES
1002
{
1000
PbThick
1002
}
  0
ARC
  5
1EA
330
1F
100
AcDbEntity
  8
HIDDEN
100
AcDbCircle
 10
0.0
 20
0.000000000000002
 30
0.0
 40
108.7484136948249
100
AcDbArc
 50
63.86078722547082
 51
82.94618326861708
1001
DBPROPERTIES
1002
{
1000
PbHidd
1002
}
  0
ARC
  5
1EB
330
1F
100
AcDbEntity
  8
THICK
100
AcDbCircle
 10
0.0
 20
0.000000000000002
 30
0.0
 40
108.7484136948249
100
AcDbArc
 50
38.23198397881249
 51
63.86078722547082
1001
DBPROPERTIES
1002
{
1000
PbThick
1002
}
  0
ARC
  5
1EC
330
1F
100
AcDbEntity
  8
HIDDEN
100
AcDbCircle
 10
0.0
 20
0.000000000000002
 30
0.0
 40
108.7484136948249
100
AcDbArc
 50
12.43221012608714
 51
38.23198397881249
1001
DBPROPERTIES
1002
{
1000
PbHidd
1002
}
  0
ARC
  5
1ED
330
1F
100
AcDbEntity
  8
THICK
100
AcDbCircle
 10
0.0
 20
0.000000000000002
 30
0.0
 40
108.7484136948249
100
AcDbArc
 50
7.053798007414591
 51
12.43221012608714
1001
DBPROPERTIES
1002
{
1000
PbThick
1002
}
  0
ARC
  5
1EE
330
1F
100
AcDbEntity
  8
HIDDEN
100
AcDbCircle
 10
0.0
 20
0.000000000000002
 30
0.0
 40
108.7484136948249
100
AcDbArc
 50
82.94618326861708
 51
85.0538085180058
1001
DBPROPERTIES
1002
{
1000
PbHidd
1002
}
  0
ARC
  5
1EF
330
1F
100
AcDbEntity
  8
THICK
100
AcDbCircle
 10
0.0
 20
0.000000000000002
 30
0.0
 40
108.7484136948249
100
AcDbArc
 50
94.94621132983701
 51
97.05377928344626
1001
DBPROPERTIES
1002
{
1000
PbThick
1002
}
  0
ARC
  5
1F0
330
1F
100
AcDbEntity
  8
HIDDEN
100
AcDbCircle
 10
0.0
 20
0.000000000000002
 30
0.0
 40
108.7484136948249
100
AcDbArc
 50
172.9462218404283
 51
175.0537897940374
1001
DBPROPERTIES
1002
{
1000
PbHidd
1002
}
  0
LINE
  5
1F1
330
1F
100
AcDbEntity
  8
HIDDEN
100
AcDbLine
 10
13.35442580388666
 20
107.9253297080406
 30
0.0
 11
13.12638573786282
 21
105.7556734097247
 31
0.0
1001
DBPROPERTIES
1002
{
1000
PbHidd
1002
}
  0
LINE
  5
1F2
330
1F
100
AcDbEntity
  8
HIDDEN
100
AcDbLine
 10
105.7556734097246
 20
13.12638573786275
 30
0.0
 11
107.9253297080406
 21
13.35442580388661
 31
0.0
1001
DBPROPERTIES
1002
{
1000
PbHidd
1002
}
  0
LINE
  5
1F3
330
1F
100
AcDbEntity
  8
HIDDEN
100
AcDbLine
 10
11.35479409951832
 20
88.900104898462
 30
0.0
 11
13.12638573786281
 21
105.7556734097247
 31
0.0
1001
DBPROPERTIES
1002
{
1000
PbHidd
1002
}
  0
LINE
  5
1F4
330
1F
100
AcDbEntity
  8
HIDDEN
100
AcDbLine
 10
9.148298156389716
 20
106.1737872627953
 30
0.0
 11
7.376706518045225
 21
89.3182187515326
 31
0.0
1001
DBPROPERTIES
1002
{
1000
PbHidd
1002
}
  0
LINE
  5
1F5
330
1F
100
AcDbEntity
  8
HIDDEN
100
AcDbLine
 10
7.376706518045223
 20
89.31821875153261
 30
0.0
 11
11.35479409951831
 21
88.900104898462
 31
0.0
1001
DBPROPERTIES
1002
{
1000
PbHidd
1002
}
  0
LINE
  5
1F6
330
1F
100
AcDbEntity
  8
THICK
100
AcDbLine
 10
18.50898785605033
 20
195.2348006082537
 30
0.0
 11
16.90800075670728
 21
180.0024258585953
 31
0.0
1001
DBPROPERTIES
1002
{
1000
PbThick
1002
}
  0
LINE
  5
1F7
330
1F
100
AcDbEntity
  8
HIDDEN
100
AcDbLine
 10
16.90800075670728
 20
180.0024258585953
 30
0.0
 11
9.376338222413555
 21
108.3434435611112
 31
0.0
1001
DBPROPERTIES
1002
{
1000
PbHidd
1002
}
  0
LINE
  5
1F8
330
1F
100
AcDbEntity
  8
HIDDEN
100
AcDbLine
 10
18.50898785605033
 20
195.2348006082537
 30
0.0
 11
18.50898785605033
 21
195.2348006082537
 31
0.0
1001
DBPROPERTIES
1002
{
1000
PbHidd
1002
}
  0
LINE
  5
1F9
330
1F
100
AcDbEntity
  8
THICK
100
AcDbLine
 10
18.86438463116036
 20
198.6161750525058
 30
0.0
 11
18.50898785605034
 21
195.2348006082537
 31
0.0
1001
DBPROPERTIES
1002
{
1000
PbThick
1002
}
  0
LINE
  5
1FA
330
1F
100
AcDbEntity
  8
HIDDEN
100
AcDbLine
 10
18.86438463116036
 20
198.6161750525058
 30
0.0
 11
18.86438463116036
 21
198.6161750525058
 31
0.0
1001
DBPROPERTIES
1002
{
1000
PbHidd
1002
}
  0
LINE
  5
1FB
330
1F
100
AcDbEntity
  8
HIDDEN
100
AcDbLine
 10
7.376706518045223
 20
89.31821875153261
 30
0.0
 11
6.541330654447174
 21
81.37014832899986
 31
0.0
1001
DBPROPERTIES
1002
{
1000
PbHidd
1002
}
  0
LINE
  5
1FC
330
1F
100
AcDbEntity
  8
THICK
100
AcDbLine
 10
-7.376706518045179
 20
89.31821875153261
 30
0.0
 11
-9.14829815638966
 21
106.1737872627954
 31
0.0
1001
DBPROPERTIES
1002
{
1000
PbThick
1002
}
  0
LINE
  5
1FD
330
1F
100
AcDbEntity
  8
THICK
100
AcDbLine
 10
-13.12638573786275
 20
105.7556734097247
 30
0.0
 11
-11.35479409951827
 21
88.90010489846199
 31
0.0
1001
DBPROPERTIES
1002
{
1000
PbThick
1002
}
  0
LINE
  5
1FE
330
1F
100
AcDbEntity
  8
THICK
100
AcDbLine
 10
-11.35479409951827
 20
88.90010489846199
 30
0.0
 11
-7.376706518045184
 21
89.3182187515326
 31
0.0
1001
DBPROPERTIES
1002
{
1000
PbThick
1002
}
  0
LINE
  5
1FF
330
1F
100
AcDbEntity
  8
THICK
100
AcDbLine
 10
-22.48707543752334
 20
194.8166867551831
 30
0.0
 11
-13.3544258038866
 21
107.9253297080406
 31
0.0
1001
DBPROPERTIES
1002
{
1000
PbThick
1002
}
  0
LINE
  5
200
330
1F
100
AcDbEntity
  8
HIDDEN
100
AcDbLine
 10
-22.48707543752334
 20
194.8166867551831
 30
0.0
 11
-22.48707543752334
 21
194.8166867551831
 31
0.0
1001
DBPROPERTIES
1002
{
1000
PbHidd
1002
}
  0
LINE
  5
201
330
1F
100
AcDbEntity
  8
THICK
100
AcDbLine
 10
-22.84247221263336
 20
198.1980611994352
 30
0.0
 11
-22.48707543752334
 21
194.8166867551831
 31
0.0
1001
DBPROPERTIES
1002
{
1000
PbThick
1002
}
  0
LINE
  5
202
330
1F
100
AcDbEntity
  8
HIDDEN
100
AcDbLine
 10
-22.84247221263336
 20
198.1980611994352
 30
0.0
 11
-22.84247221263336
 21
198.1980611994352
 31
0.0
1001
DBPROPERTIES
1002
{
1000
PbHidd
1002
}
  0
LINE
  5
203
330
1F
100
AcDbEntity
  8
HIDDEN
100
AcDbLine
 10
-10.51941823592023
 20
80.95203447592924
 30
0.0
 11
-10.51941823592023
 21
80.95203447592924
 31
0.0
1001
DBPROPERTIES
1002
{
1000
PbHidd
1002
}
  0
LINE
  5
204
330
1F
100
AcDbEntity
  8
THICK
100
AcDbLine
 10
-11.35479409951827
 20
88.90010489846199
 30
0.0
 11
-10.51941823592023
 21
80.95203447592924
 31
0.0
1001
DBPROPERTIES
1002
{
1000
PbThick
1002
}
  0
LINE
  5
205
330
1F
100
AcDbEntity
  8
THICK
100
AcDbLine
 10
88.900104898462
 20
-11.35479409951832
 30
0.0
 11
105.7556734097246
 21
-13.12638573786279
 31
0.0
1001
DBPROPERTIES
1002
{
1000
PbThick
1002
}
  0
LINE
  5
206
330
1F
100
AcDbEntity
  8
THICK
100
AcDbLine
 10
106.1737872627952
 20
-9.148298156389698
 30
0.0
 11
89.3182187515326
 21
-7.376706518045219
 31
0.0
1001
DBPROPERTIES
1002
{
1000
PbThick
1002
}
  0
LINE
  5
207
330
1F
100
AcDbEntity
  8
THICK
100
AcDbLine
 10
89.31821875153261
 20
-7.376706518045218
 30
0.0
 11
88.900104898462
 21
-11.35479409951831
 31
0.0
1001
DBPROPERTIES
1002
{
1000
PbThick
1002
}
  0
LINE
  5
208
330
1F
100
AcDbEntity
  8
THICK
100
AcDbLine
 10
195.2348006082537
 20
-18.50898785605032
 30
0.0
 11
108.3434435611112
 21
-9.376338222413546
 31
0.0
1001
DBPROPERTIES
1002
{
1000
PbThick
1002
}
  0
LINE
  5
209
330
1F
100
AcDbEntity
  8
HIDDEN
100
AcDbLine
 10
195.2348006082537
 20
-18.50898785605032
 30
0.0
 11
195.2348006082537
 21
-18.50898785605032
 31
0.0
1001
DBPROPERTIES
1002
{
1000
PbHidd
1002
}
  0
LINE
  5
20A
330
1F
100
AcDbEntity
  8
THICK
100
AcDbLine
 10
198.6161750525058
 20
-18.86438463116035
 30
0.0
 11
195.2348006082537
 21
-18.50898785605033
 31
0.0
1001
DBPROPERTIES
1002
{
1000
PbThick
1002
}
  0
LINE
  5
20B
330
1F
100
AcDbEntity
  8
HIDDEN
100
AcDbLine
 10
198.6161750525058
 20
-18.86438463116035
 30
0.0
 11
198.6161750525058
 21
-18.86438463116035
 31
0.0
1001
DBPROPERTIES
1002
{
1000
PbHidd
1002
}
  0
LINE
  5
20C
330
1F
100
AcDbEntity
  8
THICK
100
AcDbLine
 10
89.31821875153261
 20
-7.376706518045218
 30
0.0
 11
81.37014832899985
 21
-6.541330654447168
 31
0.0
1001
DBPROPERTIES
1002
{
1000
PbThick
1002
}
  0
LINE
  5
20D
330
1F
100
AcDbEntity
  8
THICK
100
AcDbLine
 10
89.31821875153261
 20
7.376706518045184
 30
0.0
 11
106.1737872627952
 21
9.148298156389655
 31
0.0
1001
DBPROPERTIES
1002
{
1000
PbThick
1002
}
  0
LINE
  5
20E
330
1F
100
AcDbEntity
  8
THICK
100
AcDbLine
 10
105.7556734097246
 20
13.12638573786275
 30
0.0
 11
88.90010489846199
 21
11.35479409951828
 31
0.0
1001
DBPROPERTIES
1002
{
1000
PbThick
1002
}
  0
LINE
  5
20F
330
1F
100
AcDbEntity
  8
THICK
100
AcDbLine
 10
88.90010489846199
 20
11.35479409951828
 30
0.0
 11
89.3182187515326
 21
7.376706518045189
 31
0.0
1001
DBPROPERTIES
1002
{
1000
PbThick
1002
}
  0
LINE
  5
210
330
1F
100
AcDbEntity
  8
THICK
100
AcDbLine
 10
194.8166867551831
 20
22.48707543752335
 30
0.0
 11
107.9253297080406
 21
13.35442580388661
 31
0.0
1001
DBPROPERTIES
1002
{
1000
PbThick
1002
}
  0
LINE
  5
211
330
1F
100
AcDbEntity
  8
HIDDEN
100
AcDbLine
 10
194.8166867551831
 20
22.48707543752335
 30
0.0
 11
194.8166867551831
 21
22.48707543752335
 31
0.0
1001
DBPROPERTIES
1002
{
1000
PbHidd
1002
}
  0
LINE
  5
212
330
1F
100
AcDbEntity
  8
THICK
100
AcDbLine
 10
198.1980611994352
 20
22.84247221263337
 30
0.0
 11
194.8166867551831
 21
22.48707543752335
 31
0.0
1001
DBPROPERTIES
1002
{
1000
PbThick
1002
}
  0
LINE
  5
213
330
1F
100
AcDbEntity
  8
HIDDEN
100
AcDbLine
 10
198.1980611994352
 20
22.84247221263337
 30
0.0
 11
198.1980611994352
 21
22.84247221263337
 31
0.0
1001
DBPROPERTIES
1002
{
1000
PbHidd
1002
}
  0
LINE
  5
214
330
1F
100
AcDbEntity
  8
THICK
100
AcDbLine
 10
88.90010489846199
 20
11.35479409951828
 30
0.0
 11
80.95203447592922
 21
10.51941823592023
 31
0.0
1001
DBPROPERTIES
1002
{
1000
PbThick
1002
}
  0
LINE
  5
215
330
1F
100
AcDbEntity
  8
THICK
100
AcDbLine
 10
-11.35479409951831
 20
-88.900104898462
 30
0.0
 11
-13.1263857378628
 21
-105.7556734097248
 31
0.0
1001
DBPROPERTIES
1002
{
1000
PbThick
1002
}
  0
LINE
  5
216
330
1F
100
AcDbEntity
  8
THICK
100
AcDbLine
 10
-9.148298156389705
 20
-106.1737872627954
 30
0.0
 11
-7.376706518045212
 21
-89.3182187515326
 31
0.0
1001
DBPROPERTIES
1002
{
1000
PbThick
1002
}
  0
LINE
  5
217
330
1F
100
AcDbEntity
  8
THICK
100
AcDbLine
 10
-7.376706518045212
 20
-89.31821875153261
 30
0.0
 11
-11.3547940995183
 21
-88.900104898462
 31
0.0
1001
DBPROPERTIES
1002
{
1000
PbThick
1002
}
  0
LINE
  5
218
330
1F
100
AcDbEntity
  8
THICK
100
AcDbLine
 10
-18.50898785605031
 20
-195.2348006082537
 30
0.0
 11
-9.37633822241354
 21
-108.3434435611112
 31
0.0
1001
DBPROPERTIES
1002
{
1000
PbThick
1002
}
  0
LINE
  5
219
330
1F
100
AcDbEntity
  8
HIDDEN
100
AcDbLine
 10
-18.50898785605031
 20
-195.2348006082537
 30
0.0
 11
-18.50898785605031
 21
-195.2348006082537
 31
0.0
1001
DBPROPERTIES
1002
{
1000
PbHidd
1002
}
  0
LINE
  5
21A
330
1F
100
AcDbEntity
  8
THICK
100
AcDbLine
 10
-18.86438463116034
 20
-198.6161750525058
 30
0.0
 11
-18.50898785605031
 21
-195.2348006082537
 31
0.0
1001
DBPROPERTIES
1002
{
1000
PbThick
1002
}
  0
LINE
  5
21B
330
1F
100
AcDbEntity
  8
HIDDEN
100
AcDbLine
 10
-18.86438463116034
 20
-198.6161750525058
 30
0.0
 11
-18.86438463116034
 21
-198.6161750525058
 31
0.0
1001
DBPROPERTIES
1002
{
1000
PbHidd
1002
}
  0
LINE
  5
21C
330
1F
100
AcDbEntity
  8
HIDDEN
100
AcDbLine
 10
-6.541330654447163
 20
-81.37014832899982
 30
0.0
 11
-6.541330654447163
 21
-81.37014832899982
 31
0.0
1001
DBPROPERTIES
1002
{
1000
PbHidd
1002
}
  0
LINE
  5
21D
330
1F
100
AcDbEntity
  8
THICK
100
AcDbLine
 10
-7.376706518045212
 20
-89.31821875153261
 30
0.0
 11
-6.703213098096641
 21
-82.91035689662112
 31
0.0
1001
DBPROPERTIES
1002
{
1000
PbThick
1002
}
  0
LINE
  5
21E
330
1F
100
AcDbEntity
  8
HIDDEN
100
AcDbLine
 10
-6.703213098096641
 20
-82.91035689662112
 30
0.0
 11
-6.541330654447161
 21
-81.37014832899982
 31
0.0
1001
DBPROPERTIES
1002
{
1000
PbHidd
1002
}
  0
LINE
  5
21F
330
1F
100
AcDbEntity
  8
HIDDEN
100
AcDbLine
 10
7.37670651804519
 20
-89.31821875153261
 30
0.0
 11
9.148298156389673
 21
-106.1737872627954
 31
0.0
1001
DBPROPERTIES
1002
{
1000
PbHidd
1002
}
  0
LINE
  5
220
330
1F
100
AcDbEntity
  8
HIDDEN
100
AcDbLine
 10
13.12638573786277
 20
-105.7556734097247
 30
0.0
 11
11.35479409951828
 21
-88.90010489846199
 31
0.0
1001
DBPROPERTIES
1002
{
1000
PbHidd
1002
}
  0
LINE
  5
221
330
1F
100
AcDbEntity
  8
HIDDEN
100
AcDbLine
 10
11.35479409951829
 20
-88.90010489846199
 30
0.0
 11
7.376706518045195
 21
-89.3182187515326
 31
0.0
1001
DBPROPERTIES
1002
{
1000
PbHidd
1002
}
  0
LINE
  5
222
330
1F
100
AcDbEntity
  8
THICK
100
AcDbLine
 10
22.48707543752336
 20
-194.8166867551831
 30
0.0
 11
21.12909016261494
 21
-181.8963199262367
 31
0.0
1001
DBPROPERTIES
1002
{
1000
PbThick
1002
}
  0
LINE
  5
223
330
1F
100
AcDbEntity
  8
HIDDEN
100
AcDbLine
 10
21.12909016261494
 20
-181.8963199262367
 30
0.0
 11
13.35442580388662
 21
-107.9253297080406
 31
0.0
1001
DBPROPERTIES
1002
{
1000
PbHidd
1002
}
  0
LINE
  5
224
330
1F
100
AcDbEntity
  8
HIDDEN
100
AcDbLine
 10
22.48707543752336
 20
-194.8166867551831
 30
0.0
 11
22.48707543752336
 21
-194.8166867551831
 31
0.0
1001
DBPROPERTIES
1002
{
1000
PbHidd
1002
}
  0
LINE
  5
225
330
1F
100
AcDbEntity
  8
THICK
100
AcDbLine
 10
22.84247221263339
 20
-198.1980611994352
 30
0.0
 11
22.48707543752336
 21
-194.8166867551831
 31
0.0
1001
DBPROPERTIES
1002
{
1000
PbThick
1002
}
  0
LINE
  5
226
330
1F
100
AcDbEntity
  8
HIDDEN
100
AcDbLine
 10
22.84247221263339
 20
-198.1980611994352
 30
0.0
 11
22.84247221263339
 21
-198.1980611994352
 31
0.0
1001
DBPROPERTIES
1002
{
1000
PbHidd
1002
}
  0
LINE
  5
227
330
1F
100
AcDbEntity
  8
HIDDEN
100
AcDbLine
 10
11.35479409951829
 20
-88.90010489846199
 30
0.0
 11
10.51941823592024
 21
-80.95203447592921
 31
0.0
1001
DBPROPERTIES
1002
{
1000
PbHidd
1002
}
  0
LINE
  5
228
330
1F
100
AcDbEntity
  8
HIDDEN
100
AcDbLine
 10
-88.900104898462
 20
11.3547940995183
 30
0.0
 11
-105.7556734097249
 21
13.1263857378628
 31
0.0
1001
DBPROPERTIES
1002
{
1000
PbHidd
1002
}
  0
LINE
  5
229
330
1F
100
AcDbEntity
  8
HIDDEN
100
AcDbLine
 10
-106.1737872627955
 20
9.148298156389709
 30
0.0
 11
-89.3182187515326
 21
7.376706518045207
 31
0.0
1001
DBPROPERTIES
1002
{
1000
PbHidd
1002
}
  0
LINE
  5
22A
330
1F
100
AcDbEntity
  8
HIDDEN
100
AcDbLine
 10
-89.31821875153261
 20
7.376706518045207
 30
0.0
 11
-88.900104898462
 21
11.3547940995183
 31
0.0
1001
DBPROPERTIES
1002
{
1000
PbHidd
1002
}
  0
LINE
  5
22B
330
1F
100
AcDbEntity
  8
THICK
100
AcDbLine
 10
-195.2348006082537
 20
18.5089878560503
 30
0.0
 11
-183.1084021506749
 21
17.2344520196396
 31
0.0
1001
DBPROPERTIES
1002
{
1000
PbThick
1002
}
  0
LINE
  5
22C
330
1F
100
AcDbEntity
  8
HIDDEN
100
AcDbLine
 10
-183.1084021506749
 20
17.2344520196396
 30
0.0
 11
-108.3434435611112
 21
9.37633822241354
 31
0.0
1001
DBPROPERTIES
1002
{
1000
PbHidd
1002
}
  0
LINE
  5
22D
330
1F
100
AcDbEntity
  8
HIDDEN
100
AcDbLine
 10
-195.2348006082537
 20
18.5089878560503
 30
0.0
 11
-195.2348006082537
 21
18.5089878560503
 31
0.0
1001
DBPROPERTIES
1002
{
1000
PbHidd
1002
}
  0
LINE
  5
22E
330
1F
100
AcDbEntity
  8
THICK
100
AcDbLine
 10
-198.6161750525058
 20
18.86438463116033
 30
0.0
 11
-195.2348006082537
 21
18.5089878560503
 31
0.0
1001
DBPROPERTIES
1002
{
1000
PbThick
1002
}
  0
LINE
  5
22F
330
1F
100
AcDbEntity
  8
HIDDEN
100
AcDbLine
 10
-198.6161750525058
 20
18.86438463116033
 30
0.0
 11
-198.6161750525058
 21
18.86438463116033
 31
0.0
1001
DBPROPERTIES
1002
{
1000
PbHidd
1002
}
  0
LINE
  5
230
330
1F
100
AcDbEntity
  8
HIDDEN
100
AcDbLine
 10
-81.37014832899983
 20
6.54133065444716
 30
0.0
 11
-81.37014832899983
 21
6.541330654447161
 31
0.0
1001
DBPROPERTIES
1002
{
1000
PbHidd
1002
}
  0
LINE
  5
231
330
1F
100
AcDbEntity
  8
HIDDEN
100
AcDbLine
 10
-89.31821875153261
 20
7.376706518045207
 30
0.0
 11
-81.37014832899985
 21
6.541330654447159
 31
0.0
1001
DBPROPERTIES
1002
{
1000
PbHidd
1002
}
  0
LINE
  5
232
330
1F
100
AcDbEntity
  8
HIDDEN
100
AcDbLine
 10
-89.31821875153261
 20
-7.376706518045197
 30
0.0
 11
-106.1737872627955
 21
-9.148298156389695
 31
0.0
1001
DBPROPERTIES
1002
{
1000
PbHidd
1002
}
  0
LINE
  5
233
330
1F
100
AcDbEntity
  8
HIDDEN
100
AcDbLine
 10
-105.7556734097249
 20
-13.12638573786279
 30
0.0
 11
-88.90010489846199
 21
-11.35479409951829
 31
0.0
1001
DBPROPERTIES
1002
{
1000
PbHidd
1002
}
  0
LINE
  5
234
330
1F
100
AcDbEntity
  8
HIDDEN
100
AcDbLine
 10
-88.90010489846199
 20
-11.35479409951829
 30
0.0
 11
-89.3182187515326
 21
-7.3767065180452
 31
0.0
1001
DBPROPERTIES
1002
{
1000
PbHidd
1002
}
  0
LINE
  5
235
330
1F
100
AcDbEntity
  8
THICK
100
AcDbLine
 10
-194.8166867551831
 20
-22.48707543752337
 30
0.0
 11
-180.8286316309103
 21
-21.01687160083255
 31
0.0
1001
DBPROPERTIES
1002
{
1000
PbThick
1002
}
  0
LINE
  5
236
330
1F
100
AcDbEntity
  8
HIDDEN
100
AcDbLine
 10
-180.8286316309103
 20
-21.01687160083255
 30
0.0
 11
-107.9253297080406
 21
-13.35442580388663
 31
0.0
1001
DBPROPERTIES
1002
{
1000
PbHidd
1002
}
  0
LINE
  5
237
330
1F
100
AcDbEntity
  8
HIDDEN
100
AcDbLine
 10
-194.8166867551831
 20
-22.48707543752337
 30
0.0
 11
-194.8166867551831
 21
-22.48707543752337
 31
0.0
1001
DBPROPERTIES
1002
{
1000
PbHidd
1002
}
  0
LINE
  5
238
330
1F
100
AcDbEntity
  8
THICK
100
AcDbLine
 10
-198.1980611994352
 20
-22.8424722126334
 30
0.0
 11
-194.8166867551831
 21
-22.48707543752337
 31
0.0
1001
DBPROPERTIES
1002
{
1000
PbThick
1002
}
  0
LINE
  5
239
330
1F
100
AcDbEntity
  8
HIDDEN
100
AcDbLine
 10
-198.1980611994352
 20
-22.8424722126334
 30
0.0
 11
-198.1980611994352
 21
-22.8424722126334
 31
0.0
1001
DBPROPERTIES
1002
{
1000
PbHidd
1002
}
  0
LINE
  5
23A
330
1F
100
AcDbEntity
  8
HIDDEN
100
AcDbLine
 10
-80.95203447592921
 20
-10.51941823592024
 30
0.0
 11
-80.95203447592921
 21
-10.51941823592024
 31
0.0
1001
DBPROPERTIES
1002
{
1000
PbHidd
1002
}
  0
LINE
  5
23B
330
1F
100
AcDbEntity
  8
HIDDEN
100
AcDbLine
 10
-88.90010489846199
 20
-11.35479409951829
 30
0.0
 11
-80.95203447592922
 21
-10.51941823592024
 31
0.0
1001
DBPROPERTIES
1002
{
1000
PbHidd
1002
}
  0
LINE
  5
23C
330
1F
100
AcDbEntity
  8
HIDDEN
100
AcDbLine
 10
10.51941823592027
 20
80.95203447592924
 30
0.0
 11
11.35479409951832
 21
88.90010489846199
 31
0.0
1001
DBPROPERTIES
1002
{
1000
PbHidd
1002
}
  0
LINE
  5
23D
330
1F
100
AcDbEntity
  8
HIDDEN
100
AcDbLine
 10
13.35442580388666
 20
107.9253297080406
 30
0.0
 11
21.06459211044064
 21
181.2826619512623
 31
0.0
1001
DBPROPERTIES
1002
{
1000
PbHidd
1002
}
  0
LINE
  5
23E
330
1F
100
AcDbEntity
  8
THICK
100
AcDbLine
 10
21.06459211044064
 20
181.2826619512623
 30
0.0
 11
22.48707543752343
 21
194.8166867551831
 31
0.0
1001
DBPROPERTIES
1002
{
1000
PbThick
1002
}
  0
LINE
  5
23F
330
1F
100
AcDbEntity
  8
HIDDEN
100
AcDbLine
 10
22.48707543752343
 20
194.8166867551831
 30
0.0
 11
22.48707543752343
 21
194.8166867551831
 31
0.0
1001
DBPROPERTIES
1002
{
1000
PbHidd
1002
}
  0
LINE
  5
240
330
1F
100
AcDbEntity
  8
THICK
100
AcDbLine
 10
18.50898785605033
 20
195.2348006082537
 30
0.0
 11
22.48707543752342
 21
194.8166867551831
 31
0.0
1001
DBPROPERTIES
1002
{
1000
PbThick
1002
}
  0
LINE
  5
241
330
1F
100
AcDbEntity
  8
THICK
100
AcDbLine
 10
22.48707543752343
 20
194.8166867551831
 30
0.0
 11
22.84247221263345
 21
198.1980611994352
 31
0.0
1001
DBPROPERTIES
1002
{
1000
PbThick
1002
}
  0
LINE
  5
242
330
1F
100
AcDbEntity
  8
THICK
100
AcDbLine
 10
18.86438463116036
 20
198.6161750525058
 30
0.0
 11
22.84247221263345
 21
198.1980611994352
 31
0.0
1001
DBPROPERTIES
1002
{
1000
PbThick
1002
}
  0
LINE
  5
243
330
1F
100
AcDbEntity
  8
HIDDEN
100
AcDbLine
 10
22.84247221263345
 20
198.1980611994352
 30
0.0
 11
22.84247221263345
 21
198.1980611994352
 31
0.0
1001
DBPROPERTIES
1002
{
1000
PbHidd
1002
}
  0
LINE
  5
244
330
1F
100
AcDbEntity
  8
HIDDEN
100
AcDbLine
 10
9.04570394450028
 20
105.1976685399855
 30
0.0
 11
13.02379152597337
 21
104.7795546869149
 31
0.0
1001
DBPROPERTIES
1002
{
1000
PbHidd
1002
}
  0
LINE
  5
245
330
1F
100
AcDbEntity
  8
HIDDEN
100
AcDbLine
 10
7.19900813049021
 20
87.62753152940653
 30
0.0
 11
11.1770957119633
 21
87.20941767633592
 31
0.0
1001
DBPROPERTIES
1002
{
1000
PbHidd
1002
}
  0
LINE
  5
246
330
1F
100
AcDbEntity
  8
THICK
100
AcDbLine
 10
-6.541330654447135
 20
81.37014832899986
 30
0.0
 11
-7.376706518045181
 21
89.31821875153261
 31
0.0
1001
DBPROPERTIES
1002
{
1000
PbThick
1002
}
  0
LINE
  5
247
330
1F
100
AcDbEntity
  8
THICK
100
AcDbLine
 10
-9.37633822241351
 20
108.3434435611112
 30
0.0
 11
-18.50898785605025
 21
195.2348006082537
 31
0.0
1001
DBPROPERTIES
1002
{
1000
PbThick
1002
}
  0
LINE
  5
248
330
1F
100
AcDbEntity
  8
HIDDEN
100
AcDbLine
 10
-18.50898785605025
 20
195.2348006082537
 30
0.0
 11
-18.50898785605025
 21
195.2348006082537
 31
0.0
1001
DBPROPERTIES
1002
{
1000
PbHidd
1002
}
  0
LINE
  5
249
330
1F
100
AcDbEntity
  8
THICK
100
AcDbLine
 10
-22.48707543752334
 20
194.8166867551831
 30
0.0
 11
-18.50898785605025
 21
195.2348006082537
 31
0.0
1001
DBPROPERTIES
1002
{
1000
PbThick
1002
}
  0
LINE
  5
24A
330
1F
100
AcDbEntity
  8
THICK
100
AcDbLine
 10
-18.50898785605025
 20
195.2348006082537
 30
0.0
 11
-18.86438463116027
 21
198.6161750525058
 31
0.0
1001
DBPROPERTIES
1002
{
1000
PbThick
1002
}
  0
LINE
  5
24B
330
1F
100
AcDbEntity
  8
THICK
100
AcDbLine
 10
-22.84247221263336
 20
198.1980611994352
 30
0.0
 11
-18.86438463116027
 21
198.6161750525058
 31
0.0
1001
DBPROPERTIES
1002
{
1000
PbThick
1002
}
  0
LINE
  5
24C
330
1F
100
AcDbEntity
  8
HIDDEN
100
AcDbLine
 10
-18.86438463116027
 20
198.6161750525058
 30
0.0
 11
-18.86438463116027
 21
198.6161750525058
 31
0.0
1001
DBPROPERTIES
1002
{
1000
PbHidd
1002
}
  0
LINE
  5
24D
330
1F
100
AcDbEntity
  8
HIDDEN
100
AcDbLine
 10
-13.02379152597332
 20
104.7795546869149
 30
0.0
 11
-9.045703944500227
 21
105.1976685399855
 31
0.0
1001
DBPROPERTIES
1002
{
1000
PbHidd
1002
}
  0
LINE
  5
24E
330
1F
100
AcDbEntity
  8
HIDDEN
100
AcDbLine
 10
-11.17709571196326
 20
87.20941767633592
 30
0.0
 11
-7.199008130490174
 21
87.62753152940653
 31
0.0
1001
DBPROPERTIES
1002
{
1000
PbHidd
1002
}
  0
LINE
  5
24F
330
1F
100
AcDbEntity
  8
HIDDEN
100
AcDbLine
 10
-6.541330654447133
 20
81.37014832899986
 30
0.0
 11
-6.541330654447133
 21
81.37014832899986
 31
0.0
1001
DBPROPERTIES
1002
{
1000
PbHidd
1002
}
  0
LINE
  5
250
330
1F
100
AcDbEntity
  8
THICK
100
AcDbLine
 10
80.95203447592922
 20
-10.51941823592026
 30
0.0
 11
88.90010489846199
 21
-11.35479409951831
 31
0.0
1001
DBPROPERTIES
1002
{
1000
PbThick
1002
}
  0
LINE
  5
251
330
1F
100
AcDbEntity
  8
THICK
100
AcDbLine
 10
107.9253297080406
 20
-13.35442580388665
 30
0.0
 11
194.8166867551831
 21
-22.48707543752342
 31
0.0
1001
DBPROPERTIES
1002
{
1000
PbThick
1002
}
  0
LINE
  5
252
330
1F
100
AcDbEntity
  8
HIDDEN
100
AcDbLine
 10
194.8166867551831
 20
-22.48707543752342
 30
0.0
 11
194.8166867551831
 21
-22.48707543752342
 31
0.0
1001
DBPROPERTIES
1002
{
1000
PbHidd
1002
}
  0
LINE
  5
253
330
1F
100
AcDbEntity
  8
THICK
100
AcDbLine
 10
195.2348006082537
 20
-18.50898785605032
 30
0.0
 11
194.8166867551831
 21
-22.48707543752341
 31
0.0
1001
DBPROPERTIES
1002
{
1000
PbThick
1002
}
  0
LINE
  5
254
330
1F
100
AcDbEntity
  8
THICK
100
AcDbLine
 10
194.8166867551831
 20
-22.48707543752342
 30
0.0
 11
198.1980611994352
 21
-22.84247221263344
 31
0.0
1001
DBPROPERTIES
1002
{
1000
PbThick
1002
}
  0
LINE
  5
255
330
1F
100
AcDbEntity
  8
THICK
100
AcDbLine
 10
198.6161750525058
 20
-18.86438463116035
 30
0.0
 11
198.1980611994352
 21
-22.84247221263344
 31
0.0
1001
DBPROPERTIES
1002
{
1000
PbThick
1002
}
  0
LINE
  5
256
330
1F
100
AcDbEntity
  8
HIDDEN
100
AcDbLine
 10
198.1980611994352
 20
-22.84247221263344
 30
0.0
 11
198.1980611994352
 21
-22.84247221263344
 31
0.0
1001
DBPROPERTIES
1002
{
1000
PbHidd
1002
}
  0
LINE
  5
257
330
1F
100
AcDbEntity
  8
HIDDEN
100
AcDbLine
 10
105.1976685399855
 20
-9.045703944500273
 30
0.0
 11
104.7795546869149
 21
-13.02379152597336
 31
0.0
1001
DBPROPERTIES
1002
{
1000
PbHidd
1002
}
  0
LINE
  5
258
330
1F
100
AcDbEntity
  8
HIDDEN
100
AcDbLine
 10
87.62753152940653
 20
-7.199008130490204
 30
0.0
 11
87.20941767633592
 21
-11.17709571196329
 31
0.0
1001
DBPROPERTIES
1002
{
1000
PbHidd
1002
}
  0
LINE
  5
259
330
1F
100
AcDbEntity
  8
THICK
100
AcDbLine
 10
81.37014832899985
 20
6.541330654447139
 30
0.0
 11
89.31821875153261
 21
7.376706518045186
 31
0.0
1001
DBPROPERTIES
1002
{
1000
PbThick
1002
}
  0
LINE
  5
25A
330
1F
100
AcDbEntity
  8
THICK
100
AcDbLine
 10
108.3434435611112
 20
9.376338222413514
 30
0.0
 11
195.2348006082537
 21
18.50898785605026
 31
0.0
1001
DBPROPERTIES
1002
{
1000
PbThick
1002
}
  0
LINE
  5
25B
330
1F
100
AcDbEntity
  8
HIDDEN
100
AcDbLine
 10
195.2348006082537
 20
18.50898785605026
 30
0.0
 11
195.2348006082537
 21
18.50898785605026
 31
0.0
1001
DBPROPERTIES
1002
{
1000
PbHidd
1002
}
  0
LINE
  5
25C
330
1F
100
AcDbEntity
  8
THICK
100
AcDbLine
 10
194.8166867551831
 20
22.48707543752335
 30
0.0
 11
195.2348006082537
 21
18.50898785605026
 31
0.0
1001
DBPROPERTIES
1002
{
1000
PbThick
1002
}
  0
LINE
  5
25D
330
1F
100
AcDbEntity
  8
THICK
100
AcDbLine
 10
195.2348006082537
 20
18.50898785605026
 30
0.0
 11
198.6161750525058
 21
18.86438463116028
 31
0.0
1001
DBPROPERTIES
1002
{
1000
PbThick
1002
}
  0
LINE
  5
25E
330
1F
100
AcDbEntity
  8
THICK
100
AcDbLine
 10
198.1980611994352
 20
22.84247221263337
 30
0.0
 11
198.6161750525058
 21
18.86438463116028
 31
0.0
1001
DBPROPERTIES
1002
{
1000
PbThick
1002
}
  0
LINE
  5
25F
330
1F
100
AcDbEntity
  8
HIDDEN
100
AcDbLine
 10
198.6161750525058
 20
18.86438463116028
 30
0.0
 11
198.6161750525058
 21
18.86438463116028
 31
0.0
1001
DBPROPERTIES
1002
{
1000
PbHidd
1002
}
  0
LINE
  5
260
330
1F
100
AcDbEntity
  8
HIDDEN
100
AcDbLine
 10
104.7795546869149
 20
13.02379152597332
 30
0.0
 11
105.1976685399855
 21
9.045703944500234
 31
0.0
1001
DBPROPERTIES
1002
{
1000
PbHidd
1002
}
  0
LINE
  5
261
330
1F
100
AcDbEntity
  8
HIDDEN
100
AcDbLine
 10
87.20941767633592
 20
11.17709571196327
 30
0.0
 11
87.62753152940653
 21
7.19900813049018
 31
0.0
1001
DBPROPERTIES
1002
{
1000
PbHidd
1002
}
  0
LINE
  5
262
330
1F
100
AcDbEntity
  8
THICK
100
AcDbLine
 10
-10.51941823592026
 20
-80.95203447592921
 30
0.0
 11
-11.35479409951831
 21
-88.90010489846199
 31
0.0
1001
DBPROPERTIES
1002
{
1000
PbThick
1002
}
  0
LINE
  5
263
330
1F
100
AcDbEntity
  8
THICK
100
AcDbLine
 10
-13.35442580388664
 20
-107.9253297080406
 30
0.0
 11
-22.48707543752341
 21
-194.8166867551831
 31
0.0
1001
DBPROPERTIES
1002
{
1000
PbThick
1002
}
  0
LINE
  5
264
330
1F
100
AcDbEntity
  8
HIDDEN
100
AcDbLine
 10
-22.48707543752341
 20
-194.8166867551831
 30
0.0
 11
-22.48707543752341
 21
-194.8166867551831
 31
0.0
1001
DBPROPERTIES
1002
{
1000
PbHidd
1002
}
  0
LINE
  5
265
330
1F
100
AcDbEntity
  8
THICK
100
AcDbLine
 10
-18.50898785605031
 20
-195.2348006082537
 30
0.0
 11
-22.4870754375234
 21
-194.8166867551831
 31
0.0
1001
DBPROPERTIES
1002
{
1000
PbThick
1002
}
  0
LINE
  5
266
330
1F
100
AcDbEntity
  8
THICK
100
AcDbLine
 10
-22.48707543752341
 20
-194.8166867551831
 30
0.0
 11
-22.84247221263343
 21
-198.1980611994352
 31
0.0
1001
DBPROPERTIES
1002
{
1000
PbThick
1002
}
  0
LINE
  5
267
330
1F
100
AcDbEntity
  8
THICK
100
AcDbLine
 10
-18.86438463116034
 20
-198.6161750525058
 30
0.0
 11
-22.84247221263343
 21
-198.1980611994352
 31
0.0
1001
DBPROPERTIES
1002
{
1000
PbThick
1002
}
  0
LINE
  5
268
330
1F
100
AcDbEntity
  8
HIDDEN
100
AcDbLine
 10
-22.84247221263343
 20
-198.1980611994352
 30
0.0
 11
-22.84247221263343
 21
-198.1980611994352
 31
0.0
1001
DBPROPERTIES
1002
{
1000
PbHidd
1002
}
  0
LINE
  5
269
330
1F
100
AcDbEntity
  8
HIDDEN
100
AcDbLine
 10
-9.045703944500266
 20
-105.1976685399855
 30
0.0
 11
-13.02379152597336
 21
-104.7795546869149
 31
0.0
1001
DBPROPERTIES
1002
{
1000
PbHidd
1002
}
  0
LINE
  5
26A
330
1F
100
AcDbEntity
  8
HIDDEN
100
AcDbLine
 10
-7.199008130490199
 20
-87.62753152940653
 30
0.0
 11
-11.17709571196329
 21
-87.20941767633592
 31
0.0
1001
DBPROPERTIES
1002
{
1000
PbHidd
1002
}
  0
LINE
  5
26B
330
1F
100
AcDbEntity
  8
HIDDEN
100
AcDbLine
 10
-10.51941823592025
 20
-80.9520344759292
 30
0.0
 11
-10.51941823592025
 21
-80.9520344759292
 31
0.0
1001
DBPROPERTIES
1002
{
1000
PbHidd
1002
}
  0
LINE
  5
26C
330
1F
100
AcDbEntity
  8
HIDDEN
100
AcDbLine
 10
6.541330654447141
 20
-81.37014832899982
 30
0.0
 11
7.376706518045191
 21
-89.31821875153261
 31
0.0
1001
DBPROPERTIES
1002
{
1000
PbHidd
1002
}
  0
LINE
  5
26D
330
1F
100
AcDbEntity
  8
HIDDEN
100
AcDbLine
 10
9.376338222413525
 20
-108.3434435611112
 30
0.0
 11
17.00497560575904
 21
-180.9250799153675
 31
0.0
1001
DBPROPERTIES
1002
{
1000
PbHidd
1002
}
  0
LINE
  5
26E
330
1F
100
AcDbEntity
  8
THICK
100
AcDbLine
 10
17.00497560575904
 20
-180.9250799153675
 30
0.0
 11
18.50898785605027
 21
-195.2348006082537
 31
0.0
1001
DBPROPERTIES
1002
{
1000
PbThick
1002
}
  0
LINE
  5
26F
330
1F
100
AcDbEntity
  8
HIDDEN
100
AcDbLine
 10
18.50898785605027
 20
-195.2348006082537
 30
0.0
 11
18.50898785605027
 21
-195.2348006082537
 31
0.0
1001
DBPROPERTIES
1002
{
1000
PbHidd
1002
}
  0
LINE
  5
270
330
1F
100
AcDbEntity
  8
THICK
100
AcDbLine
 10
22.48707543752336
 20
-194.8166867551831
 30
0.0
 11
18.50898785605027
 21
-195.2348006082537
 31
0.0
1001
DBPROPERTIES
1002
{
1000
PbThick
1002
}
  0
LINE
  5
271
330
1F
100
AcDbEntity
  8
THICK
100
AcDbLine
 10
18.50898785605027
 20
-195.2348006082537
 30
0.0
 11
18.86438463116029
 21
-198.6161750525058
 31
0.0
1001
DBPROPERTIES
1002
{
1000
PbThick
1002
}
  0
LINE
  5
272
330
1F
100
AcDbEntity
  8
THICK
100
AcDbLine
 10
22.84247221263339
 20
-198.1980611994352
 30
0.0
 11
18.86438463116029
 21
-198.6161750525058
 31
0.0
1001
DBPROPERTIES
1002
{
1000
PbThick
1002
}
  0
LINE
  5
273
330
1F
100
AcDbEntity
  8
HIDDEN
100
AcDbLine
 10
18.86438463116029
 20
-198.6161750525058
 30
0.0
 11
18.86438463116029
 21
-198.6161750525058
 31
0.0
1001
DBPROPERTIES
1002
{
1000
PbHidd
1002
}
  0
LINE
  5
274
330
1F
100
AcDbEntity
  8
HIDDEN
100
AcDbLine
 10
13.02379152597333
 20
-104.7795546869149
 30
0.0
 11
9.045703944500241
 21
-105.1976685399855
 31
0.0
1001
DBPROPERTIES
1002
{
1000
PbHidd
1002
}
  0
LINE
  5
275
330
1F
100
AcDbEntity
  8
HIDDEN
100
AcDbLine
 10
11.17709571196328
 20
-87.20941767633592
 30
0.0
 11
7.199008130490185
 21
-87.62753152940653
 31
0.0
1001
DBPROPERTIES
1002
{
1000
PbHidd
1002
}
  0
LINE
  5
276
330
1F
100
AcDbEntity
  8
HIDDEN
100
AcDbLine
 10
-80.95203447592922
 20
10.51941823592026
 30
0.0
 11
-88.90010489846199
 21
11.3547940995183
 31
0.0
1001
DBPROPERTIES
1002
{
1000
PbHidd
1002
}
  0
LINE
  5
277
330
1F
100
AcDbEntity
  8
HIDDEN
100
AcDbLine
 10
-107.9253297080406
 20
13.35442580388664
 30
0.0
 11
-181.4867549517519
 21
21.08604314918015
 31
0.0
1001
DBPROPERTIES
1002
{
1000
PbHidd
1002
}
  0
LINE
  5
278
330
1F
100
AcDbEntity
  8
THICK
100
AcDbLine
 10
-181.4867549517519
 20
21.08604314918015
 30
0.0
 11
-194.8166867551831
 21
22.4870754375234
 31
0.0
1001
DBPROPERTIES
1002
{
1000
PbThick
1002
}
  0
LINE
  5
279
330
1F
100
AcDbEntity
  8
HIDDEN
100
AcDbLine
 10
-194.8166867551831
 20
22.4870754375234
 30
0.0
 11
-194.8166867551831
 21
22.4870754375234
 31
0.0
1001
DBPROPERTIES
1002
{
1000
PbHidd
1002
}
  0
LINE
  5
27A
330
1F
100
AcDbEntity
  8
THICK
100
AcDbLine
 10
-195.2348006082537
 20
18.5089878560503
 30
0.0
 11
-194.8166867551831
 21
22.48707543752339
 31
0.0
1001
DBPROPERTIES
1002
{
1000
PbThick
1002
}
  0
LINE
  5
27B
330
1F
100
AcDbEntity
  8
THICK
100
AcDbLine
 10
-194.8166867551831
 20
22.4870754375234
 30
0.0
 11
-198.1980611994352
 21
22.84247221263342
 31
0.0
1001
DBPROPERTIES
1002
{
1000
PbThick
1002
}
  0
LINE
  5
27C
330
1F
100
AcDbEntity
  8
THICK
100
AcDbLine
 10
-198.6161750525058
 20
18.86438463116033
 30
0.0
 11
-198.1980611994352
 21
22.84247221263342
 31
0.0
1001
DBPROPERTIES
1002
{
1000
PbThick
1002
}
  0
LINE
  5
27D
330
1F
100
AcDbEntity
  8
HIDDEN
100
AcDbLine
 10
-198.1980611994352
 20
22.84247221263342
 30
0.0
 11
-198.1980611994352
 21
22.84247221263342
 31
0.0
1001
DBPROPERTIES
1002
{
1000
PbHidd
1002
}
  0
LINE
  5
27E
330
1F
100
AcDbEntity
  8
HIDDEN
100
AcDbLine
 10
-105.1976685399855
 20
9.045703944500259
 30
0.0
 11
-104.7795546869149
 21
13.02379152597335
 31
0.0
1001
DBPROPERTIES
1002
{
1000
PbHidd
1002
}
  0
LINE
  5
27F
330
1F
100
AcDbEntity
  8
HIDDEN
100
AcDbLine
 10
-87.62753152940653
 20
7.199008130490194
 30
0.0
 11
-87.20941767633592
 21
11.17709571196328
 31
0.0
1001
DBPROPERTIES
1002
{
1000
PbHidd
1002
}
  0
LINE
  5
280
330
1F
100
AcDbEntity
  8
HIDDEN
100
AcDbLine
 10
-80.95203447592921
 20
10.51941823592025
 30
0.0
 11
-80.95203447592921
 21
10.51941823592025
 31
0.0
1001
DBPROPERTIES
1002
{
1000
PbHidd
1002
}
  0
LINE
  5
281
330
1F
100
AcDbEntity
  8
HIDDEN
100
AcDbLine
 10
-81.37014832899985
 20
-6.541330654447149
 30
0.0
 11
-89.31821875153261
 21
-7.376706518045197
 31
0.0
1001
DBPROPERTIES
1002
{
1000
PbHidd
1002
}
  0
LINE
  5
282
330
1F
100
AcDbEntity
  8
HIDDEN
100
AcDbLine
 10
-108.3434435611113
 20
-9.376338222413533
 30
0.0
 11
-182.5799624887904
 21
-17.17891077309316
 31
0.0
1001
DBPROPERTIES
1002
{
1000
PbHidd
1002
}
  0
LINE
  5
283
330
1F
100
AcDbEntity
  8
THICK
100
AcDbLine
 10
-182.5799624887904
 20
-17.17891077309316
 30
0.0
 11
-195.2348006082537
 21
-18.50898785605028
 31
0.0
1001
DBPROPERTIES
1002
{
1000
PbThick
1002
}
  0
LINE
  5
284
330
1F
100
AcDbEntity
  8
HIDDEN
100
AcDbLine
 10
-195.2348006082537
 20
-18.50898785605028
 30
0.0
 11
-195.2348006082537
 21
-18.50898785605028
 31
0.0
1001
DBPROPERTIES
1002
{
1000
PbHidd
1002
}
  0
LINE
  5
285
330
1F
100
AcDbEntity
  8
THICK
100
AcDbLine
 10
-194.8166867551831
 20
-22.48707543752337
 30
0.0
 11
-195.2348006082537
 21
-18.50898785605028
 31
0.0
1001
DBPROPERTIES
1002
{
1000
PbThick
1002
}
  0
LINE
  5
286
330
1F
100
AcDbEntity
  8
THICK
100
AcDbLine
 10
-195.2348006082537
 20
-18.50898785605028
 30
0.0
 11
-198.6161750525058
 21
-18.8643846311603
 31
0.0
1001
DBPROPERTIES
1002
{
1000
PbThick
1002
}
  0
LINE
  5
287
330
1F
100
AcDbEntity
  8
THICK
100
AcDbLine
 10
-198.1980611994352
 20
-22.8424722126334
 30
0.0
 11
-198.6161750525058
 21
-18.86438463116031
 31
0.0
1001
DBPROPERTIES
1002
{
1000
PbThick
1002
}
  0
LINE
  5
288
330
1F
100
AcDbEntity
  8
HIDDEN
100
AcDbLine
 10
-198.6161750525058
 20
-18.8643846311603
 30
0.0
 11
-198.6161750525058
 21
-18.8643846311603
 31
0.0
1001
DBPROPERTIES
1002
{
1000
PbHidd
1002
}
  0
LINE
  5
289
330
1F
100
AcDbEntity
  8
HIDDEN
100
AcDbLine
 10
-104.7795546869149
 20
-13.02379152597334
 30
0.0
 11
-105.1976685399855
 21
-9.045703944500248
 31
0.0
1001
DBPROPERTIES
1002
{
1000
PbHidd
1002
}
  0
LINE
  5
28A
330
1F
100
AcDbEntity
  8
HIDDEN
100
AcDbLine
 10
-87.20941767633592
 20
-11.17709571196328
 30
0.0
 11
-87.62753152940653
 21
-7.19900813049019
 31
0.0
1001
DBPROPERTIES
1002
{
1000
PbHidd
1002
}
  0
LINE
  5
28B
330
1F
100
AcDbEntity
  8
HIDDEN
100
AcDbLine
 10
-81.37014832899983
 20
-6.541330654447147
 30
0.0
 11
-81.37014832899983
 21
-6.541330654447148
 31
0.0
1001
DBPROPERTIES
1002
{
1000
PbHidd
1002
}
  0
ARC
  5
28C
330
1F
100
AcDbEntity
  8
HIDDEN
100
AcDbCircle
 10
0.0
 20
0.0000000000000139
 30
0.0
 40
57.14285714285715
100
AcDbArc
 50
267.0000117086634
 51
270.0000187239684
1001
DBPROPERTIES
1002
{
1000
PbHidd
1002
}
  0
LINE
  5
28D
330
1F
100
AcDbEntity
  8
HIDDEN
100
AcDbLine
 10
-2.990626071025395
 20
-57.06454484311849
 30
0.0
 11
-2.990626071025395
 21
-57.06454484311849
 31
0.0
1001
DBPROPERTIES
1002
{
1000
PbHidd
1002
}
  0
LINE
  5
28E
330
1F
100
AcDbEntity
  8
HIDDEN
100
AcDbLine
 10
14.78965972014402
 20
-55.19576150223246
 30
0.0
 11
14.78965972014402
 21
-55.19576150223246
 31
0.0
1001
DBPROPERTIES
1002
{
1000
PbHidd
1002
}
  0
ARC
  5
28F
330
1F
100
AcDbEntity
  8
HIDDEN
100
AcDbCircle
 10
0.0
 20
0.0000000000000139
 30
0.0
 40
57.14285714285715
100
AcDbArc
 50
278.9999824741038
 51
284.9999965047138
1001
DBPROPERTIES
1002
{
1000
PbHidd
1002
}
  0
LINE
  5
290
330
1F
100
AcDbEntity
  8
HIDDEN
100
AcDbLine
 10
8.939112288013174
 20
-56.43933374829358
 30
0.0
 11
8.939112288013174
 21
-56.43933374829358
 31
0.0
1001
DBPROPERTIES
1002
{
1000
PbHidd
1002
}
  0
LINE
  5
291
330
1F
100
AcDbEntity
  8
HIDDEN
100
AcDbLine
 10
-8.939112288013213
 20
-56.43933374829357
 30
0.0
 11
-8.939112288013213
 21
-56.43933374829357
 31
0.0
1001
DBPROPERTIES
1002
{
1000
PbHidd
1002
}
  0
ARC
  5
292
330
1F
100
AcDbEntity
  8
HIDDEN
100
AcDbCircle
 10
0.0
 20
0.0000000000000139
 30
0.0
 40
57.14285714285715
100
AcDbArc
 50
254.9999836474434
 51
260.9999976780534
1001
DBPROPERTIES
1002
{
1000
PbHidd
1002
}
  0
LINE
  5
293
330
1F
100
AcDbEntity
  8
HIDDEN
100
AcDbLine
 10
-14.78965972014406
 20
-55.19576150223246
 30
0.0
 11
-14.78965972014406
 21
-55.19576150223246
 31
0.0
1001
DBPROPERTIES
1002
{
1000
PbHidd
1002
}
  0
LINE
  5
294
330
1F
100
AcDbEntity
  8
HIDDEN
100
AcDbLine
 10
25.94231427083122
 20
-50.91465852504959
 30
0.0
 11
25.94231427083122
 21
-50.91465852504959
 31
0.0
1001
DBPROPERTIES
1002
{
1000
PbHidd
1002
}
  0
ARC
  5
295
330
1F
100
AcDbEntity
  8
HIDDEN
100
AcDbCircle
 10
0.0
 20
0.0000000000000139
 30
0.0
 40
57.14285714285715
100
AcDbArc
 50
291.0000105353237
 51
297.0000245659338
1001
DBPROPERTIES
1002
{
1000
PbHidd
1002
}
  0
LINE
  5
296
330
1F
100
AcDbEntity
  8
HIDDEN
100
AcDbLine
 10
20.4781685454457
 20
-53.34745294269724
 30
0.0
 11
20.4781685454457
 21
-53.34745294269724
 31
0.0
1001
DBPROPERTIES
1002
{
1000
PbHidd
1002
}
  0
LINE
  5
297
330
1F
100
AcDbEntity
  8
HIDDEN
100
AcDbLine
 10
-20.47816854544574
 20
-53.34745294269722
 30
0.0
 11
-20.47816854544574
 21
-53.34745294269722
 31
0.0
1001
DBPROPERTIES
1002
{
1000
PbHidd
1002
}
  0
ARC
  5
298
330
1F
100
AcDbEntity
  8
HIDDEN
100
AcDbCircle
 10
0.0
 20
0.0000000000000139
 30
0.0
 40
57.14285714285715
100
AcDbArc
 50
243.0000128820029
 51
249.0000269126129
1001
DBPROPERTIES
1002
{
1000
PbHidd
1002
}
  0
LINE
  5
299
330
1F
100
AcDbEntity
  8
HIDDEN
100
AcDbLine
 10
-25.94231427083125
 20
-50.91465852504957
 30
0.0
 11
-25.94231427083125
 21
-50.91465852504957
 31
0.0
1001
DBPROPERTIES
1002
{
1000
PbHidd
1002
}
  0
LINE
  5
29A
330
1F
100
AcDbEntity
  8
HIDDEN
100
AcDbLine
 10
35.96116520284782
 20
-44.40834065468407
 30
0.0
 11
35.96116520284782
 21
-44.40834065468407
 31
0.0
1001
DBPROPERTIES
1002
{
1000
PbHidd
1002
}
  0
ARC
  5
29B
330
1F
100
AcDbEntity
  8
HIDDEN
100
AcDbCircle
 10
0.0
 20
0.0000000000000139
 30
0.0
 40
57.14285714285715
100
AcDbArc
 50
302.9999813007643
 51
308.9999953313742
1001
DBPROPERTIES
1002
{
1000
PbHidd
1002
}
  0
LINE
  5
29C
330
1F
100
AcDbEntity
  8
HIDDEN
100
AcDbLine
 10
31.12223057228723
 20
-47.92403245402424
 30
0.0
 11
31.12223057228723
 21
-47.92403245402424
 31
0.0
1001
DBPROPERTIES
1002
{
1000
PbHidd
1002
}
  0
LINE
  5
29D
330
1F
100
AcDbEntity
  8
HIDDEN
100
AcDbLine
 10
-31.12223057228729
 20
-47.92403245402421
 30
0.0
 11
-31.12223057228729
 21
-47.92403245402421
 31
0.0
1001
DBPROPERTIES
1002
{
1000
PbHidd
1002
}
  0
ARC
  5
29E
330
1F
100
AcDbEntity
  8
HIDDEN
100
AcDbCircle
 10
0.0
 20
0.0000000000000139
 30
0.0
 40
57.14285714285715
100
AcDbArc
 50
230.999984820783
 51
236.999998851393
1001
DBPROPERTIES
1002
{
1000
PbHidd
1002
}
  0
LINE
  5
29F
330
1F
100
AcDbEntity
  8
HIDDEN
100
AcDbLine
 10
-35.96116520284787
 20
-44.40834065468403
 30
0.0
 11
-35.96116520284787
 21
-44.40834065468403
 31
0.0
1001
DBPROPERTIES
1002
{
1000
PbHidd
1002
}
  0
LINE
  5
2A0
330
1F
100
AcDbEntity
  8
HIDDEN
100
AcDbLine
 10
44.40834065468403
 20
-35.96116520284787
 30
0.0
 11
44.40834065468403
 21
-35.96116520284787
 31
0.0
1001
DBPROPERTIES
1002
{
1000
PbHidd
1002
}
  0
ARC
  5
2A1
330
1F
100
AcDbEntity
  8
HIDDEN
100
AcDbCircle
 10
0.0
 20
0.0000000000000139
 30
0.0
 40
57.14285714285715
100
AcDbArc
 50
315.0000093619842
 51
321.0000233925941
1001
DBPROPERTIES
1002
{
1000
PbHidd
1002
}
  0
LINE
  5
2A2
330
1F
100
AcDbEntity
  8
HIDDEN
100
AcDbLine
 10
40.40610178208841
 20
-40.40610178208843
 30
0.0
 11
40.40610178208841
 21
-40.40610178208843
 31
0.0
1001
DBPROPERTIES
1002
{
1000
PbHidd
1002
}
  0
LINE
  5
2A3
330
1F
100
AcDbEntity
  8
HIDDEN
100
AcDbLine
 10
-40.40610178208843
 20
-40.40610178208841
 30
0.0
 11
-40.40610178208843
 21
-40.40610178208841
 31
0.0
1001
DBPROPERTIES
1002
{
1000
PbHidd
1002
}
  0
ARC
  5
2A4
330
1F
100
AcDbEntity
  8
HIDDEN
100
AcDbCircle
 10
0.0
 20
0.0000000000000139
 30
0.0
 40
57.14285714285715
100
AcDbArc
 50
219.0000140553425
 51
225.0000280859525
1001
DBPROPERTIES
1002
{
1000
PbHidd
1002
}
  0
LINE
  5
2A5
330
1F
100
AcDbEntity
  8
HIDDEN
100
AcDbLine
 10
-44.40834065468405
 20
-35.96116520284784
 30
0.0
 11
-44.40834065468405
 21
-35.96116520284784
 31
0.0
1001
DBPROPERTIES
1002
{
1000
PbHidd
1002
}
  0
LINE
  5
2A6
330
1F
100
AcDbEntity
  8
HIDDEN
100
AcDbLine
 10
50.91465852504957
 20
-25.94231427083127
 30
0.0
 11
50.91465852504957
 21
-25.94231427083126
 31
0.0
1001
DBPROPERTIES
1002
{
1000
PbHidd
1002
}
  0
ARC
  5
2A7
330
1F
100
AcDbEntity
  8
HIDDEN
100
AcDbCircle
 10
0.0
 20
0.0000000000000139
 30
0.0
 40
57.14285714285715
100
AcDbArc
 50
326.9999801274246
 51
332.9999941580346
1001
DBPROPERTIES
1002
{
1000
PbHidd
1002
}
  0
LINE
  5
2A8
330
1F
100
AcDbEntity
  8
HIDDEN
100
AcDbLine
 10
47.92403245402421
 20
-31.12223057228728
 30
0.0
 11
47.92403245402421
 21
-31.12223057228728
 31
0.0
1001
DBPROPERTIES
1002
{
1000
PbHidd
1002
}
  0
LINE
  5
2A9
330
1F
100
AcDbEntity
  8
HIDDEN
100
AcDbLine
 10
-47.92403245402423
 20
-31.12223057228725
 30
0.0
 11
-47.92403245402423
 21
-31.12223057228724
 31
0.0
1001
DBPROPERTIES
1002
{
1000
PbHidd
1002
}
  0
ARC
  5
2AA
330
1F
100
AcDbEntity
  8
HIDDEN
100
AcDbCircle
 10
0.0
 20
0.0000000000000139
 30
0.0
 40
57.14285714285715
100
AcDbArc
 50
206.9999859941226
 51
213.0000000247326
1001
DBPROPERTIES
1002
{
1000
PbHidd
1002
}
  0
LINE
  5
2AB
330
1F
100
AcDbEntity
  8
HIDDEN
100
AcDbLine
 10
-50.91465852504959
 20
-25.94231427083123
 30
0.0
 11
-50.91465852504959
 21
-25.94231427083124
 31
0.0
1001
DBPROPERTIES
1002
{
1000
PbHidd
1002
}
  0
LINE
  5
2AC
330
1F
100
AcDbEntity
  8
HIDDEN
100
AcDbLine
 10
55.19576150223246
 20
-14.78965972014408
 30
0.0
 11
55.19576150223246
 21
-14.78965972014408
 31
0.0
1001
DBPROPERTIES
1002
{
1000
PbHidd
1002
}
  0
ARC
  5
2AD
330
1F
100
AcDbEntity
  8
HIDDEN
100
AcDbCircle
 10
0.0
 20
0.0000000000000139
 30
0.0
 40
57.14285714285715
100
AcDbArc
 50
339.0000081886445
 51
345.0000222192546
1001
DBPROPERTIES
1002
{
1000
PbHidd
1002
}
  0
LINE
  5
2AE
330
1F
100
AcDbEntity
  8
HIDDEN
100
AcDbLine
 10
53.34745294269722
 20
-20.47816854544576
 30
0.0
 11
53.34745294269722
 21
-20.47816854544577
 31
0.0
1001
DBPROPERTIES
1002
{
1000
PbHidd
1002
}
  0
LINE
  5
2AF
330
1F
100
AcDbEntity
  8
HIDDEN
100
AcDbLine
 10
-53.34745294269725
 20
-20.47816854544572
 30
0.0
 11
-53.34745294269725
 21
-20.47816854544572
 31
0.0
1001
DBPROPERTIES
1002
{
1000
PbHidd
1002
}
  0
ARC
  5
2B0
330
1F
100
AcDbEntity
  8
HIDDEN
100
AcDbCircle
 10
0.0
 20
0.0000000000000139
 30
0.0
 40
57.14285714285715
100
AcDbArc
 50
195.0000152286821
 51
200.9999719635126
1001
DBPROPERTIES
1002
{
1000
PbHidd
1002
}
  0
LINE
  5
2B1
330
1F
100
AcDbEntity
  8
HIDDEN
100
AcDbLine
 10
-55.19576150223247
 20
-14.78965972014402
 30
0.0
 11
-55.19576150223247
 21
-14.78965972014403
 31
0.0
1001
DBPROPERTIES
1002
{
1000
PbHidd
1002
}
  0
LINE
  5
2B2
330
1F
100
AcDbEntity
  8
HIDDEN
100
AcDbLine
 10
57.06454484311851
 20
-2.990626071025381
 30
0.0
 11
57.06454484311851
 21
-2.990626071025377
 31
0.0
1001
DBPROPERTIES
1002
{
1000
PbHidd
1002
}
  0
ARC
  5
2B3
330
1F
100
AcDbEntity
  8
HIDDEN
100
AcDbCircle
 10
0.0
 20
0.0000000000000139
 30
0.0
 40
57.14285714285715
100
AcDbArc
 50
350.9999789540851
 51
356.999992984695
1001
DBPROPERTIES
1002
{
1000
PbHidd
1002
}
  0
LINE
  5
2B4
330
1F
100
AcDbEntity
  8
HIDDEN
100
AcDbLine
 10
56.43933374829358
 20
-8.939112288013208
 30
0.0
 11
56.43933374829358
 21
-8.939112288013211
 31
0.0
1001
DBPROPERTIES
1002
{
1000
PbHidd
1002
}
  0
LINE
  5
2B5
330
1F
100
AcDbEntity
  8
HIDDEN
100
AcDbLine
 10
-56.43933374829359
 20
-8.939112288013172
 30
0.0
 11
-56.43933374829359
 21
-8.939112288013169
 31
0.0
1001
DBPROPERTIES
1002
{
1000
PbHidd
1002
}
  0
ARC
  5
2B6
330
1F
100
AcDbEntity
  8
HIDDEN
100
AcDbCircle
 10
0.0
 20
0.0000000000000139
 30
0.0
 40
57.14285714285715
100
AcDbArc
 50
182.9999871674622
 51
189.0000011980722
1001
DBPROPERTIES
1002
{
1000
PbHidd
1002
}
  0
LINE
  5
2B7
330
1F
100
AcDbEntity
  8
HIDDEN
100
AcDbLine
 10
-57.06454484311851
 20
-2.990626071025341
 30
0.0
 11
-57.06454484311851
 21
-2.990626071025345
 31
0.0
1001
DBPROPERTIES
1002
{
1000
PbHidd
1002
}
  0
LINE
  5
2B8
330
1F
100
AcDbEntity
  8
HIDDEN
100
AcDbLine
 10
56.4393337482936
 20
8.939112288013144
 30
0.0
 11
56.4393337482936
 21
8.939112288013147
 31
0.0
1001
DBPROPERTIES
1002
{
1000
PbHidd
1002
}
  0
ARC
  5
2B9
330
1F
100
AcDbEntity
  8
HIDDEN
100
AcDbCircle
 10
0.0
 20
0.0000000000000139
 30
0.0
 40
57.14285714285715
100
AcDbArc
 50
3.00000701530499
 51
9.000021045914972
1001
DBPROPERTIES
1002
{
1000
PbHidd
1002
}
  0
LINE
  5
2BA
330
1F
100
AcDbEntity
  8
HIDDEN
100
AcDbLine
 10
57.06454484311851
 20
2.990626071025313
 30
0.0
 11
57.06454484311851
 21
2.990626071025309
 31
0.0
1001
DBPROPERTIES
1002
{
1000
PbHidd
1002
}
  0
LINE
  5
2BB
330
1F
100
AcDbEntity
  8
HIDDEN
100
AcDbLine
 10
-57.06454484311851
 20
2.990626071025374
 30
0.0
 11
-57.06454484311851
 21
2.990626071025378
 31
0.0
1001
DBPROPERTIES
1002
{
1000
PbHidd
1002
}
  0
ARC
  5
2BC
330
1F
100
AcDbEntity
  8
HIDDEN
100
AcDbCircle
 10
0.0
 20
0.0000000000000139
 30
0.0
 40
57.14285714285715
100
AcDbArc
 50
170.9999988019279
 51
177.0000128325378
1001
DBPROPERTIES
1002
{
1000
PbHidd
1002
}
  0
LINE
  5
2BD
330
1F
100
AcDbEntity
  8
HIDDEN
100
AcDbLine
 10
-56.43933374829359
 20
8.939112288013208
 30
0.0
 11
-56.43933374829359
 21
8.939112288013204
 31
0.0
1001
DBPROPERTIES
1002
{
1000
PbHidd
1002
}
  0
LINE
  5
2BE
330
1F
100
AcDbEntity
  8
HIDDEN
100
AcDbLine
 10
53.34745294269726
 20
20.47816854544569
 30
0.0
 11
53.34745294269726
 21
20.4781685454457
 31
0.0
1001
DBPROPERTIES
1002
{
1000
PbHidd
1002
}
  0
ARC
  5
2BF
330
1F
100
AcDbEntity
  8
HIDDEN
100
AcDbCircle
 10
0.0
 20
0.0000000000000139
 30
0.0
 40
57.14285714285715
100
AcDbArc
 50
14.99997778074544
 51
20.99999181135542
1001
DBPROPERTIES
1002
{
1000
PbHidd
1002
}
  0
LINE
  5
2C0
330
1F
100
AcDbEntity
  8
HIDDEN
100
AcDbLine
 10
55.19576150223249
 20
14.78965972014401
 30
0.0
 11
55.19576150223249
 21
14.78965972014401
 31
0.0
1001
DBPROPERTIES
1002
{
1000
PbHidd
1002
}
  0
LINE
  5
2C1
330
1F
100
AcDbEntity
  8
HIDDEN
100
AcDbLine
 10
-55.19576150223248
 20
14.78965972014405
 30
0.0
 11
-55.19576150223248
 21
14.78965972014406
 31
0.0
1001
DBPROPERTIES
1002
{
1000
PbHidd
1002
}
  0
ARC
  5
2C2
330
1F
100
AcDbEntity
  8
HIDDEN
100
AcDbCircle
 10
0.0
 20
0.0000000000000139
 30
0.0
 40
57.14285714285715
100
AcDbArc
 50
159.0000280364874
 51
164.9999847713179
1001
DBPROPERTIES
1002
{
1000
PbHidd
1002
}
  0
LINE
  5
2C3
330
1F
100
AcDbEntity
  8
HIDDEN
100
AcDbLine
 10
-53.34745294269725
 20
20.47816854544574
 30
0.0
 11
-53.34745294269725
 21
20.47816854544574
 31
0.0
1001
DBPROPERTIES
1002
{
1000
PbHidd
1002
}
  0
LINE
  5
2C4
330
1F
100
AcDbEntity
  8
HIDDEN
100
AcDbLine
 10
47.92403245402426
 20
31.12223057228724
 30
0.0
 11
47.92403245402426
 21
31.12223057228725
 31
0.0
1001
DBPROPERTIES
1002
{
1000
PbHidd
1002
}
  0
ARC
  5
2C5
330
1F
100
AcDbEntity
  8
HIDDEN
100
AcDbCircle
 10
0.0
 20
0.0000000000000139
 30
0.0
 40
57.14285714285715
100
AcDbArc
 50
27.0000058419654
 51
33.00001987257539
1001
DBPROPERTIES
1002
{
1000
PbHidd
1002
}
  0
LINE
  5
2C6
330
1F
100
AcDbEntity
  8
HIDDEN
100
AcDbLine
 10
50.9146585250496
 20
25.94231427083124
 30
0.0
 11
50.9146585250496
 21
25.94231427083123
 31
0.0
1001
DBPROPERTIES
1002
{
1000
PbHidd
1002
}
  0
LINE
  5
2C7
330
1F
100
AcDbEntity
  8
HIDDEN
100
AcDbLine
 10
-50.91465852504959
 20
25.94231427083126
 30
0.0
 11
-50.91465852504959
 21
25.94231427083127
 31
0.0
1001
DBPROPERTIES
1002
{
1000
PbHidd
1002
}
  0
ARC
  5
2C8
330
1F
100
AcDbEntity
  8
HIDDEN
100
AcDbCircle
 10
0.0
 20
0.0000000000000139
 30
0.0
 40
57.14285714285715
100
AcDbArc
 50
146.9999999752674
 51
153.0000140058774
1001
DBPROPERTIES
1002
{
1000
PbHidd
1002
}
  0
LINE
  5
2C9
330
1F
100
AcDbEntity
  8
HIDDEN
100
AcDbLine
 10
-47.92403245402423
 20
31.12223057228729
 30
0.0
 11
-47.92403245402423
 21
31.12223057228728
 31
0.0
1001
DBPROPERTIES
1002
{
1000
PbHidd
1002
}
  0
LINE
  5
2CA
330
1F
100
AcDbEntity
  8
HIDDEN
100
AcDbLine
 10
40.40610178208848
 20
40.40610178208841
 30
0.0
 11
40.40610178208848
 21
40.40610178208841
 31
0.0
1001
DBPROPERTIES
1002
{
1000
PbHidd
1002
}
  0
ARC
  5
2CB
330
1F
100
AcDbEntity
  8
HIDDEN
100
AcDbCircle
 10
0.0
 20
0.0000000000000139
 30
0.0
 40
57.14285714285715
100
AcDbArc
 50
38.99997660740585
 51
44.99999063801582
1001
DBPROPERTIES
1002
{
1000
PbHidd
1002
}
  0
LINE
  5
2CC
330
1F
100
AcDbEntity
  8
HIDDEN
100
AcDbLine
 10
44.4083406546841
 20
35.96116520284782
 30
0.0
 11
44.4083406546841
 21
35.96116520284782
 31
0.0
1001
DBPROPERTIES
1002
{
1000
PbHidd
1002
}
  0
LINE
  5
2CD
330
1F
100
AcDbEntity
  8
HIDDEN
100
AcDbLine
 10
-44.40834065468406
 20
35.96116520284787
 30
0.0
 11
-44.40834065468406
 21
35.96116520284787
 31
0.0
1001
DBPROPERTIES
1002
{
1000
PbHidd
1002
}
  0
ARC
  5
2CE
330
1F
100
AcDbEntity
  8
HIDDEN
100
AcDbCircle
 10
0.0
 20
0.0000000000000139
 30
0.0
 40
57.14285714285715
100
AcDbArc
 50
134.9999719140475
 51
140.9999859446575
1001
DBPROPERTIES
1002
{
1000
PbHidd
1002
}
  0
LINE
  5
2CF
330
1F
100
AcDbEntity
  8
HIDDEN
100
AcDbLine
 10
-40.40610178208844
 20
40.40610178208844
 30
0.0
 11
-40.40610178208844
 21
40.40610178208844
 31
0.0
1001
DBPROPERTIES
1002
{
1000
PbHidd
1002
}
  0
LINE
  5
2D0
330
1F
100
AcDbEntity
  8
HIDDEN
100
AcDbLine
 10
31.1222305722873
 20
47.92403245402423
 30
0.0
 11
31.1222305722873
 21
47.92403245402423
 31
0.0
1001
DBPROPERTIES
1002
{
1000
PbHidd
1002
}
  0
ARC
  5
2D1
330
1F
100
AcDbEntity
  8
HIDDEN
100
AcDbCircle
 10
0.0
 20
0.0000000000000139
 30
0.0
 40
57.14285714285715
100
AcDbArc
 50
51.00000466862581
 51
57.0000186992358
1001
DBPROPERTIES
1002
{
1000
PbHidd
1002
}
  0
LINE
  5
2D2
330
1F
100
AcDbEntity
  8
HIDDEN
100
AcDbLine
 10
35.96116520284789
 20
44.40834065468405
 30
0.0
 11
35.96116520284789
 21
44.40834065468405
 31
0.0
1001
DBPROPERTIES
1002
{
1000
PbHidd
1002
}
  0
LINE
  5
2D3
330
1F
100
AcDbEntity
  8
HIDDEN
100
AcDbLine
 10
-35.96116520284786
 20
44.40834065468407
 30
0.0
 11
-35.96116520284786
 21
44.40834065468407
 31
0.0
1001
DBPROPERTIES
1002
{
1000
PbHidd
1002
}
  0
ARC
  5
2D4
330
1F
100
AcDbEntity
  8
HIDDEN
100
AcDbCircle
 10
0.0
 20
0.0000000000000139
 30
0.0
 40
57.14285714285715
100
AcDbArc
 50
123.000001148607
 51
129.000015179217
1001
DBPROPERTIES
1002
{
1000
PbHidd
1002
}
  0
LINE
  5
2D5
330
1F
100
AcDbEntity
  8
HIDDEN
100
AcDbLine
 10
-31.12223057228726
 20
47.92403245402424
 30
0.0
 11
-31.12223057228726
 21
47.92403245402424
 31
0.0
1001
DBPROPERTIES
1002
{
1000
PbHidd
1002
}
  0
LINE
  5
2D6
330
1F
100
AcDbEntity
  8
HIDDEN
100
AcDbLine
 10
20.47816854544576
 20
53.34745294269725
 30
0.0
 11
20.47816854544576
 21
53.34745294269725
 31
0.0
1001
DBPROPERTIES
1002
{
1000
PbHidd
1002
}
  0
ARC
  5
2D7
330
1F
100
AcDbEntity
  8
HIDDEN
100
AcDbCircle
 10
0.0
 20
0.0000000000000139
 30
0.0
 40
57.14285714285715
100
AcDbArc
 50
62.99997543406626
 51
68.99998946467625
1001
DBPROPERTIES
1002
{
1000
PbHidd
1002
}
  0
LINE
  5
2D8
330
1F
100
AcDbEntity
  8
HIDDEN
100
AcDbLine
 10
25.94231427083128
 20
50.91465852504959
 30
0.0
 11
25.94231427083128
 21
50.91465852504959
 31
0.0
1001
DBPROPERTIES
1002
{
1000
PbHidd
1002
}
  0
LINE
  5
2D9
330
1F
100
AcDbEntity
  8
HIDDEN
100
AcDbLine
 10
-25.94231427083124
 20
50.91465852504961
 30
0.0
 11
-25.94231427083124
 21
50.91465852504961
 31
0.0
1001
DBPROPERTIES
1002
{
1000
PbHidd
1002
}
  0
ARC
  5
2DA
330
1F
100
AcDbEntity
  8
HIDDEN
100
AcDbCircle
 10
0.0
 20
0.0000000000000139
 30
0.0
 40
57.14285714285715
100
AcDbArc
 50
110.9999730873871
 51
116.9999871179971
1001
DBPROPERTIES
1002
{
1000
PbHidd
1002
}
  0
LINE
  5
2DB
330
1F
100
AcDbEntity
  8
HIDDEN
100
AcDbLine
 10
-20.47816854544572
 20
53.34745294269726
 30
0.0
 11
-20.47816854544572
 21
53.34745294269726
 31
0.0
1001
DBPROPERTIES
1002
{
1000
PbHidd
1002
}
  0
LINE
  5
2DC
330
1F
100
AcDbEntity
  8
HIDDEN
100
AcDbLine
 10
8.939112288013249
 20
56.4393337482936
 30
0.0
 11
8.939112288013249
 21
56.4393337482936
 31
0.0
1001
DBPROPERTIES
1002
{
1000
PbHidd
1002
}
  0
ARC
  5
2DD
330
1F
100
AcDbEntity
  8
HIDDEN
100
AcDbCircle
 10
0.0
 20
0.0000000000000139
 30
0.0
 40
57.14285714285715
100
AcDbArc
 50
75.00000349528622
 51
81.0000175258962
1001
DBPROPERTIES
1002
{
1000
PbHidd
1002
}
  0
LINE
  5
2DE
330
1F
100
AcDbEntity
  8
HIDDEN
100
AcDbLine
 10
14.7896597201441
 20
55.19576150223248
 30
0.0
 11
14.7896597201441
 21
55.19576150223248
 31
0.0
1001
DBPROPERTIES
1002
{
1000
PbHidd
1002
}
  0
ARC
  5
2DF
330
1F
100
AcDbEntity
  8
HIDDEN
100
AcDbCircle
 10
0.0
 20
0.0000000000000139
 30
0.0
 40
57.14285714285715
100
AcDbArc
 50
99.00000232194662
 51
105.0000163525566
1001
DBPROPERTIES
1002
{
1000
PbHidd
1002
}
  0
LINE
  5
2E0
330
1F
100
AcDbEntity
  8
HIDDEN
100
AcDbLine
 10
-8.939112288013188
 20
56.43933374829361
 30
0.0
 11
-8.939112288013188
 21
56.43933374829361
 31
0.0
1001
DBPROPERTIES
1002
{
1000
PbHidd
1002
}
  0
LINE
  5
2E1
330
1F
100
AcDbEntity
  8
HIDDEN
100
AcDbLine
 10
-14.78965972014404
 20
55.19576150223249
 30
0.0
 11
-14.78965972014404
 21
55.19576150223249
 31
0.0
1001
DBPROPERTIES
1002
{
1000
PbHidd
1002
}
  0
ARC
  5
2E2
330
1F
100
AcDbEntity
  8
HIDDEN
100
AcDbCircle
 10
0.0
 20
0.0000000000000139
 30
0.0
 40
80.0
100
AcDbArc
 50
89.99998127603165
 51
99.00000232194662
1001
DBPROPERTIES
1002
{
1000
PbHidd
1002
}
  0
LINE
  5
2E3
330
1F
100
AcDbEntity
  8
HIDDEN
100
AcDbLine
 10
-8.939112288013181
 20
56.43933374829356
 30
0.0
 11
-12.51475720321845
 21
79.01506724761099
 31
0.0
1001
DBPROPERTIES
1002
{
1000
PbHidd
1002
}
  0
LINE
  5
2E4
330
1F
100
AcDbEntity
  8
HIDDEN
100
AcDbLine
 10
-20.70552360820166
 20
77.27406610312548
 30
0.0
 11
-14.78965972014404
 21
55.19576150223249
 31
0.0
1001
DBPROPERTIES
1002
{
1000
PbHidd
1002
}
  0
ARC
  5
2E5
330
1F
100
AcDbEntity
  8
HIDDEN
100
AcDbCircle
 10
0.0
 20
0.0000000000000139
 30
0.0
 40
80.0
100
AcDbArc
 50
105.0000163525566
 51
110.9999730873871
1001
DBPROPERTIES
1002
{
1000
PbHidd
1002
}
  0
LINE
  5
2E6
330
1F
100
AcDbEntity
  8
HIDDEN
100
AcDbLine
 10
-20.47816854544571
 20
53.34745294269723
 30
0.0
 11
-28.66943596362399
 21
74.6864341197761
 31
0.0
1001
DBPROPERTIES
1002
{
1000
PbHidd
1002
}
  0
LINE
  5
2E7
330
1F
100
AcDbEntity
  8
HIDDEN
100
AcDbLine
 10
-36.31923997916374
 20
71.28052193506946
 30
0.0
 11
-25.94231427083124
 21
50.91465852504962
 31
0.0
1001
DBPROPERTIES
1002
{
1000
PbHidd
1002
}
  0
ARC
  5
2E8
330
1F
100
AcDbEntity
  8
HIDDEN
100
AcDbCircle
 10
0.0
 20
0.0000000000000139
 30
0.0
 40
80.0
100
AcDbArc
 50
116.9999871179971
 51
123.000001148607
1001
DBPROPERTIES
1002
{
1000
PbHidd
1002
}
  0
LINE
  5
2E9
330
1F
100
AcDbEntity
  8
HIDDEN
100
AcDbLine
 10
-31.12223057228725
 20
47.92403245402421
 30
0.0
 11
-43.57112280120213
 21
67.09364543563389
 31
0.0
1001
DBPROPERTIES
1002
{
1000
PbHidd
1002
}
  0
LINE
  5
2EA
330
1F
100
AcDbEntity
  8
HIDDEN
100
AcDbLine
 10
-50.34563128398698
 20
62.17167691655764
 30
0.0
 11
-35.96116520284784
 21
44.40834065468405
 31
0.0
1001
DBPROPERTIES
1002
{
1000
PbHidd
1002
}
  0
ARC
  5
2EB
330
1F
100
AcDbEntity
  8
HIDDEN
100
AcDbCircle
 10
0.0
 20
0.0000000000000139
 30
0.0
 40
80.0
100
AcDbArc
 50
129.000015179217
 51
134.9999719140475
1001
DBPROPERTIES
1002
{
1000
PbHidd
1002
}
  0
LINE
  5
2EC
330
1F
100
AcDbEntity
  8
HIDDEN
100
AcDbLine
 10
-40.40610178208843
 20
40.40610178208843
 30
0.0
 11
-56.56854249492378
 21
56.56854249492379
 31
0.0
1001
DBPROPERTIES
1002
{
1000
PbHidd
1002
}
  0
LINE
  5
2ED
330
1F
100
AcDbEntity
  8
HIDDEN
100
AcDbLine
 10
-62.17167691655769
 20
50.34563128398702
 30
0.0
 11
-44.40834065468405
 21
35.96116520284787
 31
0.0
1001
DBPROPERTIES
1002
{
1000
PbHidd
1002
}
  0
ARC
  5
2EE
330
1F
100
AcDbEntity
  8
HIDDEN
100
AcDbCircle
 10
0.0
 20
0.0000000000000139
 30
0.0
 40
80.0
100
AcDbArc
 50
140.9999859446575
 51
146.9999999752674
1001
DBPROPERTIES
1002
{
1000
PbHidd
1002
}
  0
LINE
  5
2EF
330
1F
100
AcDbEntity
  8
HIDDEN
100
AcDbLine
 10
-47.9240324540242
 20
31.12223057228726
 30
0.0
 11
-67.09364543563387
 21
43.57112280120216
 31
0.0
1001
DBPROPERTIES
1002
{
1000
PbHidd
1002
}
  0
LINE
  5
2F0
330
1F
100
AcDbEntity
  8
HIDDEN
100
AcDbLine
 10
-71.2805219350694
 20
36.31923997916375
 30
0.0
 11
-50.91465852504957
 21
25.94231427083125
 31
0.0
1001
DBPROPERTIES
1002
{
1000
PbHidd
1002
}
  0
ARC
  5
2F1
330
1F
100
AcDbEntity
  8
HIDDEN
100
AcDbCircle
 10
0.0
 20
0.0000000000000139
 30
0.0
 40
80.0
100
AcDbArc
 50
153.0000140058774
 51
159.0000280364874
1001
DBPROPERTIES
1002
{
1000
PbHidd
1002
}
  0
LINE
  5
2F2
330
1F
100
AcDbEntity
  8
HIDDEN
100
AcDbLine
 10
-53.34745294269722
 20
20.47816854544573
 30
0.0
 11
-74.68643411977608
 21
28.66943596362401
 31
0.0
1001
DBPROPERTIES
1002
{
1000
PbHidd
1002
}
  0
LINE
  5
2F3
330
1F
100
AcDbEntity
  8
HIDDEN
100
AcDbLine
 10
-77.27406610312542
 20
20.70552360820166
 30
0.0
 11
-55.19576150223246
 21
14.78965972014405
 31
0.0
1001
DBPROPERTIES
1002
{
1000
PbHidd
1002
}
  0
ARC
  5
2F4
330
1F
100
AcDbEntity
  8
HIDDEN
100
AcDbCircle
 10
0.0
 20
0.0000000000000139
 30
0.0
 40
80.0
100
AcDbArc
 50
164.9999847713179
 51
170.9999988019279
1001
DBPROPERTIES
1002
{
1000
PbHidd
1002
}
  0
LINE
  5
2F5
330
1F
100
AcDbEntity
  8
HIDDEN
100
AcDbLine
 10
-56.43933374829355
 20
8.939112288013199
 30
0.0
 11
-79.01506724761094
 21
12.51475720321847
 31
0.0
1001
DBPROPERTIES
1002
{
1000
PbHidd
1002
}
  0
LINE
  5
2F6
330
1F
100
AcDbEntity
  8
HIDDEN
100
AcDbLine
 10
-79.89036278036588
 20
4.186876499435521
 30
0.0
 11
-57.06454484311848
 21
2.990626071025374
 31
0.0
1001
DBPROPERTIES
1002
{
1000
PbHidd
1002
}
  0
ARC
  5
2F7
330
1F
100
AcDbEntity
  8
HIDDEN
100
AcDbCircle
 10
0.0
 20
0.0000000000000139
 30
0.0
 40
80.0
100
AcDbArc
 50
177.0000128325378
 51
182.9999871674622
1001
DBPROPERTIES
1002
{
1000
PbHidd
1002
}
  0
LINE
  5
2F8
330
1F
100
AcDbEntity
  8
HIDDEN
100
AcDbLine
 10
-57.06454484311848
 20
-2.990626071025341
 30
0.0
 11
-79.89036278036588
 21
-4.186876499435478
 31
0.0
1001
DBPROPERTIES
1002
{
1000
PbHidd
1002
}
  0
LINE
  5
2F9
330
1F
100
AcDbEntity
  8
HIDDEN
100
AcDbLine
 10
-79.01506724761103
 20
-12.51475720321845
 30
0.0
 11
-56.43933374829359
 21
-8.939112288013174
 31
0.0
1001
DBPROPERTIES
1002
{
1000
PbHidd
1002
}
  0
ARC
  5
2FA
330
1F
100
AcDbEntity
  8
HIDDEN
100
AcDbCircle
 10
0.0
 20
0.0000000000000139
 30
0.0
 40
80.0
100
AcDbArc
 50
189.0000011980722
 51
195.0000152286821
1001
DBPROPERTIES
1002
{
1000
PbHidd
1002
}
  0
LINE
  5
2FB
330
1F
100
AcDbEntity
  8
HIDDEN
100
AcDbLine
 10
-55.19576150223243
 20
-14.78965972014402
 30
0.0
 11
-77.27406610312539
 21
-20.70552360820162
 31
0.0
1001
DBPROPERTIES
1002
{
1000
PbHidd
1002
}
  0
LINE
  5
2FC
330
1F
100
AcDbEntity
  8
HIDDEN
100
AcDbLine
 10
-74.68643411977611
 20
-28.669435963624
 30
0.0
 11
-53.34745294269723
 21
-20.47816854544571
 31
0.0
1001
DBPROPERTIES
1002
{
1000
PbHidd
1002
}
  0
ARC
  5
2FD
330
1F
100
AcDbEntity
  8
HIDDEN
100
AcDbCircle
 10
0.0
 20
0.0000000000000139
 30
0.0
 40
80.0
100
AcDbArc
 50
200.9999719635126
 51
206.9999859941226
1001
DBPROPERTIES
1002
{
1000
PbHidd
1002
}
  0
LINE
  5
2FE
330
1F
100
AcDbEntity
  8
HIDDEN
100
AcDbLine
 10
-50.91465852504956
 20
-25.94231427083122
 30
0.0
 11
-71.28052193506937
 21
-36.3192399791637
 31
0.0
1001
DBPROPERTIES
1002
{
1000
PbHidd
1002
}
  0
LINE
  5
2FF
330
1F
100
AcDbEntity
  8
HIDDEN
100
AcDbLine
 10
-67.09364543563393
 20
-43.57112280120215
 30
0.0
 11
-47.92403245402423
 21
-31.12223057228725
 31
0.0
1001
DBPROPERTIES
1002
{
1000
PbHidd
1002
}
  0
ARC
  5
300
330
1F
100
AcDbEntity
  8
HIDDEN
100
AcDbCircle
 10
0.0
 20
0.0000000000000139
 30
0.0
 40
80.0
100
AcDbArc
 50
213.0000000247326
 51
219.0000140553425
1001
DBPROPERTIES
1002
{
1000
PbHidd
1002
}
  0
LINE
  5
301
330
1F
100
AcDbEntity
  8
HIDDEN
100
AcDbLine
 10
-44.40834065468403
 20
-35.96116520284782
 30
0.0
 11
-62.17167691655763
 21
-50.34563128398694
 31
0.0
1001
DBPROPERTIES
1002
{
1000
PbHidd
1002
}
  0
LINE
  5
302
330
1F
100
AcDbEntity
  8
HIDDEN
100
AcDbLine
 10
-56.56854249492376
 20
-56.56854249492373
 30
0.0
 11
-40.40610178208841
 21
-40.40610178208838
 31
0.0
1001
DBPROPERTIES
1002
{
1000
PbHidd
1002
}
  0
ARC
  5
303
330
1F
100
AcDbEntity
  8
HIDDEN
100
AcDbCircle
 10
0.0
 20
0.0000000000000139
 30
0.0
 40
80.0
100
AcDbArc
 50
225.0000280859525
 51
230.999984820783
1001
DBPROPERTIES
1002
{
1000
PbHidd
1002
}
  0
LINE
  5
304
330
1F
100
AcDbEntity
  8
HIDDEN
100
AcDbLine
 10
-35.96116520284785
 20
-44.408340654684
 30
0.0
 11
-50.34563128398698
 21
-62.17167691655757
 31
0.0
1001
DBPROPERTIES
1002
{
1000
PbHidd
1002
}
  0
LINE
  5
305
330
1F
100
AcDbEntity
  8
HIDDEN
100
AcDbLine
 10
-43.57112280120218
 20
-67.09364543563387
 30
0.0
 11
-31.12223057228728
 21
-47.9240324540242
 31
0.0
1001
DBPROPERTIES
1002
{
1000
PbHidd
1002
}
  0
ARC
  5
306
330
1F
100
AcDbEntity
  8
HIDDEN
100
AcDbCircle
 10
0.0
 20
0.0000000000000139
 30
0.0
 40
80.0
100
AcDbArc
 50
236.999998851393
 51
243.0000128820029
1001
DBPROPERTIES
1002
{
1000
PbHidd
1002
}
  0
LINE
  5
307
330
1F
100
AcDbEntity
  8
HIDDEN
100
AcDbLine
 10
-25.94231427083124
 20
-50.91465852504955
 30
0.0
 11
-36.31923997916373
 21
-71.28052193506934
 31
0.0
1001
DBPROPERTIES
1002
{
1000
PbHidd
1002
}
  0
LINE
  5
308
330
1F
100
AcDbEntity
  8
HIDDEN
100
AcDbLine
 10
-28.66943596362402
 20
-74.68643411977608
 30
0.0
 11
-20.47816854544573
 21
-53.34745294269722
 31
0.0
1001
DBPROPERTIES
1002
{
1000
PbHidd
1002
}
  0
ARC
  5
309
330
1F
100
AcDbEntity
  8
HIDDEN
100
AcDbCircle
 10
0.0
 20
0.0000000000000139
 30
0.0
 40
80.0
100
AcDbArc
 50
249.0000269126129
 51
254.9999836474434
1001
DBPROPERTIES
1002
{
1000
PbHidd
1002
}
  0
LINE
  5
30A
330
1F
100
AcDbEntity
  8
HIDDEN
100
AcDbLine
 10
-14.78965972014405
 20
-55.19576150223243
 30
0.0
 11
-20.70552360820167
 21
-77.27406610312538
 31
0.0
1001
DBPROPERTIES
1002
{
1000
PbHidd
1002
}
  0
LINE
  5
30B
330
1F
100
AcDbEntity
  8
HIDDEN
100
AcDbLine
 10
-12.51475720321849
 20
-79.01506724761099
 30
0.0
 11
-8.939112288013211
 21
-56.43933374829356
 31
0.0
1001
DBPROPERTIES
1002
{
1000
PbHidd
1002
}
  0
ARC
  5
30C
330
1F
100
AcDbEntity
  8
HIDDEN
100
AcDbCircle
 10
0.0
 20
0.0000000000000139
 30
0.0
 40
80.0
100
AcDbArc
 50
260.9999976780534
 51
267.0000117086634
1001
DBPROPERTIES
1002
{
1000
PbHidd
1002
}
  0
LINE
  5
30D
330
1F
100
AcDbEntity
  8
HIDDEN
100
AcDbLine
 10
-2.990626071025393
 20
-57.06454484311847
 30
0.0
 11
-4.186876499435549
 21
-79.89036278036585
 31
0.0
1001
DBPROPERTIES
1002
{
1000
PbHidd
1002
}
  0
LINE
  5
30E
330
1F
100
AcDbEntity
  8
HIDDEN
100
AcDbLine
 10
4.18687649943546
 20
-79.89036278036586
 30
0.0
 11
2.990626071025328
 21
-57.06454484311848
 31
0.0
1001
DBPROPERTIES
1002
{
1000
PbHidd
1002
}
  0
ARC
  5
30F
330
1F
100
AcDbEntity
  8
HIDDEN
100
AcDbCircle
 10
0.0
 20
0.0000000000000139
 30
0.0
 40
80.0
100
AcDbArc
 50
273.0000257392733
 51
278.9999824741038
1001
DBPROPERTIES
1002
{
1000
PbHidd
1002
}
  0
LINE
  5
310
330
1F
100
AcDbEntity
  8
HIDDEN
100
AcDbLine
 10
8.93911228801317
 20
-56.43933374829355
 30
0.0
 11
12.51475720321844
 21
-79.01506724761094
 31
0.0
1001
DBPROPERTIES
1002
{
1000
PbHidd
1002
}
  0
LINE
  5
311
330
1F
100
AcDbEntity
  8
HIDDEN
100
AcDbLine
 10
20.70552360820164
 20
-77.27406610312545
 30
0.0
 11
14.78965972014403
 21
-55.19576150223246
 31
0.0
1001
DBPROPERTIES
1002
{
1000
PbHidd
1002
}
  0
ARC
  5
312
330
1F
100
AcDbEntity
  8
HIDDEN
100
AcDbCircle
 10
0.0
 20
0.0000000000000139
 30
0.0
 40
80.0
100
AcDbArc
 50
284.9999965047138
 51
291.0000105353237
1001
DBPROPERTIES
1002
{
1000
PbHidd
1002
}
  0
LINE
  5
313
330
1F
100
AcDbEntity
  8
HIDDEN
100
AcDbLine
 10
20.47816854544569
 20
-53.34745294269721
 30
0.0
 11
28.66943596362396
 21
-74.68643411977607
 31
0.0
1001
DBPROPERTIES
1002
{
1000
PbHidd
1002
}
  0
LINE
  5
314
330
1F
100
AcDbEntity
  8
HIDDEN
100
AcDbLine
 10
36.31923997916371
 20
-71.28052193506943
 30
0.0
 11
25.94231427083122
 21
-50.9146585250496
 31
0.0
1001
DBPROPERTIES
1002
{
1000
PbHidd
1002
}
  0
ARC
  5
315
330
1F
100
AcDbEntity
  8
HIDDEN
100
AcDbCircle
 10
0.0
 20
0.0000000000000139
 30
0.0
 40
80.0
100
AcDbArc
 50
297.0000245659338
 51
302.9999813007643
1001
DBPROPERTIES
1002
{
1000
PbHidd
1002
}
  0
LINE
  5
316
330
1F
100
AcDbEntity
  8
HIDDEN
100
AcDbLine
 10
31.12223057228722
 20
-47.92403245402421
 30
0.0
 11
43.57112280120211
 21
-67.09364543563389
 31
0.0
1001
DBPROPERTIES
1002
{
1000
PbHidd
1002
}
  0
LINE
  5
317
330
1F
100
AcDbEntity
  8
HIDDEN
100
AcDbLine
 10
50.34563128398693
 20
-62.17167691655766
 30
0.0
 11
35.96116520284782
 21
-44.40834065468405
 31
0.0
1001
DBPROPERTIES
1002
{
1000
PbHidd
1002
}
  0
ARC
  5
318
330
1F
100
AcDbEntity
  8
HIDDEN
100
AcDbCircle
 10
0.0
 20
0.0000000000000139
 30
0.0
 40
80.0
100
AcDbArc
 50
308.9999953313742
 51
315.0000093619842
1001
DBPROPERTIES
1002
{
1000
PbHidd
1002
}
  0
LINE
  5
319
330
1F
100
AcDbEntity
  8
HIDDEN
100
AcDbLine
 10
40.4061017820884
 20
-40.40610178208842
 30
0.0
 11
56.56854249492375
 21
-56.56854249492378
 31
0.0
1001
DBPROPERTIES
1002
{
1000
PbHidd
1002
}
  0
LINE
  5
31A
330
1F
100
AcDbEntity
  8
HIDDEN
100
AcDbLine
 10
62.17167691655764
 20
-50.34563128398699
 30
0.0
 11
44.40834065468403
 21
-35.96116520284786
 31
0.0
1001
DBPROPERTIES
1002
{
1000
PbHidd
1002
}
  0
ARC
  5
31B
330
1F
100
AcDbEntity
  8
HIDDEN
100
AcDbCircle
 10
0.0
 20
0.0000000000000139
 30
0.0
 40
80.0
100
AcDbArc
 50
321.0000233925941
 51
326.9999801274246
1001
DBPROPERTIES
1002
{
1000
PbHidd
1002
}
  0
LINE
  5
31C
330
1F
100
AcDbEntity
  8
HIDDEN
100
AcDbLine
 10
47.9240324540242
 20
-31.12223057228727
 30
0.0
 11
67.09364543563387
 21
-43.57112280120217
 31
0.0
1001
DBPROPERTIES
1002
{
1000
PbHidd
1002
}
  0
LINE
  5
31D
330
1F
100
AcDbEntity
  8
HIDDEN
100
AcDbLine
 10
71.2805219350694
 20
-36.31923997916377
 30
0.0
 11
50.91465852504957
 21
-25.94231427083127
 31
0.0
1001
DBPROPERTIES
1002
{
1000
PbHidd
1002
}
  0
ARC
  5
31E
330
1F
100
AcDbEntity
  8
HIDDEN
100
AcDbCircle
 10
0.0
 20
0.0000000000000139
 30
0.0
 40
80.0
100
AcDbArc
 50
332.9999941580346
 51
339.0000081886445
1001
DBPROPERTIES
1002
{
1000
PbHidd
1002
}
  0
LINE
  5
31F
330
1F
100
AcDbEntity
  8
HIDDEN
100
AcDbLine
 10
53.3474529426972
 20
-20.47816854544575
 30
0.0
 11
74.68643411977607
 21
-28.66943596362405
 31
0.0
1001
DBPROPERTIES
1002
{
1000
PbHidd
1002
}
  0
LINE
  5
320
330
1F
100
AcDbEntity
  8
HIDDEN
100
AcDbLine
 10
77.27406610312542
 20
-20.70552360820171
 30
0.0
 11
55.19576150223246
 21
-14.78965972014408
 31
0.0
1001
DBPROPERTIES
1002
{
1000
PbHidd
1002
}
  0
ARC
  5
321
330
1F
100
AcDbEntity
  8
HIDDEN
100
AcDbCircle
 10
0.0
 20
0.0000000000000139
 30
0.0
 40
80.0
100
AcDbArc
 50
345.0000222192546
 51
350.9999789540851
1001
DBPROPERTIES
1002
{
1000
PbHidd
1002
}
  0
LINE
  5
322
330
1F
100
AcDbEntity
  8
HIDDEN
100
AcDbLine
 10
56.43933374829355
 20
-8.939112288013204
 30
0.0
 11
79.01506724761094
 21
-12.51475720321848
 31
0.0
1001
DBPROPERTIES
1002
{
1000
PbHidd
1002
}
  0
LINE
  5
323
330
1F
100
AcDbEntity
  8
HIDDEN
100
AcDbLine
 10
79.89036278036585
 20
-4.186876499435527
 30
0.0
 11
57.06454484311848
 21
-2.990626071025378
 31
0.0
1001
DBPROPERTIES
1002
{
1000
PbHidd
1002
}
  0
ARC
  5
324
330
1F
100
AcDbEntity
  8
HIDDEN
100
AcDbCircle
 10
0.0
 20
0.0000000000000139
 30
0.0
 40
80.0
100
AcDbArc
 50
356.999992984695
 51
3.00000701530499
1001
DBPROPERTIES
1002
{
1000
PbHidd
1002
}
  0
LINE
  5
325
330
1F
100
AcDbEntity
  8
HIDDEN
100
AcDbLine
 10
57.06454484311848
 20
2.990626071025309
 30
0.0
 11
79.89036278036588
 21
4.186876499435433
 31
0.0
1001
DBPROPERTIES
1002
{
1000
PbHidd
1002
}
  0
LINE
  5
326
330
1F
100
AcDbEntity
  8
HIDDEN
100
AcDbLine
 10
79.01506724761104
 20
12.51475720321841
 30
0.0
 11
56.43933374829361
 21
8.939112288013146
 31
0.0
1001
DBPROPERTIES
1002
{
1000
PbHidd
1002
}
  0
ARC
  5
327
330
1F
100
AcDbEntity
  8
HIDDEN
100
AcDbCircle
 10
0.0
 20
0.0000000000000139
 30
0.0
 40
80.0
100
AcDbArc
 50
9.000021045914972
 51
14.99997778074544
1001
DBPROPERTIES
1002
{
1000
PbHidd
1002
}
  0
LINE
  5
328
330
1F
100
AcDbEntity
  8
HIDDEN
100
AcDbLine
 10
55.19576150223245
 20
14.789659720144
 30
0.0
 11
77.27406610312542
 21
20.7055236082016
 31
0.0
1001
DBPROPERTIES
1002
{
1000
PbHidd
1002
}
  0
LINE
  5
329
330
1F
100
AcDbEntity
  8
HIDDEN
100
AcDbLine
 10
74.68643411977614
 20
28.66943596362397
 30
0.0
 11
53.34745294269725
 21
20.47816854544569
 31
0.0
1001
DBPROPERTIES
1002
{
1000
PbHidd
1002
}
  0
ARC
  5
32A
330
1F
100
AcDbEntity
  8
HIDDEN
100
AcDbCircle
 10
0.0
 20
0.0000000000000139
 30
0.0
 40
80.0
100
AcDbArc
 50
20.99999181135542
 51
27.0000058419654
1001
DBPROPERTIES
1002
{
1000
PbHidd
1002
}
  0
LINE
  5
32B
330
1F
100
AcDbEntity
  8
HIDDEN
100
AcDbLine
 10
50.91465852504957
 20
25.94231427083122
 30
0.0
 11
71.28052193506937
 21
36.3192399791637
 31
0.0
1001
DBPROPERTIES
1002
{
1000
PbHidd
1002
}
  0
LINE
  5
32C
330
1F
100
AcDbEntity
  8
HIDDEN
100
AcDbLine
 10
67.09364543563396
 20
43.57112280120216
 30
0.0
 11
47.92403245402426
 21
31.12223057228725
 31
0.0
1001
DBPROPERTIES
1002
{
1000
PbHidd
1002
}
  0
ARC
  5
32D
330
1F
100
AcDbEntity
  8
HIDDEN
100
AcDbCircle
 10
0.0
 20
0.0000000000000139
 30
0.0
 40
80.0
100
AcDbArc
 50
33.00001987257539
 51
38.99997660740585
1001
DBPROPERTIES
1002
{
1000
PbHidd
1002
}
  0
LINE
  5
32E
330
1F
100
AcDbEntity
  8
HIDDEN
100
AcDbLine
 10
44.40834065468407
 20
35.96116520284782
 30
0.0
 11
62.17167691655769
 21
50.34563128398693
 31
0.0
1001
DBPROPERTIES
1002
{
1000
PbHidd
1002
}
  0
LINE
  5
32F
330
1F
100
AcDbEntity
  8
HIDDEN
100
AcDbLine
 10
56.56854249492386
 20
56.56854249492376
 30
0.0
 11
40.40610178208848
 21
40.40610178208841
 31
0.0
1001
DBPROPERTIES
1002
{
1000
PbHidd
1002
}
  0
ARC
  5
330
330
1F
100
AcDbEntity
  8
HIDDEN
100
AcDbCircle
 10
0.0
 20
0.0000000000000139
 30
0.0
 40
80.0
100
AcDbArc
 50
44.99999063801582
 51
51.00000466862581
1001
DBPROPERTIES
1002
{
1000
PbHidd
1002
}
  0
LINE
  5
331
330
1F
100
AcDbEntity
  8
HIDDEN
100
AcDbLine
 10
35.96116520284787
 20
44.40834065468401
 30
0.0
 11
50.345631283987
 21
62.1716769165576
 31
0.0
1001
DBPROPERTIES
1002
{
1000
PbHidd
1002
}
  0
LINE
  5
332
330
1F
100
AcDbEntity
  8
HIDDEN
100
AcDbLine
 10
43.57112280120219
 20
67.09364543563389
 30
0.0
 11
31.12223057228729
 21
47.92403245402421
 31
0.0
1001
DBPROPERTIES
1002
{
1000
PbHidd
1002
}
  0
ARC
  5
333
330
1F
100
AcDbEntity
  8
HIDDEN
100
AcDbCircle
 10
0.0
 20
0.0000000000000139
 30
0.0
 40
80.0
100
AcDbArc
 50
57.0000186992358
 51
62.99997543406626
1001
DBPROPERTIES
1002
{
1000
PbHidd
1002
}
  0
LINE
  5
334
330
1F
100
AcDbEntity
  8
HIDDEN
100
AcDbLine
 10
25.94231427083127
 20
50.91465852504957
 30
0.0
 11
36.31923997916377
 21
71.28052193506939
 31
0.0
1001
DBPROPERTIES
1002
{
1000
PbHidd
1002
}
  0
LINE
  5
335
330
1F
100
AcDbEntity
  8
HIDDEN
100
AcDbLine
 10
28.66943596362405
 20
74.68643411977614
 30
0.0
 11
20.47816854544575
 21
53.34745294269725
 31
0.0
1001
DBPROPERTIES
1002
{
1000
PbHidd
1002
}
  0
ARC
  5
336
330
1F
100
AcDbEntity
  8
HIDDEN
100
AcDbCircle
 10
0.0
 20
0.0000000000000139
 30
0.0
 40
80.0
100
AcDbArc
 50
68.99998946467625
 51
75.00000349528622
1001
DBPROPERTIES
1002
{
1000
PbHidd
1002
}
  0
LINE
  5
337
330
1F
100
AcDbEntity
  8
HIDDEN
100
AcDbLine
 10
14.78965972014409
 20
55.19576150223244
 30
0.0
 11
20.70552360820172
 21
77.2740661031254
 31
0.0
1001
DBPROPERTIES
1002
{
1000
PbHidd
1002
}
  0
LINE
  5
338
330
1F
100
AcDbEntity
  8
HIDDEN
100
AcDbLine
 10
12.51475720321854
 20
79.015067247611
 30
0.0
 11
8.939112288013247
 21
56.43933374829359
 31
0.0
1001
DBPROPERTIES
1002
{
1000
PbHidd
1002
}
  0
LINE
  5
339
330
1F
100
AcDbEntity
  8
HIDDEN
100
AcDbLine
 10
-12.51475720321846
 20
79.01506724761103
 30
0.0
 11
-12.51475720321846
 21
79.01506724761103
 31
0.0
1001
DBPROPERTIES
1002
{
1000
PbHidd
1002
}
  0
LINE
  5
33A
330
1F
100
AcDbEntity
  8
HIDDEN
100
AcDbLine
 10
5.198838721503702
 20
32.82417585244507
 30
0.0
 11
7.821723252011591
 21
49.38441702975689
 31
0.0
1001
DBPROPERTIES
1002
{
1000
PbHidd
1002
}
  0
LINE
  5
33B
330
1F
100
AcDbEntity
  8
HIDDEN
100
AcDbLine
 10
5.198838721503699
 20
32.82417585244507
 30
0.0
 11
5.198838721503699
 21
32.82417585244507
 31
0.0
1001
DBPROPERTIES
1002
{
1000
PbHidd
1002
}
  0
LINE
  5
33C
330
1F
100
AcDbEntity
  8
HIDDEN
100
AcDbLine
 10
11.90976152322215
 20
31.02598950725699
 30
0.0
 11
17.91839747726504
 21
46.6790213248601
 31
0.0
1001
DBPROPERTIES
1002
{
1000
PbHidd
1002
}
  0
LINE
  5
33D
330
1F
100
AcDbEntity
  8
HIDDEN
100
AcDbLine
 10
11.90976152322215
 20
31.02598950725699
 30
0.0
 11
11.90976152322215
 21
31.02598950725699
 31
0.0
1001
DBPROPERTIES
1002
{
1000
PbHidd
1002
}
  0
LINE
  5
33E
330
1F
100
AcDbEntity
  8
HIDDEN
100
AcDbLine
 10
28.66943596362405
 20
74.68643411977614
 30
0.0
 11
28.66943596362405
 21
74.68643411977614
 31
0.0
1001
DBPROPERTIES
1002
{
1000
PbHidd
1002
}
  0
LINE
  5
33F
330
1F
100
AcDbEntity
  8
HIDDEN
100
AcDbLine
 10
36.31923997916379
 20
71.28052193506942
 30
0.0
 11
36.31923997916379
 21
71.28052193506942
 31
0.0
1001
DBPROPERTIES
1002
{
1000
PbHidd
1002
}
  0
LINE
  5
340
330
1F
100
AcDbEntity
  8
HIDDEN
100
AcDbLine
 10
43.57112280120221
 20
67.09364543563392
 30
0.0
 11
43.57112280120221
 21
67.09364543563392
 31
0.0
1001
DBPROPERTIES
1002
{
1000
PbHidd
1002
}
  0
LINE
  5
341
330
1F
100
AcDbEntity
  8
HIDDEN
100
AcDbLine
 10
18.10017059699941
 20
27.87181854138623
 30
0.0
 11
27.23195175075139
 21
41.9335283972712
 31
0.0
1001
DBPROPERTIES
1002
{
1000
PbHidd
1002
}
  0
LINE
  5
342
330
1F
100
AcDbEntity
  8
HIDDEN
100
AcDbLine
 10
18.1001705969994
 20
27.87181854138624
 30
0.0
 11
18.1001705969994
 21
27.87181854138624
 31
0.0
1001
DBPROPERTIES
1002
{
1000
PbHidd
1002
}
  0
LINE
  5
343
330
1F
100
AcDbEntity
  8
HIDDEN
100
AcDbLine
 10
50.34563128398704
 20
62.17167691655765
 30
0.0
 11
50.34563128398704
 21
62.17167691655765
 31
0.0
1001
DBPROPERTIES
1002
{
1000
PbHidd
1002
}
  0
LINE
  5
344
330
1F
100
AcDbEntity
  8
HIDDEN
100
AcDbLine
 10
56.56854249492385
 20
56.56854249492376
 30
0.0
 11
56.56854249492385
 21
56.56854249492376
 31
0.0
1001
DBPROPERTIES
1002
{
1000
PbHidd
1002
}
  0
LINE
  5
345
330
1F
100
AcDbEntity
  8
HIDDEN
100
AcDbLine
 10
23.49951536143295
 20
23.4995153614329
 30
0.0
 11
35.35533905932742
 21
35.35533905932735
 31
0.0
1001
DBPROPERTIES
1002
{
1000
PbHidd
1002
}
  0
LINE
  5
346
330
1F
100
AcDbEntity
  8
HIDDEN
100
AcDbLine
 10
23.49951536143294
 20
23.49951536143291
 30
0.0
 11
23.49951536143294
 21
23.49951536143291
 31
0.0
1001
DBPROPERTIES
1002
{
1000
PbHidd
1002
}
  0
LINE
  5
347
330
1F
100
AcDbEntity
  8
HIDDEN
100
AcDbLine
 10
62.17167691655771
 20
50.34563128398694
 30
0.0
 11
62.17167691655771
 21
50.34563128398694
 31
0.0
1001
DBPROPERTIES
1002
{
1000
PbHidd
1002
}
  0
LINE
  5
348
330
1F
100
AcDbEntity
  8
HIDDEN
100
AcDbLine
 10
67.09364543563395
 20
43.57112280120214
 30
0.0
 11
67.09364543563395
 21
43.57112280120214
 31
0.0
1001
DBPROPERTIES
1002
{
1000
PbHidd
1002
}
  0
LINE
  5
349
330
1F
100
AcDbEntity
  8
HIDDEN
100
AcDbLine
 10
27.87181854138626
 20
18.10017059699938
 30
0.0
 11
41.93352839727122
 21
27.23195175075134
 31
0.0
1001
DBPROPERTIES
1002
{
1000
PbHidd
1002
}
  0
LINE
  5
34A
330
1F
100
AcDbEntity
  8
HIDDEN
100
AcDbLine
 10
27.87181854138625
 20
18.10017059699939
 30
0.0
 11
27.87181854138625
 21
18.10017059699939
 31
0.0
1001
DBPROPERTIES
1002
{
1000
PbHidd
1002
}
  0
LINE
  5
34B
330
1F
100
AcDbEntity
  8
HIDDEN
100
AcDbLine
 10
71.28052193506944
 20
36.31923997916372
 30
0.0
 11
71.28052193506944
 21
36.31923997916372
 31
0.0
1001
DBPROPERTIES
1002
{
1000
PbHidd
1002
}
  0
LINE
  5
34C
330
1F
100
AcDbEntity
  8
HIDDEN
100
AcDbLine
 10
74.68643411977617
 20
28.66943596362398
 30
0.0
 11
74.68643411977617
 21
28.66943596362398
 31
0.0
1001
DBPROPERTIES
1002
{
1000
PbHidd
1002
}
  0
LINE
  5
34D
330
1F
100
AcDbEntity
  8
HIDDEN
100
AcDbLine
 10
31.025989507257
 20
11.90976152322212
 30
0.0
 11
46.67902132486009
 21
17.91839747726498
 31
0.0
1001
DBPROPERTIES
1002
{
1000
PbHidd
1002
}
  0
LINE
  5
34E
330
1F
100
AcDbEntity
  8
HIDDEN
100
AcDbLine
 10
31.025989507257
 20
11.90976152322212
 30
0.0
 11
31.025989507257
 21
11.90976152322212
 31
0.0
1001
DBPROPERTIES
1002
{
1000
PbHidd
1002
}
  0
LINE
  5
34F
330
1F
100
AcDbEntity
  8
HIDDEN
100
AcDbLine
 10
77.27406610312546
 20
20.70552360820162
 30
0.0
 11
77.27406610312546
 21
20.70552360820162
 31
0.0
1001
DBPROPERTIES
1002
{
1000
PbHidd
1002
}
  0
LINE
  5
350
330
1F
100
AcDbEntity
  8
HIDDEN
100
AcDbLine
 10
79.01506724761103
 20
12.5147572032184
 30
0.0
 11
79.01506724761103
 21
12.5147572032184
 31
0.0
1001
DBPROPERTIES
1002
{
1000
PbHidd
1002
}
  0
LINE
  5
351
330
1F
100
AcDbEntity
  8
HIDDEN
100
AcDbLine
 10
32.82417585244507
 20
5.198838721503642
 30
0.0
 11
49.3844170297569
 21
7.821723252011502
 31
0.0
1001
DBPROPERTIES
1002
{
1000
PbHidd
1002
}
  0
LINE
  5
352
330
1F
100
AcDbEntity
  8
HIDDEN
100
AcDbLine
 10
32.82417585244507
 20
5.198838721503644
 30
0.0
 11
32.82417585244507
 21
5.198838721503644
 31
0.0
1001
DBPROPERTIES
1002
{
1000
PbHidd
1002
}
  0
LINE
  5
353
330
1F
100
AcDbEntity
  8
HIDDEN
100
AcDbLine
 10
79.89036278036592
 20
4.186876499435439
 30
0.0
 11
79.89036278036592
 21
4.186876499435435
 31
0.0
1001
DBPROPERTIES
1002
{
1000
PbHidd
1002
}
  0
LINE
  5
354
330
1F
100
AcDbEntity
  8
HIDDEN
100
AcDbLine
 10
79.8903627803659
 20
-4.18687649943553
 30
0.0
 11
79.8903627803659
 21
-4.186876499435527
 31
0.0
1001
DBPROPERTIES
1002
{
1000
PbHidd
1002
}
  0
LINE
  5
355
330
1F
100
AcDbEntity
  8
HIDDEN
100
AcDbLine
 10
33.18778820501032
 20
-1.73929827914051
 30
0.0
 11
49.93147673772869
 21
-2.616797812147207
 31
0.0
1001
DBPROPERTIES
1002
{
1000
PbHidd
1002
}
  0
LINE
  5
356
330
1F
100
AcDbEntity
  8
HIDDEN
100
AcDbLine
 10
33.18778820501032
 20
-1.739298279140508
 30
0.0
 11
33.18778820501032
 21
-1.739298279140508
 31
0.0
1001
DBPROPERTIES
1002
{
1000
PbHidd
1002
}
  0
LINE
  5
357
330
1F
100
AcDbEntity
  8
HIDDEN
100
AcDbLine
 10
79.015067247611
 20
-12.51475720321849
 30
0.0
 11
79.015067247611
 21
-12.51475720321849
 31
0.0
1001
DBPROPERTIES
1002
{
1000
PbHidd
1002
}
  0
LINE
  5
358
330
1F
100
AcDbEntity
  8
HIDDEN
100
AcDbLine
 10
77.27406610312545
 20
-20.70552360820171
 30
0.0
 11
77.27406610312545
 21
-20.70552360820171
 31
0.0
1001
DBPROPERTIES
1002
{
1000
PbHidd
1002
}
  0
LINE
  5
359
330
1F
100
AcDbEntity
  8
HIDDEN
100
AcDbLine
 10
32.10093496034002
 20
-8.601419598907128
 30
0.0
 11
48.2962913144534
 21
-12.94095225512607
 31
0.0
1001
DBPROPERTIES
1002
{
1000
PbHidd
1002
}
  0
LINE
  5
35A
330
1F
100
AcDbEntity
  8
HIDDEN
100
AcDbLine
 10
32.10093496034002
 20
-8.601419598907123
 30
0.0
 11
32.10093496034002
 21
-8.601419598907123
 31
0.0
1001
DBPROPERTIES
1002
{
1000
PbHidd
1002
}
  0
LINE
  5
35B
330
1F
100
AcDbEntity
  8
HIDDEN
100
AcDbLine
 10
74.68643411977611
 20
-28.66943596362406
 30
0.0
 11
74.68643411977611
 21
-28.66943596362407
 31
0.0
1001
DBPROPERTIES
1002
{
1000
PbHidd
1002
}
  0
LINE
  5
35C
330
1F
100
AcDbEntity
  8
HIDDEN
100
AcDbLine
 10
71.2805219350694
 20
-36.31923997916378
 30
0.0
 11
71.2805219350694
 21
-36.31923997916378
 31
0.0
1001
DBPROPERTIES
1002
{
1000
PbHidd
1002
}
  0
LINE
  5
35D
330
1F
100
AcDbEntity
  8
HIDDEN
100
AcDbLine
 10
29.61111682052674
 20
-15.08761760801095
 30
0.0
 11
44.55032620941838
 21
-22.69952498697736
 31
0.0
1001
DBPROPERTIES
1002
{
1000
PbHidd
1002
}
  0
LINE
  5
35E
330
1F
100
AcDbEntity
  8
HIDDEN
100
AcDbLine
 10
29.61111682052675
 20
-15.08761760801095
 30
0.0
 11
29.61111682052675
 21
-15.08761760801095
 31
0.0
1001
DBPROPERTIES
1002
{
1000
PbHidd
1002
}
  0
LINE
  5
35F
330
1F
100
AcDbEntity
  8
HIDDEN
100
AcDbLine
 10
67.0936454356339
 20
-43.57112280120219
 30
0.0
 11
67.0936454356339
 21
-43.57112280120219
 31
0.0
1001
DBPROPERTIES
1002
{
1000
PbHidd
1002
}
  0
LINE
  5
360
330
1F
100
AcDbEntity
  8
HIDDEN
100
AcDbLine
 10
62.17167691655766
 20
-50.34563128398702
 30
0.0
 11
62.17167691655766
 21
-50.34563128398702
 31
0.0
1001
DBPROPERTIES
1002
{
1000
PbHidd
1002
}
  0
LINE
  5
361
330
1F
100
AcDbEntity
  8
HIDDEN
100
AcDbLine
 10
25.82715078575331
 20
-20.91441432922293
 30
0.0
 11
38.85729807284853
 21
-31.46601955249188
 31
0.0
1001
DBPROPERTIES
1002
{
1000
PbHidd
1002
}
  0
LINE
  5
362
330
1F
100
AcDbEntity
  8
HIDDEN
100
AcDbLine
 10
25.82715078575332
 20
-20.91441432922293
 30
0.0
 11
25.82715078575332
 21
-20.91441432922293
 31
0.0
1001
DBPROPERTIES
1002
{
1000
PbHidd
1002
}
  0
LINE
  5
363
330
1F
100
AcDbEntity
  8
HIDDEN
100
AcDbLine
 10
56.56854249492378
 20
-56.56854249492381
 30
0.0
 11
56.56854249492378
 21
-56.56854249492381
 31
0.0
1001
DBPROPERTIES
1002
{
1000
PbHidd
1002
}
  0
LINE
  5
364
330
1F
100
AcDbEntity
  8
HIDDEN
100
AcDbLine
 10
50.34563128398694
 20
-62.17167691655769
 30
0.0
 11
50.34563128398694
 21
-62.17167691655769
 31
0.0
1001
DBPROPERTIES
1002
{
1000
PbHidd
1002
}
  0
LINE
  5
365
330
1F
100
AcDbEntity
  8
HIDDEN
100
AcDbLine
 10
20.91441432922291
 20
-25.82715078575333
 30
0.0
 11
31.46601955249184
 21
-38.85729807284854
 31
0.0
1001
DBPROPERTIES
1002
{
1000
PbHidd
1002
}
  0
LINE
  5
366
330
1F
100
AcDbEntity
  8
HIDDEN
100
AcDbLine
 10
20.91441432922291
 20
-25.82715078575333
 30
0.0
 11
20.91441432922291
 21
-25.82715078575333
 31
0.0
1001
DBPROPERTIES
1002
{
1000
PbHidd
1002
}
  0
LINE
  5
367
330
1F
100
AcDbEntity
  8
HIDDEN
100
AcDbLine
 10
43.57112280120212
 20
-67.09364543563393
 30
0.0
 11
43.57112280120212
 21
-67.09364543563393
 31
0.0
1001
DBPROPERTIES
1002
{
1000
PbHidd
1002
}
  0
LINE
  5
368
330
1F
100
AcDbEntity
  8
HIDDEN
100
AcDbLine
 10
36.31923997916371
 20
-71.28052193506943
 30
0.0
 11
36.31923997916371
 21
-71.28052193506943
 31
0.0
1001
DBPROPERTIES
1002
{
1000
PbHidd
1002
}
  0
LINE
  5
369
330
1F
100
AcDbEntity
  8
HIDDEN
100
AcDbLine
 10
15.08761760801092
 20
-29.61111682052675
 30
0.0
 11
22.69952498697732
 21
-44.55032620941839
 31
0.0
1001
DBPROPERTIES
1002
{
1000
PbHidd
1002
}
  0
LINE
  5
36A
330
1F
100
AcDbEntity
  8
HIDDEN
100
AcDbLine
 10
15.08761760801092
 20
-29.61111682052675
 30
0.0
 11
15.08761760801092
 21
-29.61111682052675
 31
0.0
1001
DBPROPERTIES
1002
{
1000
PbHidd
1002
}
  0
LINE
  5
36B
330
1F
100
AcDbEntity
  8
HIDDEN
100
AcDbLine
 10
28.66943596362399
 20
-74.68643411977612
 30
0.0
 11
28.66943596362399
 21
-74.68643411977612
 31
0.0
1001
DBPROPERTIES
1002
{
1000
PbHidd
1002
}
  0
LINE
  5
36C
330
1F
100
AcDbEntity
  8
HIDDEN
100
AcDbLine
 10
20.70552360820164
 20
-77.27406610312545
 30
0.0
 11
20.70552360820164
 21
-77.27406610312545
 31
0.0
1001
DBPROPERTIES
1002
{
1000
PbHidd
1002
}
  0
LINE
  5
36D
330
1F
100
AcDbEntity
  8
HIDDEN
100
AcDbLine
 10
8.601419598907095
 20
-32.10093496034003
 30
0.0
 11
12.94095225512602
 21
-48.2962913144534
 31
0.0
1001
DBPROPERTIES
1002
{
1000
PbHidd
1002
}
  0
LINE
  5
36E
330
1F
100
AcDbEntity
  8
HIDDEN
100
AcDbLine
 10
8.601419598907098
 20
-32.10093496034003
 30
0.0
 11
8.601419598907098
 21
-32.10093496034003
 31
0.0
1001
DBPROPERTIES
1002
{
1000
PbHidd
1002
}
  0
LINE
  5
36F
330
1F
100
AcDbEntity
  8
HIDDEN
100
AcDbLine
 10
12.51475720321845
 20
-79.015067247611
 30
0.0
 11
12.51475720321845
 21
-79.015067247611
 31
0.0
1001
DBPROPERTIES
1002
{
1000
PbHidd
1002
}
  0
LINE
  5
370
330
1F
100
AcDbEntity
  8
HIDDEN
100
AcDbLine
 10
4.186876499435462
 20
-79.89036278036589
 30
0.0
 11
4.186876499435462
 21
-79.89036278036589
 31
0.0
1001
DBPROPERTIES
1002
{
1000
PbHidd
1002
}
  0
LINE
  5
371
330
1F
100
AcDbEntity
  8
HIDDEN
100
AcDbLine
 10
1.739298279140479
 20
-33.18778820501033
 30
0.0
 11
2.616797812147162
 21
-49.93147673772867
 31
0.0
1001
DBPROPERTIES
1002
{
1000
PbHidd
1002
}
  0
LINE
  5
372
330
1F
100
AcDbEntity
  8
HIDDEN
100
AcDbLine
 10
1.739298279140483
 20
-33.18778820501033
 30
0.0
 11
1.739298279140483
 21
-33.18778820501033
 31
0.0
1001
DBPROPERTIES
1002
{
1000
PbHidd
1002
}
  0
LINE
  5
373
330
1F
100
AcDbEntity
  8
HIDDEN
100
AcDbLine
 10
-4.186876499435551
 20
-79.89036278036589
 30
0.0
 11
-4.186876499435551
 21
-79.89036278036589
 31
0.0
1001
DBPROPERTIES
1002
{
1000
PbHidd
1002
}
  0
LINE
  5
374
330
1F
100
AcDbEntity
  8
HIDDEN
100
AcDbLine
 10
-12.5147572032185
 20
-79.015067247611
 30
0.0
 11
-12.5147572032185
 21
-79.015067247611
 31
0.0
1001
DBPROPERTIES
1002
{
1000
PbHidd
1002
}
  0
LINE
  5
375
330
1F
100
AcDbEntity
  8
HIDDEN
100
AcDbLine
 10
-5.198838721503686
 20
-32.82417585244507
 30
0.0
 11
-7.82172325201156
 21
-49.38441702975686
 31
0.0
1001
DBPROPERTIES
1002
{
1000
PbHidd
1002
}
  0
LINE
  5
376
330
1F
100
AcDbEntity
  8
HIDDEN
100
AcDbLine
 10
-5.198838721503679
 20
-32.82417585244507
 30
0.0
 11
-5.198838721503679
 21
-32.82417585244507
 31
0.0
1001
DBPROPERTIES
1002
{
1000
PbHidd
1002
}
  0
LINE
  5
377
330
1F
100
AcDbEntity
  8
HIDDEN
100
AcDbLine
 10
-20.70552360820168
 20
-77.27406610312543
 30
0.0
 11
-20.70552360820168
 21
-77.27406610312543
 31
0.0
1001
DBPROPERTIES
1002
{
1000
PbHidd
1002
}
  0
LINE
  5
378
330
1F
100
AcDbEntity
  8
HIDDEN
100
AcDbLine
 10
-28.66943596362404
 20
-74.68643411977611
 30
0.0
 11
-28.66943596362404
 21
-74.68643411977611
 31
0.0
1001
DBPROPERTIES
1002
{
1000
PbHidd
1002
}
  0
LINE
  5
379
330
1F
100
AcDbEntity
  8
HIDDEN
100
AcDbLine
 10
-11.90976152322215
 20
-31.02598950725698
 30
0.0
 11
-17.91839747726502
 21
-46.67902132486006
 31
0.0
1001
DBPROPERTIES
1002
{
1000
PbHidd
1002
}
  0
LINE
  5
37A
330
1F
100
AcDbEntity
  8
HIDDEN
100
AcDbLine
 10
-11.90976152322215
 20
-31.02598950725699
 30
0.0
 11
-11.90976152322215
 21
-31.02598950725699
 31
0.0
1001
DBPROPERTIES
1002
{
1000
PbHidd
1002
}
  0
LINE
  5
37B
330
1F
100
AcDbEntity
  8
HIDDEN
100
AcDbLine
 10
-36.31923997916375
 20
-71.2805219350694
 30
0.0
 11
-36.31923997916375
 21
-71.2805219350694
 31
0.0
1001
DBPROPERTIES
1002
{
1000
PbHidd
1002
}
  0
LINE
  5
37C
330
1F
100
AcDbEntity
  8
HIDDEN
100
AcDbLine
 10
-43.5711228012022
 20
-67.0936454356339
 30
0.0
 11
-43.5711228012022
 21
-67.0936454356339
 31
0.0
1001
DBPROPERTIES
1002
{
1000
PbHidd
1002
}
  0
LINE
  5
37D
330
1F
100
AcDbEntity
  8
HIDDEN
100
AcDbLine
 10
-18.10017059699941
 20
-27.87181854138623
 30
0.0
 11
-27.23195175075137
 21
-41.93352839727117
 31
0.0
1001
DBPROPERTIES
1002
{
1000
PbHidd
1002
}
  0
LINE
  5
37E
330
1F
100
AcDbEntity
  8
HIDDEN
100
AcDbLine
 10
-18.1001705969994
 20
-27.87181854138624
 30
0.0
 11
-18.1001705969994
 21
-27.87181854138624
 31
0.0
1001
DBPROPERTIES
1002
{
1000
PbHidd
1002
}
  0
LINE
  5
37F
330
1F
100
AcDbEntity
  8
HIDDEN
100
AcDbLine
 10
-50.34563128398703
 20
-62.17167691655763
 30
0.0
 11
-50.34563128398703
 21
-62.17167691655763
 31
0.0
1001
DBPROPERTIES
1002
{
1000
PbHidd
1002
}
  0
LINE
  5
380
330
1F
100
AcDbEntity
  8
HIDDEN
100
AcDbLine
 10
-56.5685424949238
 20
-56.56854249492378
 30
0.0
 11
-56.5685424949238
 21
-56.56854249492378
 31
0.0
1001
DBPROPERTIES
1002
{
1000
PbHidd
1002
}
  0
LINE
  5
381
330
1F
100
AcDbEntity
  8
HIDDEN
100
AcDbLine
 10
-23.49951536143292
 20
-23.49951536143291
 30
0.0
 11
-35.35533905932737
 21
-35.35533905932736
 31
0.0
1001
DBPROPERTIES
1002
{
1000
PbHidd
1002
}
  0
LINE
  5
382
330
1F
100
AcDbEntity
  8
HIDDEN
100
AcDbLine
 10
-23.49951536143292
 20
-23.49951536143291
 30
0.0
 11
-23.49951536143292
 21
-23.49951536143291
 31
0.0
1001
DBPROPERTIES
1002
{
1000
PbHidd
1002
}
  0
LINE
  5
383
330
1F
100
AcDbEntity
  8
HIDDEN
100
AcDbLine
 10
-62.17167691655767
 20
-50.34563128398696
 30
0.0
 11
-62.17167691655767
 21
-50.34563128398696
 31
0.0
1001
DBPROPERTIES
1002
{
1000
PbHidd
1002
}
  0
LINE
  5
384
330
1F
100
AcDbEntity
  8
HIDDEN
100
AcDbLine
 10
-67.09364543563393
 20
-43.57112280120214
 30
0.0
 11
-67.09364543563393
 21
-43.57112280120214
 31
0.0
1001
DBPROPERTIES
1002
{
1000
PbHidd
1002
}
  0
LINE
  5
385
330
1F
100
AcDbEntity
  8
HIDDEN
100
AcDbLine
 10
-27.87181854138626
 20
-18.10017059699938
 30
0.0
 11
-41.9335283972712
 21
-27.23195175075134
 31
0.0
1001
DBPROPERTIES
1002
{
1000
PbHidd
1002
}
  0
LINE
  5
386
330
1F
100
AcDbEntity
  8
HIDDEN
100
AcDbLine
 10
-27.87181854138625
 20
-18.10017059699939
 30
0.0
 11
-27.87181854138625
 21
-18.10017059699939
 31
0.0
1001
DBPROPERTIES
1002
{
1000
PbHidd
1002
}
  0
LINE
  5
387
330
1F
100
AcDbEntity
  8
HIDDEN
100
AcDbLine
 10
-71.28052193506943
 20
-36.31923997916373
 30
0.0
 11
-71.28052193506943
 21
-36.31923997916373
 31
0.0
1001
DBPROPERTIES
1002
{
1000
PbHidd
1002
}
  0
LINE
  5
388
330
1F
100
AcDbEntity
  8
HIDDEN
100
AcDbLine
 10
-74.68643411977614
 20
-28.669435963624
 30
0.0
 11
-74.68643411977614
 21
-28.669435963624
 31
0.0
1001
DBPROPERTIES
1002
{
1000
PbHidd
1002
}
  0
LINE
  5
389
330
1F
100
AcDbEntity
  8
HIDDEN
100
AcDbLine
 10
-31.02598950725699
 20
-11.90976152322213
 30
0.0
 11
-46.67902132486009
 21
-17.918397477265
 31
0.0
1001
DBPROPERTIES
1002
{
1000
PbHidd
1002
}
  0
LINE
  5
38A
330
1F
100
AcDbEntity
  8
HIDDEN
100
AcDbLine
 10
-31.02598950725699
 20
-11.90976152322214
 30
0.0
 11
-31.02598950725699
 21
-11.90976152322214
 31
0.0
1001
DBPROPERTIES
1002
{
1000
PbHidd
1002
}
  0
LINE
  5
38B
330
1F
100
AcDbEntity
  8
HIDDEN
100
AcDbLine
 10
-77.27406610312546
 20
-20.70552360820163
 30
0.0
 11
-77.27406610312546
 21
-20.70552360820164
 31
0.0
1001
DBPROPERTIES
1002
{
1000
PbHidd
1002
}
  0
LINE
  5
38C
330
1F
100
AcDbEntity
  8
HIDDEN
100
AcDbLine
 10
-79.01506724761103
 20
-12.51475720321844
 30
0.0
 11
-79.01506724761103
 21
-12.51475720321844
 31
0.0
1001
DBPROPERTIES
1002
{
1000
PbHidd
1002
}
  0
LINE
  5
38D
330
1F
100
AcDbEntity
  8
HIDDEN
100
AcDbLine
 10
-32.82417585244507
 20
-5.198838721503657
 30
0.0
 11
-49.38441702975689
 21
-7.821723252011525
 31
0.0
1001
DBPROPERTIES
1002
{
1000
PbHidd
1002
}
  0
LINE
  5
38E
330
1F
100
AcDbEntity
  8
HIDDEN
100
AcDbLine
 10
-32.82417585244507
 20
-5.198838721503662
 30
0.0
 11
-32.82417585244507
 21
-5.198838721503662
 31
0.0
1001
DBPROPERTIES
1002
{
1000
PbHidd
1002
}
  0
LINE
  5
38F
330
1F
100
AcDbEntity
  8
HIDDEN
100
AcDbLine
 10
-79.89036278036592
 20
-4.186876499435476
 30
0.0
 11
-79.89036278036592
 21
-4.186876499435479
 31
0.0
1001
DBPROPERTIES
1002
{
1000
PbHidd
1002
}
  0
LINE
  5
390
330
1F
100
AcDbEntity
  8
HIDDEN
100
AcDbLine
 10
-79.89036278036592
 20
4.186876499435524
 30
0.0
 11
-79.89036278036592
 21
4.186876499435527
 31
0.0
1001
DBPROPERTIES
1002
{
1000
PbHidd
1002
}
  0
LINE
  5
391
330
1F
100
AcDbEntity
  8
HIDDEN
100
AcDbLine
 10
-33.18778820501032
 20
1.739298279140509
 30
0.0
 11
-49.93147673772869
 21
2.616797812147205
 31
0.0
1001
DBPROPERTIES
1002
{
1000
PbHidd
1002
}
  0
LINE
  5
392
330
1F
100
AcDbEntity
  8
HIDDEN
100
AcDbLine
 10
-33.18778820501032
 20
1.739298279140504
 30
0.0
 11
-33.18778820501032
 21
1.739298279140504
 31
0.0
1001
DBPROPERTIES
1002
{
1000
PbHidd
1002
}
  0
LINE
  5
393
330
1F
100
AcDbEntity
  8
HIDDEN
100
AcDbLine
 10
-79.015067247611
 20
12.51475720321849
 30
0.0
 11
-79.015067247611
 21
12.51475720321848
 31
0.0
1001
DBPROPERTIES
1002
{
1000
PbHidd
1002
}
  0
LINE
  5
394
330
1F
100
AcDbEntity
  8
HIDDEN
100
AcDbLine
 10
-77.27406610312545
 20
20.70552360820167
 30
0.0
 11
-77.27406610312545
 21
20.70552360820168
 31
0.0
1001
DBPROPERTIES
1002
{
1000
PbHidd
1002
}
  0
LINE
  5
395
330
1F
100
AcDbEntity
  8
HIDDEN
100
AcDbLine
 10
-32.10093496034003
 20
8.60141959890711
 30
0.0
 11
-48.29629131445341
 21
12.94095225512605
 31
0.0
1001
DBPROPERTIES
1002
{
1000
PbHidd
1002
}
  0
LINE
  5
396
330
1F
100
AcDbEntity
  8
HIDDEN
100
AcDbLine
 10
-32.10093496034003
 20
8.601419598907107
 30
0.0
 11
-32.10093496034003
 21
8.601419598907107
 31
0.0
1001
DBPROPERTIES
1002
{
1000
PbHidd
1002
}
  0
LINE
  5
397
330
1F
100
AcDbEntity
  8
HIDDEN
100
AcDbLine
 10
-74.68643411977614
 20
28.66943596362404
 30
0.0
 11
-74.68643411977614
 21
28.66943596362403
 31
0.0
1001
DBPROPERTIES
1002
{
1000
PbHidd
1002
}
  0
LINE
  5
398
330
1F
100
AcDbEntity
  8
HIDDEN
100
AcDbLine
 10
-71.28052193506943
 20
36.31923997916377
 30
0.0
 11
-71.28052193506943
 21
36.31923997916377
 31
0.0
1001
DBPROPERTIES
1002
{
1000
PbHidd
1002
}
  0
LINE
  5
399
330
1F
100
AcDbEntity
  8
HIDDEN
100
AcDbLine
 10
-29.61111682052674
 20
15.08761760801094
 30
0.0
 11
-44.55032620941839
 21
22.69952498697736
 31
0.0
1001
DBPROPERTIES
1002
{
1000
PbHidd
1002
}
  0
LINE
  5
39A
330
1F
100
AcDbEntity
  8
HIDDEN
100
AcDbLine
 10
-29.61111682052674
 20
15.08761760801094
 30
0.0
 11
-29.61111682052674
 21
15.08761760801094
 31
0.0
1001
DBPROPERTIES
1002
{
1000
PbHidd
1002
}
  0
LINE
  5
39B
330
1F
100
AcDbEntity
  8
HIDDEN
100
AcDbLine
 10
-67.09364543563392
 20
43.57112280120219
 30
0.0
 11
-67.09364543563392
 21
43.57112280120219
 31
0.0
1001
DBPROPERTIES
1002
{
1000
PbHidd
1002
}
  0
LINE
  5
39C
330
1F
100
AcDbEntity
  8
HIDDEN
100
AcDbLine
 10
-62.17167691655767
 20
50.34563128398702
 30
0.0
 11
-62.17167691655767
 21
50.34563128398702
 31
0.0
1001
DBPROPERTIES
1002
{
1000
PbHidd
1002
}
  0
LINE
  5
39D
330
1F
100
AcDbEntity
  8
HIDDEN
100
AcDbLine
 10
-25.82715078575333
 20
20.91441432922293
 30
0.0
 11
-38.85729807284855
 21
31.46601955249188
 31
0.0
1001
DBPROPERTIES
1002
{
1000
PbHidd
1002
}
  0
LINE
  5
39E
330
1F
100
AcDbEntity
  8
HIDDEN
100
AcDbLine
 10
-25.82715078575333
 20
20.91441432922293
 30
0.0
 11
-25.82715078575333
 21
20.91441432922293
 31
0.0
1001
DBPROPERTIES
1002
{
1000
PbHidd
1002
}
  0
LINE
  5
39F
330
1F
100
AcDbEntity
  8
HIDDEN
100
AcDbLine
 10
-56.5685424949238
 20
56.56854249492381
 30
0.0
 11
-56.5685424949238
 21
56.56854249492381
 31
0.0
1001
DBPROPERTIES
1002
{
1000
PbHidd
1002
}
  0
LINE
  5
3A0
330
1F
100
AcDbEntity
  8
HIDDEN
100
AcDbLine
 10
-50.34563128398699
 20
62.17167691655768
 30
0.0
 11
-50.34563128398699
 21
62.17167691655768
 31
0.0
1001
DBPROPERTIES
1002
{
1000
PbHidd
1002
}
  0
LINE
  5
3A1
330
1F
100
AcDbEntity
  8
HIDDEN
100
AcDbLine
 10
-20.91441432922291
 20
25.82715078575333
 30
0.0
 11
-31.46601955249187
 21
38.85729807284855
 31
0.0
1001
DBPROPERTIES
1002
{
1000
PbHidd
1002
}
  0
LINE
  5
3A2
330
1F
100
AcDbEntity
  8
HIDDEN
100
AcDbLine
 10
-20.91441432922292
 20
25.82715078575332
 30
0.0
 11
-20.91441432922292
 21
25.82715078575332
 31
0.0
1001
DBPROPERTIES
1002
{
1000
PbHidd
1002
}
  0
LINE
  5
3A3
330
1F
100
AcDbEntity
  8
HIDDEN
100
AcDbLine
 10
-43.57112280120216
 20
67.09364543563393
 30
0.0
 11
-43.57112280120216
 21
67.09364543563393
 31
0.0
1001
DBPROPERTIES
1002
{
1000
PbHidd
1002
}
  0
LINE
  5
3A4
330
1F
100
AcDbEntity
  8
HIDDEN
100
AcDbLine
 10
-36.31923997916373
 20
71.28052193506944
 30
0.0
 11
-36.31923997916373
 21
71.28052193506944
 31
0.0
1001
DBPROPERTIES
1002
{
1000
PbHidd
1002
}
  0
LINE
  5
3A5
330
1F
100
AcDbEntity
  8
HIDDEN
100
AcDbLine
 10
-15.08761760801093
 20
29.61111682052676
 30
0.0
 11
-22.69952498697734
 21
44.55032620941842
 31
0.0
1001
DBPROPERTIES
1002
{
1000
PbHidd
1002
}
  0
LINE
  5
3A6
330
1F
100
AcDbEntity
  8
HIDDEN
100
AcDbLine
 10
-15.08761760801093
 20
29.61111682052675
 30
0.0
 11
-15.08761760801093
 21
29.61111682052675
 31
0.0
1001
DBPROPERTIES
1002
{
1000
PbHidd
1002
}
  0
LINE
  5
3A7
330
1F
100
AcDbEntity
  8
HIDDEN
100
AcDbLine
 10
-28.66943596362401
 20
74.68643411977614
 30
0.0
 11
-28.66943596362401
 21
74.68643411977614
 31
0.0
1001
DBPROPERTIES
1002
{
1000
PbHidd
1002
}
  0
LINE
  5
3A8
330
1F
100
AcDbEntity
  8
HIDDEN
100
AcDbLine
 10
-20.70552360820166
 20
77.27406610312548
 30
0.0
 11
-20.70552360820166
 21
77.27406610312548
 31
0.0
1001
DBPROPERTIES
1002
{
1000
PbHidd
1002
}
  0
LINE
  5
3A9
330
1F
100
AcDbEntity
  8
HIDDEN
100
AcDbLine
 10
-8.601419598907098
 20
32.10093496034003
 30
0.0
 11
-12.94095225512603
 21
48.29629131445343
 31
0.0
1001
DBPROPERTIES
1002
{
1000
PbHidd
1002
}
  0
LINE
  5
3AA
330
1F
100
AcDbEntity
  8
HIDDEN
100
AcDbLine
 10
-8.601419598907102
 20
32.10093496034003
 30
0.0
 11
-8.601419598907102
 21
32.10093496034003
 31
0.0
1001
DBPROPERTIES
1002
{
1000
PbHidd
1002
}
  0
LINE
  5
3AB
330
1F
100
AcDbEntity
  8
HIDDEN
100
AcDbLine
 10
20.70552360820174
 20
77.27406610312546
 30
0.0
 11
20.70552360820174
 21
77.27406610312546
 31
0.0
1001
DBPROPERTIES
1002
{
1000
PbHidd
1002
}
  0
ARC
  5
3AC
330
1F
100
AcDbEntity
  8
HIDDEN
100
AcDbCircle
 10
0.0
 20
0.0
 30
0.0
 40
33.23333333333333
100
AcDbArc
 50
75.00000349528622
 51
81.0000175258962
1001
DBPROPERTIES
1002
{
1000
PbHidd
1002
}
  0
ARC
  5
3AD
330
1F
100
AcDbEntity
  8
HIDDEN
100
AcDbCircle
 10
0.0
 20
0.0000000000000187
 30
0.0
 40
69.0
100
AcDbArc
 50
81.0000175258962
 51
99.00000232194662
1001
DBPROPERTIES
1002
{
1000
PbHidd
1002
}
  0
ARC
  5
3AE
330
1F
100
AcDbEntity
  8
HIDDEN
100
AcDbCircle
 10
0.0
 20
0.0000000000000187
 30
0.0
 40
69.0
100
AcDbArc
 50
68.99998946467625
 51
75.00000349528622
1001
DBPROPERTIES
1002
{
1000
PbHidd
1002
}
  0
ARC
  5
3AF
330
1F
100
AcDbEntity
  8
HIDDEN
100
AcDbCircle
 10
0.0
 20
0.0000000000000187
 30
0.0
 40
69.0
100
AcDbArc
 50
57.0000186992358
 51
62.99997543406626
1001
DBPROPERTIES
1002
{
1000
PbHidd
1002
}
  0
ARC
  5
3B0
330
1F
100
AcDbEntity
  8
HIDDEN
100
AcDbCircle
 10
0.0
 20
0.0000000000000187
 30
0.0
 40
69.0
100
AcDbArc
 50
44.99999063801582
 51
51.00000466862581
1001
DBPROPERTIES
1002
{
1000
PbHidd
1002
}
  0
ARC
  5
3B1
330
1F
100
AcDbEntity
  8
HIDDEN
100
AcDbCircle
 10
0.0
 20
0.0000000000000187
 30
0.0
 40
69.0
100
AcDbArc
 50
33.00001987257539
 51
38.99997660740585
1001
DBPROPERTIES
1002
{
1000
PbHidd
1002
}
  0
ARC
  5
3B2
330
1F
100
AcDbEntity
  8
HIDDEN
100
AcDbCircle
 10
0.0
 20
0.0000000000000187
 30
0.0
 40
69.0
100
AcDbArc
 50
20.99999181135542
 51
27.0000058419654
1001
DBPROPERTIES
1002
{
1000
PbHidd
1002
}
  0
ARC
  5
3B3
330
1F
100
AcDbEntity
  8
HIDDEN
100
AcDbCircle
 10
0.0
 20
0.0000000000000187
 30
0.0
 40
69.0
100
AcDbArc
 50
9.000021045914972
 51
14.99997778074544
1001
DBPROPERTIES
1002
{
1000
PbHidd
1002
}
  0
ARC
  5
3B4
330
1F
100
AcDbEntity
  8
HIDDEN
100
AcDbCircle
 10
0.0
 20
0.0000000000000187
 30
0.0
 40
69.0
100
AcDbArc
 50
0.0
 51
3.00000701530499
1001
DBPROPERTIES
1002
{
1000
PbHidd
1002
}
  0
ARC
  5
3B5
330
1F
100
AcDbEntity
  8
HIDDEN
100
AcDbCircle
 10
0.0
 20
0.0000000000000187
 30
0.0
 40
69.0
100
AcDbArc
 50
345.0000222192546
 51
350.9999789540851
1001
DBPROPERTIES
1002
{
1000
PbHidd
1002
}
  0
ARC
  5
3B6
330
1F
100
AcDbEntity
  8
HIDDEN
100
AcDbCircle
 10
0.0
 20
0.0000000000000187
 30
0.0
 40
69.0
100
AcDbArc
 50
332.9999941580346
 51
339.0000081886445
1001
DBPROPERTIES
1002
{
1000
PbHidd
1002
}
  0
ARC
  5
3B7
330
1F
100
AcDbEntity
  8
HIDDEN
100
AcDbCircle
 10
0.0
 20
0.0000000000000187
 30
0.0
 40
69.0
100
AcDbArc
 50
321.0000233925941
 51
326.9999801274246
1001
DBPROPERTIES
1002
{
1000
PbHidd
1002
}
  0
ARC
  5
3B8
330
1F
100
AcDbEntity
  8
HIDDEN
100
AcDbCircle
 10
0.0
 20
0.0000000000000187
 30
0.0
 40
69.0
100
AcDbArc
 50
308.9999953313742
 51
315.0000093619842
1001
DBPROPERTIES
1002
{
1000
PbHidd
1002
}
  0
ARC
  5
3B9
330
1F
100
AcDbEntity
  8
HIDDEN
100
AcDbCircle
 10
0.0
 20
0.0000000000000187
 30
0.0
 40
69.0
100
AcDbArc
 50
297.0000245659338
 51
302.9999813007643
1001
DBPROPERTIES
1002
{
1000
PbHidd
1002
}
  0
ARC
  5
3BA
330
1F
100
AcDbEntity
  8
HIDDEN
100
AcDbCircle
 10
0.0
 20
0.0000000000000187
 30
0.0
 40
69.0
100
AcDbArc
 50
284.9999965047138
 51
291.0000105353237
1001
DBPROPERTIES
1002
{
1000
PbHidd
1002
}
  0
ARC
  5
3BB
330
1F
100
AcDbEntity
  8
HIDDEN
100
AcDbCircle
 10
0.0
 20
0.0000000000000187
 30
0.0
 40
69.0
100
AcDbArc
 50
273.0000257392733
 51
278.9999824741038
1001
DBPROPERTIES
1002
{
1000
PbHidd
1002
}
  0
ARC
  5
3BC
330
1F
100
AcDbEntity
  8
HIDDEN
100
AcDbCircle
 10
0.0
 20
0.0000000000000187
 30
0.0
 40
69.0
100
AcDbArc
 50
260.9999976780534
 51
267.0000117086634
1001
DBPROPERTIES
1002
{
1000
PbHidd
1002
}
  0
ARC
  5
3BD
330
1F
100
AcDbEntity
  8
HIDDEN
100
AcDbCircle
 10
0.0
 20
0.0000000000000187
 30
0.0
 40
69.0
100
AcDbArc
 50
249.0000269126129
 51
254.9999836474434
1001
DBPROPERTIES
1002
{
1000
PbHidd
1002
}
  0
ARC
  5
3BE
330
1F
100
AcDbEntity
  8
HIDDEN
100
AcDbCircle
 10
0.0
 20
0.0000000000000187
 30
0.0
 40
69.0
100
AcDbArc
 50
236.999998851393
 51
243.0000128820029
1001
DBPROPERTIES
1002
{
1000
PbHidd
1002
}
  0
ARC
  5
3BF
330
1F
100
AcDbEntity
  8
HIDDEN
100
AcDbCircle
 10
0.0
 20
0.0000000000000187
 30
0.0
 40
69.0
100
AcDbArc
 50
225.0000280859525
 51
230.999984820783
1001
DBPROPERTIES
1002
{
1000
PbHidd
1002
}
  0
ARC
  5
3C0
330
1F
100
AcDbEntity
  8
HIDDEN
100
AcDbCircle
 10
0.0
 20
0.0000000000000187
 30
0.0
 40
69.0
100
AcDbArc
 50
213.0000000247326
 51
219.0000140553425
1001
DBPROPERTIES
1002
{
1000
PbHidd
1002
}
  0
ARC
  5
3C1
330
1F
100
AcDbEntity
  8
HIDDEN
100
AcDbCircle
 10
0.0
 20
0.0000000000000187
 30
0.0
 40
69.0
100
AcDbArc
 50
200.9999719635126
 51
206.9999859941226
1001
DBPROPERTIES
1002
{
1000
PbHidd
1002
}
  0
ARC
  5
3C2
330
1F
100
AcDbEntity
  8
HIDDEN
100
AcDbCircle
 10
0.0
 20
0.0000000000000187
 30
0.0
 40
69.0
100
AcDbArc
 50
189.0000011980722
 51
195.0000152286821
1001
DBPROPERTIES
1002
{
1000
PbHidd
1002
}
  0
ARC
  5
3C3
330
1F
100
AcDbEntity
  8
HIDDEN
100
AcDbCircle
 10
0.0
 20
0.0000000000000187
 30
0.0
 40
69.0
100
AcDbArc
 50
177.0000128325378
 51
180.0000198478428
1001
DBPROPERTIES
1002
{
1000
PbHidd
1002
}
  0
ARC
  5
3C4
330
1F
100
AcDbEntity
  8
HIDDEN
100
AcDbCircle
 10
0.0
 20
0.0000000000000187
 30
0.0
 40
69.0
100
AcDbArc
 50
164.9999847713179
 51
170.9999988019279
1001
DBPROPERTIES
1002
{
1000
PbHidd
1002
}
  0
ARC
  5
3C5
330
1F
100
AcDbEntity
  8
HIDDEN
100
AcDbCircle
 10
0.0
 20
0.0000000000000187
 30
0.0
 40
69.0
100
AcDbArc
 50
153.0000140058774
 51
159.0000280364874
1001
DBPROPERTIES
1002
{
1000
PbHidd
1002
}
  0
ARC
  5
3C6
330
1F
100
AcDbEntity
  8
HIDDEN
100
AcDbCircle
 10
0.0
 20
0.0000000000000187
 30
0.0
 40
69.0
100
AcDbArc
 50
140.9999859446575
 51
146.9999999752674
1001
DBPROPERTIES
1002
{
1000
PbHidd
1002
}
  0
ARC
  5
3C7
330
1F
100
AcDbEntity
  8
HIDDEN
100
AcDbCircle
 10
0.0
 20
0.0000000000000187
 30
0.0
 40
69.0
100
AcDbArc
 50
129.000015179217
 51
134.9999719140475
1001
DBPROPERTIES
1002
{
1000
PbHidd
1002
}
  0
ARC
  5
3C8
330
1F
100
AcDbEntity
  8
HIDDEN
100
AcDbCircle
 10
0.0
 20
0.0000000000000187
 30
0.0
 40
69.0
100
AcDbArc
 50
116.9999871179971
 51
123.000001148607
1001
DBPROPERTIES
1002
{
1000
PbHidd
1002
}
  0
ARC
  5
3C9
330
1F
100
AcDbEntity
  8
HIDDEN
100
AcDbCircle
 10
0.0
 20
0.0000000000000187
 30
0.0
 40
69.0
100
AcDbArc
 50
105.0000163525566
 51
110.9999730873871
1001
DBPROPERTIES
1002
{
1000
PbHidd
1002
}
  0
ARC
  5
3CA
330
1F
100
AcDbEntity
  8
HIDDEN
100
AcDbCircle
 10
0.0
 20
0.0
 30
0.0
 40
33.23333333333333
100
AcDbArc
 50
62.99997543406626
 51
68.99998946467625
1001
DBPROPERTIES
1002
{
1000
PbHidd
1002
}
  0
ARC
  5
3CB
330
1F
100
AcDbEntity
  8
HIDDEN
100
AcDbCircle
 10
0.0
 20
0.0
 30
0.0
 40
33.23333333333333
100
AcDbArc
 50
51.00000466862581
 51
57.0000186992358
1001
DBPROPERTIES
1002
{
1000
PbHidd
1002
}
  0
ARC
  5
3CC
330
1F
100
AcDbEntity
  8
HIDDEN
100
AcDbCircle
 10
0.0
 20
0.0
 30
0.0
 40
33.23333333333333
100
AcDbArc
 50
38.99997660740585
 51
44.99999063801582
1001
DBPROPERTIES
1002
{
1000
PbHidd
1002
}
  0
ARC
  5
3CD
330
1F
100
AcDbEntity
  8
HIDDEN
100
AcDbCircle
 10
0.0
 20
0.0
 30
0.0
 40
33.23333333333333
100
AcDbArc
 50
27.0000058419654
 51
33.00001987257539
1001
DBPROPERTIES
1002
{
1000
PbHidd
1002
}
  0
ARC
  5
3CE
330
1F
100
AcDbEntity
  8
HIDDEN
100
AcDbCircle
 10
0.0
 20
0.0
 30
0.0
 40
33.23333333333333
100
AcDbArc
 50
14.99997778074544
 51
20.99999181135542
1001
DBPROPERTIES
1002
{
1000
PbHidd
1002
}
  0
ARC
  5
3CF
330
1F
100
AcDbEntity
  8
HIDDEN
100
AcDbCircle
 10
0.0
 20
0.0
 30
0.0
 40
33.23333333333333
100
AcDbArc
 50
3.00000701530499
 51
9.000021045914972
1001
DBPROPERTIES
1002
{
1000
PbHidd
1002
}
  0
ARC
  5
3D0
330
1F
100
AcDbEntity
  8
HIDDEN
100
AcDbCircle
 10
0.0
 20
0.0
 30
0.0
 40
33.23333333333333
100
AcDbArc
 50
350.9999789540851
 51
356.999992984695
1001
DBPROPERTIES
1002
{
1000
PbHidd
1002
}
  0
ARC
  5
3D1
330
1F
100
AcDbEntity
  8
HIDDEN
100
AcDbCircle
 10
0.0
 20
0.0
 30
0.0
 40
33.23333333333333
100
AcDbArc
 50
339.0000081886445
 51
345.0000222192546
1001
DBPROPERTIES
1002
{
1000
PbHidd
1002
}
  0
ARC
  5
3D2
330
1F
100
AcDbEntity
  8
HIDDEN
100
AcDbCircle
 10
0.0
 20
0.0
 30
0.0
 40
33.23333333333333
100
AcDbArc
 50
326.9999801274246
 51
332.9999941580346
1001
DBPROPERTIES
1002
{
1000
PbHidd
1002
}
  0
ARC
  5
3D3
330
1F
100
AcDbEntity
  8
HIDDEN
100
AcDbCircle
 10
0.0
 20
0.0
 30
0.0
 40
33.23333333333332
100
AcDbArc
 50
315.0000093619842
 51
321.0000233925941
1001
DBPROPERTIES
1002
{
1000
PbHidd
1002
}
  0
ARC
  5
3D4
330
1F
100
AcDbEntity
  8
HIDDEN
100
AcDbCircle
 10
0.0
 20
0.0
 30
0.0
 40
33.23333333333333
100
AcDbArc
 50
302.9999813007643
 51
308.9999953313742
1001
DBPROPERTIES
1002
{
1000
PbHidd
1002
}
  0
ARC
  5
3D5
330
1F
100
AcDbEntity
  8
HIDDEN
100
AcDbCircle
 10
0.0
 20
0.0
 30
0.0
 40
33.23333333333333
100
AcDbArc
 50
291.0000105353237
 51
297.0000245659338
1001
DBPROPERTIES
1002
{
1000
PbHidd
1002
}
  0
ARC
  5
3D6
330
1F
100
AcDbEntity
  8
HIDDEN
100
AcDbCircle
 10
0.0
 20
0.0
 30
0.0
 40
33.23333333333333
100
AcDbArc
 50
278.9999824741038
 51
284.9999965047138
1001
DBPROPERTIES
1002
{
1000
PbHidd
1002
}
  0
ARC
  5
3D7
330
1F
100
AcDbEntity
  8
HIDDEN
100
AcDbCircle
 10
0.0
 20
0.0
 30
0.0
 40
33.23333333333333
100
AcDbArc
 50
267.0000117086634
 51
273.0000257392733
1001
DBPROPERTIES
1002
{
1000
PbHidd
1002
}
  0
ARC
  5
3D8
330
1F
100
AcDbEntity
  8
HIDDEN
100
AcDbCircle
 10
0.0
 20
0.0
 30
0.0
 40
33.23333333333333
100
AcDbArc
 50
254.9999836474434
 51
260.9999976780534
1001
DBPROPERTIES
1002
{
1000
PbHidd
1002
}
  0
ARC
  5
3D9
330
1F
100
AcDbEntity
  8
HIDDEN
100
AcDbCircle
 10
0.0
 20
0.0
 30
0.0
 40
33.23333333333333
100
AcDbArc
 50
243.0000128820029
 51
249.0000269126129
1001
DBPROPERTIES
1002
{
1000
PbHidd
1002
}
  0
ARC
  5
3DA
330
1F
100
AcDbEntity
  8
HIDDEN
100
AcDbCircle
 10
0.0
 20
0.0
 30
0.0
 40
33.23333333333333
100
AcDbArc
 50
230.999984820783
 51
236.999998851393
1001
DBPROPERTIES
1002
{
1000
PbHidd
1002
}
  0
ARC
  5
3DB
330
1F
100
AcDbEntity
  8
HIDDEN
100
AcDbCircle
 10
0.0
 20
0.0
 30
0.0
 40
33.23333333333333
100
AcDbArc
 50
219.0000140553425
 51
225.0000280859525
1001
DBPROPERTIES
1002
{
1000
PbHidd
1002
}
  0
ARC
  5
3DC
330
1F
100
AcDbEntity
  8
HIDDEN
100
AcDbCircle
 10
0.0
 20
0.0
 30
0.0
 40
33.23333333333333
100
AcDbArc
 50
206.9999859941226
 51
213.0000000247326
1001
DBPROPERTIES
1002
{
1000
PbHidd
1002
}
  0
ARC
  5
3DD
330
1F
100
AcDbEntity
  8
HIDDEN
100
AcDbCircle
 10
0.0
 20
0.0
 30
0.0
 40
33.23333333333333
100
AcDbArc
 50
195.0000152286821
 51
200.9999719635126
1001
DBPROPERTIES
1002
{
1000
PbHidd
1002
}
  0
ARC
  5
3DE
330
1F
100
AcDbEntity
  8
HIDDEN
100
AcDbCircle
 10
0.0
 20
0.0
 30
0.0
 40
33.23333333333333
100
AcDbArc
 50
182.9999871674622
 51
189.0000011980722
1001
DBPROPERTIES
1002
{
1000
PbHidd
1002
}
  0
ARC
  5
3DF
330
1F
100
AcDbEntity
  8
HIDDEN
100
AcDbCircle
 10
0.0
 20
0.0
 30
0.0
 40
33.23333333333332
100
AcDbArc
 50
170.9999988019279
 51
177.0000128325378
1001
DBPROPERTIES
1002
{
1000
PbHidd
1002
}
  0
ARC
  5
3E0
330
1F
100
AcDbEntity
  8
HIDDEN
100
AcDbCircle
 10
0.0
 20
0.0
 30
0.0
 40
33.23333333333333
100
AcDbArc
 50
159.0000280364874
 51
164.9999847713179
1001
DBPROPERTIES
1002
{
1000
PbHidd
1002
}
  0
ARC
  5
3E1
330
1F
100
AcDbEntity
  8
HIDDEN
100
AcDbCircle
 10
0.0
 20
0.0
 30
0.0
 40
33.23333333333333
100
AcDbArc
 50
146.9999999752674
 51
153.0000140058774
1001
DBPROPERTIES
1002
{
1000
PbHidd
1002
}
  0
ARC
  5
3E2
330
1F
100
AcDbEntity
  8
HIDDEN
100
AcDbCircle
 10
0.0
 20
0.0
 30
0.0
 40
33.23333333333333
100
AcDbArc
 50
134.9999719140475
 51
140.9999859446575
1001
DBPROPERTIES
1002
{
1000
PbHidd
1002
}
  0
ARC
  5
3E3
330
1F
100
AcDbEntity
  8
HIDDEN
100
AcDbCircle
 10
0.0
 20
0.0
 30
0.0
 40
33.23333333333333
100
AcDbArc
 50
123.000001148607
 51
129.000015179217
1001
DBPROPERTIES
1002
{
1000
PbHidd
1002
}
  0
ARC
  5
3E4
330
1F
100
AcDbEntity
  8
HIDDEN
100
AcDbCircle
 10
0.0
 20
0.0
 30
0.0
 40
33.23333333333333
100
AcDbArc
 50
110.9999730873871
 51
116.9999871179971
1001
DBPROPERTIES
1002
{
1000
PbHidd
1002
}
  0
ARC
  5
3E5
330
1F
100
AcDbEntity
  8
HIDDEN
100
AcDbCircle
 10
0.0
 20
0.0
 30
0.0
 40
33.23333333333333
100
AcDbArc
 50
99.00000232194662
 51
105.0000163525566
1001
DBPROPERTIES
1002
{
1000
PbHidd
1002
}
  0
ARC
  5
3E6
330
1F
100
AcDbEntity
  8
HIDDEN
100
AcDbCircle
 10
0.0
 20
0.0
 30
0.0
 40
65.57377049180329
100
AcDbArc
 50
270.0000187239684
 51
89.99998127603165
1001
DBPROPERTIES
1002
{
1000
PbHidd
1002
}
  0
LINE
  5
3E7
330
1F
100
AcDbEntity
  8
THICK
100
AcDbLine
 10
-56.40629732968699
 20
35.19577468501267
 30
0.0
 11
-129.2028677892946
 21
126.479786759229
 31
0.0
1001
DBPROPERTIES
1002
{
1000
PbThick
1002
}
  0
LINE
  5
3E8
330
1F
100
AcDbEntity
  8
THICK
100
AcDbLine
 10
-92.34697825607621
 20
155.8713778855602
 30
0.0
 11
-19.00300272111157
 21
63.9009415582108
 31
0.0
1001
DBPROPERTIES
1002
{
1000
PbThick
1002
}
  0
ELLIPSE
  5
3E9
330
1F
100
AcDbEntity
  8
THICK
100
AcDbEllipse
 10
-59.9963238961593
 20
77.50123301565687
 30
0.0
 11
-54.86710256356854
 21
68.80117045718664
 31
0.0
210
0.0
220
0.0
230
1.0
 40
0.7071067811865475
 41
0.0
 42
0.3884862281828485
1001
DBPROPERTIES
1002
{
1000
PbThick
1002
}
  0
ELLIPSE
  5
3EA
330
1F
100
AcDbEntity
  8
THICK
100
AcDbEllipse
 10
-59.9963238961593
 20
77.50123301565687
 30
0.0
 11
-54.86710256356854
 21
68.80117045718664
 31
0.0
210
0.0
220
0.0
230
1.0
 40
0.7071067811865475
 41
-0.3884862281828484
 42
0.0
1001
DBPROPERTIES
1002
{
1000
PbThick
1002
}
  0
LINE
  5
3EB
330
1F
100
AcDbEntity
  8
HIDDEN
100
AcDbLine
 10
-20.45347561177334
 20
63.45155458964767
 30
0.0
 11
-93.45265494207277
 21
154.9896301517703
 31
0.0
1001
DBPROPERTIES
1002
{
1000
PbHidd
1002
}
  0
LINE
  5
3EC
330
1F
100
AcDbEntity
  8
HIDDEN
100
AcDbLine
 10
-93.45265494207274
 20
154.9896301517703
 30
0.0
 11
-92.34697825607618
 21
155.8713778855602
 31
0.0
1001
DBPROPERTIES
1002
{
1000
PbHidd
1002
}
  0
LINE
  5
3ED
330
1F
100
AcDbEntity
  8
THICK
100
AcDbLine
 10
-57.29950698910837
 20
34.04760172683633
 30
0.0
 11
-130.3085444752911
 21
125.5980390254391
 31
0.0
1001
DBPROPERTIES
1002
{
1000
PbThick
1002
}
  0
LINE
  5
3EE
330
1F
100
AcDbEntity
  8
THICK
100
AcDbLine
 10
-130.3085444752911
 20
125.5980390254391
 30
0.0
 11
-129.2028677892946
 21
126.4797867592291
 31
0.0
1001
DBPROPERTIES
1002
{
1000
PbThick
1002
}
  0
ELLIPSE
  5
3EF
330
1F
100
AcDbEntity
  8
HIDDEN
100
AcDbEllipse
 10
-61.10200058215586
 20
76.61948528186693
 30
0.0
 11
54.86710256356854
 21
-68.80117045718664
 31
0.0
210
0.0
220
0.0
230
1.0
 40
0.7071067811865475
 41
2.753106425406945
 42
3.141592653589793
1001
DBPROPERTIES
1002
{
1000
PbHidd
1002
}
  0
ELLIPSE
  5
3F0
330
1F
100
AcDbEntity
  8
THICK
100
AcDbEllipse
 10
-61.10200058215586
 20
76.61948528186693
 30
0.0
 11
54.86710256356854
 21
-68.80117045718664
 31
0.0
210
0.0
220
0.0
230
1.0
 40
0.7071067811865475
 41
-3.141592653589793
 42
-2.753106425406944
1001
DBPROPERTIES
1002
{
1000
PbThick
1002
}
  0
ARC
  5
3F1
330
1F
100
AcDbEntity
  8
THICK
100
AcDbCircle
 10
0.0
 20
0.0
 30
0.0
 40
55.66666666666667
100
AcDbArc
 50
180.0000198478428
 51
0.0
1001
DBPROPERTIES
1002
{
1000
PbThick
1002
}
  0
LINE
  5
3F2
330
1F
100
AcDbEntity
  8
THICK
100
AcDbLine
 10
-63.5417366027832
 20
-20.17157363891602
 30
0.0
 11
-63.43350601196289
 21
-20.49388313293457
 31
0.0
1001
DBPROPERTIES
1002
{
1000
PbThick
1002
}
  0
LINE
  5
3F3
330
1F
100
AcDbEntity
  8
THICK
100
AcDbLine
 10
-63.43350601196289
 20
-20.49388313293457
 30
0.0
 11
-63.31142425537109
 21
-20.82172775268555
 31
0.0
1001
DBPROPERTIES
1002
{
1000
PbThick
1002
}
  0
LINE
  5
3F4
330
1F
100
AcDbEntity
  8
THICK
100
AcDbLine
 10
-63.31142425537109
 20
-20.82172775268555
 30
0.0
 11
-63.17534255981445
 21
-21.15344047546387
 31
0.0
1001
DBPROPERTIES
1002
{
1000
PbThick
1002
}
  0
LINE
  5
3F5
330
1F
100
AcDbEntity
  8
THICK
100
AcDbLine
 10
-63.17534255981445
 20
-21.15344047546387
 30
0.0
 11
-63.02546691894531
 21
-21.4874267578125
 31
0.0
1001
DBPROPERTIES
1002
{
1000
PbThick
1002
}
  0
LINE
  5
3F6
330
1F
100
AcDbEntity
  8
THICK
100
AcDbLine
 10
-63.02546691894531
 20
-21.4874267578125
 30
0.0
 11
-62.86208724975586
 21
-21.82210922241211
 31
0.0
1001
DBPROPERTIES
1002
{
1000
PbThick
1002
}
  0
LINE
  5
3F7
330
1F
100
AcDbEntity
  8
THICK
100
AcDbLine
 10
-62.86208724975586
 20
-21.82210922241211
 30
0.0
 11
-62.68591690063477
 21
-22.1560115814209
 31
0.0
1001
DBPROPERTIES
1002
{
1000
PbThick
1002
}
  0
LINE
  5
3F8
330
1F
100
AcDbEntity
  8
THICK
100
AcDbLine
 10
-62.68591690063477
 20
-22.1560115814209
 30
0.0
 11
-62.64414215087891
 21
-22.3970890045166
 31
0.0
1001
DBPROPERTIES
1002
{
1000
PbThick
1002
}
  0
LINE
  5
3F9
330
1F
100
AcDbEntity
  8
THICK
100
AcDbLine
 10
-62.64414215087891
 20
-22.3970890045166
 30
0.0
 11
-62.5960578918457
 21
-22.63666343688965
 31
0.0
1001
DBPROPERTIES
1002
{
1000
PbThick
1002
}
  0
LINE
  5
3FA
330
1F
100
AcDbEntity
  8
THICK
100
AcDbLine
 10
-62.5960578918457
 20
-22.63666343688965
 30
0.0
 11
-62.54174423217773
 21
-22.87423515319824
 31
0.0
1001
DBPROPERTIES
1002
{
1000
PbThick
1002
}
  0
LINE
  5
3FB
330
1F
100
AcDbEntity
  8
THICK
100
AcDbLine
 10
-62.54174423217773
 20
-22.87423515319824
 30
0.0
 11
-62.48157119750977
 21
-23.10933113098145
 31
0.0
1001
DBPROPERTIES
1002
{
1000
PbThick
1002
}
  0
LINE
  5
3FC
330
1F
100
AcDbEntity
  8
THICK
100
AcDbLine
 10
-62.48157119750977
 20
-23.10933113098145
 30
0.0
 11
-62.41587829589844
 21
-23.34148025512695
 31
0.0
1001
DBPROPERTIES
1002
{
1000
PbThick
1002
}
  0
LINE
  5
3FD
330
1F
100
AcDbEntity
  8
THICK
100
AcDbLine
 10
-62.41587829589844
 20
-23.34148025512695
 30
0.0
 11
-62.34514617919922
 21
-23.57022666931152
 31
0.0
1001
DBPROPERTIES
1002
{
1000
PbThick
1002
}
  0
LINE
  5
3FE
330
1F
100
AcDbEntity
  8
HIDDEN
100
AcDbLine
 10
-62.34514617919922
 20
-23.57022666931152
 30
0.0
 11
-62.38623046875
 21
-23.47407341003418
 31
0.0
1001
DBPROPERTIES
1002
{
1000
PbHidd
1002
}
  0
LINE
  5
3FF
330
1F
100
AcDbEntity
  8
HIDDEN
100
AcDbLine
 10
-62.38623046875
 20
-23.47407341003418
 30
0.0
 11
-62.42620086669922
 21
-23.37833023071289
 31
0.0
1001
DBPROPERTIES
1002
{
1000
PbHidd
1002
}
  0
LINE
  5
400
330
1F
100
AcDbEntity
  8
HIDDEN
100
AcDbLine
 10
-62.42620086669922
 20
-23.37833023071289
 30
0.0
 11
-62.46487808227539
 21
-23.28300094604492
 31
0.0
1001
DBPROPERTIES
1002
{
1000
PbHidd
1002
}
  0
LINE
  5
401
330
1F
100
AcDbEntity
  8
HIDDEN
100
AcDbLine
 10
-62.46487808227539
 20
-23.28300094604492
 30
0.0
 11
-62.5023193359375
 21
-23.18814086914062
 31
0.0
1001
DBPROPERTIES
1002
{
1000
PbHidd
1002
}
  0
LINE
  5
402
330
1F
100
AcDbEntity
  8
HIDDEN
100
AcDbLine
 10
-62.5023193359375
 20
-23.18814086914062
 30
0.0
 11
-62.53852462768555
 21
-23.09379196166992
 31
0.0
1001
DBPROPERTIES
1002
{
1000
PbHidd
1002
}
  0
LINE
  5
403
330
1F
100
AcDbEntity
  8
HIDDEN
100
AcDbLine
 10
-62.53852462768555
 20
-23.09379196166992
 30
0.0
 11
-62.57351303100586
 21
-23.0
 31
0.0
1001
DBPROPERTIES
1002
{
1000
PbHidd
1002
}
  0
LINE
  5
404
330
1F
100
AcDbEntity
  8
THICK
100
AcDbLine
 10
-23.84685325622559
 20
-62.25569915771484
 30
0.0
 11
-23.52738189697266
 21
-62.37203979492188
 31
0.0
1001
DBPROPERTIES
1002
{
1000
PbThick
1002
}
  0
LINE
  5
405
330
1F
100
AcDbEntity
  8
THICK
100
AcDbLine
 10
-23.52738189697266
 20
-62.37203979492188
 30
0.0
 11
-23.19494438171387
 21
-62.48099899291992
 31
0.0
1001
DBPROPERTIES
1002
{
1000
PbThick
1002
}
  0
LINE
  5
406
330
1F
100
AcDbEntity
  8
THICK
100
AcDbLine
 10
-23.19494438171387
 20
-62.48099899291992
 30
0.0
 11
-22.85075569152832
 21
-62.58142471313477
 31
0.0
1001
DBPROPERTIES
1002
{
1000
PbThick
1002
}
  0
LINE
  5
407
330
1F
100
AcDbEntity
  8
THICK
100
AcDbLine
 10
-22.85075569152832
 20
-62.58142471313477
 30
0.0
 11
-22.49619102478027
 21
-62.6724853515625
 31
0.0
1001
DBPROPERTIES
1002
{
1000
PbThick
1002
}
  0
LINE
  5
408
330
1F
100
AcDbEntity
  8
THICK
100
AcDbLine
 10
-22.49619102478027
 20
-62.6724853515625
 30
0.0
 11
-22.13265991210938
 21
-62.75342178344727
 31
0.0
1001
DBPROPERTIES
1002
{
1000
PbThick
1002
}
  0
LINE
  5
409
330
1F
100
AcDbEntity
  8
THICK
100
AcDbLine
 10
-22.13265991210938
 20
-62.75342178344727
 30
0.0
 11
-21.76176071166992
 21
-62.82387161254883
 31
0.0
1001
DBPROPERTIES
1002
{
1000
PbThick
1002
}
  0
LINE
  5
40A
330
1F
100
AcDbEntity
  8
THICK
100
AcDbLine
 10
-21.76176071166992
 20
-62.82387161254883
 30
0.0
 11
-21.5472354888916
 21
-62.9415168762207
 31
0.0
1001
DBPROPERTIES
1002
{
1000
PbThick
1002
}
  0
LINE
  5
40B
330
1F
100
AcDbEntity
  8
THICK
100
AcDbLine
 10
-21.5472354888916
 20
-62.9415168762207
 30
0.0
 11
-21.32994842529297
 21
-63.05329895019531
 31
0.0
1001
DBPROPERTIES
1002
{
1000
PbThick
1002
}
  0
LINE
  5
40C
330
1F
100
AcDbEntity
  8
THICK
100
AcDbLine
 10
-21.32994842529297
 20
-63.05329895019531
 30
0.0
 11
-21.11034202575684
 21
-63.15895843505859
 31
0.0
1001
DBPROPERTIES
1002
{
1000
PbThick
1002
}
  0
LINE
  5
40D
330
1F
100
AcDbEntity
  8
THICK
100
AcDbLine
 10
-21.11034202575684
 20
-63.15895843505859
 30
0.0
 11
-20.8890209197998
 21
-63.25849151611328
 31
0.0
1001
DBPROPERTIES
1002
{
1000
PbThick
1002
}
  0
LINE
  5
40E
330
1F
100
AcDbEntity
  8
THICK
100
AcDbLine
 10
-20.8890209197998
 20
-63.25849151611328
 30
0.0
 11
-20.66655921936035
 21
-63.35187149047852
 31
0.0
1001
DBPROPERTIES
1002
{
1000
PbThick
1002
}
  0
LINE
  5
40F
330
1F
100
AcDbEntity
  8
THICK
100
AcDbLine
 10
-20.66655921936035
 20
-63.35187149047852
 30
0.0
 11
-20.44361686706543
 21
-63.43919372558594
 31
0.0
1001
DBPROPERTIES
1002
{
1000
PbThick
1002
}
  0
LINE
  5
410
330
1F
100
AcDbEntity
  8
HIDDEN
100
AcDbLine
 10
-20.44361686706543
 20
-63.43919372558594
 30
0.0
 11
-20.54440879821777
 21
-63.41136169433594
 31
0.0
1001
DBPROPERTIES
1002
{
1000
PbHidd
1002
}
  0
LINE
  5
411
330
1F
100
AcDbEntity
  8
HIDDEN
100
AcDbLine
 10
-20.54440879821777
 20
-63.41136169433594
 30
0.0
 11
-20.64418601989746
 21
-63.38291931152344
 31
0.0
1001
DBPROPERTIES
1002
{
1000
PbHidd
1002
}
  0
LINE
  5
412
330
1F
100
AcDbEntity
  8
HIDDEN
100
AcDbLine
 10
-20.64418601989746
 20
-63.38291931152344
 30
0.0
 11
-20.74281311035156
 21
-63.35368728637695
 31
0.0
1001
DBPROPERTIES
1002
{
1000
PbHidd
1002
}
  0
LINE
  5
413
330
1F
100
AcDbEntity
  8
HIDDEN
100
AcDbLine
 10
-20.74281311035156
 20
-63.35368728637695
 30
0.0
 11
-20.84033012390137
 21
-63.32383346557617
 31
0.0
1001
DBPROPERTIES
1002
{
1000
PbHidd
1002
}
  0
LINE
  5
414
330
1F
100
AcDbEntity
  8
HIDDEN
100
AcDbLine
 10
-20.84033012390137
 20
-63.32383346557617
 30
0.0
 11
-20.93667793273926
 21
-63.29333114624023
 31
0.0
1001
DBPROPERTIES
1002
{
1000
PbHidd
1002
}
  0
LINE
  5
415
330
1F
100
AcDbEntity
  8
HIDDEN
100
AcDbLine
 10
-20.93667793273926
 20
-63.29333114624023
 30
0.0
 11
-21.03182220458984
 21
-63.26220703125
 31
0.0
1001
DBPROPERTIES
1002
{
1000
PbHidd
1002
}
  0
LINE
  5
416
330
1F
100
AcDbEntity
  8
THICK
100
AcDbLine
 10
33.80519485473633
 20
-57.46001434326172
 30
0.0
 11
34.09534072875977
 21
-57.28277587890625
 31
0.0
1001
DBPROPERTIES
1002
{
1000
PbThick
1002
}
  0
LINE
  5
417
330
1F
100
AcDbEntity
  8
THICK
100
AcDbLine
 10
34.09534072875977
 20
-57.28277587890625
 30
0.0
 11
34.38780212402344
 21
-57.09080505371094
 31
0.0
1001
DBPROPERTIES
1002
{
1000
PbThick
1002
}
  0
LINE
  5
418
330
1F
100
AcDbEntity
  8
THICK
100
AcDbLine
 10
34.38780212402344
 20
-57.09080505371094
 30
0.0
 11
34.68091583251953
 21
-56.88431930541992
 31
0.0
1001
DBPROPERTIES
1002
{
1000
PbThick
1002
}
  0
LINE
  5
419
330
1F
100
AcDbEntity
  8
THICK
100
AcDbLine
 10
34.68091583251953
 20
-56.88431930541992
 30
0.0
 11
34.97317886352539
 21
-56.66388702392578
 31
0.0
1001
DBPROPERTIES
1002
{
1000
PbThick
1002
}
  0
LINE
  5
41A
330
1F
100
AcDbEntity
  8
THICK
100
AcDbLine
 10
34.97317886352539
 20
-56.66388702392578
 30
0.0
 11
35.26311492919922
 21
-56.43013000488281
 31
0.0
1001
DBPROPERTIES
1002
{
1000
PbThick
1002
}
  0
LINE
  5
41B
330
1F
100
AcDbEntity
  8
THICK
100
AcDbLine
 10
35.26311492919922
 20
-56.43013000488281
 30
0.0
 11
35.54944229125977
 21
-56.1840705871582
 31
0.0
1001
DBPROPERTIES
1002
{
1000
PbThick
1002
}
  0
LINE
  5
41C
330
1F
100
AcDbEntity
  8
THICK
100
AcDbLine
 10
35.54944229125977
 20
-56.1840705871582
 30
0.0
 11
35.77518081665039
 21
-56.08970260620117
 31
0.0
1001
DBPROPERTIES
1002
{
1000
PbThick
1002
}
  0
LINE
  5
41D
330
1F
100
AcDbEntity
  8
THICK
100
AcDbLine
 10
35.77518081665039
 20
-56.08970260620117
 30
0.0
 11
35.998046875
 21
-55.9895133972168
 31
0.0
1001
DBPROPERTIES
1002
{
1000
PbThick
1002
}
  0
LINE
  5
41E
330
1F
100
AcDbEntity
  8
THICK
100
AcDbLine
 10
35.998046875
 20
-55.9895133972168
 30
0.0
 11
36.21757888793945
 21
-55.88369750976562
 31
0.0
1001
DBPROPERTIES
1002
{
1000
PbThick
1002
}
  0
LINE
  5
41F
330
1F
100
AcDbEntity
  8
THICK
100
AcDbLine
 10
36.21757888793945
 20
-55.88369750976562
 30
0.0
 11
36.43339157104492
 21
-55.77272033691406
 31
0.0
1001
DBPROPERTIES
1002
{
1000
PbThick
1002
}
  0
LINE
  5
420
330
1F
100
AcDbEntity
  8
THICK
100
AcDbLine
 10
36.43339157104492
 20
-55.77272033691406
 30
0.0
 11
36.64509963989258
 21
-55.65701293945312
 31
0.0
1001
DBPROPERTIES
1002
{
1000
PbThick
1002
}
  0
LINE
  5
421
330
1F
100
AcDbEntity
  8
THICK
100
AcDbLine
 10
36.64509963989258
 20
-55.65701293945312
 30
0.0
 11
36.85237121582031
 21
-55.53715515136719
 31
0.0
1001
DBPROPERTIES
1002
{
1000
PbThick
1002
}
  0
LINE
  5
422
330
1F
100
AcDbEntity
  8
HIDDEN
100
AcDbLine
 10
36.85237121582031
 20
-55.53715515136719
 30
0.0
 11
36.76777267456055
 21
-55.59860229492188
 31
0.0
1001
DBPROPERTIES
1002
{
1000
PbHidd
1002
}
  0
LINE
  5
423
330
1F
100
AcDbEntity
  8
HIDDEN
100
AcDbLine
 10
36.76777267456055
 20
-55.59860229492188
 30
0.0
 11
36.68332290649414
 21
-55.65887832641602
 31
0.0
1001
DBPROPERTIES
1002
{
1000
PbHidd
1002
}
  0
LINE
  5
424
330
1F
100
AcDbEntity
  8
HIDDEN
100
AcDbLine
 10
36.68332290649414
 20
-55.65887832641602
 30
0.0
 11
36.59899139404297
 21
-55.71779632568359
 31
0.0
1001
DBPROPERTIES
1002
{
1000
PbHidd
1002
}
  0
LINE
  5
425
330
1F
100
AcDbEntity
  8
HIDDEN
100
AcDbLine
 10
36.59899139404297
 20
-55.71779632568359
 30
0.0
 11
36.51483917236328
 21
-55.77540969848633
 31
0.0
1001
DBPROPERTIES
1002
{
1000
PbHidd
1002
}
  0
LINE
  5
426
330
1F
100
AcDbEntity
  8
HIDDEN
100
AcDbLine
 10
36.51483917236328
 20
-55.77540969848633
 30
0.0
 11
36.43091201782227
 21
-55.83169937133789
 31
0.0
1001
DBPROPERTIES
1002
{
1000
PbHidd
1002
}
  0
LINE
  5
427
330
1F
100
AcDbEntity
  8
HIDDEN
100
AcDbLine
 10
36.43091201782227
 20
-55.83169937133789
 30
0.0
 11
36.34725952148438
 21
-55.88668060302734
 31
0.0
1001
DBPROPERTIES
1002
{
1000
PbHidd
1002
}
  0
LINE
  5
428
330
1F
100
AcDbEntity
  8
THICK
100
AcDbLine
 10
66.0012435913086
 20
-9.395766258239746
 30
0.0
 11
66.0435791015625
 21
-9.058416366577148
 31
0.0
1001
DBPROPERTIES
1002
{
1000
PbThick
1002
}
  0
LINE
  5
429
330
1F
100
AcDbEntity
  8
THICK
100
AcDbLine
 10
66.0435791015625
 20
-9.058416366577148
 30
0.0
 11
66.0758285522461
 21
-8.710068702697754
 31
0.0
1001
DBPROPERTIES
1002
{
1000
PbThick
1002
}
  0
LINE
  5
42A
330
1F
100
AcDbEntity
  8
THICK
100
AcDbLine
 10
66.0758285522461
 20
-8.710068702697754
 30
0.0
 11
66.09715270996094
 21
-8.352161407470703
 31
0.0
1001
DBPROPERTIES
1002
{
1000
PbThick
1002
}
  0
LINE
  5
42B
330
1F
100
AcDbEntity
  8
THICK
100
AcDbLine
 10
66.09715270996094
 20
-8.352161407470703
 30
0.0
 11
66.1070327758789
 21
-7.986223697662354
 31
0.0
1001
DBPROPERTIES
1002
{
1000
PbThick
1002
}
  0
LINE
  5
42C
330
1F
100
AcDbEntity
  8
THICK
100
AcDbLine
 10
66.1070327758789
 20
-7.986223697662354
 30
0.0
 11
66.10504150390625
 21
-7.613796710968018
 31
0.0
1001
DBPROPERTIES
1002
{
1000
PbThick
1002
}
  0
LINE
  5
42D
330
1F
100
AcDbEntity
  8
THICK
100
AcDbLine
 10
66.10504150390625
 20
-7.613796710968018
 30
0.0
 11
66.09119415283203
 21
-7.236522197723389
 31
0.0
1001
DBPROPERTIES
1002
{
1000
PbThick
1002
}
  0
LINE
  5
42E
330
1F
100
AcDbEntity
  8
THICK
100
AcDbLine
 10
66.09119415283203
 20
-7.236522197723389
 30
0.0
 11
66.15814971923828
 21
-7.001195430755615
 31
0.0
1001
DBPROPERTIES
1002
{
1000
PbThick
1002
}
  0
LINE
  5
42F
330
1F
100
AcDbEntity
  8
THICK
100
AcDbLine
 10
66.15814971923828
 20
-7.001195430755615
 30
0.0
 11
66.21878051757812
 21
-6.764483451843262
 31
0.0
1001
DBPROPERTIES
1002
{
1000
PbThick
1002
}
  0
LINE
  5
430
330
1F
100
AcDbEntity
  8
THICK
100
AcDbLine
 10
66.21878051757812
 20
-6.764483451843262
 30
0.0
 11
66.2729263305664
 21
-6.526872158050537
 31
0.0
1001
DBPROPERTIES
1002
{
1000
PbThick
1002
}
  0
LINE
  5
431
330
1F
100
AcDbEntity
  8
THICK
100
AcDbLine
 10
66.2729263305664
 20
-6.526872158050537
 30
0.0
 11
66.32071685791016
 21
-6.288949966430664
 31
0.0
1001
DBPROPERTIES
1002
{
1000
PbThick
1002
}
  0
LINE
  5
432
330
1F
100
AcDbEntity
  8
THICK
100
AcDbLine
 10
66.32071685791016
 20
-6.288949966430664
 30
0.0
 11
66.36225128173828
 21
-6.051287651062012
 31
0.0
1001
DBPROPERTIES
1002
{
1000
PbThick
1002
}
  0
LINE
  5
433
330
1F
100
AcDbEntity
  8
THICK
100
AcDbLine
 10
66.36225128173828
 20
-6.051287651062012
 30
0.0
 11
66.39777374267578
 21
-5.814504623413086
 31
0.0
1001
DBPROPERTIES
1002
{
1000
PbThick
1002
}
  0
LINE
  5
434
330
1F
100
AcDbEntity
  8
HIDDEN
100
AcDbLine
 10
66.39777374267578
 20
-5.814504623413086
 30
0.0
 11
66.39306640625
 21
-5.918961524963379
 31
0.0
1001
DBPROPERTIES
1002
{
1000
PbHidd
1002
}
  0
LINE
  5
435
330
1F
100
AcDbEntity
  8
HIDDEN
100
AcDbLine
 10
66.39306640625
 20
-5.918961524963379
 30
0.0
 11
66.38754272460938
 21
-6.022566318511963
 31
0.0
1001
DBPROPERTIES
1002
{
1000
PbHidd
1002
}
  0
LINE
  5
436
330
1F
100
AcDbEntity
  8
HIDDEN
100
AcDbLine
 10
66.38754272460938
 20
-6.022566318511963
 30
0.0
 11
66.38102722167969
 21
-6.125236034393311
 31
0.0
1001
DBPROPERTIES
1002
{
1000
PbHidd
1002
}
  0
LINE
  5
437
330
1F
100
AcDbEntity
  8
HIDDEN
100
AcDbLine
 10
66.38102722167969
 20
-6.125236034393311
 30
0.0
 11
66.37358093261719
 21
-6.22694206237793
 31
0.0
1001
DBPROPERTIES
1002
{
1000
PbHidd
1002
}
  0
LINE
  5
438
330
1F
100
AcDbEntity
  8
HIDDEN
100
AcDbLine
 10
66.37358093261719
 20
-6.22694206237793
 30
0.0
 11
66.36528778076172
 21
-6.327661514282227
 31
0.0
1001
DBPROPERTIES
1002
{
1000
PbHidd
1002
}
  0
LINE
  5
439
330
1F
100
AcDbEntity
  8
HIDDEN
100
AcDbLine
 10
66.36528778076172
 20
-6.327661514282227
 30
0.0
 11
66.35610961914062
 21
-6.427345752716064
 31
0.0
1001
DBPROPERTIES
1002
{
1000
PbHidd
1002
}
  0
LINE
  5
43A
330
1F
100
AcDbEntity
  8
THICK
100
AcDbLine
 10
-7.651586447077154
 20
66.04442564642478
 30
0.0
 11
18.32920874668087
 21
179.8737268484715
 31
0.0
1001
DBPROPERTIES
1002
{
1000
PbThick
1002
}
  0
LINE
  5
43B
330
1F
100
AcDbEntity
  8
THICK
100
AcDbLine
 10
64.28775127146824
 20
169.3839894247066
 30
0.0
 11
38.11158946825205
 21
54.69873117950599
 31
0.0
1001
DBPROPERTIES
1002
{
1000
PbThick
1002
}
  0
ELLIPSE
  5
43C
330
1F
100
AcDbEntity
  8
THICK
100
AcDbEllipse
 10
23.18580780346246
 20
95.22824327110575
 30
0.0
 11
19.58184218815569
 21
85.79365627200046
 31
0.0
210
0.0
220
0.0
230
1.0
 40
0.7071067811865476
 41
0.0
 42
0.3884862281828484
1001
DBPROPERTIES
1002
{
1000
PbThick
1002
}
  0
ELLIPSE
  5
43D
330
1F
100
AcDbEntity
  8
THICK
100
AcDbEllipse
 10
23.18580780346246
 20
95.22824327110575
 30
0.0
 11
19.58184218815569
 21
85.79365627200046
 31
0.0
210
0.0
220
0.0
230
1.0
 40
0.7071067811865476
 41
-0.3884862281828484
 42
0.0
1001
DBPROPERTIES
1002
{
1000
PbThick
1002
}
  0
LINE
  5
43E
330
1F
100
AcDbEntity
  8
HIDDEN
100
AcDbLine
 10
36.85588953321836
 20
55.55256835790445
 30
0.0
 11
62.90899499572462
 21
169.6986815474195
 31
0.0
1001
DBPROPERTIES
1002
{
1000
PbHidd
1002
}
  0
LINE
  5
43F
330
1F
100
AcDbEntity
  8
HIDDEN
100
AcDbLine
 10
62.90899499572465
 20
169.6986815474196
 30
0.0
 11
64.28775127146827
 21
169.3839894247066
 31
0.0
1001
DBPROPERTIES
1002
{
1000
PbHidd
1002
}
  0
LINE
  5
440
330
1F
100
AcDbEntity
  8
THICK
100
AcDbLine
 10
-9.106171326668804
 20
66.02689094841203
 30
0.0
 11
16.95045247093725
 21
180.1884189711844
 31
0.0
1001
DBPROPERTIES
1002
{
1000
PbThick
1002
}
  0
LINE
  5
441
330
1F
100
AcDbEntity
  8
THICK
100
AcDbLine
 10
16.95045247093729
 20
180.1884189711845
 30
0.0
 11
18.32920874668091
 21
179.8737268484716
 31
0.0
1001
DBPROPERTIES
1002
{
1000
PbThick
1002
}
  0
ELLIPSE
  5
442
330
1F
100
AcDbEntity
  8
HIDDEN
100
AcDbEllipse
 10
21.80705152771884
 20
95.54293539381871
 30
0.0
 11
-19.58184218815569
 21
-85.79365627200046
 31
0.0
210
0.0
220
0.0
230
1.0
 40
0.7071067811865476
 41
2.753106425406945
 42
3.141592653589793
1001
DBPROPERTIES
1002
{
1000
PbHidd
1002
}
  0
ELLIPSE
  5
443
330
1F
100
AcDbEntity
  8
THICK
100
AcDbEllipse
 10
21.80705152771884
 20
95.54293539381871
 30
0.0
 11
-19.58184218815569
 21
-85.79365627200046
 31
0.0
210
0.0
220
0.0
230
1.0
 40
0.7071067811865476
 41
3.141592653589793
 42
3.530078881772642
1001
DBPROPERTIES
1002
{
1000
PbThick
1002
}
  0
LINE
  5
444
330
1F
100
AcDbEntity
  8
THICK
100
AcDbLine
 10
46.86492509410073
 20
47.16027703531385
 30
0.0
 11
152.0590172486853
 21
97.81908186546195
 31
0.0
1001
DBPROPERTIES
1002
{
1000
PbThick
1002
}
  0
LINE
  5
445
330
1F
100
AcDbEntity
  8
THICK
100
AcDbLine
 10
172.5124928604587
 20
55.34700212334413
 30
0.0
 11
66.52737745327526
 21
4.307260571857878
 31
0.0
1001
DBPROPERTIES
1002
{
1000
PbThick
1002
}
  0
ELLIPSE
  5
446
330
1F
100
AcDbEntity
  8
THICK
100
AcDbEllipse
 10
88.90855332279027
 20
41.24644404125713
 30
0.0
 11
79.28526037541288
 21
38.1817690423451
 31
0.0
210
0.0
220
0.0
230
1.0
 40
0.7071067811865476
 41
0.0
 42
0.3884862281828487
1001
DBPROPERTIES
1002
{
1000
PbThick
1002
}
  0
ELLIPSE
  5
447
330
1F
100
AcDbEntity
  8
THICK
100
AcDbEllipse
 10
88.90855332279027
 20
41.24644404125713
 30
0.0
 11
79.28526037541288
 21
38.1817690423451
 31
0.0
210
0.0
220
0.0
230
1.0
 40
0.7071067811865476
 41
-0.3884862281828486
 42
0.0
1001
DBPROPERTIES
1002
{
1000
PbThick
1002
}
  0
LINE
  5
448
330
1F
100
AcDbEntity
  8
HIDDEN
100
AcDbLine
 10
66.41201813656068
 20
5.821365086779551
 30
0.0
 11
171.8988885921054
 21
56.62116451560766
 31
0.0
1001
DBPROPERTIES
1002
{
1000
PbHidd
1002
}
  0
LINE
  5
449
330
1F
100
AcDbEntity
  8
HIDDEN
100
AcDbLine
 10
171.8988885921056
 20
56.62116451560771
 30
0.0
 11
172.5124928604588
 21
55.34700212334418
 31
0.0
1001
DBPROPERTIES
1002
{
1000
PbHidd
1002
}
  0
LINE
  5
44A
330
1F
100
AcDbEntity
  8
THICK
100
AcDbLine
 10
45.94429707679549
 20
48.28658458271096
 30
0.0
 11
151.4454129803321
 21
99.0932442577255
 31
0.0
1001
DBPROPERTIES
1002
{
1000
PbThick
1002
}
  0
LINE
  5
44B
330
1F
100
AcDbEntity
  8
THICK
100
AcDbLine
 10
151.4454129803322
 20
99.09324425772553
 30
0.0
 11
152.0590172486854
 21
97.819081865462
 31
0.0
1001
DBPROPERTIES
1002
{
1000
PbThick
1002
}
  0
ELLIPSE
  5
44C
330
1F
100
AcDbEntity
  8
HIDDEN
100
AcDbEllipse
 10
88.29494905443707
 20
42.52060643352067
 30
0.0
 11
-79.28526037541288
 21
-38.1817690423451
 31
0.0
210
0.0
220
0.0
230
1.0
 40
0.7071067811865476
 41
2.753106425406945
 42
3.141592653589793
1001
DBPROPERTIES
1002
{
1000
PbHidd
1002
}
  0
ELLIPSE
  5
44D
330
1F
100
AcDbEntity
  8
THICK
100
AcDbEllipse
 10
88.29494905443707
 20
42.52060643352067
 30
0.0
 11
-79.28526037541288
 21
-38.1817690423451
 31
0.0
210
0.0
220
0.0
230
1.0
 40
0.7071067811865476
 41
-3.141592653589793
 42
-2.753106425406945
1001
DBPROPERTIES
1002
{
1000
PbThick
1002
}
  0
LINE
  5
44E
330
1F
100
AcDbEntity
  8
THICK
100
AcDbLine
 10
66.09119216916767
 20
-7.23652207772313
 30
0.0
 11
171.2852843237523
 21
-57.89532690787125
 31
0.0
1001
DBPROPERTIES
1002
{
1000
PbThick
1002
}
  0
LINE
  5
44F
330
1F
100
AcDbEntity
  8
THICK
100
AcDbLine
 10
150.8318087119789
 20
-100.3674066499891
 30
0.0
 11
44.84669330479552
 21
-49.32766509850279
 31
0.0
1001
DBPROPERTIES
1002
{
1000
PbThick
1002
}
  0
ELLIPSE
  5
450
330
1F
100
AcDbEntity
  8
THICK
100
AcDbEllipse
 10
87.68134478608387
 20
-43.79476882578425
 30
0.0
 11
79.2852603754129
 21
-38.18176904234514
 31
0.0
210
0.0
220
0.0
230
1.0
 40
0.7071067811865476
 41
0.0
 42
0.3884862281828486
1001
DBPROPERTIES
1002
{
1000
PbThick
1002
}
  0
ELLIPSE
  5
451
330
1F
100
AcDbEntity
  8
THICK
100
AcDbEllipse
 10
87.68134478608387
 20
-43.79476882578425
 30
0.0
 11
79.2852603754129
 21
-38.18176904234514
 31
0.0
210
0.0
220
0.0
230
1.0
 40
0.7071067811865476
 41
-0.3884862281828486
 42
0.0
1001
DBPROPERTIES
1002
{
1000
PbThick
1002
}
  0
LINE
  5
452
330
1F
100
AcDbEntity
  8
HIDDEN
100
AcDbLine
 10
45.95854252478733
 20
-48.29344482889739
 30
0.0
 11
151.4454129803321
 21
-99.09324425772554
 31
0.0
1001
DBPROPERTIES
1002
{
1000
PbHidd
1002
}
  0
LINE
  5
453
330
1F
100
AcDbEntity
  8
HIDDEN
100
AcDbLine
 10
151.4454129803322
 20
-99.09324425772562
 30
0.0
 11
150.831808711979
 21
-100.3674066499891
 31
0.0
1001
DBPROPERTIES
1002
{
1000
PbHidd
1002
}
  0
LINE
  5
454
330
1F
100
AcDbEntity
  8
THICK
100
AcDbLine
 10
66.39777268856886
 20
-5.81450484059317
 30
0.0
 11
171.8988885921055
 21
-56.62116451560771
 31
0.0
1001
DBPROPERTIES
1002
{
1000
PbThick
1002
}
  0
LINE
  5
455
330
1F
100
AcDbEntity
  8
THICK
100
AcDbLine
 10
171.8988885921056
 20
-56.62116451560778
 30
0.0
 11
171.2852843237524
 21
-57.89532690787131
 31
0.0
1001
DBPROPERTIES
1002
{
1000
PbThick
1002
}
  0
ELLIPSE
  5
456
330
1F
100
AcDbEntity
  8
HIDDEN
100
AcDbEllipse
 10
88.29494905443707
 20
-42.52060643352071
 30
0.0
 11
-79.2852603754129
 21
38.18176904234514
 31
0.0
210
0.0
220
0.0
230
1.0
 40
0.7071067811865476
 41
2.753106425406945
 42
3.141592653589793
1001
DBPROPERTIES
1002
{
1000
PbHidd
1002
}
  0
ELLIPSE
  5
457
330
1F
100
AcDbEntity
  8
THICK
100
AcDbEllipse
 10
88.29494905443707
 20
-42.52060643352071
 30
0.0
 11
-79.2852603754129
 21
38.18176904234514
 31
0.0
210
0.0
220
0.0
230
1.0
 40
0.7071067811865476
 41
3.141592653589793
 42
3.530078881772641
1001
DBPROPERTIES
1002
{
1000
PbThick
1002
}
  0
LINE
  5
458
330
1F
100
AcDbEntity
  8
THICK
100
AcDbLine
 10
35.54944352622294
 20
-56.18407246808577
 30
0.0
 11
61.53023871998094
 21
-170.0133736701325
 31
0.0
1001
DBPROPERTIES
1002
{
1000
PbThick
1002
}
  0
LINE
  5
459
330
1F
100
AcDbEntity
  8
THICK
100
AcDbLine
 10
15.57169619519357
 20
-180.5031110938974
 30
0.0
 11
-10.60446560802258
 21
-65.8178528486968
 31
0.0
1001
DBPROPERTIES
1002
{
1000
PbThick
1002
}
  0
ELLIPSE
  5
45A
330
1F
100
AcDbEntity
  8
THICK
100
AcDbEllipse
 10
20.42829525197518
 20
-95.85762751653166
 30
0.0
 11
19.58184218815565
 21
-85.79365627200046
 31
0.0
210
0.0
220
0.0
230
1.0
 40
0.7071067811865476
 41
0.0
 42
0.3884862281828484
1001
DBPROPERTIES
1002
{
1000
PbThick
1002
}
  0
ELLIPSE
  5
45B
330
1F
100
AcDbEntity
  8
THICK
100
AcDbEllipse
 10
20.42829525197518
 20
-95.85762751653166
 30
0.0
 11
19.58184218815565
 21
-85.79365627200046
 31
0.0
210
0.0
220
0.0
230
1.0
 40
0.7071067811865476
 41
-0.3884862281828486
 42
0.0
1001
DBPROPERTIES
1002
{
1000
PbThick
1002
}
  0
LINE
  5
45C
330
1F
100
AcDbEntity
  8
HIDDEN
100
AcDbLine
 10
-9.102652991569029
 20
-66.04230578166936
 30
0.0
 11
16.95045247093719
 21
-180.1884189711844
 31
0.0
1001
DBPROPERTIES
1002
{
1000
PbHidd
1002
}
  0
LINE
  5
45D
330
1F
100
AcDbEntity
  8
HIDDEN
100
AcDbLine
 10
16.95045247093722
 20
-180.1884189711845
 30
0.0
 11
15.5716961951936
 21
-180.5031110938975
 31
0.0
1001
DBPROPERTIES
1002
{
1000
PbHidd
1002
}
  0
LINE
  5
45E
330
1F
100
AcDbEntity
  8
THICK
100
AcDbLine
 10
36.85237119811853
 20
-55.53715352464712
 30
0.0
 11
62.90899499572456
 21
-169.6986815474195
 31
0.0
1001
DBPROPERTIES
1002
{
1000
PbThick
1002
}
  0
LINE
  5
45F
330
1F
100
AcDbEntity
  8
THICK
100
AcDbLine
 10
62.90899499572459
 20
-169.6986815474196
 30
0.0
 11
61.53023871998097
 21
-170.0133736701326
 31
0.0
1001
DBPROPERTIES
1002
{
1000
PbThick
1002
}
  0
ELLIPSE
  5
460
330
1F
100
AcDbEntity
  8
HIDDEN
100
AcDbEllipse
 10
21.80705152771879
 20
-95.54293539381871
 30
0.0
 11
-19.58184218815565
 21
85.79365627200046
 31
0.0
210
0.0
220
0.0
230
1.0
 40
0.7071067811865476
 41
2.753106425406945
 42
3.141592653589793
1001
DBPROPERTIES
1002
{
1000
PbHidd
1002
}
  0
ELLIPSE
  5
461
330
1F
100
AcDbEntity
  8
THICK
100
AcDbEllipse
 10
21.80705152771879
 20
-95.54293539381871
 30
0.0
 11
-19.58184218815565
 21
85.79365627200046
 31
0.0
210
0.0
220
0.0
230
1.0
 40
0.7071067811865476
 41
3.141592653589793
 42
3.530078881772642
1001
DBPROPERTIES
1002
{
1000
PbThick
1002
}
  0
LINE
  5
462
330
1F
100
AcDbEntity
  8
THICK
100
AcDbLine
 10
-21.76176116846176
 20
-62.82387034376394
 30
0.0
 11
-94.55833162806937
 21
-154.1078824179803
 31
0.0
1001
DBPROPERTIES
1002
{
1000
PbThick
1002
}
  0
LINE
  5
463
330
1F
100
AcDbEntity
  8
THICK
100
AcDbLine
 10
-131.4142211612877
 20
-124.7162912916491
 30
0.0
 11
-58.07024562632304
 21
-32.74585496429975
 31
0.0
1001
DBPROPERTIES
1002
{
1000
PbThick
1002
}
  0
ELLIPSE
  5
464
330
1F
100
AcDbEntity
  8
THICK
100
AcDbEllipse
 10
-62.20767726815246
 20
-75.73773754807698
 30
0.0
 11
-54.86710256356856
 21
-68.8011704571866
 31
0.0
210
0.0
220
0.0
230
1.0
 40
0.7071067811865476
 41
0.0
 42
0.3884862281828484
1001
DBPROPERTIES
1002
{
1000
PbThick
1002
}
  0
ELLIPSE
  5
465
330
1F
100
AcDbEntity
  8
THICK
100
AcDbEllipse
 10
-62.20767726815246
 20
-75.73773754807698
 30
0.0
 11
-54.86710256356856
 21
-68.8011704571866
 31
0.0
210
0.0
220
0.0
230
1.0
 40
0.7071067811865476
 41
-0.3884862281828487
 42
0.0
1001
DBPROPERTIES
1002
{
1000
PbThick
1002
}
  0
LINE
  5
466
330
1F
100
AcDbEntity
  8
HIDDEN
100
AcDbLine
 10
-57.30936514499171
 20
-34.05996346331651
 30
0.0
 11
-130.3085444752912
 21
-125.598039025439
 31
0.0
1001
DBPROPERTIES
1002
{
1000
PbHidd
1002
}
  0
LINE
  5
467
330
1F
100
AcDbEntity
  8
HIDDEN
100
AcDbLine
 10
-130.3085444752912
 20
-125.598039025439
 30
0.0
 11
-131.4142211612877
 21
-124.7162912916491
 31
0.0
1001
DBPROPERTIES
1002
{
1000
PbHidd
1002
}
  0
LINE
  5
468
330
1F
100
AcDbEntity
  8
THICK
100
AcDbLine
 10
-20.44361745589002
 20
-63.43919285316746
 30
0.0
 11
-93.45265494207283
 21
-154.9896301517702
 31
0.0
1001
DBPROPERTIES
1002
{
1000
PbThick
1002
}
  0
LINE
  5
469
330
1F
100
AcDbEntity
  8
THICK
100
AcDbLine
 10
-93.45265494207283
 20
-154.9896301517702
 30
0.0
 11
-94.55833162806938
 21
-154.1078824179803
 31
0.0
1001
DBPROPERTIES
1002
{
1000
PbThick
1002
}
  0
ELLIPSE
  5
46A
330
1F
100
AcDbEntity
  8
HIDDEN
100
AcDbEllipse
 10
-61.1020005821559
 20
-76.61948528186691
 30
0.0
 11
54.86710256356856
 21
68.8011704571866
 31
0.0
210
0.0
220
0.0
230
1.0
 40
0.7071067811865476
 41
2.753106425406945
 42
3.141592653589793
1001
DBPROPERTIES
1002
{
1000
PbHidd
1002
}
  0
ELLIPSE
  5
46B
330
1F
100
AcDbEntity
  8
THICK
100
AcDbEllipse
 10
-61.1020005821559
 20
-76.61948528186691
 30
0.0
 11
54.86710256356856
 21
68.8011704571866
 31
0.0
210
0.0
220
0.0
230
1.0
 40
0.7071067811865476
 41
-3.141592653589793
 42
-2.753106425406945
1001
DBPROPERTIES
1002
{
1000
PbThick
1002
}
  0
LINE
  5
46C
330
1F
100
AcDbEntity
  8
THICK
100
AcDbLine
 10
-62.68591584426555
 20
-22.15601247717849
 30
0.0
 11
-179.4425496217357
 21
-22.15601247717848
 31
0.0
1001
DBPROPERTIES
1002
{
1000
PbThick
1002
}
  0
LINE
  5
46D
330
1F
100
AcDbEntity
  8
THICK
100
AcDbLine
 10
-179.4425496217357
 20
24.9844396019247
 30
0.0
 11
-61.80794627086571
 21
24.98443960192469
 31
0.0
1001
DBPROPERTIES
1002
{
1000
PbThick
1002
}
  0
ELLIPSE
  5
46E
330
1F
100
AcDbEntity
  8
THICK
100
AcDbEllipse
 10
-98.0
 20
1.414213562373105
 30
0.0
 11
-87.99999999999999
 21
5.388267956818459E-15
 31
0.0
210
0.0
220
0.0
230
1.0
 40
0.7071067811865476
 41
0.0
 42
0.3884862281828484
1001
DBPROPERTIES
1002
{
1000
PbThick
1002
}
  0
ELLIPSE
  5
46F
330
1F
100
AcDbEntity
  8
THICK
100
AcDbEllipse
 10
-98.0
 20
1.414213562373105
 30
0.0
 11
-87.99999999999999
 21
5.388267956818459E-15
 31
0.0
210
0.0
220
0.0
230
1.0
 40
0.7071067811865476
 41
-0.3884862281828484
 42
0.0
1001
DBPROPERTIES
1002
{
1000
PbThick
1002
}
  0
LINE
  5
470
330
1F
100
AcDbEntity
  8
HIDDEN
100
AcDbLine
 10
-62.36095644623236
 20
23.57022603955159
 30
0.0
 11
-179.4425496217357
 21
23.57022603955161
 31
0.0
1001
DBPROPERTIES
1002
{
1000
PbHidd
1002
}
  0
LINE
  5
471
330
1F
100
AcDbEntity
  8
HIDDEN
100
AcDbLine
 10
-179.4425496217357
 20
23.5702260395516
 30
0.0
 11
-179.4425496217357
 21
24.9844396019247
 31
0.0
1001
DBPROPERTIES
1002
{
1000
PbHidd
1002
}
  0
LINE
  5
472
330
1F
100
AcDbEntity
  8
THICK
100
AcDbLine
 10
-62.34514519181579
 20
-23.57022603955159
 30
0.0
 11
-179.4425496217357
 21
-23.57022603955158
 31
0.0
1001
DBPROPERTIES
1002
{
1000
PbThick
1002
}
  0
LINE
  5
473
330
1F
100
AcDbEntity
  8
THICK
100
AcDbLine
 10
-179.4425496217357
 20
-23.57022603955157
 30
0.0
 11
-179.4425496217357
 21
-22.15601247717848
 31
0.0
1001
DBPROPERTIES
1002
{
1000
PbThick
1002
}
  0
ELLIPSE
  5
474
330
1F
100
AcDbEntity
  8
HIDDEN
100
AcDbEllipse
 10
-98.0
 20
0.0000000000000098
 30
0.0
 11
87.99999999999999
 21
-5.388267956818459E-15
 31
0.0
210
0.0
220
0.0
230
1.0
 40
0.7071067811865476
 41
2.753106425406945
 42
3.141592653589793
1001
DBPROPERTIES
1002
{
1000
PbHidd
1002
}
  0
ELLIPSE
  5
475
330
1F
100
AcDbEntity
  8
THICK
100
AcDbEllipse
 10
-98.0
 20
0.0000000000000098
 30
0.0
 11
87.99999999999999
 21
-5.388267956818459E-15
 31
0.0
210
0.0
220
0.0
230
1.0
 40
0.7071067811865476
 41
3.141592653589793
 42
3.530078881772642
1001
DBPROPERTIES
1002
{
1000
PbThick
1002
}
  0
ARC
  5
476
330
1F
100
AcDbEntity
  8
HIDDEN
100
AcDbCircle
 10
0.0
 20
0.0
 30
0.0
 40
232.5
100
AcDbArc
 50
89.99998127603165
 51
179.9999801521572
1001
DBPROPERTIES
1002
{
1000
PbHidd
1002
}
  0
ARC
  5
477
330
1F
100
AcDbEntity
  8
HIDDEN
100
AcDbCircle
 10
0.0
 20
0.0
 30
0.0
 40
232.5
100
AcDbArc
 50
0.0
 51
89.99998127603165
1001
DBPROPERTIES
1002
{
1000
PbHidd
1002
}
  0
ARC
  5
478
330
1F
100
AcDbEntity
  8
THICK
100
AcDbCircle
 10
0.0000000000000007
 20
0.0000000000000013
 30
0.0
 40
243.5
100
AcDbArc
 50
180.0000198478428
 51
270.0000187239684
1001
DBPROPERTIES
1002
{
1000
PbThick
1002
}
  0
ARC
  5
479
330
1F
100
AcDbEntity
  8
THICK
100
AcDbCircle
 10
0.0000000000000007
 20
0.0000000000000013
 30
0.0
 40
243.5
100
AcDbArc
 50
270.0000187239684
 51
0.0
1001
DBPROPERTIES
1002
{
1000
PbThick
1002
}
  0
ARC
  5
47A
330
1F
100
AcDbEntity
  8
THICK
100
AcDbCircle
 10
0.0000000000000007
 20
0.0000000000000013
 30
0.0
 40
243.5
100
AcDbArc
 50
0.0
 51
89.99998127603165
1001
DBPROPERTIES
1002
{
1000
PbThick
1002
}
  0
ARC
  5
47B
330
1F
100
AcDbEntity
  8
HIDDEN
100
AcDbCircle
 10
0.0
 20
0.0
 30
0.0
 40
202.0
100
AcDbArc
 50
270.0000187239684
 51
89.99998127603165
1001
DBPROPERTIES
1002
{
1000
PbHidd
1002
}
  0
ARC
  5
47C
330
1F
100
AcDbEntity
  8
HIDDEN
100
AcDbCircle
 10
0.0
 20
0.0
 30
0.0
 40
202.0
100
AcDbArc
 50
89.99998127603165
 51
270.0000187239684
1001
DBPROPERTIES
1002
{
1000
PbHidd
1002
}
  0
ARC
  5
47D
330
1F
100
AcDbEntity
  8
THICK
100
AcDbCircle
 10
0.0000000000000007
 20
0.0000000000000013
 30
0.0
 40
243.5
100
AcDbArc
 50
89.99998127603165
 51
180.0000198478428
1001
DBPROPERTIES
1002
{
1000
PbThick
1002
}
  0
ARC
  5
47E
330
1F
100
AcDbEntity
  8
HIDDEN
100
AcDbCircle
 10
0.0
 20
0.0
 30
0.0
 40
232.5
100
AcDbArc
 50
179.9999801521572
 51
0.0
1001
DBPROPERTIES
1002
{
1000
PbHidd
1002
}
  0
LINE
  5
47F
330
1F
100
AcDbEntity
  8
THICK
100
AcDbLine
 10
-114.8634269543643
 20
146.302403078384
 30
0.0
 11
-115.9691028268063
 21
145.4206559933822
 31
0.0
1001
DBPROPERTIES
1002
{
1000
PbThick
1002
}
  0
LINE
  5
480
330
1F
100
AcDbEntity
  8
THICK
100
AcDbLine
 10
42.76765137142507
 20
181.0218992281743
 30
0.0
 11
41.38889322339431
 21
181.3365917782245
 31
0.0
1001
DBPROPERTIES
1002
{
1000
PbThick
1002
}
  0
LINE
  5
481
330
1F
100
AcDbEntity
  8
THICK
100
AcDbLine
 10
168.1938139731705
 20
79.42821251262657
 30
0.0
 11
167.5802096365772
 21
80.70237504659211
 31
0.0
1001
DBPROPERTIES
1002
{
1000
PbThick
1002
}
  0
LINE
  5
482
330
1F
100
AcDbEntity
  8
THICK
100
AcDbLine
 10
166.9666038637115
 20
-81.97654056300813
 30
0.0
 11
167.5802096365772
 21
-80.70237504659217
 31
0.0
1001
DBPROPERTIES
1002
{
1000
PbThick
1002
}
  0
LINE
  5
483
330
1F
100
AcDbEntity
  8
THICK
100
AcDbLine
 10
40.01013507536349
 20
-181.6512843282748
 30
0.0
 11
41.38889322339426
 21
-181.3365917782246
 31
0.0
1001
DBPROPERTIES
1002
{
1000
PbThick
1002
}
  0
LINE
  5
484
330
1F
100
AcDbEntity
  8
THICK
100
AcDbLine
 10
-117.0747810310219
 20
-144.538907048853
 30
0.0
 11
-115.9691028268063
 21
-145.4206559933822
 31
0.0
1001
DBPROPERTIES
1002
{
1000
PbThick
1002
}
  0
LINE
  5
485
330
1F
100
AcDbEntity
  8
THICK
100
AcDbLine
 10
-186.0
 20
1.414214313030257
 30
0.0
 11
-186.0
 21
0.0000000000000152
 31
0.0
1001
DBPROPERTIES
1002
{
1000
PbThick
1002
}
  0
ENDSEC
  0
SECTION
  2
OBJECTS
  0
DICTIONARY
  5
C
330
0
100
AcDbDictionary
  3
ACAD_GROUP
350
D
  3
ACAD_LAYOUT
350
1A
  3
ACAD_MATERIAL
350
43
  3
ACAD_MLEADERSTYLE
350
6B
  3
ACAD_MLINESTYLE
350
17
  3
ACAD_PLOTSETTINGS
350
19
  3
ACAD_SCALELIST
350
47
  3
ACAD_VISUALSTYLE
350
2A
  3
ACDBVARIABLEDICTIONARY
350
486
1001
ACAD
1000
TREAT_AS_HARD
1070
     0
  0
DICTIONARY
  5
D
102
{ACAD_REACTORS
330
C
102
}
330
C
100
AcDbDictionary
1001
ACAD
1000
TREAT_AS_HARD
1070
     0
  0
DICTIONARY
  5
1A
102
{ACAD_REACTORS
330
C
102
}
330
C
100
AcDbDictionary
1001
ACAD
1000
TREAT_AS_HARD
1070
     0
  0
DICTIONARY
  5
43
102
{ACAD_REACTORS
330
C
102
}
330
C
100
AcDbDictionary
  3
BYBLOCK
350
45
  3
BYLAYER
350
44
  3
GLOBAL
350
46
1001
ACAD
1000
TREAT_AS_HARD
1070
     0
  0
DICTIONARY
  5
6B
102
{ACAD_REACTORS
330
C
102
}
330
C
100
AcDbDictionary
  3
STANDARD
350
6C
1001
ACAD
1000
TREAT_AS_HARD
1070
     0
  0
DICTIONARY
  5
17
102
{ACAD_REACTORS
330
C
102
}
330
C
100
AcDbDictionary
  3
STANDARD
350
18
1001
ACAD
1000
TREAT_AS_HARD
1070
     0
  0
DICTIONARY
  5
19
102
{ACAD_REACTORS
330
C
102
}
330
C
100
AcDbDictionary
1001
ACAD
1000
TREAT_AS_HARD
1070
     0
  0
DICTIONARY
  5
47
102
{ACAD_REACTORS
330
C
102
}
330
C
100
AcDbDictionary
  3
A0
350
48
  3
A1
350
49
  3
A2
350
4A
  3
A3
350
4B
  3
A4
350
4C
  3
A5
350
4D
  3
A6
350
4E
  3
A7
350
4F
  3
A8
350
50
  3
A9
350
51
  3
B0
350
52
  3
B1
350
53
  3
B2
350
54
  3
B3
350
55
  3
B4
350
56
  3
B5
350
57
  3
B6
350
58
  3
B7
350
59
  3
B8
350
5A
  3
B9
350
5B
  3
C0
350
5C
  3
C1
350
5D
  3
C2
350
5E
  3
C3
350
5F
  3
C4
350
60
  3
C5
350
61
  3
C6
350
62
  3
C7
350
63
  3
C8
350
64
  3
C9
350
65
  3
D0
350
66
  3
D1
350
67
  3
D2
350
68
1001
ACAD
1000
TREAT_AS_HARD
1070
     0
  0
DICTIONARY
  5
2A
102
{ACAD_REACTORS
330
C
102
}
330
C
100
AcDbDictionary
  3
2DWIREFRAME
350
2F
  3
BASIC
350
32
  3
BRIGHTEN
350
36
  3
COLORCHANGE
350
3A
  3
CONCEPTUAL
350
34
  3
DIM
350
35
  3
EDGECOLOROFF
350
3D
  3
FACEPATTERN
350
39
  3
FLAT
350
2B
  3
FLATWITHEDGES
350
2C
  3
GOURAUD
350
2D
  3
GOURAUDWITHEDGES
350
2E
  3
HIDDEN
350
31
  3
JITTEROFF
350
3B
  3
LINEPATTERN
350
38
  3
OVERHANGOFF
350
3C
  3
REALISTIC
350
33
  3
SHADED
350
42
  3
SHADED_WITH_EDGES
350
41
  3
SHADES_OF_GRAY
350
3E
  3
SKETCHY
350
3F
  3
THICKEN
350
37
  3
WIREFRAME
350
30
  3
X-RAY
350
40
1001
ACAD
1000
TREAT_AS_HARD
1070
     0
  0
DICTIONARY
  5
486
102
{ACAD_REACTORS
330
C
102
}
330
C
100
AcDbDictionary
  3
CANNOSCALE
350
491
  3
CENTEREXE
350
48D
  3
CENTERLTYPEFILE
350
48E
  3
CMLEADERSTYLE
350
488
  3
CTABLESTYLE
350
487
  3
DIMASSOC
350
48F
  3
HIDETEXT
350
490
  3
MSLTSCALE
350
492
  3
PSOLHEIGHT
350
48A
  3
PSOLWIDTH
350
489
1001
ACAD
1000
TREAT_AS_HARD
1070
     0
  0
MATERIAL
  5
45
102
{ACAD_REACTORS
330
43
102
}
102
{ACAD_XDICTIONARY
360
495
102
}
330
43
100
AcDbMaterial
  1
BYBLOCK
  0
MATERIAL
  5
44
102
{ACAD_REACTORS
330
43
102
}
102
{ACAD_XDICTIONARY
360
493
102
}
330
43
100
AcDbMaterial
  1
BYLAYER
  0
MATERIAL
  5
46
102
{ACAD_REACTORS
330
43
102
}
102
{ACAD_XDICTIONARY
360
497
102
}
330
43
100
AcDbMaterial
  1
GLOBAL
  0
ACAD_PROXY_OBJECT
  5
6C
102
{ACAD_REACTORS
330
6B
102
}
330
6B
100
AcDbZombieObject
 90
      499
 91
      505
 93
      610
310
40901902A4063FBFFFFFE0000000000000020400000000000020404214DD185B99185C990000000000000104090141901A00000000000004100000000000000041025764000000000000039000
340
14
340
0
340
11
340
0
 94
        0
1001
ACAD_MLEADERVER
1070
     2
  0
MLINESTYLE
  5
18
102
{ACAD_REACTORS
330
17
102
}
330
17
100
AcDbMlineStyle
  2
Standard
 70
     0
  3

 62
   256
 51
90.0
 52
90.0
 71
     2
 49
0.5
 62
   256
  6
BYLAYER
 49
-0.5
 62
   256
  6
BYLAYER
  0
ACAD_PROXY_OBJECT
  5
48
102
{ACAD_REACTORS
330
47
102
}
330
47
100
AcDbZombieObject
 90
      499
 91
      503
 93
       41
310
903313A31580
  0
ACAD_PROXY_OBJECT
  5
49
102
{ACAD_REACTORS
330
47
102
}
330
47
100
AcDbZombieObject
 90
      499
 91
      503
 93
      105
310
903313A324000000000000004000
  0
ACAD_PROXY_OBJECT
  5
4A
102
{ACAD_REACTORS
330
47
102
}
330
47
100
AcDbZombieObject
 90
      499
 91
      503
 93
      105
310
903313A344000000000000104000
  0
ACAD_PROXY_OBJECT
  5
4B
102
{ACAD_REACTORS
330
47
102
}
330
47
100
AcDbZombieObject
 90
      499
 91
      503
 93
      105
310
903313A354000000000000144000
  0
ACAD_PROXY_OBJECT
  5
4C
102
{ACAD_REACTORS
330
47
102
}
330
47
100
AcDbZombieObject
 90
      499
 91
      503
 93
      105
310
903313A384000000000000204000
  0
ACAD_PROXY_OBJECT
  5
4D
102
{ACAD_REACTORS
330
47
102
}
330
47
100
AcDbZombieObject
 90
      499
 91
      503
 93
      113
310
904313A31304000000000000244000
  0
ACAD_PROXY_OBJECT
  5
4E
102
{ACAD_REACTORS
330
47
102
}
330
47
100
AcDbZombieObject
 90
      499
 91
      503
 93
      113
310
904313A31364000000000000304000
  0
ACAD_PROXY_OBJECT
  5
4F
102
{ACAD_REACTORS
330
47
102
}
330
47
100
AcDbZombieObject
 90
      499
 91
      503
 93
      113
310
904313A32304000000000000344000
  0
ACAD_PROXY_OBJECT
  5
50
102
{ACAD_REACTORS
330
47
102
}
330
47
100
AcDbZombieObject
 90
      499
 91
      503
 93
      113
310
904313A333040000000000003E4000
  0
ACAD_PROXY_OBJECT
  5
51
102
{ACAD_REACTORS
330
47
102
}
330
47
100
AcDbZombieObject
 90
      499
 91
      503
 93
      113
310
904313A34304000000000000444000
  0
ACAD_PROXY_OBJECT
  5
52
102
{ACAD_REACTORS
330
47
102
}
330
47
100
AcDbZombieObject
 90
      499
 91
      503
 93
      113
310
904313A35304000000000000494000
  0
ACAD_PROXY_OBJECT
  5
53
102
{ACAD_REACTORS
330
47
102
}
330
47
100
AcDbZombieObject
 90
      499
 91
      503
 93
      121
310
905313A3130304000000000000594000
  0
ACAD_PROXY_OBJECT
  5
54
102
{ACAD_REACTORS
330
47
102
}
330
47
100
AcDbZombieObject
 90
      499
 91
      503
 93
      105
310
903323A310000000000000010100
  0
ACAD_PROXY_OBJECT
  5
55
102
{ACAD_REACTORS
330
47
102
}
330
47
100
AcDbZombieObject
 90
      499
 91
      503
 93
      105
310
903343A310000000000000410100
  0
ACAD_PROXY_OBJECT
  5
56
102
{ACAD_REACTORS
330
47
102
}
330
47
100
AcDbZombieObject
 90
      499
 91
      503
 93
      105
310
903383A310000000000000810100
  0
ACAD_PROXY_OBJECT
  5
57
102
{ACAD_REACTORS
330
47
102
}
330
47
100
AcDbZombieObject
 90
      499
 91
      503
 93
      113
310
90431303A310000000000000910100
  0
ACAD_PROXY_OBJECT
  5
58
102
{ACAD_REACTORS
330
47
102
}
330
47
100
AcDbZombieObject
 90
      499
 91
      503
 93
      121
310
9053130303A310000000000001650100
  0
ACAD_PROXY_OBJECT
  5
59
102
{ACAD_REACTORS
330
47
102
}
330
47
100
AcDbZombieObject
 90
      499
 91
      503
 93
      257
310
90E312F31323822203D2031272D3022000000000000200FC000000000000284000
  0
ACAD_PROXY_OBJECT
  5
5A
102
{ACAD_REACTORS
330
47
102
}
330
47
100
AcDbZombieObject
 90
      499
 91
      503
 93
      249
310
90D312F363422203D2031272D3022000000000000240FC000000000000284000
  0
ACAD_PROXY_OBJECT
  5
5B
102
{ACAD_REACTORS
330
47
102
}
330
47
100
AcDbZombieObject
 90
      499
 91
      503
 93
      249
310
90D312F333222203D2031272D3022000000000000280FC000000000000284000
  0
ACAD_PROXY_OBJECT
  5
5C
102
{ACAD_REACTORS
330
47
102
}
330
47
100
AcDbZombieObject
 90
      499
 91
      503
 93
      249
310
90D312F313622203D2031272D30220000000000002C0FC000000000000284000
  0
ACAD_PROXY_OBJECT
  5
5D
102
{ACAD_REACTORS
330
47
102
}
330
47
100
AcDbZombieObject
 90
      499
 91
      503
 93
      249
310
90D332F333222203D2031272D30220000000000002E0FC000000000000284000
  0
ACAD_PROXY_OBJECT
  5
5E
102
{ACAD_REACTORS
330
47
102
}
330
47
100
AcDbZombieObject
 90
      499
 91
      503
 93
      241
310
90C312F3822203D2031272D3022000000000000300FC000000000000284000
  0
ACAD_PROXY_OBJECT
  5
5F
102
{ACAD_REACTORS
330
47
102
}
330
47
100
AcDbZombieObject
 90
      499
 91
      503
 93
      249
310
90D332F313622203D2031272D3022000000000000320FC000000000000284000
  0
ACAD_PROXY_OBJECT
  5
60
102
{ACAD_REACTORS
330
47
102
}
330
47
100
AcDbZombieObject
 90
      499
 91
      503
 93
      241
310
90C312F3422203D2031272D3022000000000000340FC000000000000284000
  0
ACAD_PROXY_OBJECT
  5
61
102
{ACAD_REACTORS
330
47
102
}
330
47
100
AcDbZombieObject
 90
      499
 91
      503
 93
      241
310
90C332F3822203D2031272D3022000000000000360FC000000000000284000
  0
ACAD_PROXY_OBJECT
  5
62
102
{ACAD_REACTORS
330
47
102
}
330
47
100
AcDbZombieObject
 90
      499
 91
      503
 93
      241
310
90C312F3222203D2031272D3022000000000000380FC000000000000284000
  0
ACAD_PROXY_OBJECT
  5
63
102
{ACAD_REACTORS
330
47
102
}
330
47
100
AcDbZombieObject
 90
      499
 91
      503
 93
      241
310
90C332F3422203D2031272D30220000000000003A0FC000000000000284000
  0
ACAD_PROXY_OBJECT
  5
64
102
{ACAD_REACTORS
330
47
102
}
330
47
100
AcDbZombieObject
 90
      499
 91
      503
 93
      161
310
90A3122203D2031272D30224000000000000284000
  0
ACAD_PROXY_OBJECT
  5
65
102
{ACAD_REACTORS
330
47
102
}
330
47
100
AcDbZombieObject
 90
      499
 91
      503
 93
      257
310
90E312D312F3222203D2031272D30220000000000003E0FC000000000000284000
  0
ACAD_PROXY_OBJECT
  5
66
102
{ACAD_REACTORS
330
47
102
}
330
47
100
AcDbZombieObject
 90
      499
 91
      503
 93
      225
310
90A3322203D2031272D302200000000000002100000000000000284000
  0
ACAD_PROXY_OBJECT
  5
67
102
{ACAD_REACTORS
330
47
102
}
330
47
100
AcDbZombieObject
 90
      499
 91
      503
 93
      225
310
90A3622203D2031272D302200000000000006100000000000000284000
  0
ACAD_PROXY_OBJECT
  5
68
102
{ACAD_REACTORS
330
47
102
}
330
47
100
AcDbZombieObject
 90
      499
 91
      503
 93
      249
310
90D31272D3022203D2031272D30220000000000000A100000000000000284000
  0
ACAD_PROXY_OBJECT
  5
2F
102
{ACAD_REACTORS
330
2A
102
}
330
2A
100
AcDbZombieObject
 90
      499
 91
      501
 93
      436
310
42CC9915DA5C99599C985B595049028333333333333E33F0000000000000F90107901411070040501600405405064090741402480A0340
1001
ACAD
1000
AcDbSavedByObjectVersion
1070
     0
  0
ACAD_PROXY_OBJECT
  5
32
102
{ACAD_REACTORS
330
2A
102
}
330
2A
100
AcDbZombieObject
 90
      499
 91
      501
 93
      388
310
4150985CDA58D07406404333333333333E33F0000000000000F90107A41107004050150841D405064090741402480A0350
1001
ACAD
1000
AcDbSavedByObjectVersion
1070
     0
  0
ACAD_PROXY_OBJECT
  5
36
102
{ACAD_REACTORS
330
2A
102
}
330
2A
100
AcDbZombieObject
 90
      499
 91
      501
 93
      428
310
42109C9A59DA1D195B90C409028333333333333E33F0000000000000F9010790141107004050150841D405064090741402480A029950
1001
ACAD
1000
AcDbSavedByObjectVersion
1070
     0
  0
ACAD_PROXY_OBJECT
  5
3A
102
{ACAD_REACTORS
330
2A
102
}
330
2A
100
AcDbZombieObject
 90
      499
 91
      501
 93
      452
310
42D0DBDB1BDC90DA185B99D95104090240C333333333333E33F0000000000000F90108901411070040501508421405064090741402480A0350
1001
ACAD
1000
AcDbSavedByObjectVersion
1070
     0
  0
ACAD_PROXY_OBJECT
  5
34
102
{ACAD_REACTORS
330
2A
102
}
330
2A
100
AcDbZombieObject
 90
      499
 91
      501
 93
      500
310
4290DBDB98D95C1D1D585B10940D028333333333333E33F0000000000000F90107902409070040501000000000018199010841D405064090740C02480A0340
1001
ACAD
1000
AcDbSavedByObjectVersion
1070
     0
  0
ACAD_PROXY_OBJECT
  5
35
102
{ACAD_REACTORS
330
2A
102
}
330
2A
100
AcDbZombieObject
 90
      499
 91
      501
 93
      412
310
40D11A5B50B409028333333333333E33F0000000000000F9010790141107004050150841D405064090741402480A02677FFFFFD0
1001
ACAD
1000
AcDbSavedByObjectVersion
1070
     0
  0
ACAD_PROXY_OBJECT
  5
3D
102
{ACAD_REACTORS
330
2A
102
}
330
2A
100
AcDbZombieObject
 90
      499
 91
      501
 93
      452
310
43115919D950DBDB1BDC93D999916409028333333333333E33F0000000000000F9010790141107004050150841D405064090741402480A0350
1001
ACAD
1000
AcDbSavedByObjectVersion
1070
     0
  0
ACAD_PROXY_OBJECT
  5
39
102
{ACAD_REACTORS
330
2A
102
}
330
2A
100
AcDbZombieObject
 90
      499
 91
      501
 93
      444
310
42D19858D95C185D1D195C9B90F409028333333333333E33F0000000000000F9010790141107004050150841D405064090741402480A0350
1001
ACAD
1000
AcDbSavedByObjectVersion
1070
     0
  0
ACAD_PROXY_OBJECT
  5
2B
102
{ACAD_REACTORS
330
2A
102
}
330
2A
100
AcDbZombieObject
 90
      499
 91
      501
 93
      380
310
41119B185D240901404333333333333E33F0000000000000F9010740A907004050150841D405064090741402480A1B50
1001
ACAD
1000
AcDbSavedByObjectVersion
1070
     0
  0
ACAD_PROXY_OBJECT
  5
2C
102
{ACAD_REACTORS
330
2A
102
}
330
2A
100
AcDbZombieObject
 90
      499
 91
      501
 93
      468
310
43519B185D15DA5D1A115919D95CD0140901404333333333333E33F0000000000000F90107409019070040501600405405064090741402480A1B50
1001
ACAD
1000
AcDbSavedByObjectVersion
1070
     0
  0
ACAD_PROXY_OBJECT
  5
2D
102
{ACAD_REACTORS
330
2A
102
}
330
2A
100
AcDbZombieObject
 90
      499
 91
      501
 93
      404
310
41D1DBDD5C985D5910240902404333333333333E33F0000000000000F9010740A9070040501641D405064090741402480A1B50
1001
ACAD
1000
AcDbSavedByObjectVersion
1070
     0
  0
ACAD_PROXY_OBJECT
  5
2E
102
{ACAD_REACTORS
330
2A
102
}
330
2A
100
AcDbZombieObject
 90
      499
 91
      501
 93
      492
310
4411DBDD5C985D5915DA5D1A115919D95CD0340902404333333333333E33F0000000000000F90107409019070040501600405405064090741402480A1B50
1001
ACAD
1000
AcDbSavedByObjectVersion
1070
     0
  0
ACAD_PROXY_OBJECT
  5
31
102
{ACAD_REACTORS
330
2A
102
}
330
2A
100
AcDbZombieObject
 90
      499
 91
      501
 93
      476
310
41921A5919195B90640502408333333333333E33F0000000000000F901079024090700405020000000000001110200405405064090740C02480A0340
1001
ACAD
1000
AcDbSavedByObjectVersion
1070
     0
  0
ACAD_PROXY_OBJECT
  5
3B
102
{ACAD_REACTORS
330
2A
102
}
330
2A
100
AcDbZombieObject
 90
      499
 91
      501
 93
      428
310
42529A5D1D195C93D999914409028333333333333E33F0000000000000F9010790141107004050150A41D405064090741402480A0350
1001
ACAD
1000
AcDbSavedByObjectVersion
1070
     0
  0
ACAD_PROXY_OBJECT
  5
38
102
{ACAD_REACTORS
330
2A
102
}
330
2A
100
AcDbZombieObject
 90
      499
 91
      501
 93
      444
310
42D31A5B995C185D1D195C9B90E409028333333333333E33F0000000000000F9010790141107004050750841D405064090741402483A0350
1001
ACAD
1000
AcDbSavedByObjectVersion
1070
     0
  0
ACAD_PROXY_OBJECT
  5
3C
102
{ACAD_REACTORS
330
2A
102
}
330
2A
100
AcDbZombieObject
 90
      499
 91
      501
 93
      444
310
42D3DD995C9A185B99D3D999915409028333333333333E33F0000000000000F9010790141107004050150941D405064090741402480A0350
1001
ACAD
1000
AcDbSavedByObjectVersion
1070
     0
  0
ACAD_PROXY_OBJECT
  5
33
102
{ACAD_REACTORS
330
2A
102
}
330
2A
100
AcDbZombieObject
 90
      499
 91
      501
 93
      428
310
425499585B1A5CDD1A58D08409038333333333333E33F0000000000000F9010740A907004050150800405405064090740C02480A1B40
1001
ACAD
1000
AcDbSavedByObjectVersion
1070
     0
  0
ACAD_PROXY_OBJECT
  5
42
102
{ACAD_REACTORS
330
2A
102
}
330
2A
100
AcDbZombieObject
 90
      499
 91
      501
 93
      420
310
4194DA1859195911B40902404333333333333E33F0000000000000F9010740A41107004050150800405405064090840C02480A0B40
1001
ACAD
1000
AcDbSavedByObjectVersion
1070
     0
  0
ACAD_PROXY_OBJECT
  5
41
102
{ACAD_REACTORS
330
2A
102
}
330
2A
100
AcDbZombieObject
 90
      499
 91
      501
 93
      516
310
4454DA18591959081DDA5D1A08195919D95CD1A40902404333333333333E33F0000000000000F901074090142907004050250800405405064090740C02480A0B40
1001
ACAD
1000
AcDbSavedByObjectVersion
1070
     0
  0
ACAD_PROXY_OBJECT
  5
3E
102
{ACAD_REACTORS
330
2A
102
}
330
2A
100
AcDbZombieObject
 90
      499
 91
      501
 93
      532
310
4394DA1859195CC81BD98811DC985E5174090240C333333333333E33F0000000000000F901079024090741D01000000000000111010841D405064090740C02480A0340
1001
ACAD
1000
AcDbSavedByObjectVersion
1070
     0
  0
ACAD_PROXY_OBJECT
  5
3F
102
{ACAD_REACTORS
330
2A
102
}
330
2A
100
AcDbZombieObject
 90
      499
 91
      501
 93
      476
310
41D4DAD95D18DA1E51840502408333333333333E33F0000000000000F901079024090741D01000000000000111010B41D405064090741802480A0340
1001
ACAD
1000
AcDbSavedByObjectVersion
1070
     0
  0
ACAD_PROXY_OBJECT
  5
37
102
{ACAD_REACTORS
330
2A
102
}
330
2A
100
AcDbZombieObject
 90
      499
 91
      501
 93
      412
310
41D51A1A58DAD95B90D409028333333333333E33F0000000000000F9010790141107004050150C41D405064090741402480A0350
1001
ACAD
1000
AcDbSavedByObjectVersion
1070
     0
  0
ACAD_PROXY_OBJECT
  5
30
102
{ACAD_REACTORS
330
2A
102
}
330
2A
100
AcDbZombieObject
 90
      499
 91
      501
 93
      420
310
4255DA5C99599C985B595059028333333333333E33F0000000000000F90107901411070040501600405405064090740C02480A0340
1001
ACAD
1000
AcDbSavedByObjectVersion
1070
     0
  0
ACAD_PROXY_OBJECT
  5
40
102
{ACAD_REACTORS
330
2A
102
}
330
2A
100
AcDbZombieObject
 90
      499
 91
      501
 93
      404
310
41560B54985E51940902404000000000000E03F0000000000000F9010740501907004050150841D405064090740C02480A1B40
1001
ACAD
1000
AcDbSavedByObjectVersion
1070
     0
  0
DICTIONARYVAR
  5
491
102
{ACAD_REACTORS
330
486
102
}
330
486
100
DictionaryVariables
280
     0
  1
1:1
  0
DICTIONARYVAR
  5
48D
102
{ACAD_REACTORS
330
486
102
}
330
486
100
DictionaryVariables
280
     0
  1
3.500000
  0
DICTIONARYVAR
  5
48E
102
{ACAD_REACTORS
330
486
102
}
330
486
100
DictionaryVariables
280
     0
  1
acadiso.lin
  0
DICTIONARYVAR
  5
488
102
{ACAD_REACTORS
330
486
102
}
330
486
100
DictionaryVariables
280
     0
  1
Standard
  0
DICTIONARYVAR
  5
487
102
{ACAD_REACTORS
330
486
102
}
330
486
100
DictionaryVariables
280
     0
  1
Standard
  0
DICTIONARYVAR
  5
48F
102
{ACAD_REACTORS
330
486
102
}
330
486
100
DictionaryVariables
280
     0
  1
2
  0
DICTIONARYVAR
  5
490
102
{ACAD_REACTORS
330
486
102
}
330
486
100
DictionaryVariables
280
     0
  1
1
  0
DICTIONARYVAR
  5
492
102
{ACAD_REACTORS
330
486
102
}
330
486
100
DictionaryVariables
280
     0
  1
1
  0
DICTIONARYVAR
  5
48A
102
{ACAD_REACTORS
330
486
102
}
330
486
100
DictionaryVariables
280
     0
  1
80.000000
  0
DICTIONARYVAR
  5
489
102
{ACAD_REACTORS
330
486
102
}
330
486
100
DictionaryVariables
280
     0
  1
5.000000
  0
DICTIONARY
  5
495
330
45
100
AcDbDictionary
  3
ACAD_XREC_ROUNDTRIP
360
496
1001
ACAD
1000
TREAT_AS_HARD
1070
     1
  0
DICTIONARY
  5
493
330
44
100
AcDbDictionary
  3
ACAD_XREC_ROUNDTRIP
360
494
1001
ACAD
1000
TREAT_AS_HARD
1070
     1
  0
DICTIONARY
  5
497
330
46
100
AcDbDictionary
  3
ACAD_XREC_ROUNDTRIP
360
498
1001
ACAD
1000
TREAT_AS_HARD
1070
     1
  0
XRECORD
  5
496
102
{ACAD_REACTORS
330
495
102
}
330
495
100
AcDbXrecord
102
MATERIAL
148
0.0
149
0.0
149
0.0
 93
        0
 94
      127
282
     0
 72
     1
 77
     1
171
     1
175
     1
179
     1
273
     0
  0
XRECORD
  5
494
102
{ACAD_REACTORS
330
493
102
}
330
493
100
AcDbXrecord
102
MATERIAL
148
0.0
149
0.0
149
0.0
 93
        0
 94
      127
282
     0
 72
     1
 77
     1
171
     1
175
     1
179
     1
273
     0
  0
XRECORD
  5
498
102
{ACAD_REACTORS
330
497
102
}
330
497
100
AcDbXrecord
102
MATERIAL
148
0.0
149
0.0
149
0.0
 93
        0
 94
      127
282
     0
 72
     1
 77
     1
171
     1
175
     1
179
     1
273
     0
  0
ENDSEC
  0
EOF
