  0
SECTION
  2
HEADER
  9
$ACADVER
  1
AC1012
  9
$DWGCODEPAGE
  3
ansi_1252
  9
$INSBASE
 10
0.0
 20
0.0
 30
0.0
  9
$EXTMIN
 10
1.000000000000000E+20
 20
1.000000000000000E+20
 30
1.000000000000000E+20
  9
$EXTMAX
 10
-1.000000000000000E+20
 20
-1.000000000000000E+20
 30
-1.000000000000000E+20
  9
$LIMMIN
 10
0.0
 20
0.0
  9
$LIMMAX
 10
420.0
 20
297.0
  9
$ORTHOMODE
 70
     0
  9
$REGENMODE
 70
     1
  9
$FILLMODE
 70
     1
  9
$QTEXTMODE
 70
     0
  9
$MIRRTEXT
 70
     1
  9
$DRAGMODE
 70
     2
  9
$LTSCALE
 40
1.0
  9
$OSMODE
 70
    37
  9
$ATTMODE
 70
     1
  9
$TEXTSIZE
 40
2.5
  9
$TRACEWID
 40
1.0
  9
$TEXTSTYLE
  7
STANDARD
  9
$CLAYER
  8
0
  9
$CELTYPE
  6
BYLAYER
  9
$CECOLOR
 62
   256
  9
$CELTSCALE
 40
1.0
  9
$DELOBJ
 70
     1
  9
$DISPSILH
 70
     0
  9
$DIMSCALE
 40
1.0
  9
$DIMASZ
 40
2.5
  9
$DIMEXO
 40
0.625
  9
$DIMDLI
 40
3.75
  9
$DIMRND
 40
0.0
  9
$DIMDLE
 40
0.0
  9
$DIMEXE
 40
1.25
  9
$DIMTP
 40
0.0
  9
$DIMTM
 40
0.0
  9
$DIMTXT
 40
2.5
  9
$DIMCEN
 40
2.5
  9
$DIMTSZ
 40
0.0
  9
$DIMTOL
 70
     0
  9
$DIMLIM
 70
     0
  9
$DIMTIH
 70
     0
  9
$DIMTOH
 70
     0
  9
$DIMSE1
 70
     0
  9
$DIMSE2
 70
     0
  9
$DIMTAD
 70
     1
  9
$DIMZIN
 70
     8
  9
$DIMBLK
  1

  9
$DIMASO
 70
     1
  9
$DIMSHO
 70
     1
  9
$DIMPOST
  1

  9
$DIMAPOST
  1

  9
$DIMALT
 70
     0
  9
$DIMALTD
 70
     3
  9
$DIMALTF
 40
0.03937007874016
  9
$DIMLFAC
 40
1.0
  9
$DIMTOFL
 70
     1
  9
$DIMTVP
 40
0.0
  9
$DIMTIX
 70
     0
  9
$DIMSOXD
 70
     0
  9
$DIMSAH
 70
     0
  9
$DIMBLK1
  1

  9
$DIMBLK2
  1

  9
$DIMSTYLE
  2
ISO-25
  9
$DIMCLRD
 70
     0
  9
$DIMCLRE
 70
     0
  9
$DIMCLRT
 70
     0
  9
$DIMTFAC
 40
1.0
  9
$DIMGAP
 40
0.625
  9
$DIMJUST
 70
     0
  9
$DIMSD1
 70
     0
  9
$DIMSD2
 70
     0
  9
$DIMTOLJ
 70
     0
  9
$DIMTZIN
 70
     8
  9
$DIMALTZ
 70
     0
  9
$DIMALTTZ
 70
     0
  9
$DIMFIT
 70
     3
  9
$DIMUPT
 70
     0
  9
$DIMUNIT
 70
     2
  9
$DIMDEC
 70
     2
  9
$DIMTDEC
 70
     2
  9
$DIMALTU
 70
     2
  9
$DIMALTTD
 70
     3
  9
$DIMTXSTY
  7
STANDARD
  9
$DIMAUNIT
 70
     0
  9
$LUNITS
 70
     2
  9
$LUPREC
 70
     4
  9
$SKETCHINC
 40
1.0
  9
$FILLETRAD
 40
10.0
  9
$AUNITS
 70
     0
  9
$AUPREC
 70
     0
  9
$MENU
  1
.
  9
$ELEVATION
 40
0.0
  9
$PELEVATION
 40
0.0
  9
$THICKNESS
 40
0.0
  9
$LIMCHECK
 70
     0
  9
$CHAMFERA
 40
0.0
  9
$CHAMFERB
 40
0.0
  9
$CHAMFERC
 40
0.0
  9
$CHAMFERD
 40
0.0
  9
$SKPOLY
 70
     0
  9
$TDCREATE
 40
2458047.661369444
  9
$TDUPDATE
 40
2458047.661373958
  9
$TDINDWG
 40
0.0000000116
  9
$TDUSRTIMER
 40
0.0000000116
  9
$USRTIMER
 70
     1
  9
$ANGBASE
 50
0.0
  9
$ANGDIR
 70
     0
  9
$PDMODE
 70
     0
  9
$PDSIZE
 40
0.0
  9
$PLINEWID
 40
0.0
  9
$COORDS
 70
     1
  9
$SPLFRAME
 70
     0
  9
$SPLINETYPE
 70
     6
  9
$SPLINESEGS
 70
     8
  9
$ATTDIA
 70
     0
  9
$ATTREQ
 70
     1
  9
$HANDLING
 70
     1
  9
$HANDSEED
  5
60B
  9
$SURFTAB1
 70
     6
  9
$SURFTAB2
 70
     6
  9
$SURFTYPE
 70
     6
  9
$SURFU
 70
     6
  9
$SURFV
 70
     6
  9
$UCSNAME
  2

  9
$UCSORG
 10
0.0
 20
0.0
 30
0.0
  9
$UCSXDIR
 10
1.0
 20
0.0
 30
0.0
  9
$UCSYDIR
 10
0.0
 20
1.0
 30
0.0
  9
$PUCSNAME
  2

  9
$PUCSORG
 10
0.0
 20
0.0
 30
0.0
  9
$PUCSXDIR
 10
1.0
 20
0.0
 30
0.0
  9
$PUCSYDIR
 10
0.0
 20
1.0
 30
0.0
  9
$USERI1
 70
     0
  9
$USERI2
 70
     0
  9
$USERI3
 70
     0
  9
$USERI4
 70
     0
  9
$USERI5
 70
     0
  9
$USERR1
 40
0.0
  9
$USERR2
 40
0.0
  9
$USERR3
 40
0.0
  9
$USERR4
 40
0.0
  9
$USERR5
 40
0.0
  9
$WORLDVIEW
 70
     1
  9
$SHADEDGE
 70
     3
  9
$SHADEDIF
 70
    70
  9
$TILEMODE
 70
     1
  9
$MAXACTVP
 70
    64
  9
$PINSBASE
 10
0.0
 20
0.0
 30
0.0
  9
$PLIMCHECK
 70
     0
  9
$PEXTMIN
 10
1.000000000000000E+20
 20
1.000000000000000E+20
 30
1.000000000000000E+20
  9
$PEXTMAX
 10
-1.000000000000000E+20
 20
-1.000000000000000E+20
 30
-1.000000000000000E+20
  9
$PLIMMIN
 10
0.0
 20
0.0
  9
$PLIMMAX
 10
420.0
 20
297.0
  9
$UNITMODE
 70
     0
  9
$VISRETAIN
 70
     1
  9
$PLINEGEN
 70
     0
  9
$PSLTSCALE
 70
     1
  9
$TREEDEPTH
 70
  3020
  9
$PICKSTYLE
 70
     1
  9
$CMLSTYLE
  2
STANDARD
  9
$CMLJUST
 70
     0
  9
$CMLSCALE
 40
20.0
  9
$SAVEIMAGES
 70
     1
  0
ENDSEC
  0
SECTION
  2
CLASSES
  0
CLASS
  1
ACDBDICTIONARYWDFLT
  2
AcDbDictionaryWithDefault
  3
ObjectDBX Classes
 90
    32768
280
     0
281
     0
  0
CLASS
  1
VISUALSTYLE
  2
AcDbVisualStyle
  3
ObjectDBX Classes
 90
     4095
280
     0
281
     0
  0
CLASS
  1
MATERIAL
  2
AcDbMaterial
  3
ObjectDBX Classes
 90
     1153
280
     0
281
     0
  0
CLASS
  1
SCALE
  2
AcDbScale
  3
ObjectDBX Classes
 90
     1153
280
     0
281
     0
  0
CLASS
  1
TABLESTYLE
  2
AcDbTableStyle
  3
ObjectDBX Classes
 90
     4095
280
     0
281
     0
  0
CLASS
  1
MLEADERSTYLE
  2
AcDbMLeaderStyle
  3
ACDB_MLEADERSTYLE_CLASS
 90
     4095
280
     0
281
     0
  0
CLASS
  1
SUN
  2
AcDbSun
  3
SCENEOE
 90
     1153
280
     0
281
     0
  0
CLASS
  1
DICTIONARYVAR
  2
AcDbDictionaryVar
  3
ObjectDBX Classes
 90
        0
280
     0
281
     0
  0
CLASS
  1
XRECORD
  2
AcDbXrecord
  3
ObjectDBX Classes
 90
    32768
280
     0
281
     0
  0
CLASS
  1
LWPOLYLINE
  2
AcDbPolyline
  3
ObjectDBX Classes
 90
    32768
280
     0
281
     1
  0
CLASS
  1
HATCH
  2
AcDbHatch
  3
ObjectDBX Classes
 90
    32768
280
     0
281
     1
  0
CLASS
  1
ACDBPLACEHOLDER
  2
AcDbPlaceHolder
  3
ObjectDBX Classes
 90
        0
280
     0
281
     0
  0
CLASS
  1
LAYOUT
  2
AcDbLayout
  3
ObjectDBX Classes
 90
        0
280
     0
281
     0
  0
ENDSEC
  0
SECTION
  2
TABLES
  0
TABLE
  2
VPORT
  5
8
330
0
100
AcDbSymbolTable
 70
     1
  0
VPORT
  5
29
330
8
100
AcDbSymbolTableRecord
100
AcDbViewportTableRecord
  2
*ACTIVE
 70
     0
 10
0.0
 20
0.0
 11
1.0
 21
1.0
 12
-0.0000000000000568
 22
5.374999999999943
 13
0.0
 23
0.0
 14
10.0
 24
10.0
 15
10.0
 25
10.0
 16
0.0
 26
0.0
 36
1.0
 17
0.0
 27
0.0
 37
0.0
 40
558.705
 41
0.9803742583295298
 42
50.0
 43
0.0
 44
0.0
 50
0.0
 51
0.0
 71
     0
 72
   100
 73
     1
 74
     3
 75
     0
 76
     0
 77
     0
 78
     0
  0
ENDTAB
  0
TABLE
  2
LTYPE
  5
5
330
0
100
AcDbSymbolTable
 70
     1
  0
LTYPE
  5
14
330
5
100
AcDbSymbolTableRecord
100
AcDbLinetypeTableRecord
  2
BYBLOCK
 70
     0
  3

 72
    65
 73
     0
 40
0.0
  0
LTYPE
  5
15
330
5
100
AcDbSymbolTableRecord
100
AcDbLinetypeTableRecord
  2
BYLAYER
 70
     0
  3

 72
    65
 73
     0
 40
0.0
  0
LTYPE
  5
16
330
5
100
AcDbSymbolTableRecord
100
AcDbLinetypeTableRecord
  2
CONTINUOUS
 70
     0
  3
Solid line
 72
    65
 73
     0
 40
0.0
  0
ENDTAB
  0
TABLE
  2
LAYER
  5
2
330
0
100
AcDbSymbolTable
 70
     4
  0
LAYER
  5
10
330
2
100
AcDbSymbolTableRecord
100
AcDbLayerTableRecord
  2
0
 70
     0
 62
     7
  6
CONTINUOUS
  0
LAYER
  5
6E
330
2
100
AcDbSymbolTableRecord
100
AcDbLayerTableRecord
  2
THICK
 70
     0
 62
     7
  6
CONTINUOUS
  0
LAYER
  5
6F
330
2
100
AcDbSymbolTableRecord
100
AcDbLayerTableRecord
  2
HIDDEN
 70
     0
 62
     7
  6
CONTINUOUS
  0
LAYER
  5
70
330
2
100
AcDbSymbolTableRecord
100
AcDbLayerTableRecord
  2
HASHLINES
 70
     0
 62
     7
  6
CONTINUOUS
  0
ENDTAB
  0
TABLE
  2
STYLE
  5
3
330
0
100
AcDbSymbolTable
 70
     1
  0
STYLE
  5
11
330
3
100
AcDbSymbolTableRecord
100
AcDbTextStyleTableRecord
  2
STANDARD
 70
     0
 40
0.0
 41
1.0
 50
0.0
 71
     0
 42
2.5
  3
txt
  4

  0
ENDTAB
  0
TABLE
  2
VIEW
  5
6
330
0
100
AcDbSymbolTable
 70
     0
  0
ENDTAB
  0
TABLE
  2
UCS
  5
7
330
0
100
AcDbSymbolTable
 70
     0
  0
ENDTAB
  0
TABLE
  2
APPID
  5
9
330
0
100
AcDbSymbolTable
 70
     3
  0
APPID
  5
12
330
9
100
AcDbSymbolTableRecord
100
AcDbRegAppTableRecord
  2
ACAD
 70
     0
  0
APPID
  5
71
330
9
100
AcDbSymbolTableRecord
100
AcDbRegAppTableRecord
  2
DBPROPERTIES
 70
     0
  0
APPID
  5
60A
330
9
100
AcDbSymbolTableRecord
100
AcDbRegAppTableRecord
  2
ACAD_MLEADERVER
 70
     0
  0
ENDTAB
  0
TABLE
  2
DIMSTYLE
  5
A
330
0
100
AcDbSymbolTable
 70
     1
  0
DIMSTYLE
105
27
330
A
100
AcDbSymbolTableRecord
100
AcDbDimStyleTableRecord
  2
ISO-25
 70
     0
  3

  4

  5

  6

  7

 40
1.0
 41
2.5
 42
0.625
 43
3.75
 44
1.25
 45
0.0
 46
0.0
 47
0.0
 48
0.0
140
2.5
141
2.5
142
0.0
143
0.03937007874016
144
1.0
145
0.0
146
1.0
147
0.625
 71
     0
 72
     0
 73
     0
 74
     0
 75
     0
 76
     0
 77
     1
 78
     8
170
     0
171
     3
172
     1
173
     0
174
     0
175
     0
176
     0
177
     0
178
     0
270
     2
271
     2
272
     2
273
     2
274
     3
340
11
275
     0
280
     0
281
     0
282
     0
283
     0
284
     8
285
     0
286
     0
287
     3
288
     0
  0
ENDTAB
  0
TABLE
  2
BLOCK_RECORD
  5
1
330
0
100
AcDbSymbolTable
 70
     0
  0
BLOCK_RECORD
  5
1F
330
1
100
AcDbSymbolTableRecord
100
AcDbBlockTableRecord
  2
*MODEL_SPACE
  0
BLOCK_RECORD
  5
1B
330
1
100
AcDbSymbolTableRecord
100
AcDbBlockTableRecord
  2
*PAPER_SPACE
  0
ENDTAB
  0
ENDSEC
  0
SECTION
  2
BLOCKS
  0
BLOCK
  5
20
330
1F
100
AcDbEntity
  8
0
100
AcDbBlockBegin
  2
*MODEL_SPACE
 70
     0
 10
0.0
 20
0.0
 30
0.0
  3
*MODEL_SPACE
  1

  0
ENDBLK
  5
21
330
1F
100
AcDbEntity
  8
0
100
AcDbBlockEnd
  0
BLOCK
  5
1C
330
1B
100
AcDbEntity
 67
     1
  8
0
100
AcDbBlockBegin
  2
*PAPER_SPACE
 70
     0
 10
0.0
 20
0.0
 30
0.0
  3
*PAPER_SPACE
  1

  0
ENDBLK
  5
1D
330
1B
100
AcDbEntity
 67
     1
  8
0
100
AcDbBlockEnd
  0
ENDSEC
  0
SECTION
  2
ENTITIES
  0
ARC
  5
72
330
1F
100
AcDbEntity
  8
THICK
100
AcDbCircle
 10
0.0
 20
0.0
 30
0.0
 40
63.0
100
AcDbArc
 50
270.0000187239684
 51
0.0
1001
DBPROPERTIES
1002
{
1000
PbThick
1002
}
  0
ARC
  5
73
330
1F
100
AcDbEntity
  8
THICK
100
AcDbCircle
 10
0.0
 20
0.0
 30
0.0
 40
63.0
100
AcDbArc
 50
0.0
 51
89.99998127603165
1001
DBPROPERTIES
1002
{
1000
PbThick
1002
}
  0
ARC
  5
74
330
1F
100
AcDbEntity
  8
THICK
100
AcDbCircle
 10
0.0
 20
0.0
 30
0.0
 40
63.0
100
AcDbArc
 50
89.99998127603165
 51
270.0000187239684
1001
DBPROPERTIES
1002
{
1000
PbThick
1002
}
  0
ARC
  5
75
330
1F
100
AcDbEntity
  8
THICK
100
AcDbCircle
 10
0.0
 20
-0.0000000000000007
 30
0.0
 40
75.0
100
AcDbArc
 50
270.0000187239684
 51
0.0
1001
DBPROPERTIES
1002
{
1000
PbThick
1002
}
  0
ARC
  5
76
330
1F
100
AcDbEntity
  8
THICK
100
AcDbCircle
 10
0.0
 20
-0.0000000000000007
 30
0.0
 40
75.0
100
AcDbArc
 50
180.0000198478428
 51
270.0000187239684
1001
DBPROPERTIES
1002
{
1000
PbThick
1002
}
  0
ARC
  5
77
330
1F
100
AcDbEntity
  8
THICK
100
AcDbCircle
 10
0.0
 20
-0.0000000000000007
 30
0.0
 40
75.0
100
AcDbArc
 50
0.0
 51
89.99998127603165
1001
DBPROPERTIES
1002
{
1000
PbThick
1002
}
  0
ARC
  5
78
330
1F
100
AcDbEntity
  8
HIDDEN
100
AcDbCircle
 10
0.0
 20
0.0
 30
0.0
 40
15.0
100
AcDbArc
 50
0.0
 51
180.0000198478428
1001
DBPROPERTIES
1002
{
1000
PbHidd
1002
}
  0
ARC
  5
79
330
1F
100
AcDbEntity
  8
HIDDEN
100
AcDbCircle
 10
0.0000000000000413
 20
0.0
 30
0.0
 40
78.0
100
AcDbArc
 50
89.99998127603165
 51
92.99998829133665
1001
DBPROPERTIES
1002
{
1000
PbHidd
1002
}
  0
ARC
  5
7A
330
1F
100
AcDbEntity
  8
HIDDEN
100
AcDbCircle
 10
0.0000000000000413
 20
0.0
 30
0.0
 40
78.0
100
AcDbArc
 50
267.0000117086634
 51
270.0000187239684
1001
DBPROPERTIES
1002
{
1000
PbHidd
1002
}
  0
ARC
  5
7B
330
1F
100
AcDbEntity
  8
HIDDEN
100
AcDbCircle
 10
0.0000000000000381
 20
0.0
 30
0.0
 40
90.0
100
AcDbArc
 50
350.9999789540851
 51
0.0
1001
DBPROPERTIES
1002
{
1000
PbHidd
1002
}
  0
LINE
  5
7C
330
1F
100
AcDbEntity
  8
HIDDEN
100
AcDbLine
 10
88.89195065356242
 20
-14.07910185362086
 30
0.0
 11
88.89195065356242
 21
-14.07910185362086
 31
0.0
1001
DBPROPERTIES
1002
{
1000
PbHidd
1002
}
  0
ARC
  5
7D
330
1F
100
AcDbEntity
  8
HIDDEN
100
AcDbCircle
 10
0.0000000000000344
 20
0.0
 30
0.0
 40
91.83673469387755
100
AcDbArc
 50
180.0000198478428
 51
211.0280511812308
1001
DBPROPERTIES
1002
{
1000
PbHidd
1002
}
  0
ARC
  5
7E
330
1F
100
AcDbEntity
  8
THICK
100
AcDbCircle
 10
0.0000000000000344
 20
0.0
 30
0.0
 40
91.83673469387755
100
AcDbArc
 50
211.0280511812308
 51
225.5175808622942
1001
DBPROPERTIES
1002
{
1000
PbThick
1002
}
  0
ARC
  5
7F
330
1F
100
AcDbEntity
  8
HIDDEN
100
AcDbCircle
 10
0.0000000000000344
 20
0.0
 30
0.0
 40
91.83673469387755
100
AcDbArc
 50
225.5175808622942
 51
262.4566282806144
1001
DBPROPERTIES
1002
{
1000
PbHidd
1002
}
  0
ARC
  5
80
330
1F
100
AcDbEntity
  8
THICK
100
AcDbCircle
 10
0.0000000000000344
 20
0.0
 30
0.0
 40
91.83673469387755
100
AcDbArc
 50
262.4566282806144
 51
276.9461579616779
1001
DBPROPERTIES
1002
{
1000
PbThick
1002
}
  0
ARC
  5
81
330
1F
100
AcDbEntity
  8
HIDDEN
100
AcDbCircle
 10
0.0000000000000344
 20
0.0
 30
0.0
 40
91.83673469387755
100
AcDbArc
 50
276.9461579616779
 51
313.8852053799981
1001
DBPROPERTIES
1002
{
1000
PbHidd
1002
}
  0
ARC
  5
82
330
1F
100
AcDbEntity
  8
THICK
100
AcDbCircle
 10
0.0000000000000344
 20
0.0
 30
0.0
 40
91.83673469387755
100
AcDbArc
 50
313.8852053799981
 51
328.3747350610615
1001
DBPROPERTIES
1002
{
1000
PbThick
1002
}
  0
ARC
  5
83
330
1F
100
AcDbEntity
  8
HIDDEN
100
AcDbCircle
 10
0.0000000000000344
 20
0.0
 30
0.0
 40
91.83673469387755
100
AcDbArc
 50
328.3747350610615
 51
0.0
1001
DBPROPERTIES
1002
{
1000
PbHidd
1002
}
  0
LINE
  5
84
330
1F
100
AcDbEntity
  8
HIDDEN
100
AcDbLine
 10
-91.52103933328188
 20
-7.608232290717445
 30
0.0
 11
-91.52103933328188
 21
-7.608232290717445
 31
0.0
1001
DBPROPERTIES
1002
{
1000
PbHidd
1002
}
  0
LINE
  5
85
330
1F
100
AcDbEntity
  8
HIDDEN
100
AcDbLine
 10
-91.10292548021127
 20
-11.58631987219054
 30
0.0
 11
-91.10292548021127
 21
-11.58631987219054
 31
0.0
1001
DBPROPERTIES
1002
{
1000
PbHidd
1002
}
  0
LINE
  5
86
330
1F
100
AcDbEntity
  8
HIDDEN
100
AcDbLine
 10
7.608232290717446
 20
-91.52103933328193
 30
0.0
 11
7.608232290717445
 21
-91.52103933328193
 31
0.0
1001
DBPROPERTIES
1002
{
1000
PbHidd
1002
}
  0
LINE
  5
87
330
1F
100
AcDbEntity
  8
HIDDEN
100
AcDbLine
 10
11.58631987219054
 20
-91.10292548021133
 30
0.0
 11
11.58631987219054
 21
-91.10292548021133
 31
0.0
1001
DBPROPERTIES
1002
{
1000
PbHidd
1002
}
  0
LINE
  5
88
330
1F
100
AcDbEntity
  8
HIDDEN
100
AcDbLine
 10
-11.58631987219057
 20
-91.10292548021131
 30
0.0
 11
-11.58631987219057
 21
-91.10292548021131
 31
0.0
1001
DBPROPERTIES
1002
{
1000
PbHidd
1002
}
  0
LINE
  5
89
330
1F
100
AcDbEntity
  8
HIDDEN
100
AcDbLine
 10
-7.608232290717468
 20
-91.52103933328192
 30
0.0
 11
-7.608232290717467
 21
-91.52103933328192
 31
0.0
1001
DBPROPERTIES
1002
{
1000
PbHidd
1002
}
  0
LINE
  5
8A
330
1F
100
AcDbEntity
  8
HIDDEN
100
AcDbLine
 10
91.10292548021135
 20
-11.58631987219058
 30
0.0
 11
91.10292548021135
 21
-11.58631987219058
 31
0.0
1001
DBPROPERTIES
1002
{
1000
PbHidd
1002
}
  0
LINE
  5
8B
330
1F
100
AcDbEntity
  8
HIDDEN
100
AcDbLine
 10
91.52103933328196
 20
-7.608232290717475
 30
0.0
 11
91.52103933328196
 21
-7.608232290717475
 31
0.0
1001
DBPROPERTIES
1002
{
1000
PbHidd
1002
}
  0
ARC
  5
8C
330
1F
100
AcDbEntity
  8
HIDDEN
100
AcDbCircle
 10
0.0000000000000344
 20
0.0
 30
0.0
 40
56.25
100
AcDbArc
 50
180.0000198478428
 51
182.9999871674622
1001
DBPROPERTIES
1002
{
1000
PbHidd
1002
}
  0
LINE
  5
8D
330
1F
100
AcDbEntity
  8
HIDDEN
100
AcDbLine
 10
-56.17291132994475
 20
-2.943897538665563
 30
0.0
 11
-56.17291132994475
 21
-2.943897538665563
 31
0.0
1001
DBPROPERTIES
1002
{
1000
PbHidd
1002
}
  0
ARC
  5
8E
330
1F
100
AcDbEntity
  8
HIDDEN
100
AcDbCircle
 10
0.0000000000000381
 20
0.0
 30
0.0
 40
64.28571428571429
100
AcDbArc
 50
180.0000198478428
 51
182.9999871674622
1001
DBPROPERTIES
1002
{
1000
PbHidd
1002
}
  0
LINE
  5
8F
330
1F
100
AcDbEntity
  8
HIDDEN
100
AcDbLine
 10
-64.1976129485083
 20
-3.3644543299035
 30
0.0
 11
-64.1976129485083
 21
-3.3644543299035
 31
0.0
1001
DBPROPERTIES
1002
{
1000
PbHidd
1002
}
  0
ARC
  5
90
330
1F
100
AcDbEntity
  8
THICK
100
AcDbCircle
 10
0.0000000000000017
 20
0.0
 30
0.0
 40
128.1355715851499
100
AcDbArc
 50
257.2009437216589
 51
270.0000187239684
1001
DBPROPERTIES
1002
{
1000
PbThick
1002
}
  0
ARC
  5
91
330
1F
100
AcDbEntity
  8
HIDDEN
100
AcDbCircle
 10
0.0000000000000017
 20
0.0
 30
0.0
 40
128.1355715851499
100
AcDbArc
 50
230.9535752393774
 51
257.2009437216589
1001
DBPROPERTIES
1002
{
1000
PbHidd
1002
}
  0
ARC
  5
92
330
1F
100
AcDbEntity
  8
THICK
100
AcDbCircle
 10
0.0000000000000017
 20
0.0
 30
0.0
 40
128.1355715851499
100
AcDbArc
 50
205.7723666222753
 51
230.9535752393774
1001
DBPROPERTIES
1002
{
1000
PbThick
1002
}
  0
ARC
  5
93
330
1F
100
AcDbEntity
  8
HIDDEN
100
AcDbCircle
 10
0.0000000000000017
 20
0.0
 30
0.0
 40
128.1355715851499
100
AcDbArc
 50
179.5250378356794
 51
205.7723666222753
1001
DBPROPERTIES
1002
{
1000
PbHidd
1002
}
  0
ARC
  5
94
330
1F
100
AcDbEntity
  8
THICK
100
AcDbCircle
 10
0.0000000000000017
 20
0.0
 30
0.0
 40
128.1355715851499
100
AcDbArc
 50
154.3438292185772
 51
179.5250378356794
1001
DBPROPERTIES
1002
{
1000
PbThick
1002
}
  0
ARC
  5
95
330
1F
100
AcDbEntity
  8
HIDDEN
100
AcDbCircle
 10
0.0000000000000017
 20
0.0
 30
0.0
 40
128.1355715851499
100
AcDbArc
 50
128.0964607362957
 51
154.3438292185772
1001
DBPROPERTIES
1002
{
1000
PbHidd
1002
}
  0
ARC
  5
96
330
1F
100
AcDbEntity
  8
THICK
100
AcDbCircle
 10
0.0000000000000017
 20
0.0
 30
0.0
 40
128.1355715851499
100
AcDbArc
 50
102.9152521191936
 51
128.0964607362957
1001
DBPROPERTIES
1002
{
1000
PbThick
1002
}
  0
ARC
  5
97
330
1F
100
AcDbEntity
  8
HIDDEN
100
AcDbCircle
 10
0.0000000000000017
 20
0.0
 30
0.0
 40
128.1355715851499
100
AcDbArc
 50
89.99998127603165
 51
102.9152521191936
1001
DBPROPERTIES
1002
{
1000
PbHidd
1002
}
  0
ARC
  5
98
330
1F
100
AcDbEntity
  8
HIDDEN
100
AcDbCircle
 10
0.0000000000000021
 20
0.0
 30
0.0
 40
131.8855715851499
100
AcDbArc
 50
89.99998127603165
 51
95.13110481032574
1001
DBPROPERTIES
1002
{
1000
PbHidd
1002
}
  0
ARC
  5
99
330
1F
100
AcDbEntity
  8
HIDDEN
100
AcDbCircle
 10
0.0000000000000021
 20
0.0
 30
0.0
 40
131.8855715851499
100
AcDbArc
 50
95.13110481032574
 51
96.86888580295754
1001
DBPROPERTIES
1002
{
1000
PbHidd
1002
}
  0
ARC
  5
9A
330
1F
100
AcDbEntity
  8
THICK
100
AcDbCircle
 10
0.0000000000000021
 20
0.0
 30
0.0
 40
131.8855715851499
100
AcDbArc
 50
153.97048991927
 51
173.131115320917
1001
DBPROPERTIES
1002
{
1000
PbThick
1002
}
  0
ARC
  5
9B
330
1F
100
AcDbEntity
  8
HIDDEN
100
AcDbCircle
 10
0.0000000000000021
 20
0.0
 30
0.0
 40
131.8855715851499
100
AcDbArc
 50
128.4822332197573
 51
153.97048991927
1001
DBPROPERTIES
1002
{
1000
PbHidd
1002
}
  0
ARC
  5
9C
330
1F
100
AcDbEntity
  8
THICK
100
AcDbCircle
 10
0.0000000000000021
 20
0.0
 30
0.0
 40
131.8855715851499
100
AcDbArc
 50
102.5419128198863
 51
128.4822332197573
1001
DBPROPERTIES
1002
{
1000
PbThick
1002
}
  0
ARC
  5
9D
330
1F
100
AcDbEntity
  8
HIDDEN
100
AcDbCircle
 10
0.0000000000000021
 20
0.0
 30
0.0
 40
131.8855715851499
100
AcDbArc
 50
96.86888580295754
 51
102.5419128198863
1001
DBPROPERTIES
1002
{
1000
PbHidd
1002
}
  0
ARC
  5
9E
330
1F
100
AcDbEntity
  8
THICK
100
AcDbCircle
 10
0.0000000000000021
 20
0.0
 30
0.0
 40
131.8855715851499
100
AcDbArc
 50
173.131115320917
 51
174.8688963135488
1001
DBPROPERTIES
1002
{
1000
PbThick
1002
}
  0
ARC
  5
9F
330
1F
100
AcDbEntity
  8
HIDDEN
100
AcDbCircle
 10
0.0000000000000021
 20
0.0
 30
0.0
 40
131.8855715851499
100
AcDbArc
 50
179.9108103191409
 51
185.1311036864513
1001
DBPROPERTIES
1002
{
1000
PbHidd
1002
}
  0
ARC
  5
A0
330
1F
100
AcDbEntity
  8
THICK
100
AcDbCircle
 10
0.0000000000000021
 20
0.0
 30
0.0
 40
131.8855715851499
100
AcDbArc
 50
174.8688963135488
 51
179.9108103191409
1001
DBPROPERTIES
1002
{
1000
PbThick
1002
}
  0
ARC
  5
A1
330
1F
100
AcDbEntity
  8
HIDDEN
100
AcDbCircle
 10
0.0000000000000021
 20
0.0
 30
0.0
 40
131.8855715851499
100
AcDbArc
 50
185.1311036864513
 51
186.8688846790831
1001
DBPROPERTIES
1002
{
1000
PbHidd
1002
}
  0
ARC
  5
A2
330
1F
100
AcDbEntity
  8
THICK
100
AcDbCircle
 10
0.0000000000000021
 20
0.0
 30
0.0
 40
131.8855715851499
100
AcDbArc
 50
256.8276617181313
 51
263.1311141970425
1001
DBPROPERTIES
1002
{
1000
PbThick
1002
}
  0
ARC
  5
A3
330
1F
100
AcDbEntity
  8
HIDDEN
100
AcDbCircle
 10
0.0000000000000021
 20
0.0
 30
0.0
 40
131.8855715851499
100
AcDbArc
 50
231.339347722839
 51
256.8276617181313
1001
DBPROPERTIES
1002
{
1000
PbHidd
1002
}
  0
ARC
  5
A4
330
1F
100
AcDbEntity
  8
THICK
100
AcDbCircle
 10
0.0000000000000021
 20
0.0
 30
0.0
 40
131.8855715851499
100
AcDbArc
 50
205.3990846187475
 51
231.339347722839
1001
DBPROPERTIES
1002
{
1000
PbThick
1002
}
  0
ARC
  5
A5
330
1F
100
AcDbEntity
  8
HIDDEN
100
AcDbCircle
 10
0.0000000000000021
 20
0.0
 30
0.0
 40
131.8855715851499
100
AcDbArc
 50
186.8688846790831
 51
205.3990846187475
1001
DBPROPERTIES
1002
{
1000
PbHidd
1002
}
  0
ARC
  5
A6
330
1F
100
AcDbEntity
  8
THICK
100
AcDbCircle
 10
0.0000000000000021
 20
0.0
 30
0.0
 40
131.8855715851499
100
AcDbArc
 50
263.1311141970425
 51
264.8688951896742
1001
DBPROPERTIES
1002
{
1000
PbThick
1002
}
  0
ARC
  5
A7
330
1F
100
AcDbEntity
  8
THICK
100
AcDbCircle
 10
0.0000000000000021
 20
0.0
 30
0.0
 40
131.8855715851499
100
AcDbArc
 50
264.8688951896742
 51
270.0000187239684
1001
DBPROPERTIES
1002
{
1000
PbThick
1002
}
  0
ARC
  5
A8
330
1F
100
AcDbEntity
  8
HIDDEN
100
AcDbCircle
 10
0.0000000000000021
 20
0.0
 30
0.0
 40
123.8054445662277
100
AcDbArc
 50
270.0000187239684
 51
275.0743621407649
1001
DBPROPERTIES
1002
{
1000
PbHidd
1002
}
  0
ARC
  5
A9
330
1F
100
AcDbEntity
  8
THICK
100
AcDbCircle
 10
0.0000000000000017
 20
0.0
 30
0.0
 40
120.0554445662277
100
AcDbArc
 50
270.0000187239684
 51
275.0454850678904
1001
DBPROPERTIES
1002
{
1000
PbThick
1002
}
  0
ARC
  5
AA
330
1F
100
AcDbEntity
  8
HIDDEN
100
AcDbCircle
 10
0.0000000000000017
 20
0.0
 30
0.0
 40
120.0554445662277
100
AcDbArc
 50
84.95451493210962
 51
89.99998127603165
1001
DBPROPERTIES
1002
{
1000
PbHidd
1002
}
  0
ARC
  5
AB
330
1F
100
AcDbEntity
  8
HIDDEN
100
AcDbCircle
 10
0.0000000000000021
 20
0.0
 30
0.0
 40
123.8054445662277
100
AcDbArc
 50
84.92563785923504
 51
89.99998127603165
1001
DBPROPERTIES
1002
{
1000
PbHidd
1002
}
  0
ARC
  5
AC
330
1F
100
AcDbEntity
  8
THICK
100
AcDbCircle
 10
0.0
 20
0.0
 30
0.0
 40
225.0
100
AcDbArc
 50
179.9999801521572
 51
0.0
1001
DBPROPERTIES
1002
{
1000
PbThick
1002
}
  0
ARC
  5
AD
330
1F
100
AcDbEntity
  8
HIDDEN
100
AcDbCircle
 10
0.0
 20
0.0
 30
0.0
 40
258.5
100
AcDbArc
 50
0.0
 51
89.99998127603165
1001
DBPROPERTIES
1002
{
1000
PbHidd
1002
}
  0
ARC
  5
AE
330
1F
100
AcDbEntity
  8
HIDDEN
100
AcDbCircle
 10
0.0
 20
0.0
 30
0.0
 40
258.5
100
AcDbArc
 50
270.0000187239684
 51
0.0
1001
DBPROPERTIES
1002
{
1000
PbHidd
1002
}
  0
ARC
  5
AF
330
1F
100
AcDbEntity
  8
THICK
100
AcDbCircle
 10
0.0
 20
0.0
 30
0.0
 40
258.5
100
AcDbArc
 50
89.99998127603165
 51
180.0000198478428
1001
DBPROPERTIES
1002
{
1000
PbThick
1002
}
  0
ARC
  5
B0
330
1F
100
AcDbEntity
  8
THICK
100
AcDbCircle
 10
0.0000000000000012
 20
-0.0000000000000006
 30
0.0
 40
268.5
100
AcDbArc
 50
89.99998127603165
 51
180.0000198478428
1001
DBPROPERTIES
1002
{
1000
PbThick
1002
}
  0
ARC
  5
B1
330
1F
100
AcDbEntity
  8
THICK
100
AcDbCircle
 10
0.0000000000000012
 20
-0.0000000000000006
 30
0.0
 40
268.5
100
AcDbArc
 50
179.9999801521572
 51
270.0000187239684
1001
DBPROPERTIES
1002
{
1000
PbThick
1002
}
  0
ARC
  5
B2
330
1F
100
AcDbEntity
  8
THICK
100
AcDbCircle
 10
0.0
 20
0.0
 30
0.0
 40
258.5
100
AcDbArc
 50
180.0000198478428
 51
270.0000187239684
1001
DBPROPERTIES
1002
{
1000
PbThick
1002
}
  0
ARC
  5
B3
330
1F
100
AcDbEntity
  8
THICK
100
AcDbCircle
 10
0.0000000000000012
 20
-0.0000000000000006
 30
0.0
 40
268.5
100
AcDbArc
 50
270.0000187239684
 51
0.0
1001
DBPROPERTIES
1002
{
1000
PbThick
1002
}
  0
ARC
  5
B4
330
1F
100
AcDbEntity
  8
THICK
100
AcDbCircle
 10
250.0
 20
0.0
 30
0.0
 40
6.0
100
AcDbArc
 50
179.9999801521572
 51
0.0
1001
DBPROPERTIES
1002
{
1000
PbThick
1002
}
  0
ARC
  5
B5
330
1F
100
AcDbEntity
  8
THICK
100
AcDbCircle
 10
176.7766952966369
 20
176.7766952966369
 30
0.0
 40
5.999999999999999
100
AcDbArc
 50
225.0000280859525
 51
44.99999063801582
1001
DBPROPERTIES
1002
{
1000
PbThick
1002
}
  0
ARC
  5
B6
330
1F
100
AcDbEntity
  8
THICK
100
AcDbCircle
 10
0.0000000000000153
 20
250.0
 30
0.0
 40
6.0
100
AcDbArc
 50
270.0000187239684
 51
89.99998127603165
1001
DBPROPERTIES
1002
{
1000
PbThick
1002
}
  0
ARC
  5
B7
330
1F
100
AcDbEntity
  8
THICK
100
AcDbCircle
 10
-176.7766952966369
 20
176.7766952966369
 30
0.0
 40
5.999999999999999
100
AcDbArc
 50
315.0000093619842
 51
134.9999719140475
1001
DBPROPERTIES
1002
{
1000
PbThick
1002
}
  0
ARC
  5
B8
330
1F
100
AcDbEntity
  8
THICK
100
AcDbCircle
 10
-250.0
 20
0.0000000000000306
 30
0.0
 40
6.0
100
AcDbArc
 50
0.0
 51
180.0000198478428
1001
DBPROPERTIES
1002
{
1000
PbThick
1002
}
  0
ARC
  5
B9
330
1F
100
AcDbEntity
  8
THICK
100
AcDbCircle
 10
-176.7766952966369
 20
-176.7766952966369
 30
0.0
 40
6.0
100
AcDbArc
 50
44.99999063801582
 51
225.0000280859525
1001
DBPROPERTIES
1002
{
1000
PbThick
1002
}
  0
ARC
  5
BA
330
1F
100
AcDbEntity
  8
THICK
100
AcDbCircle
 10
-0.0000000000000459
 20
-250.0
 30
0.0
 40
6.0
100
AcDbArc
 50
89.99998127603165
 51
270.0000187239684
1001
DBPROPERTIES
1002
{
1000
PbThick
1002
}
  0
ARC
  5
BB
330
1F
100
AcDbEntity
  8
THICK
100
AcDbCircle
 10
176.7766952966368
 20
-176.7766952966369
 30
0.0
 40
5.999999999999999
100
AcDbArc
 50
134.9999719140475
 51
315.0000093619842
1001
DBPROPERTIES
1002
{
1000
PbThick
1002
}
  0
ARC
  5
BC
330
1F
100
AcDbEntity
  8
HIDDEN
100
AcDbCircle
 10
0.0
 20
0.0
 30
0.0
 40
227.0
100
AcDbArc
 50
179.9999801521572
 51
0.0
1001
DBPROPERTIES
1002
{
1000
PbHidd
1002
}
  0
ARC
  5
BD
330
1F
100
AcDbEntity
  8
HIDDEN
100
AcDbCircle
 10
0.0
 20
-0.0000000000000413
 30
0.0
 40
63.0
100
AcDbArc
 50
0.0
 51
89.99998127603165
1001
DBPROPERTIES
1002
{
1000
PbHidd
1002
}
  0
ARC
  5
BE
330
1F
100
AcDbEntity
  8
HIDDEN
100
AcDbCircle
 10
0.0
 20
-0.0000000000000413
 30
0.0
 40
63.0
100
AcDbArc
 50
270.0000187239684
 51
0.0
1001
DBPROPERTIES
1002
{
1000
PbHidd
1002
}
  0
ARC
  5
BF
330
1F
100
AcDbEntity
  8
HIDDEN
100
AcDbCircle
 10
0.0000000000000413
 20
-0.0000000000000268
 30
0.0
 40
78.0
100
AcDbArc
 50
267.0000117086634
 51
270.0000187239684
1001
DBPROPERTIES
1002
{
1000
PbHidd
1002
}
  0
ARC
  5
C0
330
1F
100
AcDbEntity
  8
HIDDEN
100
AcDbCircle
 10
0.0000000000000413
 20
-0.0000000000000268
 30
0.0
 40
78.0
100
AcDbArc
 50
89.99998127603165
 51
92.99998829133665
1001
DBPROPERTIES
1002
{
1000
PbHidd
1002
}
  0
LINE
  5
C1
330
1F
100
AcDbEntity
  8
HIDDEN
100
AcDbLine
 10
88.89195065356242
 20
14.07910185362083
 30
0.0
 11
88.89195065356242
 21
14.07910185362083
 31
0.0
1001
DBPROPERTIES
1002
{
1000
PbHidd
1002
}
  0
LINE
  5
C2
330
1F
100
AcDbEntity
  8
HIDDEN
100
AcDbLine
 10
-91.52103933328188
 20
7.608232290717412
 30
0.0
 11
-91.52103933328188
 21
7.608232290717411
 31
0.0
1001
DBPROPERTIES
1002
{
1000
PbHidd
1002
}
  0
LINE
  5
C3
330
1F
100
AcDbEntity
  8
HIDDEN
100
AcDbLine
 10
-91.10292548021127
 20
11.58631987219051
 30
0.0
 11
-91.10292548021127
 21
11.58631987219051
 31
0.0
1001
DBPROPERTIES
1002
{
1000
PbHidd
1002
}
  0
LINE
  5
C4
330
1F
100
AcDbEntity
  8
HIDDEN
100
AcDbLine
 10
7.608232290717446
 20
91.52103933328189
 30
0.0
 11
7.608232290717445
 21
91.52103933328189
 31
0.0
1001
DBPROPERTIES
1002
{
1000
PbHidd
1002
}
  0
LINE
  5
C5
330
1F
100
AcDbEntity
  8
HIDDEN
100
AcDbLine
 10
11.58631987219054
 20
91.10292548021128
 30
0.0
 11
11.58631987219054
 21
91.10292548021128
 31
0.0
1001
DBPROPERTIES
1002
{
1000
PbHidd
1002
}
  0
LINE
  5
C6
330
1F
100
AcDbEntity
  8
HIDDEN
100
AcDbLine
 10
-11.58631987219057
 20
91.10292548021127
 30
0.0
 11
-11.58631987219057
 21
91.10292548021127
 31
0.0
1001
DBPROPERTIES
1002
{
1000
PbHidd
1002
}
  0
LINE
  5
C7
330
1F
100
AcDbEntity
  8
HIDDEN
100
AcDbLine
 10
-7.608232290717468
 20
91.52103933328188
 30
0.0
 11
-7.608232290717467
 21
91.52103933328188
 31
0.0
1001
DBPROPERTIES
1002
{
1000
PbHidd
1002
}
  0
LINE
  5
C8
330
1F
100
AcDbEntity
  8
HIDDEN
100
AcDbLine
 10
91.10292548021135
 20
11.58631987219055
 30
0.0
 11
91.10292548021135
 21
11.58631987219055
 31
0.0
1001
DBPROPERTIES
1002
{
1000
PbHidd
1002
}
  0
LINE
  5
C9
330
1F
100
AcDbEntity
  8
HIDDEN
100
AcDbLine
 10
91.52103933328196
 20
7.608232290717441
 30
0.0
 11
91.52103933328196
 21
7.608232290717442
 31
0.0
1001
DBPROPERTIES
1002
{
1000
PbHidd
1002
}
  0
LINE
  5
CA
330
1F
100
AcDbEntity
  8
HIDDEN
100
AcDbLine
 10
-56.17291132994475
 20
2.943897538665536
 30
0.0
 11
-56.17291132994475
 21
2.943897538665529
 31
0.0
1001
DBPROPERTIES
1002
{
1000
PbHidd
1002
}
  0
LINE
  5
CB
330
1F
100
AcDbEntity
  8
HIDDEN
100
AcDbLine
 10
-64.1976129485083
 20
3.36445432990347
 30
0.0
 11
-64.1976129485083
 21
3.364454329903474
 31
0.0
1001
DBPROPERTIES
1002
{
1000
PbHidd
1002
}
  0
ARC
  5
CC
330
1F
100
AcDbEntity
  8
HIDDEN
100
AcDbCircle
 10
0.0000000000000017
 20
-0.0000000000000299
 30
0.0
 40
128.1355715851499
100
AcDbArc
 50
89.99998127603165
 51
270.0000187239684
1001
DBPROPERTIES
1002
{
1000
PbHidd
1002
}
  0
ARC
  5
CD
330
1F
100
AcDbEntity
  8
HIDDEN
100
AcDbCircle
 10
0.0000000000000021
 20
-0.0000000000000291
 30
0.0
 40
131.8855715851499
100
AcDbArc
 50
263.1311141970425
 51
264.8688951896742
1001
DBPROPERTIES
1002
{
1000
PbHidd
1002
}
  0
ARC
  5
CE
330
1F
100
AcDbEntity
  8
HIDDEN
100
AcDbCircle
 10
0.0000000000000021
 20
-0.0000000000000291
 30
0.0
 40
131.8855715851499
100
AcDbArc
 50
185.1311036864513
 51
186.8688846790831
1001
DBPROPERTIES
1002
{
1000
PbHidd
1002
}
  0
ARC
  5
CF
330
1F
100
AcDbEntity
  8
HIDDEN
100
AcDbCircle
 10
0.0000000000000021
 20
-0.0000000000000291
 30
0.0
 40
131.8855715851499
100
AcDbArc
 50
173.131115320917
 51
174.8688963135488
1001
DBPROPERTIES
1002
{
1000
PbHidd
1002
}
  0
ARC
  5
D0
330
1F
100
AcDbEntity
  8
HIDDEN
100
AcDbCircle
 10
0.0000000000000021
 20
-0.0000000000000291
 30
0.0
 40
131.8855715851499
100
AcDbArc
 50
95.13110481032574
 51
96.86888580295754
1001
DBPROPERTIES
1002
{
1000
PbHidd
1002
}
  0
ARC
  5
D1
330
1F
100
AcDbEntity
  8
HIDDEN
100
AcDbCircle
 10
0.0000000000000021
 20
-0.0000000000000291
 30
0.0
 40
131.8855715851499
100
AcDbArc
 50
89.99998127603165
 51
95.13110481032574
1001
DBPROPERTIES
1002
{
1000
PbHidd
1002
}
  0
ARC
  5
D2
330
1F
100
AcDbEntity
  8
HIDDEN
100
AcDbCircle
 10
0.0000000000000021
 20
-0.0000000000000291
 30
0.0
 40
123.8054445662277
100
AcDbArc
 50
84.92563785923504
 51
89.99998127603165
1001
DBPROPERTIES
1002
{
1000
PbHidd
1002
}
  0
ARC
  5
D3
330
1F
100
AcDbEntity
  8
HIDDEN
100
AcDbCircle
 10
0.0000000000000017
 20
-0.0000000000000299
 30
0.0
 40
120.0554445662277
100
AcDbArc
 50
84.95451493210962
 51
89.99998127603165
1001
DBPROPERTIES
1002
{
1000
PbHidd
1002
}
  0
ARC
  5
D4
330
1F
100
AcDbEntity
  8
HIDDEN
100
AcDbCircle
 10
0.0000000000000021
 20
-0.0000000000000291
 30
0.0
 40
123.8054445662277
100
AcDbArc
 50
270.0000187239684
 51
275.0743621407649
1001
DBPROPERTIES
1002
{
1000
PbHidd
1002
}
  0
LINE
  5
D5
330
1F
100
AcDbEntity
  8
HIDDEN
100
AcDbLine
 10
-25.45568379432477
 20
223.061108583642
 30
0.0
 11
-25.45568379432477
 21
223.061108583642
 31
0.0
1001
DBPROPERTIES
1002
{
1000
PbHidd
1002
}
  0
LINE
  5
D6
330
1F
100
AcDbEntity
  8
HIDDEN
100
AcDbLine
 10
-21.47759621285168
 20
223.4792224367126
 30
0.0
 11
-21.47759621285168
 21
223.4792224367126
 31
0.0
1001
DBPROPERTIES
1002
{
1000
PbHidd
1002
}
  0
LINE
  5
D7
330
1F
100
AcDbEntity
  8
HIDDEN
100
AcDbLine
 10
-21.42722790511883
 20
223.0
 30
0.0
 11
-21.42722790511883
 21
223.0
 31
0.0
1001
DBPROPERTIES
1002
{
1000
PbHidd
1002
}
  0
LINE
  5
D8
330
1F
100
AcDbEntity
  8
HIDDEN
100
AcDbLine
 10
-20.69363273834428
 20
216.0203082214506
 30
0.0
 11
-20.69363273834428
 21
216.0203082214506
 31
0.0
1001
DBPROPERTIES
1002
{
1000
PbHidd
1002
}
  0
LINE
  5
D9
330
1F
100
AcDbEntity
  8
HIDDEN
100
AcDbLine
 10
21.47759621285162
 20
223.4792224367126
 30
0.0
 11
21.47759621285162
 21
223.4792224367126
 31
0.0
1001
DBPROPERTIES
1002
{
1000
PbHidd
1002
}
  0
LINE
  5
DA
330
1F
100
AcDbEntity
  8
HIDDEN
100
AcDbLine
 10
25.45568379432471
 20
223.061108583642
 30
0.0
 11
25.45568379432471
 21
223.061108583642
 31
0.0
1001
DBPROPERTIES
1002
{
1000
PbHidd
1002
}
  0
LINE
  5
DB
330
1F
100
AcDbEntity
  8
HIDDEN
100
AcDbLine
 10
25.44926102337285
 20
223.0
 30
0.0
 11
25.44926102337285
 21
223.0
 31
0.0
1001
DBPROPERTIES
1002
{
1000
PbHidd
1002
}
  0
LINE
  5
DC
330
1F
100
AcDbEntity
  8
HIDDEN
100
AcDbLine
 10
24.67172031981731
 20
215.60219436838
 30
0.0
 11
24.67172031981731
 21
215.60219436838
 31
0.0
1001
DBPROPERTIES
1002
{
1000
PbHidd
1002
}
  0
ARC
  5
DD
330
1F
100
AcDbEntity
  8
HIDDEN
100
AcDbCircle
 10
0.0000000000000021
 20
-0.0000000000000291
 30
0.0
 40
123.8054445662277
100
AcDbArc
 50
186.925607500801
 51
263.0743913753245
1001
DBPROPERTIES
1002
{
1000
PbHidd
1002
}
  0
ARC
  5
DE
330
1F
100
AcDbEntity
  8
HIDDEN
100
AcDbCircle
 10
0.0000000000000021
 20
-0.0000000000000291
 30
0.0
 40
123.8054445662277
100
AcDbArc
 50
174.9256191352667
 51
185.0743808647333
1001
DBPROPERTIES
1002
{
1000
PbHidd
1002
}
  0
ARC
  5
DF
330
1F
100
AcDbEntity
  8
HIDDEN
100
AcDbCircle
 10
0.0000000000000021
 20
-0.0000000000000291
 30
0.0
 40
123.8054445662277
100
AcDbArc
 50
264.9256180113922
 51
270.0000187239684
1001
DBPROPERTIES
1002
{
1000
PbHidd
1002
}
  0
ARC
  5
E0
330
1F
100
AcDbEntity
  8
HIDDEN
100
AcDbCircle
 10
0.0000000000000021
 20
-0.0000000000000291
 30
0.0
 40
123.8054445662277
100
AcDbArc
 50
96.92560862467548
 51
173.074392499199
1001
DBPROPERTIES
1002
{
1000
PbHidd
1002
}
  0
ARC
  5
E1
330
1F
100
AcDbEntity
  8
HIDDEN
100
AcDbCircle
 10
0.0000000000000021
 20
-0.0000000000000291
 30
0.0
 40
123.8054445662277
100
AcDbArc
 50
276.9256460726122
 51
353.0743726513562
1001
DBPROPERTIES
1002
{
1000
PbHidd
1002
}
  0
ARC
  5
E2
330
1F
100
AcDbEntity
  8
HIDDEN
100
AcDbCircle
 10
0.0000000000000021
 20
-0.0000000000000291
 30
0.0
 40
123.8054445662277
100
AcDbArc
 50
89.99998127603165
 51
95.0743819886078
1001
DBPROPERTIES
1002
{
1000
PbHidd
1002
}
  0
ARC
  5
E3
330
1F
100
AcDbEntity
  8
HIDDEN
100
AcDbCircle
 10
0.0000000000000021
 20
-0.0000000000000291
 30
0.0
 40
131.8855715851499
100
AcDbArc
 50
84.86891503751708
 51
89.99998127603165
1001
DBPROPERTIES
1002
{
1000
PbHidd
1002
}
  0
ARC
  5
E4
330
1F
100
AcDbEntity
  8
HIDDEN
100
AcDbCircle
 10
0.0000000000000021
 20
-0.0000000000000291
 30
0.0
 40
123.8054445662277
100
AcDbArc
 50
354.9255992874238
 51
5.074400712576136
1001
DBPROPERTIES
1002
{
1000
PbHidd
1002
}
  0
ARC
  5
E5
330
1F
100
AcDbEntity
  8
HIDDEN
100
AcDbCircle
 10
0.0000000000000017
 20
-0.0000000000000299
 30
0.0
 40
120.0554445662277
100
AcDbArc
 50
89.99998127603165
 51
95.04544761995368
1001
DBPROPERTIES
1002
{
1000
PbHidd
1002
}
  0
ARC
  5
E6
330
1F
100
AcDbEntity
  8
HIDDEN
100
AcDbCircle
 10
0.0000000000000021
 20
-0.0000000000000291
 30
0.0
 40
123.8054445662277
100
AcDbArc
 50
6.925627348643825
 51
83.07435392738783
1001
DBPROPERTIES
1002
{
1000
PbHidd
1002
}
  0
ARC
  5
E7
330
1F
100
AcDbEntity
  8
HIDDEN
100
AcDbCircle
 10
0.0000000000000017
 20
-0.0000000000000299
 30
0.0
 40
128.1355715851499
100
AcDbArc
 50
270.0000187239684
 51
89.99998127603165
1001
DBPROPERTIES
1002
{
1000
PbHidd
1002
}
  0
ARC
  5
E8
330
1F
100
AcDbEntity
  8
HIDDEN
100
AcDbCircle
 10
0.0000000000000021
 20
-0.0000000000000291
 30
0.0
 40
131.8855715851499
100
AcDbArc
 50
83.13107674910577
 51
84.86891503751708
1001
DBPROPERTIES
1002
{
1000
PbHidd
1002
}
  0
ARC
  5
E9
330
1F
100
AcDbEntity
  8
HIDDEN
100
AcDbCircle
 10
0.0000000000000021
 20
-0.0000000000000291
 30
0.0
 40
131.8855715851499
100
AcDbArc
 50
5.131123534294087
 51
6.868904526925873
1001
DBPROPERTIES
1002
{
1000
PbHidd
1002
}
  0
ARC
  5
EA
330
1F
100
AcDbEntity
  8
HIDDEN
100
AcDbCircle
 10
0.0000000000000021
 20
-0.0000000000000291
 30
0.0
 40
131.8855715851499
100
AcDbArc
 50
353.1310954730741
 51
354.8688764657059
1001
DBPROPERTIES
1002
{
1000
PbHidd
1002
}
  0
ARC
  5
EB
330
1F
100
AcDbEntity
  8
HIDDEN
100
AcDbCircle
 10
0.0000000000000021
 20
-0.0000000000000291
 30
0.0
 40
131.8855715851499
100
AcDbArc
 50
275.1310849624829
 51
276.8689232508942
1001
DBPROPERTIES
1002
{
1000
PbHidd
1002
}
  0
LINE
  5
EC
330
1F
100
AcDbEntity
  8
HIDDEN
100
AcDbLine
 10
126.7273136427409
 20
15.33059394682077
 30
0.0
 11
127.1454274958115
 21
11.35250636534768
 31
0.0
1001
DBPROPERTIES
1002
{
1000
PbHidd
1002
}
  0
LINE
  5
ED
330
1F
100
AcDbEntity
  8
HIDDEN
100
AcDbLine
 10
11.35250636534773
 20
127.1454274958114
 30
0.0
 11
15.33059394682082
 21
126.7273136427408
 31
0.0
1001
DBPROPERTIES
1002
{
1000
PbHidd
1002
}
  0
LINE
  5
EE
330
1F
100
AcDbEntity
  8
HIDDEN
100
AcDbLine
 10
-15.33059394682085
 20
126.7273136427408
 30
0.0
 11
-11.35250636534776
 21
127.1454274958114
 31
0.0
1001
DBPROPERTIES
1002
{
1000
PbHidd
1002
}
  0
LINE
  5
EF
330
1F
100
AcDbEntity
  8
HIDDEN
100
AcDbLine
 10
-127.1454274958115
 20
11.35250636534765
 30
0.0
 11
-126.7273136427409
 21
15.33059394682074
 31
0.0
1001
DBPROPERTIES
1002
{
1000
PbHidd
1002
}
  0
LINE
  5
F0
330
1F
100
AcDbEntity
  8
HIDDEN
100
AcDbLine
 10
-126.7273136427409
 20
-15.33059394682093
 30
0.0
 11
-127.1454274958115
 21
-11.35250636534783
 31
0.0
1001
DBPROPERTIES
1002
{
1000
PbHidd
1002
}
  0
LINE
  5
F1
330
1F
100
AcDbEntity
  8
HIDDEN
100
AcDbLine
 10
-11.35250636534774
 20
-127.1454274958115
 30
0.0
 11
-15.33059394682083
 21
-126.7273136427409
 31
0.0
1001
DBPROPERTIES
1002
{
1000
PbHidd
1002
}
  0
LINE
  5
F2
330
1F
100
AcDbEntity
  8
HIDDEN
100
AcDbLine
 10
15.33059394682082
 20
-126.7273136427409
 30
0.0
 11
11.35250636534774
 21
-127.1454274958115
 31
0.0
1001
DBPROPERTIES
1002
{
1000
PbHidd
1002
}
  0
LINE
  5
F3
330
1F
100
AcDbEntity
  8
HIDDEN
100
AcDbLine
 10
127.1454274958115
 20
-11.35250636534781
 30
0.0
 11
126.7273136427409
 21
-15.3305939468209
 31
0.0
1001
DBPROPERTIES
1002
{
1000
PbHidd
1002
}
  0
LINE
  5
F4
330
1F
100
AcDbEntity
  8
HIDDEN
100
AcDbLine
 10
111.4960570182451
 20
9.707691248913862
 30
0.0
 11
111.0779431651745
 21
13.68577883038695
 31
0.0
1001
DBPROPERTIES
1002
{
1000
PbHidd
1002
}
  0
LINE
  5
F5
330
1F
100
AcDbEntity
  8
HIDDEN
100
AcDbLine
 10
216.0203082214506
 20
20.69363273834426
 30
0.0
 11
216.0203082214506
 21
20.69363273834426
 31
0.0
1001
DBPROPERTIES
1002
{
1000
PbHidd
1002
}
  0
LINE
  5
F6
330
1F
100
AcDbEntity
  8
HIDDEN
100
AcDbLine
 10
223.4792224367127
 20
21.47759621285167
 30
0.0
 11
223.4792224367127
 21
21.47759621285167
 31
0.0
1001
DBPROPERTIES
1002
{
1000
PbHidd
1002
}
  0
LINE
  5
F7
330
1F
100
AcDbEntity
  8
HIDDEN
100
AcDbLine
 10
111.0779431651745
 20
-13.68577883038698
 30
0.0
 11
111.4960570182451
 21
-9.707691248913887
 31
0.0
1001
DBPROPERTIES
1002
{
1000
PbHidd
1002
}
  0
LINE
  5
F8
330
1F
100
AcDbEntity
  8
HIDDEN
100
AcDbLine
 10
215.60219436838
 20
-24.67172031981733
 30
0.0
 11
215.60219436838
 21
-24.67172031981733
 31
0.0
1001
DBPROPERTIES
1002
{
1000
PbHidd
1002
}
  0
LINE
  5
F9
330
1F
100
AcDbEntity
  8
HIDDEN
100
AcDbLine
 10
223.061108583642
 20
-25.45568379432473
 30
0.0
 11
223.061108583642
 21
-25.45568379432473
 31
0.0
1001
DBPROPERTIES
1002
{
1000
PbHidd
1002
}
  0
LINE
  5
FA
330
1F
100
AcDbEntity
  8
HIDDEN
100
AcDbLine
 10
91.10292548021137
 20
-11.58631987219057
 30
0.0
 11
91.10292548021137
 21
-11.58631987219057
 31
0.0
1001
DBPROPERTIES
1002
{
1000
PbHidd
1002
}
  0
LINE
  5
FB
330
1F
100
AcDbEntity
  8
HIDDEN
100
AcDbLine
 10
-9.707691248913887
 20
111.4960570182451
 30
0.0
 11
-13.68577883038698
 21
111.0779431651744
 31
0.0
1001
DBPROPERTIES
1002
{
1000
PbHidd
1002
}
  0
LINE
  5
FC
330
1F
100
AcDbEntity
  8
HIDDEN
100
AcDbLine
 10
13.68577883038695
 20
111.0779431651744
 30
0.0
 11
9.707691248913862
 21
111.496057018245
 31
0.0
1001
DBPROPERTIES
1002
{
1000
PbHidd
1002
}
  0
LINE
  5
FD
330
1F
100
AcDbEntity
  8
HIDDEN
100
AcDbLine
 10
-111.4960570182451
 20
-9.707691248913912
 30
0.0
 11
-111.0779431651745
 21
-13.685778830387
 31
0.0
1001
DBPROPERTIES
1002
{
1000
PbHidd
1002
}
  0
LINE
  5
FE
330
1F
100
AcDbEntity
  8
HIDDEN
100
AcDbLine
 10
-216.0203082214506
 20
-20.6936327383443
 30
0.0
 11
-216.0203082214506
 21
-20.6936327383443
 31
0.0
1001
DBPROPERTIES
1002
{
1000
PbHidd
1002
}
  0
LINE
  5
FF
330
1F
100
AcDbEntity
  8
HIDDEN
100
AcDbLine
 10
-223.4792224367127
 20
-21.4775962128517
 30
0.0
 11
-223.4792224367127
 21
-21.4775962128517
 31
0.0
1001
DBPROPERTIES
1002
{
1000
PbHidd
1002
}
  0
LINE
  5
100
330
1F
100
AcDbEntity
  8
HIDDEN
100
AcDbLine
 10
-91.52103933328188
 20
-7.608232290717489
 30
0.0
 11
-91.52103933328188
 21
-7.608232290717488
 31
0.0
1001
DBPROPERTIES
1002
{
1000
PbHidd
1002
}
  0
LINE
  5
101
330
1F
100
AcDbEntity
  8
HIDDEN
100
AcDbLine
 10
-111.0779431651745
 20
13.68577883038693
 30
0.0
 11
-111.4960570182451
 21
9.707691248913838
 31
0.0
1001
DBPROPERTIES
1002
{
1000
PbHidd
1002
}
  0
LINE
  5
102
330
1F
100
AcDbEntity
  8
HIDDEN
100
AcDbLine
 10
-215.60219436838
 20
24.6717203198173
 30
0.0
 11
-215.60219436838
 21
24.6717203198173
 31
0.0
1001
DBPROPERTIES
1002
{
1000
PbHidd
1002
}
  0
LINE
  5
103
330
1F
100
AcDbEntity
  8
HIDDEN
100
AcDbLine
 10
-223.061108583642
 20
25.4556837943247
 30
0.0
 11
-223.061108583642
 21
25.4556837943247
 31
0.0
1001
DBPROPERTIES
1002
{
1000
PbHidd
1002
}
  0
LINE
  5
104
330
1F
100
AcDbEntity
  8
HIDDEN
100
AcDbLine
 10
9.707691248913873
 20
-111.4960570182451
 30
0.0
 11
13.68577883038696
 21
-111.0779431651745
 31
0.0
1001
DBPROPERTIES
1002
{
1000
PbHidd
1002
}
  0
LINE
  5
105
330
1F
100
AcDbEntity
  8
HIDDEN
100
AcDbLine
 10
20.69363273834425
 20
-216.0203082214506
 30
0.0
 11
20.69363273834425
 21
-216.0203082214506
 31
0.0
1001
DBPROPERTIES
1002
{
1000
PbHidd
1002
}
  0
LINE
  5
106
330
1F
100
AcDbEntity
  8
HIDDEN
100
AcDbLine
 10
21.47759621285165
 20
-223.4792224367127
 30
0.0
 11
21.47759621285165
 21
-223.4792224367127
 31
0.0
1001
DBPROPERTIES
1002
{
1000
PbHidd
1002
}
  0
LINE
  5
107
330
1F
100
AcDbEntity
  8
HIDDEN
100
AcDbLine
 10
7.608232290717456
 20
-91.52103933328198
 30
0.0
 11
7.608232290717456
 21
-91.52103933328198
 31
0.0
1001
DBPROPERTIES
1002
{
1000
PbHidd
1002
}
  0
LINE
  5
108
330
1F
100
AcDbEntity
  8
HIDDEN
100
AcDbLine
 10
-13.68577883038697
 20
-111.0779431651745
 30
0.0
 11
-9.707691248913877
 21
-111.4960570182451
 31
0.0
1001
DBPROPERTIES
1002
{
1000
PbHidd
1002
}
  0
LINE
  5
109
330
1F
100
AcDbEntity
  8
HIDDEN
100
AcDbLine
 10
-24.67172031981734
 20
-215.60219436838
 30
0.0
 11
-24.67172031981734
 21
-215.60219436838
 31
0.0
1001
DBPROPERTIES
1002
{
1000
PbHidd
1002
}
  0
LINE
  5
10A
330
1F
100
AcDbEntity
  8
HIDDEN
100
AcDbLine
 10
-25.45568379432474
 20
-223.0611085836421
 30
0.0
 11
-25.45568379432474
 21
-223.0611085836421
 31
0.0
1001
DBPROPERTIES
1002
{
1000
PbHidd
1002
}
  0
LINE
  5
10B
330
1F
100
AcDbEntity
  8
HIDDEN
100
AcDbLine
 10
-11.58631987219055
 20
-91.10292548021135
 30
0.0
 11
-11.58631987219055
 21
-91.10292548021135
 31
0.0
1001
DBPROPERTIES
1002
{
1000
PbHidd
1002
}
  0
LINE
  5
10C
330
1F
100
AcDbEntity
  8
HIDDEN
100
AcDbLine
 10
215.60219436838
 20
24.67172031981736
 30
0.0
 11
215.60219436838
 21
24.67172031981736
 31
0.0
1001
DBPROPERTIES
1002
{
1000
PbHidd
1002
}
  0
LINE
  5
10D
330
1F
100
AcDbEntity
  8
HIDDEN
100
AcDbLine
 10
223.061108583642
 20
25.45568379432476
 30
0.0
 11
223.061108583642
 21
25.45568379432476
 31
0.0
1001
DBPROPERTIES
1002
{
1000
PbHidd
1002
}
  0
LINE
  5
10E
330
1F
100
AcDbEntity
  8
HIDDEN
100
AcDbLine
 10
124.9922244307896
 20
11.1261956038269
 30
0.0
 11
124.574110577719
 21
15.10428318529999
 31
0.0
1001
DBPROPERTIES
1002
{
1000
PbHidd
1002
}
  0
LINE
  5
10F
330
1F
100
AcDbEntity
  8
HIDDEN
100
AcDbLine
 10
107.7665999106141
 20
9.31570951166016
 30
0.0
 11
107.3484860575435
 21
13.29379709313325
 31
0.0
1001
DBPROPERTIES
1002
{
1000
PbHidd
1002
}
  0
LINE
  5
110
330
1F
100
AcDbEntity
  8
HIDDEN
100
AcDbLine
 10
216.0203082214506
 20
-20.69363273834424
 30
0.0
 11
216.0203082214506
 21
-20.69363273834424
 31
0.0
1001
DBPROPERTIES
1002
{
1000
PbHidd
1002
}
  0
LINE
  5
111
330
1F
100
AcDbEntity
  8
HIDDEN
100
AcDbLine
 10
223.4792224367127
 20
-21.47759621285164
 30
0.0
 11
223.4792224367127
 21
-21.47759621285163
 31
0.0
1001
DBPROPERTIES
1002
{
1000
PbHidd
1002
}
  0
LINE
  5
112
330
1F
100
AcDbEntity
  8
HIDDEN
100
AcDbLine
 10
124.574110577719
 20
-15.10428318530001
 30
0.0
 11
124.9922244307896
 21
-11.12619560382691
 31
0.0
1001
DBPROPERTIES
1002
{
1000
PbHidd
1002
}
  0
LINE
  5
113
330
1F
100
AcDbEntity
  8
HIDDEN
100
AcDbLine
 10
107.3484860575435
 20
-13.29379709313328
 30
0.0
 11
107.7665999106141
 21
-9.315709511660188
 31
0.0
1001
DBPROPERTIES
1002
{
1000
PbHidd
1002
}
  0
LINE
  5
114
330
1F
100
AcDbEntity
  8
HIDDEN
100
AcDbLine
 10
91.52103933328198
 20
-7.608232290717478
 30
0.0
 11
91.52103933328198
 21
-7.608232290717479
 31
0.0
1001
DBPROPERTIES
1002
{
1000
PbHidd
1002
}
  0
LINE
  5
115
330
1F
100
AcDbEntity
  8
HIDDEN
100
AcDbLine
 10
-24.67172031981738
 20
215.60219436838
 30
0.0
 11
-24.67172031981738
 21
215.60219436838
 31
0.0
1001
DBPROPERTIES
1002
{
1000
PbHidd
1002
}
  0
LINE
  5
116
330
1F
100
AcDbEntity
  8
HIDDEN
100
AcDbLine
 10
-11.12619560382692
 20
124.9922244307896
 30
0.0
 11
-15.10428318530001
 21
124.574110577719
 31
0.0
1001
DBPROPERTIES
1002
{
1000
PbHidd
1002
}
  0
LINE
  5
117
330
1F
100
AcDbEntity
  8
HIDDEN
100
AcDbLine
 10
-9.315709511660184
 20
107.766599910614
 30
0.0
 11
-13.29379709313327
 21
107.3484860575434
 31
0.0
1001
DBPROPERTIES
1002
{
1000
PbHidd
1002
}
  0
LINE
  5
118
330
1F
100
AcDbEntity
  8
HIDDEN
100
AcDbLine
 10
-25.44926102337291
 20
223.0
 30
0.0
 11
-25.44926102337291
 21
223.0
 31
0.0
1001
DBPROPERTIES
1002
{
1000
PbHidd
1002
}
  0
LINE
  5
119
330
1F
100
AcDbEntity
  8
HIDDEN
100
AcDbLine
 10
20.69363273834422
 20
216.0203082214506
 30
0.0
 11
20.69363273834422
 21
216.0203082214506
 31
0.0
1001
DBPROPERTIES
1002
{
1000
PbHidd
1002
}
  0
LINE
  5
11A
330
1F
100
AcDbEntity
  8
HIDDEN
100
AcDbLine
 10
15.10428318529998
 20
124.5741105777189
 30
0.0
 11
11.12619560382689
 21
124.9922244307895
 31
0.0
1001
DBPROPERTIES
1002
{
1000
PbHidd
1002
}
  0
LINE
  5
11B
330
1F
100
AcDbEntity
  8
HIDDEN
100
AcDbLine
 10
13.29379709313325
 20
107.3484860575434
 30
0.0
 11
9.315709511660163
 21
107.766599910614
 31
0.0
1001
DBPROPERTIES
1002
{
1000
PbHidd
1002
}
  0
LINE
  5
11C
330
1F
100
AcDbEntity
  8
HIDDEN
100
AcDbLine
 10
21.42722790511879
 20
223.0
 30
0.0
 11
21.42722790511878
 21
223.0
 31
0.0
1001
DBPROPERTIES
1002
{
1000
PbHidd
1002
}
  0
LINE
  5
11D
330
1F
100
AcDbEntity
  8
HIDDEN
100
AcDbLine
 10
-215.60219436838
 20
-24.6717203198174
 30
0.0
 11
-215.60219436838
 21
-24.6717203198174
 31
0.0
1001
DBPROPERTIES
1002
{
1000
PbHidd
1002
}
  0
LINE
  5
11E
330
1F
100
AcDbEntity
  8
HIDDEN
100
AcDbLine
 10
-223.061108583642
 20
-25.45568379432479
 30
0.0
 11
-223.061108583642
 21
-25.45568379432479
 31
0.0
1001
DBPROPERTIES
1002
{
1000
PbHidd
1002
}
  0
LINE
  5
11F
330
1F
100
AcDbEntity
  8
HIDDEN
100
AcDbLine
 10
-124.9922244307896
 20
-11.12619560382694
 30
0.0
 11
-124.574110577719
 21
-15.10428318530003
 31
0.0
1001
DBPROPERTIES
1002
{
1000
PbHidd
1002
}
  0
LINE
  5
120
330
1F
100
AcDbEntity
  8
HIDDEN
100
AcDbLine
 10
-107.7665999106141
 20
-9.31570951166021
 30
0.0
 11
-107.3484860575435
 21
-13.2937970931333
 31
0.0
1001
DBPROPERTIES
1002
{
1000
PbHidd
1002
}
  0
LINE
  5
121
330
1F
100
AcDbEntity
  8
HIDDEN
100
AcDbLine
 10
-91.10292548021127
 20
-11.58631987219059
 30
0.0
 11
-91.10292548021127
 21
-11.58631987219059
 31
0.0
1001
DBPROPERTIES
1002
{
1000
PbHidd
1002
}
  0
LINE
  5
122
330
1F
100
AcDbEntity
  8
HIDDEN
100
AcDbLine
 10
-216.0203082214506
 20
20.6936327383442
 30
0.0
 11
-216.0203082214506
 21
20.6936327383442
 31
0.0
1001
DBPROPERTIES
1002
{
1000
PbHidd
1002
}
  0
LINE
  5
123
330
1F
100
AcDbEntity
  8
HIDDEN
100
AcDbLine
 10
-223.4792224367127
 20
21.4775962128516
 30
0.0
 11
-223.4792224367127
 21
21.4775962128516
 31
0.0
1001
DBPROPERTIES
1002
{
1000
PbHidd
1002
}
  0
LINE
  5
124
330
1F
100
AcDbEntity
  8
HIDDEN
100
AcDbLine
 10
-124.574110577719
 20
15.10428318529996
 30
0.0
 11
-124.9922244307896
 21
11.12619560382687
 31
0.0
1001
DBPROPERTIES
1002
{
1000
PbHidd
1002
}
  0
LINE
  5
125
330
1F
100
AcDbEntity
  8
HIDDEN
100
AcDbLine
 10
-107.3484860575435
 20
13.29379709313323
 30
0.0
 11
-107.7665999106141
 21
9.315709511660138
 31
0.0
1001
DBPROPERTIES
1002
{
1000
PbHidd
1002
}
  0
LINE
  5
126
330
1F
100
AcDbEntity
  8
HIDDEN
100
AcDbLine
 10
24.67172031981735
 20
-215.6021943683801
 30
0.0
 11
24.67172031981735
 21
-215.6021943683801
 31
0.0
1001
DBPROPERTIES
1002
{
1000
PbHidd
1002
}
  0
LINE
  5
127
330
1F
100
AcDbEntity
  8
HIDDEN
100
AcDbLine
 10
25.45568379432475
 20
-223.0611085836421
 30
0.0
 11
25.45568379432475
 21
-223.0611085836421
 31
0.0
1001
DBPROPERTIES
1002
{
1000
PbHidd
1002
}
  0
LINE
  5
128
330
1F
100
AcDbEntity
  8
HIDDEN
100
AcDbLine
 10
11.12619560382691
 20
-124.9922244307896
 30
0.0
 11
15.1042831853
 21
-124.574110577719
 31
0.0
1001
DBPROPERTIES
1002
{
1000
PbHidd
1002
}
  0
LINE
  5
129
330
1F
100
AcDbEntity
  8
HIDDEN
100
AcDbLine
 10
9.31570951166017
 20
-107.7665999106141
 30
0.0
 11
13.29379709313326
 21
-107.3484860575435
 31
0.0
1001
DBPROPERTIES
1002
{
1000
PbHidd
1002
}
  0
LINE
  5
12A
330
1F
100
AcDbEntity
  8
HIDDEN
100
AcDbLine
 10
11.58631987219056
 20
-91.10292548021137
 30
0.0
 11
11.58631987219055
 21
-91.10292548021137
 31
0.0
1001
DBPROPERTIES
1002
{
1000
PbHidd
1002
}
  0
LINE
  5
12B
330
1F
100
AcDbEntity
  8
HIDDEN
100
AcDbLine
 10
-20.69363273834425
 20
-216.0203082214506
 30
0.0
 11
-20.69363273834425
 21
-216.0203082214506
 31
0.0
1001
DBPROPERTIES
1002
{
1000
PbHidd
1002
}
  0
LINE
  5
12C
330
1F
100
AcDbEntity
  8
HIDDEN
100
AcDbLine
 10
-21.47759621285165
 20
-223.4792224367127
 30
0.0
 11
-21.47759621285165
 21
-223.4792224367127
 31
0.0
1001
DBPROPERTIES
1002
{
1000
PbHidd
1002
}
  0
LINE
  5
12D
330
1F
100
AcDbEntity
  8
HIDDEN
100
AcDbLine
 10
-15.1042831853
 20
-124.574110577719
 30
0.0
 11
-11.12619560382691
 21
-124.9922244307896
 31
0.0
1001
DBPROPERTIES
1002
{
1000
PbHidd
1002
}
  0
LINE
  5
12E
330
1F
100
AcDbEntity
  8
HIDDEN
100
AcDbLine
 10
-13.29379709313327
 20
-107.3484860575435
 30
0.0
 11
-9.315709511660177
 21
-107.7665999106141
 31
0.0
1001
DBPROPERTIES
1002
{
1000
PbHidd
1002
}
  0
LINE
  5
12F
330
1F
100
AcDbEntity
  8
HIDDEN
100
AcDbLine
 10
-7.608232290717456
 20
-91.52103933328196
 30
0.0
 11
-7.608232290717457
 21
-91.52103933328196
 31
0.0
1001
DBPROPERTIES
1002
{
1000
PbHidd
1002
}
  0
LINE
  5
130
330
1F
100
AcDbEntity
  8
HIDDEN
100
AcDbLine
 10
-64.19761294850828
 20
-3.364454329903587
 30
0.0
 11
-64.19761294850828
 21
-3.364454329903591
 31
0.0
1001
DBPROPERTIES
1002
{
1000
PbHidd
1002
}
  0
LINE
  5
131
330
1F
100
AcDbEntity
  8
HIDDEN
100
AcDbLine
 10
-62.0952316900115
 20
16.638367185162
 30
0.0
 11
-62.0952316900115
 21
16.638367185162
 31
0.0
1001
DBPROPERTIES
1002
{
1000
PbHidd
1002
}
  0
LINE
  5
132
330
1F
100
AcDbEntity
  8
HIDDEN
100
AcDbLine
 10
-63.49425046683025
 20
10.0565013240148
 30
0.0
 11
-63.49425046683025
 21
10.0565013240148
 31
0.0
1001
DBPROPERTIES
1002
{
1000
PbHidd
1002
}
  0
LINE
  5
133
330
1F
100
AcDbEntity
  8
HIDDEN
100
AcDbLine
 10
-63.49425046683025
 20
-10.05650132401489
 30
0.0
 11
-63.49425046683025
 21
-10.05650132401488
 31
0.0
1001
DBPROPERTIES
1002
{
1000
PbHidd
1002
}
  0
LINE
  5
134
330
1F
100
AcDbEntity
  8
HIDDEN
100
AcDbLine
 10
-62.0952316900115
 20
-16.63836718516209
 30
0.0
 11
-62.0952316900115
 21
-16.63836718516209
 31
0.0
1001
DBPROPERTIES
1002
{
1000
PbHidd
1002
}
  0
LINE
  5
135
330
1F
100
AcDbEntity
  8
HIDDEN
100
AcDbLine
 10
-57.27899084068078
 20
29.18510355468509
 30
0.0
 11
-57.27899084068078
 21
29.18510355468509
 31
0.0
1001
DBPROPERTIES
1002
{
1000
PbHidd
1002
}
  0
LINE
  5
136
330
1F
100
AcDbEntity
  8
HIDDEN
100
AcDbLine
 10
-60.01588456053437
 20
23.03793961362639
 30
0.0
 11
-60.01588456053437
 21
23.03793961362639
 31
0.0
1001
DBPROPERTIES
1002
{
1000
PbHidd
1002
}
  0
LINE
  5
137
330
1F
100
AcDbEntity
  8
HIDDEN
100
AcDbLine
 10
-60.01588456053437
 20
-23.03793961362648
 30
0.0
 11
-60.01588456053437
 21
-23.03793961362648
 31
0.0
1001
DBPROPERTIES
1002
{
1000
PbHidd
1002
}
  0
LINE
  5
138
330
1F
100
AcDbEntity
  8
HIDDEN
100
AcDbLine
 10
-57.27899084068076
 20
-29.18510355468518
 30
0.0
 11
-57.27899084068076
 21
-29.18510355468518
 31
0.0
1001
DBPROPERTIES
1002
{
1000
PbHidd
1002
}
  0
LINE
  5
139
330
1F
100
AcDbEntity
  8
HIDDEN
100
AcDbLine
 10
-49.95938323651956
 20
40.45631085320377
 30
0.0
 11
-49.95938323651956
 21
40.45631085320377
 31
0.0
1001
DBPROPERTIES
1002
{
1000
PbHidd
1002
}
  0
LINE
  5
13A
330
1F
100
AcDbEntity
  8
HIDDEN
100
AcDbLine
 10
-53.91453651077725
 20
35.01250939382311
 30
0.0
 11
-53.91453651077725
 21
35.01250939382311
 31
0.0
1001
DBPROPERTIES
1002
{
1000
PbHidd
1002
}
  0
LINE
  5
13B
330
1F
100
AcDbEntity
  8
HIDDEN
100
AcDbLine
 10
-53.91453651077722
 20
-35.01250939382321
 30
0.0
 11
-53.91453651077722
 21
-35.01250939382321
 31
0.0
1001
DBPROPERTIES
1002
{
1000
PbHidd
1002
}
  0
LINE
  5
13C
330
1F
100
AcDbEntity
  8
HIDDEN
100
AcDbLine
 10
-49.95938323651951
 20
-40.45631085320389
 30
0.0
 11
-49.95938323651951
 21
-40.45631085320389
 31
0.0
1001
DBPROPERTIES
1002
{
1000
PbHidd
1002
}
  0
LINE
  5
13D
330
1F
100
AcDbEntity
  8
HIDDEN
100
AcDbLine
 10
-40.45631085320384
 20
49.9593832365195
 30
0.0
 11
-40.45631085320384
 21
49.9593832365195
 31
0.0
1001
DBPROPERTIES
1002
{
1000
PbHidd
1002
}
  0
LINE
  5
13E
330
1F
100
AcDbEntity
  8
HIDDEN
100
AcDbLine
 10
-45.45686450484948
 20
45.45686450484942
 30
0.0
 11
-45.45686450484948
 21
45.45686450484942
 31
0.0
1001
DBPROPERTIES
1002
{
1000
PbHidd
1002
}
  0
LINE
  5
13F
330
1F
100
AcDbEntity
  8
HIDDEN
100
AcDbLine
 10
-45.45686450484946
 20
-45.45686450484951
 30
0.0
 11
-45.45686450484946
 21
-45.45686450484951
 31
0.0
1001
DBPROPERTIES
1002
{
1000
PbHidd
1002
}
  0
LINE
  5
140
330
1F
100
AcDbEntity
  8
HIDDEN
100
AcDbLine
 10
-40.45631085320382
 20
-49.95938323651959
 30
0.0
 11
-40.45631085320382
 21
-49.95938323651959
 31
0.0
1001
DBPROPERTIES
1002
{
1000
PbHidd
1002
}
  0
LINE
  5
141
330
1F
100
AcDbEntity
  8
HIDDEN
100
AcDbLine
 10
-29.18510355468517
 20
57.27899084068073
 30
0.0
 11
-29.18510355468517
 21
57.27899084068073
 31
0.0
1001
DBPROPERTIES
1002
{
1000
PbHidd
1002
}
  0
LINE
  5
142
330
1F
100
AcDbEntity
  8
HIDDEN
100
AcDbLine
 10
-35.01250939382318
 20
53.91453651077721
 30
0.0
 11
-35.01250939382318
 21
53.91453651077721
 31
0.0
1001
DBPROPERTIES
1002
{
1000
PbHidd
1002
}
  0
LINE
  5
143
330
1F
100
AcDbEntity
  8
HIDDEN
100
AcDbLine
 10
-35.01250939382315
 20
-53.91453651077728
 30
0.0
 11
-35.01250939382315
 21
-53.91453651077728
 31
0.0
1001
DBPROPERTIES
1002
{
1000
PbHidd
1002
}
  0
LINE
  5
144
330
1F
100
AcDbEntity
  8
HIDDEN
100
AcDbLine
 10
-29.18510355468513
 20
-57.27899084068082
 30
0.0
 11
-29.18510355468513
 21
-57.27899084068082
 31
0.0
1001
DBPROPERTIES
1002
{
1000
PbHidd
1002
}
  0
LINE
  5
145
330
1F
100
AcDbEntity
  8
HIDDEN
100
AcDbLine
 10
-16.63836718516209
 20
62.09523169001149
 30
0.0
 11
-16.63836718516209
 21
62.09523169001149
 31
0.0
1001
DBPROPERTIES
1002
{
1000
PbHidd
1002
}
  0
LINE
  5
146
330
1F
100
AcDbEntity
  8
HIDDEN
100
AcDbLine
 10
-23.03793961362648
 20
60.01588456053435
 30
0.0
 11
-23.03793961362648
 21
60.01588456053435
 31
0.0
1001
DBPROPERTIES
1002
{
1000
PbHidd
1002
}
  0
LINE
  5
147
330
1F
100
AcDbEntity
  8
HIDDEN
100
AcDbLine
 10
-23.03793961362643
 20
-60.01588456053442
 30
0.0
 11
-23.03793961362643
 21
-60.01588456053442
 31
0.0
1001
DBPROPERTIES
1002
{
1000
PbHidd
1002
}
  0
LINE
  5
148
330
1F
100
AcDbEntity
  8
HIDDEN
100
AcDbLine
 10
-16.63836718516204
 20
-62.09523169001156
 30
0.0
 11
-16.63836718516204
 21
-62.09523169001156
 31
0.0
1001
DBPROPERTIES
1002
{
1000
PbHidd
1002
}
  0
LINE
  5
149
330
1F
100
AcDbEntity
  8
HIDDEN
100
AcDbLine
 10
-3.364454329903551
 20
64.1976129485083
 30
0.0
 11
-3.364454329903547
 21
64.1976129485083
 31
0.0
1001
DBPROPERTIES
1002
{
1000
PbHidd
1002
}
  0
LINE
  5
14A
330
1F
100
AcDbEntity
  8
HIDDEN
100
AcDbLine
 10
-10.05650132401485
 20
63.49425046683025
 30
0.0
 11
-10.05650132401486
 21
63.49425046683025
 31
0.0
1001
DBPROPERTIES
1002
{
1000
PbHidd
1002
}
  0
LINE
  5
14B
330
1F
100
AcDbEntity
  8
HIDDEN
100
AcDbLine
 10
-10.05650132401483
 20
-63.49425046683032
 30
0.0
 11
-10.05650132401483
 21
-63.49425046683032
 31
0.0
1001
DBPROPERTIES
1002
{
1000
PbHidd
1002
}
  0
LINE
  5
14C
330
1F
100
AcDbEntity
  8
HIDDEN
100
AcDbLine
 10
-3.364454329903514
 20
-64.19761294850835
 30
0.0
 11
-3.364454329903518
 21
-64.19761294850835
 31
0.0
1001
DBPROPERTIES
1002
{
1000
PbHidd
1002
}
  0
LINE
  5
14D
330
1F
100
AcDbEntity
  8
HIDDEN
100
AcDbLine
 10
10.05650132401479
 20
63.49425046683028
 30
0.0
 11
10.05650132401479
 21
63.49425046683028
 31
0.0
1001
DBPROPERTIES
1002
{
1000
PbHidd
1002
}
  0
LINE
  5
14E
330
1F
100
AcDbEntity
  8
HIDDEN
100
AcDbLine
 10
3.364454329903483
 20
64.19761294850831
 30
0.0
 11
3.364454329903479
 21
64.19761294850831
 31
0.0
1001
DBPROPERTIES
1002
{
1000
PbHidd
1002
}
  0
LINE
  5
14F
330
1F
100
AcDbEntity
  8
HIDDEN
100
AcDbLine
 10
3.364454329903541
 20
-64.19761294850836
 30
0.0
 11
3.364454329903544
 21
-64.19761294850836
 31
0.0
1001
DBPROPERTIES
1002
{
1000
PbHidd
1002
}
  0
LINE
  5
150
330
1F
100
AcDbEntity
  8
HIDDEN
100
AcDbLine
 10
10.05650132401485
 20
-63.49425046683032
 30
0.0
 11
10.05650132401485
 21
-63.49425046683032
 31
0.0
1001
DBPROPERTIES
1002
{
1000
PbHidd
1002
}
  0
LINE
  5
151
330
1F
100
AcDbEntity
  8
HIDDEN
100
AcDbLine
 10
23.03793961362642
 20
60.0158845605344
 30
0.0
 11
23.03793961362642
 21
60.0158845605344
 31
0.0
1001
DBPROPERTIES
1002
{
1000
PbHidd
1002
}
  0
LINE
  5
152
330
1F
100
AcDbEntity
  8
HIDDEN
100
AcDbLine
 10
16.63836718516202
 20
62.09523169001153
 30
0.0
 11
16.63836718516202
 21
62.09523169001153
 31
0.0
1001
DBPROPERTIES
1002
{
1000
PbHidd
1002
}
  0
LINE
  5
153
330
1F
100
AcDbEntity
  8
HIDDEN
100
AcDbLine
 10
16.63836718516206
 20
-62.09523169001157
 30
0.0
 11
16.63836718516206
 21
-62.09523169001157
 31
0.0
1001
DBPROPERTIES
1002
{
1000
PbHidd
1002
}
  0
LINE
  5
154
330
1F
100
AcDbEntity
  8
HIDDEN
100
AcDbLine
 10
23.03793961362646
 20
-60.01588456053445
 30
0.0
 11
23.03793961362646
 21
-60.01588456053445
 31
0.0
1001
DBPROPERTIES
1002
{
1000
PbHidd
1002
}
  0
LINE
  5
155
330
1F
100
AcDbEntity
  8
HIDDEN
100
AcDbLine
 10
35.01250939382317
 20
53.91453651077727
 30
0.0
 11
35.01250939382317
 21
53.91453651077727
 31
0.0
1001
DBPROPERTIES
1002
{
1000
PbHidd
1002
}
  0
LINE
  5
156
330
1F
100
AcDbEntity
  8
HIDDEN
100
AcDbLine
 10
29.18510355468515
 20
57.27899084068079
 30
0.0
 11
29.18510355468515
 21
57.27899084068079
 31
0.0
1001
DBPROPERTIES
1002
{
1000
PbHidd
1002
}
  0
LINE
  5
157
330
1F
100
AcDbEntity
  8
HIDDEN
100
AcDbLine
 10
29.18510355468518
 20
-57.27899084068083
 30
0.0
 11
29.18510355468518
 21
-57.27899084068083
 31
0.0
1001
DBPROPERTIES
1002
{
1000
PbHidd
1002
}
  0
LINE
  5
158
330
1F
100
AcDbEntity
  8
HIDDEN
100
AcDbLine
 10
35.01250939382319
 20
-53.91453651077731
 30
0.0
 11
35.01250939382319
 21
-53.91453651077731
 31
0.0
1001
DBPROPERTIES
1002
{
1000
PbHidd
1002
}
  0
LINE
  5
159
330
1F
100
AcDbEntity
  8
HIDDEN
100
AcDbLine
 10
45.45686450484947
 20
45.45686450484951
 30
0.0
 11
45.45686450484947
 21
45.45686450484951
 31
0.0
1001
DBPROPERTIES
1002
{
1000
PbHidd
1002
}
  0
LINE
  5
15A
330
1F
100
AcDbEntity
  8
HIDDEN
100
AcDbLine
 10
40.45631085320382
 20
49.95938323651959
 30
0.0
 11
40.45631085320382
 21
49.95938323651959
 31
0.0
1001
DBPROPERTIES
1002
{
1000
PbHidd
1002
}
  0
LINE
  5
15B
330
1F
100
AcDbEntity
  8
HIDDEN
100
AcDbLine
 10
40.45631085320386
 20
-49.95938323651961
 30
0.0
 11
40.45631085320386
 21
-49.95938323651961
 31
0.0
1001
DBPROPERTIES
1002
{
1000
PbHidd
1002
}
  0
LINE
  5
15C
330
1F
100
AcDbEntity
  8
HIDDEN
100
AcDbLine
 10
45.45686450484952
 20
-45.45686450484953
 30
0.0
 11
45.45686450484952
 21
-45.45686450484953
 31
0.0
1001
DBPROPERTIES
1002
{
1000
PbHidd
1002
}
  0
LINE
  5
15D
330
1F
100
AcDbEntity
  8
HIDDEN
100
AcDbLine
 10
53.91453651077728
 20
35.01250939382319
 30
0.0
 11
53.91453651077728
 21
35.01250939382319
 31
0.0
1001
DBPROPERTIES
1002
{
1000
PbHidd
1002
}
  0
LINE
  5
15E
330
1F
100
AcDbEntity
  8
HIDDEN
100
AcDbLine
 10
49.95938323651956
 20
40.45631085320386
 30
0.0
 11
49.95938323651956
 21
40.45631085320386
 31
0.0
1001
DBPROPERTIES
1002
{
1000
PbHidd
1002
}
  0
LINE
  5
15F
330
1F
100
AcDbEntity
  8
HIDDEN
100
AcDbLine
 10
49.95938323651959
 20
-40.45631085320389
 30
0.0
 11
49.95938323651959
 21
-40.45631085320389
 31
0.0
1001
DBPROPERTIES
1002
{
1000
PbHidd
1002
}
  0
LINE
  5
160
330
1F
100
AcDbEntity
  8
HIDDEN
100
AcDbLine
 10
53.9145365107773
 20
-35.01250939382322
 30
0.0
 11
53.9145365107773
 21
-35.01250939382322
 31
0.0
1001
DBPROPERTIES
1002
{
1000
PbHidd
1002
}
  0
LINE
  5
161
330
1F
100
AcDbEntity
  8
HIDDEN
100
AcDbLine
 10
60.01588456053443
 20
23.03793961362646
 30
0.0
 11
60.01588456053443
 21
23.03793961362646
 31
0.0
1001
DBPROPERTIES
1002
{
1000
PbHidd
1002
}
  0
LINE
  5
162
330
1F
100
AcDbEntity
  8
HIDDEN
100
AcDbLine
 10
57.27899084068082
 20
29.18510355468516
 30
0.0
 11
57.27899084068082
 21
29.18510355468516
 31
0.0
1001
DBPROPERTIES
1002
{
1000
PbHidd
1002
}
  0
LINE
  5
163
330
1F
100
AcDbEntity
  8
HIDDEN
100
AcDbLine
 10
57.27899084068083
 20
-29.18510355468518
 30
0.0
 11
57.27899084068083
 21
-29.18510355468518
 31
0.0
1001
DBPROPERTIES
1002
{
1000
PbHidd
1002
}
  0
LINE
  5
164
330
1F
100
AcDbEntity
  8
HIDDEN
100
AcDbLine
 10
60.01588456053444
 20
-23.03793961362648
 30
0.0
 11
60.01588456053444
 21
-23.03793961362648
 31
0.0
1001
DBPROPERTIES
1002
{
1000
PbHidd
1002
}
  0
LINE
  5
165
330
1F
100
AcDbEntity
  8
HIDDEN
100
AcDbLine
 10
63.49425046683032
 20
10.05650132401487
 30
0.0
 11
63.49425046683032
 21
10.05650132401488
 31
0.0
1001
DBPROPERTIES
1002
{
1000
PbHidd
1002
}
  0
LINE
  5
166
330
1F
100
AcDbEntity
  8
HIDDEN
100
AcDbLine
 10
62.09523169001156
 20
16.63836718516208
 30
0.0
 11
62.09523169001156
 21
16.63836718516208
 31
0.0
1001
DBPROPERTIES
1002
{
1000
PbHidd
1002
}
  0
LINE
  5
167
330
1F
100
AcDbEntity
  8
HIDDEN
100
AcDbLine
 10
63.49425046683033
 20
-10.05650132401487
 30
0.0
 11
63.49425046683033
 21
-10.05650132401487
 31
0.0
1001
DBPROPERTIES
1002
{
1000
PbHidd
1002
}
  0
LINE
  5
168
330
1F
100
AcDbEntity
  8
HIDDEN
100
AcDbLine
 10
62.09523169001157
 20
-16.63836718516209
 30
0.0
 11
62.09523169001157
 21
-16.63836718516209
 31
0.0
1001
DBPROPERTIES
1002
{
1000
PbHidd
1002
}
  0
LINE
  5
169
330
1F
100
AcDbEntity
  8
HIDDEN
100
AcDbLine
 10
-56.17291132994475
 20
-2.943897538665649
 30
0.0
 11
-56.17291132994475
 21
-2.943897538665642
 31
0.0
1001
DBPROPERTIES
1002
{
1000
PbHidd
1002
}
  0
LINE
  5
16A
330
1F
100
AcDbEntity
  8
HIDDEN
100
AcDbLine
 10
-54.33332772876006
 20
14.55857128701675
 30
0.0
 11
-54.33332772876006
 21
14.55857128701674
 31
0.0
1001
DBPROPERTIES
1002
{
1000
PbHidd
1002
}
  0
LINE
  5
16B
330
1F
100
AcDbEntity
  8
HIDDEN
100
AcDbLine
 10
-55.55746915847647
 20
8.799438658512939
 30
0.0
 11
-55.55746915847647
 21
8.799438658512946
 31
0.0
1001
DBPROPERTIES
1002
{
1000
PbHidd
1002
}
  0
LINE
  5
16C
330
1F
100
AcDbEntity
  8
HIDDEN
100
AcDbLine
 10
-55.55746915847646
 20
-8.799438658513024
 30
0.0
 11
-55.55746915847646
 21
-8.799438658513031
 31
0.0
1001
DBPROPERTIES
1002
{
1000
PbHidd
1002
}
  0
LINE
  5
16D
330
1F
100
AcDbEntity
  8
HIDDEN
100
AcDbLine
 10
-54.33332772876005
 20
-14.55857128701683
 30
0.0
 11
-54.33332772876005
 21
-14.55857128701683
 31
0.0
1001
DBPROPERTIES
1002
{
1000
PbHidd
1002
}
  0
LINE
  5
16E
330
1F
100
AcDbEntity
  8
HIDDEN
100
AcDbLine
 10
-50.11911698559567
 20
25.53696561034945
 30
0.0
 11
-50.11911698559567
 21
25.53696561034944
 31
0.0
1001
DBPROPERTIES
1002
{
1000
PbHidd
1002
}
  0
LINE
  5
16F
330
1F
100
AcDbEntity
  8
HIDDEN
100
AcDbLine
 10
-52.51389899046757
 20
20.15819716192307
 30
0.0
 11
-52.51389899046757
 21
20.15819716192308
 31
0.0
1001
DBPROPERTIES
1002
{
1000
PbHidd
1002
}
  0
LINE
  5
170
330
1F
100
AcDbEntity
  8
HIDDEN
100
AcDbLine
 10
-52.51389899046757
 20
-20.15819716192316
 30
0.0
 11
-52.51389899046757
 21
-20.15819716192317
 31
0.0
1001
DBPROPERTIES
1002
{
1000
PbHidd
1002
}
  0
LINE
  5
171
330
1F
100
AcDbEntity
  8
HIDDEN
100
AcDbLine
 10
-50.11911698559566
 20
-25.53696561034953
 30
0.0
 11
-50.11911698559566
 21
-25.53696561034953
 31
0.0
1001
DBPROPERTIES
1002
{
1000
PbHidd
1002
}
  0
LINE
  5
172
330
1F
100
AcDbEntity
  8
HIDDEN
100
AcDbLine
 10
-43.71446033195461
 20
35.3992719965533
 30
0.0
 11
-43.71446033195461
 21
35.3992719965533
 31
0.0
1001
DBPROPERTIES
1002
{
1000
PbHidd
1002
}
  0
LINE
  5
173
330
1F
100
AcDbEntity
  8
HIDDEN
100
AcDbLine
 10
-47.17521944693009
 20
30.6359457195952
 30
0.0
 11
-47.17521944693009
 21
30.63594571959521
 31
0.0
1001
DBPROPERTIES
1002
{
1000
PbHidd
1002
}
  0
LINE
  5
174
330
1F
100
AcDbEntity
  8
HIDDEN
100
AcDbLine
 10
-47.17521944693006
 20
-30.63594571959531
 30
0.0
 11
-47.17521944693006
 21
-30.63594571959532
 31
0.0
1001
DBPROPERTIES
1002
{
1000
PbHidd
1002
}
  0
LINE
  5
175
330
1F
100
AcDbEntity
  8
HIDDEN
100
AcDbLine
 10
-43.71446033195458
 20
-35.3992719965534
 30
0.0
 11
-43.71446033195458
 21
-35.3992719965534
 31
0.0
1001
DBPROPERTIES
1002
{
1000
PbHidd
1002
}
  0
LINE
  5
176
330
1F
100
AcDbEntity
  8
HIDDEN
100
AcDbLine
 10
-35.39927199655335
 20
43.71446033195456
 30
0.0
 11
-35.39927199655335
 21
43.71446033195456
 31
0.0
1001
DBPROPERTIES
1002
{
1000
PbHidd
1002
}
  0
LINE
  5
177
330
1F
100
AcDbEntity
  8
HIDDEN
100
AcDbLine
 10
-39.77475644174329
 20
39.77475644174324
 30
0.0
 11
-39.77475644174329
 21
39.77475644174324
 31
0.0
1001
DBPROPERTIES
1002
{
1000
PbHidd
1002
}
  0
LINE
  5
178
330
1F
100
AcDbEntity
  8
HIDDEN
100
AcDbLine
 10
-39.77475644174328
 20
-39.77475644174332
 30
0.0
 11
-39.77475644174328
 21
-39.77475644174332
 31
0.0
1001
DBPROPERTIES
1002
{
1000
PbHidd
1002
}
  0
LINE
  5
179
330
1F
100
AcDbEntity
  8
HIDDEN
100
AcDbLine
 10
-35.39927199655333
 20
-43.71446033195463
 30
0.0
 11
-35.39927199655333
 21
-43.71446033195463
 31
0.0
1001
DBPROPERTIES
1002
{
1000
PbHidd
1002
}
  0
LINE
  5
17A
330
1F
100
AcDbEntity
  8
HIDDEN
100
AcDbLine
 10
-25.53696561034952
 20
50.11911698559564
 30
0.0
 11
-25.53696561034952
 21
50.11911698559564
 31
0.0
1001
DBPROPERTIES
1002
{
1000
PbHidd
1002
}
  0
LINE
  5
17B
330
1F
100
AcDbEntity
  8
HIDDEN
100
AcDbLine
 10
-30.63594571959528
 20
47.17521944693004
 30
0.0
 11
-30.63594571959527
 21
47.17521944693004
 31
0.0
1001
DBPROPERTIES
1002
{
1000
PbHidd
1002
}
  0
LINE
  5
17C
330
1F
100
AcDbEntity
  8
HIDDEN
100
AcDbLine
 10
-30.63594571959525
 20
-47.17521944693011
 30
0.0
 11
-30.63594571959525
 21
-47.17521944693011
 31
0.0
1001
DBPROPERTIES
1002
{
1000
PbHidd
1002
}
  0
LINE
  5
17D
330
1F
100
AcDbEntity
  8
HIDDEN
100
AcDbLine
 10
-25.53696561034949
 20
-50.11911698559571
 30
0.0
 11
-25.53696561034949
 21
-50.11911698559571
 31
0.0
1001
DBPROPERTIES
1002
{
1000
PbHidd
1002
}
  0
LINE
  5
17E
330
1F
100
AcDbEntity
  8
HIDDEN
100
AcDbLine
 10
-14.55857128701682
 20
54.33332772876005
 30
0.0
 11
-14.55857128701683
 21
54.33332772876005
 31
0.0
1001
DBPROPERTIES
1002
{
1000
PbHidd
1002
}
  0
LINE
  5
17F
330
1F
100
AcDbEntity
  8
HIDDEN
100
AcDbLine
 10
-20.15819716192317
 20
52.51389899046755
 30
0.0
 11
-20.15819716192317
 21
52.51389899046755
 31
0.0
1001
DBPROPERTIES
1002
{
1000
PbHidd
1002
}
  0
LINE
  5
180
330
1F
100
AcDbEntity
  8
HIDDEN
100
AcDbLine
 10
-20.15819716192312
 20
-52.51389899046762
 30
0.0
 11
-20.15819716192313
 21
-52.51389899046762
 31
0.0
1001
DBPROPERTIES
1002
{
1000
PbHidd
1002
}
  0
LINE
  5
181
330
1F
100
AcDbEntity
  8
HIDDEN
100
AcDbLine
 10
-14.55857128701678
 20
-54.33332772876011
 30
0.0
 11
-14.55857128701678
 21
-54.33332772876011
 31
0.0
1001
DBPROPERTIES
1002
{
1000
PbHidd
1002
}
  0
LINE
  5
182
330
1F
100
AcDbEntity
  8
HIDDEN
100
AcDbLine
 10
-2.943897538665602
 20
56.17291132994475
 30
0.0
 11
-2.943897538665609
 21
56.17291132994475
 31
0.0
1001
DBPROPERTIES
1002
{
1000
PbHidd
1002
}
  0
LINE
  5
183
330
1F
100
AcDbEntity
  8
HIDDEN
100
AcDbLine
 10
-8.799438658513003
 20
55.55746915847647
 30
0.0
 11
-8.799438658512996
 21
55.55746915847647
 31
0.0
1001
DBPROPERTIES
1002
{
1000
PbHidd
1002
}
  0
LINE
  5
184
330
1F
100
AcDbEntity
  8
HIDDEN
100
AcDbLine
 10
-8.79943865851297
 20
-55.55746915847652
 30
0.0
 11
-8.799438658512978
 21
-55.55746915847652
 31
0.0
1001
DBPROPERTIES
1002
{
1000
PbHidd
1002
}
  0
LINE
  5
185
330
1F
100
AcDbEntity
  8
HIDDEN
100
AcDbLine
 10
-2.94389753866558
 20
-56.17291132994481
 30
0.0
 11
-2.943897538665573
 21
-56.17291132994481
 31
0.0
1001
DBPROPERTIES
1002
{
1000
PbHidd
1002
}
  0
LINE
  5
186
330
1F
100
AcDbEntity
  8
HIDDEN
100
AcDbLine
 10
8.799438658512944
 20
55.55746915847648
 30
0.0
 11
8.799438658512937
 21
55.55746915847648
 31
0.0
1001
DBPROPERTIES
1002
{
1000
PbHidd
1002
}
  0
LINE
  5
187
330
1F
100
AcDbEntity
  8
HIDDEN
100
AcDbLine
 10
2.943897538665542
 20
56.17291132994476
 30
0.0
 11
2.943897538665549
 21
56.17291132994476
 31
0.0
1001
DBPROPERTIES
1002
{
1000
PbHidd
1002
}
  0
LINE
  5
188
330
1F
100
AcDbEntity
  8
HIDDEN
100
AcDbLine
 10
2.943897538665603
 20
-56.17291132994481
 30
0.0
 11
2.943897538665596
 21
-56.17291132994481
 31
0.0
1001
DBPROPERTIES
1002
{
1000
PbHidd
1002
}
  0
LINE
  5
189
330
1F
100
AcDbEntity
  8
HIDDEN
100
AcDbLine
 10
8.799438658512992
 20
-55.55746915847654
 30
0.0
 11
8.799438658513
 21
-55.55746915847654
 31
0.0
1001
DBPROPERTIES
1002
{
1000
PbHidd
1002
}
  0
LINE
  5
18A
330
1F
100
AcDbEntity
  8
HIDDEN
100
AcDbLine
 10
20.15819716192312
 20
52.5138989904676
 30
0.0
 11
20.15819716192312
 21
52.5138989904676
 31
0.0
1001
DBPROPERTIES
1002
{
1000
PbHidd
1002
}
  0
LINE
  5
18B
330
1F
100
AcDbEntity
  8
HIDDEN
100
AcDbLine
 10
14.55857128701676
 20
54.33332772876008
 30
0.0
 11
14.55857128701677
 21
54.33332772876008
 31
0.0
1001
DBPROPERTIES
1002
{
1000
PbHidd
1002
}
  0
LINE
  5
18C
330
1F
100
AcDbEntity
  8
HIDDEN
100
AcDbLine
 10
14.5585712870168
 20
-54.33332772876012
 30
0.0
 11
14.5585712870168
 21
-54.33332772876012
 31
0.0
1001
DBPROPERTIES
1002
{
1000
PbHidd
1002
}
  0
LINE
  5
18D
330
1F
100
AcDbEntity
  8
HIDDEN
100
AcDbLine
 10
20.15819716192315
 20
-52.51389899046764
 30
0.0
 11
20.15819716192316
 21
-52.51389899046764
 31
0.0
1001
DBPROPERTIES
1002
{
1000
PbHidd
1002
}
  0
LINE
  5
18E
330
1F
100
AcDbEntity
  8
HIDDEN
100
AcDbLine
 10
30.63594571959528
 20
47.1752194469301
 30
0.0
 11
30.63594571959527
 21
47.1752194469301
 31
0.0
1001
DBPROPERTIES
1002
{
1000
PbHidd
1002
}
  0
LINE
  5
18F
330
1F
100
AcDbEntity
  8
HIDDEN
100
AcDbLine
 10
25.5369656103495
 20
50.11911698559569
 30
0.0
 11
25.53696561034951
 21
50.11911698559569
 31
0.0
1001
DBPROPERTIES
1002
{
1000
PbHidd
1002
}
  0
LINE
  5
190
330
1F
100
AcDbEntity
  8
HIDDEN
100
AcDbLine
 10
25.53696561034953
 20
-50.11911698559573
 30
0.0
 11
25.53696561034953
 21
-50.11911698559573
 31
0.0
1001
DBPROPERTIES
1002
{
1000
PbHidd
1002
}
  0
LINE
  5
191
330
1F
100
AcDbEntity
  8
HIDDEN
100
AcDbLine
 10
30.63594571959529
 20
-47.17521944693014
 30
0.0
 11
30.6359457195953
 21
-47.17521944693014
 31
0.0
1001
DBPROPERTIES
1002
{
1000
PbHidd
1002
}
  0
LINE
  5
192
330
1F
100
AcDbEntity
  8
HIDDEN
100
AcDbLine
 10
39.77475644174329
 20
39.77475644174332
 30
0.0
 11
39.77475644174329
 21
39.77475644174332
 31
0.0
1001
DBPROPERTIES
1002
{
1000
PbHidd
1002
}
  0
LINE
  5
193
330
1F
100
AcDbEntity
  8
HIDDEN
100
AcDbLine
 10
35.39927199655334
 20
43.71446033195463
 30
0.0
 11
35.39927199655334
 21
43.71446033195463
 31
0.0
1001
DBPROPERTIES
1002
{
1000
PbHidd
1002
}
  0
LINE
  5
194
330
1F
100
AcDbEntity
  8
HIDDEN
100
AcDbLine
 10
35.39927199655337
 20
-43.71446033195465
 30
0.0
 11
35.39927199655337
 21
-43.71446033195465
 31
0.0
1001
DBPROPERTIES
1002
{
1000
PbHidd
1002
}
  0
LINE
  5
195
330
1F
100
AcDbEntity
  8
HIDDEN
100
AcDbLine
 10
39.77475644174332
 20
-39.77475644174334
 30
0.0
 11
39.77475644174332
 21
-39.77475644174334
 31
0.0
1001
DBPROPERTIES
1002
{
1000
PbHidd
1002
}
  0
LINE
  5
196
330
1F
100
AcDbEntity
  8
HIDDEN
100
AcDbLine
 10
47.17521944693011
 20
30.63594571959529
 30
0.0
 11
47.17521944693011
 21
30.63594571959528
 31
0.0
1001
DBPROPERTIES
1002
{
1000
PbHidd
1002
}
  0
LINE
  5
197
330
1F
100
AcDbEntity
  8
HIDDEN
100
AcDbLine
 10
43.71446033195462
 20
35.39927199655338
 30
0.0
 11
43.71446033195462
 21
35.39927199655338
 31
0.0
1001
DBPROPERTIES
1002
{
1000
PbHidd
1002
}
  0
LINE
  5
198
330
1F
100
AcDbEntity
  8
HIDDEN
100
AcDbLine
 10
43.71446033195463
 20
-35.3992719965534
 30
0.0
 11
43.71446033195463
 21
-35.3992719965534
 31
0.0
1001
DBPROPERTIES
1002
{
1000
PbHidd
1002
}
  0
LINE
  5
199
330
1F
100
AcDbEntity
  8
HIDDEN
100
AcDbLine
 10
47.17521944693013
 20
-30.63594571959533
 30
0.0
 11
47.17521944693013
 21
-30.63594571959532
 31
0.0
1001
DBPROPERTIES
1002
{
1000
PbHidd
1002
}
  0
LINE
  5
19A
330
1F
100
AcDbEntity
  8
HIDDEN
100
AcDbLine
 10
52.51389899046762
 20
20.15819716192314
 30
0.0
 11
52.51389899046762
 21
20.15819716192314
 31
0.0
1001
DBPROPERTIES
1002
{
1000
PbHidd
1002
}
  0
LINE
  5
19B
330
1F
100
AcDbEntity
  8
HIDDEN
100
AcDbLine
 10
50.11911698559572
 20
25.5369656103495
 30
0.0
 11
50.11911698559572
 21
25.53696561034951
 31
0.0
1001
DBPROPERTIES
1002
{
1000
PbHidd
1002
}
  0
LINE
  5
19C
330
1F
100
AcDbEntity
  8
HIDDEN
100
AcDbLine
 10
50.11911698559572
 20
-25.53696561034954
 30
0.0
 11
50.11911698559572
 21
-25.53696561034955
 31
0.0
1001
DBPROPERTIES
1002
{
1000
PbHidd
1002
}
  0
LINE
  5
19D
330
1F
100
AcDbEntity
  8
HIDDEN
100
AcDbLine
 10
52.51389899046764
 20
-20.15819716192318
 30
0.0
 11
52.51389899046764
 21
-20.15819716192318
 31
0.0
1001
DBPROPERTIES
1002
{
1000
PbHidd
1002
}
  0
LINE
  5
19E
330
1F
100
AcDbEntity
  8
HIDDEN
100
AcDbLine
 10
55.55746915847652
 20
8.799438658513013
 30
0.0
 11
55.55746915847652
 21
8.799438658513006
 31
0.0
1001
DBPROPERTIES
1002
{
1000
PbHidd
1002
}
  0
LINE
  5
19F
330
1F
100
AcDbEntity
  8
HIDDEN
100
AcDbLine
 10
54.33332772876012
 20
14.55857128701681
 30
0.0
 11
54.33332772876012
 21
14.55857128701682
 31
0.0
1001
DBPROPERTIES
1002
{
1000
PbHidd
1002
}
  0
LINE
  5
1A0
330
1F
100
AcDbEntity
  8
HIDDEN
100
AcDbLine
 10
55.55746915847654
 20
-8.799438658513022
 30
0.0
 11
55.55746915847654
 21
-8.799438658513015
 31
0.0
1001
DBPROPERTIES
1002
{
1000
PbHidd
1002
}
  0
LINE
  5
1A1
330
1F
100
AcDbEntity
  8
HIDDEN
100
AcDbLine
 10
54.33332772876013
 20
-14.55857128701683
 30
0.0
 11
54.33332772876013
 21
-14.55857128701683
 31
0.0
1001
DBPROPERTIES
1002
{
1000
PbHidd
1002
}
  0
LINE
  5
1A2
330
1F
100
AcDbEntity
  8
HIDDEN
100
AcDbLine
 10
88.89195065356242
 20
-14.0791018536208
 30
0.0
 11
88.89195065356242
 21
-14.07910185362081
 31
0.0
1001
DBPROPERTIES
1002
{
1000
PbHidd
1002
}
  0
LINE
  5
1A3
330
1F
100
AcDbEntity
  8
HIDDEN
100
AcDbLine
 10
36.93954393825814
 20
-5.850648992504659
 30
0.0
 11
36.93954393825814
 21
-5.850648992504665
 31
0.0
1001
DBPROPERTIES
1002
{
1000
PbHidd
1002
}
  0
LINE
  5
1A4
330
1F
100
AcDbEntity
  8
HIDDEN
100
AcDbLine
 10
36.93954393825813
 20
5.850648992504635
 30
0.0
 11
36.93954393825813
 21
5.850648992504629
 31
0.0
1001
DBPROPERTIES
1002
{
1000
PbHidd
1002
}
  0
LINE
  5
1A5
330
1F
100
AcDbEntity
  8
HIDDEN
100
AcDbLine
 10
34.91590795099533
 20
13.40296131299421
 30
0.0
 11
34.91590795099533
 21
13.4029613129942
 31
0.0
1001
DBPROPERTIES
1002
{
1000
PbHidd
1002
}
  0
LINE
  5
1A6
330
1F
100
AcDbEntity
  8
HIDDEN
100
AcDbLine
 10
84.02223838474818
 20
32.25311545907704
 30
0.0
 11
84.02223838474818
 21
32.25311545907704
 31
0.0
1001
DBPROPERTIES
1002
{
1000
PbHidd
1002
}
  0
LINE
  5
1A7
330
1F
100
AcDbEntity
  8
HIDDEN
100
AcDbLine
 10
36.12562590321113
 20
9.67983228683428
 30
0.0
 11
36.12562590321113
 21
9.679832286834273
 31
0.0
1001
DBPROPERTIES
1002
{
1000
PbHidd
1002
}
  0
LINE
  5
1A8
330
1F
100
AcDbEntity
  8
HIDDEN
100
AcDbLine
 10
80.19058717695313
 20
40.85914497655922
 30
0.0
 11
80.19058717695313
 21
40.85914497655922
 31
0.0
1001
DBPROPERTIES
1002
{
1000
PbHidd
1002
}
  0
LINE
  5
1A9
330
1F
100
AcDbEntity
  8
HIDDEN
100
AcDbLine
 10
75.48035111508817
 20
49.01751315135246
 30
0.0
 11
75.48035111508817
 21
49.01751315135246
 31
0.0
1001
DBPROPERTIES
1002
{
1000
PbHidd
1002
}
  0
LINE
  5
1AA
330
1F
100
AcDbEntity
  8
HIDDEN
100
AcDbLine
 10
31.36627924115884
 20
20.36949990956199
 30
0.0
 11
31.36627924115884
 21
20.36949990956198
 31
0.0
1001
DBPROPERTIES
1002
{
1000
PbHidd
1002
}
  0
LINE
  5
1AB
330
1F
100
AcDbEntity
  8
HIDDEN
100
AcDbLine
 10
33.32364400464494
 20
16.97924469025903
 30
0.0
 11
33.32364400464494
 21
16.97924469025902
 31
0.0
1001
DBPROPERTIES
1002
{
1000
PbHidd
1002
}
  0
LINE
  5
1AC
330
1F
100
AcDbEntity
  8
HIDDEN
100
AcDbLine
 10
69.94313653112737
 20
56.6388351944854
 30
0.0
 11
69.94313653112737
 21
56.6388351944854
 31
0.0
1001
DBPROPERTIES
1002
{
1000
PbHidd
1002
}
  0
LINE
  5
1AD
330
1F
100
AcDbEntity
  8
HIDDEN
100
AcDbLine
 10
63.63961030678924
 20
63.63961030678931
 30
0.0
 11
63.63961030678924
 21
63.63961030678931
 31
0.0
1001
DBPROPERTIES
1002
{
1000
PbHidd
1002
}
  0
LINE
  5
1AE
330
1F
100
AcDbEntity
  8
HIDDEN
100
AcDbLine
 10
26.44579361637685
 20
26.44579361637686
 30
0.0
 11
26.44579361637685
 21
26.44579361637685
 31
0.0
1001
DBPROPERTIES
1002
{
1000
PbHidd
1002
}
  0
LINE
  5
1AF
330
1F
100
AcDbEntity
  8
HIDDEN
100
AcDbLine
 10
29.06525895849068
 20
23.5365826252639
 30
0.0
 11
29.06525895849068
 21
23.53658262526389
 31
0.0
1001
DBPROPERTIES
1002
{
1000
PbHidd
1002
}
  0
LINE
  5
1B0
330
1F
100
AcDbEntity
  8
HIDDEN
100
AcDbLine
 10
56.63883519448532
 20
69.9431365311274
 30
0.0
 11
56.63883519448532
 21
69.9431365311274
 31
0.0
1001
DBPROPERTIES
1002
{
1000
PbHidd
1002
}
  0
LINE
  5
1B1
330
1F
100
AcDbEntity
  8
HIDDEN
100
AcDbLine
 10
49.01751315135242
 20
75.48035111508815
 30
0.0
 11
49.01751315135242
 21
75.48035111508815
 31
0.0
1001
DBPROPERTIES
1002
{
1000
PbHidd
1002
}
  0
LINE
  5
1B2
330
1F
100
AcDbEntity
  8
HIDDEN
100
AcDbLine
 10
20.369499909562
 20
31.36627924115883
 30
0.0
 11
20.369499909562
 21
31.36627924115882
 31
0.0
1001
DBPROPERTIES
1002
{
1000
PbHidd
1002
}
  0
LINE
  5
1B3
330
1F
100
AcDbEntity
  8
HIDDEN
100
AcDbLine
 10
23.53658262526389
 20
29.06525895849069
 30
0.0
 11
23.53658262526389
 21
29.06525895849068
 31
0.0
1001
DBPROPERTIES
1002
{
1000
PbHidd
1002
}
  0
LINE
  5
1B4
330
1F
100
AcDbEntity
  8
HIDDEN
100
AcDbLine
 10
40.85914497655919
 20
80.19058717695309
 30
0.0
 11
40.85914497655919
 21
80.19058717695309
 31
0.0
1001
DBPROPERTIES
1002
{
1000
PbHidd
1002
}
  0
LINE
  5
1B5
330
1F
100
AcDbEntity
  8
HIDDEN
100
AcDbLine
 10
32.25311545907698
 20
84.02223838474815
 30
0.0
 11
32.25311545907698
 21
84.02223838474815
 31
0.0
1001
DBPROPERTIES
1002
{
1000
PbHidd
1002
}
  0
LINE
  5
1B6
330
1F
100
AcDbEntity
  8
HIDDEN
100
AcDbLine
 10
13.40296131299421
 20
34.91590795099532
 30
0.0
 11
13.40296131299421
 21
34.91590795099531
 31
0.0
1001
DBPROPERTIES
1002
{
1000
PbHidd
1002
}
  0
LINE
  5
1B7
330
1F
100
AcDbEntity
  8
HIDDEN
100
AcDbLine
 10
16.97924469025904
 20
33.32364400464493
 30
0.0
 11
16.97924469025904
 21
33.32364400464492
 31
0.0
1001
DBPROPERTIES
1002
{
1000
PbHidd
1002
}
  0
LINE
  5
1B8
330
1F
100
AcDbEntity
  8
HIDDEN
100
AcDbLine
 10
23.29371405922683
 20
86.93332436601612
 30
0.0
 11
23.29371405922682
 21
86.93332436601612
 31
0.0
1001
DBPROPERTIES
1002
{
1000
PbHidd
1002
}
  0
LINE
  5
1B9
330
1F
100
AcDbEntity
  8
HIDDEN
100
AcDbLine
 10
14.07910185362071
 20
88.89195065356238
 30
0.0
 11
14.07910185362071
 21
88.89195065356238
 31
0.0
1001
DBPROPERTIES
1002
{
1000
PbHidd
1002
}
  0
LINE
  5
1BA
330
1F
100
AcDbEntity
  8
HIDDEN
100
AcDbLine
 10
5.850648992504604
 20
36.93954393825813
 30
0.0
 11
5.850648992504604
 21
36.93954393825812
 31
0.0
1001
DBPROPERTIES
1002
{
1000
PbHidd
1002
}
  0
LINE
  5
1BB
330
1F
100
AcDbEntity
  8
HIDDEN
100
AcDbLine
 10
9.679832286834253
 20
36.12562590321112
 30
0.0
 11
9.679832286834253
 21
36.12562590321112
 31
0.0
1001
DBPROPERTIES
1002
{
1000
PbHidd
1002
}
  0
LINE
  5
1BC
330
1F
100
AcDbEntity
  8
HIDDEN
100
AcDbLine
 10
4.710236061864875
 20
89.87665812791161
 30
0.0
 11
4.710236061864873
 21
89.87665812791161
 31
0.0
1001
DBPROPERTIES
1002
{
1000
PbHidd
1002
}
  0
LINE
  5
1BD
330
1F
100
AcDbEntity
  8
HIDDEN
100
AcDbLine
 10
-4.710236061864967
 20
89.8766581279116
 30
0.0
 11
-4.710236061864965
 21
89.8766581279116
 31
0.0
1001
DBPROPERTIES
1002
{
1000
PbHidd
1002
}
  0
LINE
  5
1BE
330
1F
100
AcDbEntity
  8
HIDDEN
100
AcDbLine
 10
-1.957364763486106
 20
37.34874459982103
 30
0.0
 11
-1.957364763486106
 21
37.34874459982102
 31
0.0
1001
DBPROPERTIES
1002
{
1000
PbHidd
1002
}
  0
LINE
  5
1BF
330
1F
100
AcDbEntity
  8
HIDDEN
100
AcDbLine
 10
1.957364763486069
 20
37.34874459982103
 30
0.0
 11
1.957364763486069
 21
37.34874459982102
 31
0.0
1001
DBPROPERTIES
1002
{
1000
PbHidd
1002
}
  0
LINE
  5
1C0
330
1F
100
AcDbEntity
  8
HIDDEN
100
AcDbLine
 10
-14.07910185362079
 20
88.89195065356233
 30
0.0
 11
-14.0791018536208
 21
88.89195065356233
 31
0.0
1001
DBPROPERTIES
1002
{
1000
PbHidd
1002
}
  0
LINE
  5
1C1
330
1F
100
AcDbEntity
  8
HIDDEN
100
AcDbLine
 10
-23.29371405922692
 20
86.93332436601607
 30
0.0
 11
-23.29371405922691
 21
86.93332436601607
 31
0.0
1001
DBPROPERTIES
1002
{
1000
PbHidd
1002
}
  0
LINE
  5
1C2
330
1F
100
AcDbEntity
  8
HIDDEN
100
AcDbLine
 10
-9.679832286834296
 20
36.12562590321112
 30
0.0
 11
-9.679832286834296
 21
36.12562590321111
 31
0.0
1001
DBPROPERTIES
1002
{
1000
PbHidd
1002
}
  0
LINE
  5
1C3
330
1F
100
AcDbEntity
  8
HIDDEN
100
AcDbLine
 10
-5.850648992504641
 20
36.93954393825811
 30
0.0
 11
-5.850648992504641
 21
36.9395439382581
 31
0.0
1001
DBPROPERTIES
1002
{
1000
PbHidd
1002
}
  0
LINE
  5
1C4
330
1F
100
AcDbEntity
  8
HIDDEN
100
AcDbLine
 10
-32.25311545907707
 20
84.02223838474808
 30
0.0
 11
-32.25311545907707
 21
84.02223838474808
 31
0.0
1001
DBPROPERTIES
1002
{
1000
PbHidd
1002
}
  0
LINE
  5
1C5
330
1F
100
AcDbEntity
  8
HIDDEN
100
AcDbLine
 10
-40.85914497655924
 20
80.19058717695303
 30
0.0
 11
-40.85914497655924
 21
80.19058717695303
 31
0.0
1001
DBPROPERTIES
1002
{
1000
PbHidd
1002
}
  0
LINE
  5
1C6
330
1F
100
AcDbEntity
  8
HIDDEN
100
AcDbLine
 10
-16.97924469025906
 20
33.32364400464493
 30
0.0
 11
-16.97924469025906
 21
33.32364400464492
 31
0.0
1001
DBPROPERTIES
1002
{
1000
PbHidd
1002
}
  0
LINE
  5
1C7
330
1F
100
AcDbEntity
  8
HIDDEN
100
AcDbLine
 10
-13.40296131299425
 20
34.9159079509953
 30
0.0
 11
-13.40296131299425
 21
34.9159079509953
 31
0.0
1001
DBPROPERTIES
1002
{
1000
PbHidd
1002
}
  0
LINE
  5
1C8
330
1F
100
AcDbEntity
  8
HIDDEN
100
AcDbLine
 10
-49.01751315135245
 20
75.48035111508808
 30
0.0
 11
-49.01751315135245
 21
75.48035111508808
 31
0.0
1001
DBPROPERTIES
1002
{
1000
PbHidd
1002
}
  0
LINE
  5
1C9
330
1F
100
AcDbEntity
  8
HIDDEN
100
AcDbLine
 10
-56.63883519448537
 20
69.94313653112731
 30
0.0
 11
-56.63883519448537
 21
69.94313653112731
 31
0.0
1001
DBPROPERTIES
1002
{
1000
PbHidd
1002
}
  0
LINE
  5
1CA
330
1F
100
AcDbEntity
  8
HIDDEN
100
AcDbLine
 10
-23.53658262526392
 20
29.06525895849067
 30
0.0
 11
-23.53658262526392
 21
29.06525895849066
 31
0.0
1001
DBPROPERTIES
1002
{
1000
PbHidd
1002
}
  0
LINE
  5
1CB
330
1F
100
AcDbEntity
  8
HIDDEN
100
AcDbLine
 10
-20.36949990956202
 20
31.36627924115881
 30
0.0
 11
-20.36949990956202
 21
31.36627924115881
 31
0.0
1001
DBPROPERTIES
1002
{
1000
PbHidd
1002
}
  0
LINE
  5
1CC
330
1F
100
AcDbEntity
  8
HIDDEN
100
AcDbLine
 10
-63.63961030678927
 20
63.63961030678921
 30
0.0
 11
-63.63961030678927
 21
63.63961030678921
 31
0.0
1001
DBPROPERTIES
1002
{
1000
PbHidd
1002
}
  0
LINE
  5
1CD
330
1F
100
AcDbEntity
  8
HIDDEN
100
AcDbLine
 10
-69.94313653112738
 20
56.63883519448529
 30
0.0
 11
-69.94313653112738
 21
56.63883519448529
 31
0.0
1001
DBPROPERTIES
1002
{
1000
PbHidd
1002
}
  0
LINE
  5
1CE
330
1F
100
AcDbEntity
  8
HIDDEN
100
AcDbLine
 10
-29.06525895849071
 20
23.53658262526387
 30
0.0
 11
-29.06525895849071
 21
23.53658262526386
 31
0.0
1001
DBPROPERTIES
1002
{
1000
PbHidd
1002
}
  0
LINE
  5
1CF
330
1F
100
AcDbEntity
  8
HIDDEN
100
AcDbLine
 10
-26.44579361637687
 20
26.44579361637683
 30
0.0
 11
-26.44579361637687
 21
26.44579361637683
 31
0.0
1001
DBPROPERTIES
1002
{
1000
PbHidd
1002
}
  0
LINE
  5
1D0
330
1F
100
AcDbEntity
  8
HIDDEN
100
AcDbLine
 10
-75.48035111508815
 20
49.01751315135236
 30
0.0
 11
-75.48035111508815
 21
49.01751315135236
 31
0.0
1001
DBPROPERTIES
1002
{
1000
PbHidd
1002
}
  0
LINE
  5
1D1
330
1F
100
AcDbEntity
  8
HIDDEN
100
AcDbLine
 10
-80.1905871769531
 20
40.85914497655914
 30
0.0
 11
-80.1905871769531
 21
40.85914497655914
 31
0.0
1001
DBPROPERTIES
1002
{
1000
PbHidd
1002
}
  0
LINE
  5
1D2
330
1F
100
AcDbEntity
  8
HIDDEN
100
AcDbLine
 10
-33.32364400464495
 20
16.97924469025901
 30
0.0
 11
-33.32364400464495
 21
16.979244690259
 31
0.0
1001
DBPROPERTIES
1002
{
1000
PbHidd
1002
}
  0
LINE
  5
1D3
330
1F
100
AcDbEntity
  8
HIDDEN
100
AcDbLine
 10
-31.36627924115885
 20
20.36949990956196
 30
0.0
 11
-31.36627924115885
 21
20.36949990956196
 31
0.0
1001
DBPROPERTIES
1002
{
1000
PbHidd
1002
}
  0
LINE
  5
1D4
330
1F
100
AcDbEntity
  8
HIDDEN
100
AcDbLine
 10
-84.02223838474814
 20
32.25311545907696
 30
0.0
 11
-84.02223838474814
 21
32.25311545907696
 31
0.0
1001
DBPROPERTIES
1002
{
1000
PbHidd
1002
}
  0
LINE
  5
1D5
330
1F
100
AcDbEntity
  8
HIDDEN
100
AcDbLine
 10
-86.93332436601611
 20
23.29371405922681
 30
0.0
 11
-86.93332436601611
 21
23.29371405922682
 31
0.0
1001
DBPROPERTIES
1002
{
1000
PbHidd
1002
}
  0
LINE
  5
1D6
330
1F
100
AcDbEntity
  8
HIDDEN
100
AcDbLine
 10
-36.12562590321114
 20
9.679832286834245
 30
0.0
 11
-36.12562590321114
 21
9.679832286834237
 31
0.0
1001
DBPROPERTIES
1002
{
1000
PbHidd
1002
}
  0
LINE
  5
1D7
330
1F
100
AcDbEntity
  8
HIDDEN
100
AcDbLine
 10
-34.91590795099534
 20
13.40296131299419
 30
0.0
 11
-34.91590795099534
 21
13.40296131299418
 31
0.0
1001
DBPROPERTIES
1002
{
1000
PbHidd
1002
}
  0
LINE
  5
1D8
330
1F
100
AcDbEntity
  8
HIDDEN
100
AcDbLine
 10
-88.89195065356235
 20
14.07910185362073
 30
0.0
 11
-88.89195065356235
 21
14.07910185362073
 31
0.0
1001
DBPROPERTIES
1002
{
1000
PbHidd
1002
}
  0
LINE
  5
1D9
330
1F
100
AcDbEntity
  8
HIDDEN
100
AcDbLine
 10
-89.87665812791161
 20
4.710236061864871
 30
0.0
 11
-89.87665812791161
 21
4.710236061864872
 31
0.0
1001
DBPROPERTIES
1002
{
1000
PbHidd
1002
}
  0
LINE
  5
1DA
330
1F
100
AcDbEntity
  8
HIDDEN
100
AcDbLine
 10
-37.34874459982105
 20
1.957364763486055
 30
0.0
 11
-37.34874459982105
 21
1.957364763486048
 31
0.0
1001
DBPROPERTIES
1002
{
1000
PbHidd
1002
}
  0
LINE
  5
1DB
330
1F
100
AcDbEntity
  8
HIDDEN
100
AcDbLine
 10
-36.93954393825814
 20
5.850648992504599
 30
0.0
 11
-36.93954393825814
 21
5.850648992504593
 31
0.0
1001
DBPROPERTIES
1002
{
1000
PbHidd
1002
}
  0
LINE
  5
1DC
330
1F
100
AcDbEntity
  8
HIDDEN
100
AcDbLine
 10
-89.8766581279116
 20
-4.710236061865014
 30
0.0
 11
-89.8766581279116
 21
-4.710236061865015
 31
0.0
1001
DBPROPERTIES
1002
{
1000
PbHidd
1002
}
  0
LINE
  5
1DD
330
1F
100
AcDbEntity
  8
HIDDEN
100
AcDbLine
 10
-88.89195065356235
 20
-14.07910185362083
 30
0.0
 11
-88.89195065356235
 21
-14.07910185362083
 31
0.0
1001
DBPROPERTIES
1002
{
1000
PbHidd
1002
}
  0
LINE
  5
1DE
330
1F
100
AcDbEntity
  8
HIDDEN
100
AcDbLine
 10
-36.93954393825813
 20
-5.850648992504669
 30
0.0
 11
-36.93954393825813
 21
-5.850648992504675
 31
0.0
1001
DBPROPERTIES
1002
{
1000
PbHidd
1002
}
  0
LINE
  5
1DF
330
1F
100
AcDbEntity
  8
HIDDEN
100
AcDbLine
 10
-37.34874459982105
 20
-1.957364763486142
 30
0.0
 11
-37.34874459982105
 21
-1.957364763486149
 31
0.0
1001
DBPROPERTIES
1002
{
1000
PbHidd
1002
}
  0
LINE
  5
1E0
330
1F
100
AcDbEntity
  8
HIDDEN
100
AcDbLine
 10
-86.93332436601611
 20
-23.29371405922691
 30
0.0
 11
-86.93332436601611
 21
-23.29371405922691
 31
0.0
1001
DBPROPERTIES
1002
{
1000
PbHidd
1002
}
  0
LINE
  5
1E1
330
1F
100
AcDbEntity
  8
HIDDEN
100
AcDbLine
 10
-84.0222383847481
 20
-32.25311545907706
 30
0.0
 11
-84.0222383847481
 21
-32.25311545907706
 31
0.0
1001
DBPROPERTIES
1002
{
1000
PbHidd
1002
}
  0
LINE
  5
1E2
330
1F
100
AcDbEntity
  8
HIDDEN
100
AcDbLine
 10
-34.91590795099533
 20
-13.40296131299425
 30
0.0
 11
-34.91590795099533
 21
-13.40296131299426
 31
0.0
1001
DBPROPERTIES
1002
{
1000
PbHidd
1002
}
  0
LINE
  5
1E3
330
1F
100
AcDbEntity
  8
HIDDEN
100
AcDbLine
 10
-36.12562590321114
 20
-9.679832286834307
 30
0.0
 11
-36.12562590321114
 21
-9.679832286834314
 31
0.0
1001
DBPROPERTIES
1002
{
1000
PbHidd
1002
}
  0
LINE
  5
1E4
330
1F
100
AcDbEntity
  8
HIDDEN
100
AcDbLine
 10
-80.19058717695307
 20
-40.85914497655924
 30
0.0
 11
-80.19058717695307
 21
-40.85914497655924
 31
0.0
1001
DBPROPERTIES
1002
{
1000
PbHidd
1002
}
  0
LINE
  5
1E5
330
1F
100
AcDbEntity
  8
HIDDEN
100
AcDbLine
 10
-75.48035111508811
 20
-49.01751315135249
 30
0.0
 11
-75.48035111508811
 21
-49.01751315135249
 31
0.0
1001
DBPROPERTIES
1002
{
1000
PbHidd
1002
}
  0
LINE
  5
1E6
330
1F
100
AcDbEntity
  8
HIDDEN
100
AcDbLine
 10
-31.36627924115884
 20
-20.36949990956205
 30
0.0
 11
-31.36627924115884
 21
-20.36949990956206
 31
0.0
1001
DBPROPERTIES
1002
{
1000
PbHidd
1002
}
  0
LINE
  5
1E7
330
1F
100
AcDbEntity
  8
HIDDEN
100
AcDbLine
 10
-33.32364400464494
 20
-16.97924469025907
 30
0.0
 11
-33.32364400464494
 21
-16.97924469025908
 31
0.0
1001
DBPROPERTIES
1002
{
1000
PbHidd
1002
}
  0
LINE
  5
1E8
330
1F
100
AcDbEntity
  8
HIDDEN
100
AcDbLine
 10
-69.94313653112732
 20
-56.63883519448542
 30
0.0
 11
-69.94313653112732
 21
-56.63883519448542
 31
0.0
1001
DBPROPERTIES
1002
{
1000
PbHidd
1002
}
  0
LINE
  5
1E9
330
1F
100
AcDbEntity
  8
HIDDEN
100
AcDbLine
 10
-63.63961030678924
 20
-63.63961030678929
 30
0.0
 11
-63.63961030678924
 21
-63.63961030678929
 31
0.0
1001
DBPROPERTIES
1002
{
1000
PbHidd
1002
}
  0
LINE
  5
1EA
330
1F
100
AcDbEntity
  8
HIDDEN
100
AcDbLine
 10
-26.44579361637686
 20
-26.4457936163769
 30
0.0
 11
-26.44579361637686
 21
-26.44579361637691
 31
0.0
1001
DBPROPERTIES
1002
{
1000
PbHidd
1002
}
  0
LINE
  5
1EB
330
1F
100
AcDbEntity
  8
HIDDEN
100
AcDbLine
 10
-29.06525895849068
 20
-23.53658262526395
 30
0.0
 11
-29.06525895849068
 21
-23.53658262526396
 31
0.0
1001
DBPROPERTIES
1002
{
1000
PbHidd
1002
}
  0
LINE
  5
1EC
330
1F
100
AcDbEntity
  8
HIDDEN
100
AcDbLine
 10
-56.63883519448534
 20
-69.94313653112741
 30
0.0
 11
-56.63883519448534
 21
-69.94313653112741
 31
0.0
1001
DBPROPERTIES
1002
{
1000
PbHidd
1002
}
  0
LINE
  5
1ED
330
1F
100
AcDbEntity
  8
HIDDEN
100
AcDbLine
 10
-49.01751315135241
 20
-75.4803511150882
 30
0.0
 11
-49.01751315135241
 21
-75.4803511150882
 31
0.0
1001
DBPROPERTIES
1002
{
1000
PbHidd
1002
}
  0
LINE
  5
1EE
330
1F
100
AcDbEntity
  8
HIDDEN
100
AcDbLine
 10
-20.369499909562
 20
-31.36627924115888
 30
0.0
 11
-20.369499909562
 21
-31.36627924115889
 31
0.0
1001
DBPROPERTIES
1002
{
1000
PbHidd
1002
}
  0
LINE
  5
1EF
330
1F
100
AcDbEntity
  8
HIDDEN
100
AcDbLine
 10
-23.5365826252639
 20
-29.06525895849073
 30
0.0
 11
-23.5365826252639
 21
-29.06525895849074
 31
0.0
1001
DBPROPERTIES
1002
{
1000
PbHidd
1002
}
  0
LINE
  5
1F0
330
1F
100
AcDbEntity
  8
HIDDEN
100
AcDbLine
 10
-40.85914497655919
 20
-80.19058717695314
 30
0.0
 11
-40.85914497655919
 21
-80.19058717695314
 31
0.0
1001
DBPROPERTIES
1002
{
1000
PbHidd
1002
}
  0
LINE
  5
1F1
330
1F
100
AcDbEntity
  8
HIDDEN
100
AcDbLine
 10
-32.253115459077
 20
-84.02223838474819
 30
0.0
 11
-32.253115459077
 21
-84.02223838474819
 31
0.0
1001
DBPROPERTIES
1002
{
1000
PbHidd
1002
}
  0
LINE
  5
1F2
330
1F
100
AcDbEntity
  8
HIDDEN
100
AcDbLine
 10
-13.40296131299422
 20
-34.91590795099535
 30
0.0
 11
-13.40296131299422
 21
-34.91590795099536
 31
0.0
1001
DBPROPERTIES
1002
{
1000
PbHidd
1002
}
  0
LINE
  5
1F3
330
1F
100
AcDbEntity
  8
HIDDEN
100
AcDbLine
 10
-16.97924469025904
 20
-33.32364400464497
 30
0.0
 11
-16.97924469025904
 21
-33.32364400464498
 31
0.0
1001
DBPROPERTIES
1002
{
1000
PbHidd
1002
}
  0
LINE
  5
1F4
330
1F
100
AcDbEntity
  8
HIDDEN
100
AcDbLine
 10
-23.29371405922684
 20
-86.93332436601617
 30
0.0
 11
-23.29371405922685
 21
-86.93332436601617
 31
0.0
1001
DBPROPERTIES
1002
{
1000
PbHidd
1002
}
  0
LINE
  5
1F5
330
1F
100
AcDbEntity
  8
HIDDEN
100
AcDbLine
 10
-14.07910185362076
 20
-88.89195065356243
 30
0.0
 11
-14.07910185362075
 21
-88.89195065356243
 31
0.0
1001
DBPROPERTIES
1002
{
1000
PbHidd
1002
}
  0
LINE
  5
1F6
330
1F
100
AcDbEntity
  8
HIDDEN
100
AcDbLine
 10
-5.850648992504624
 20
-36.93954393825816
 30
0.0
 11
-5.850648992504624
 21
-36.93954393825817
 31
0.0
1001
DBPROPERTIES
1002
{
1000
PbHidd
1002
}
  0
LINE
  5
1F7
330
1F
100
AcDbEntity
  8
HIDDEN
100
AcDbLine
 10
-9.679832286834266
 20
-36.12562590321117
 30
0.0
 11
-9.679832286834266
 21
-36.12562590321117
 31
0.0
1001
DBPROPERTIES
1002
{
1000
PbHidd
1002
}
  0
LINE
  5
1F8
330
1F
100
AcDbEntity
  8
HIDDEN
100
AcDbLine
 10
-4.710236061864919
 20
-89.87665812791168
 30
0.0
 11
-4.71023606186492
 21
-89.87665812791168
 31
0.0
1001
DBPROPERTIES
1002
{
1000
PbHidd
1002
}
  0
LINE
  5
1F9
330
1F
100
AcDbEntity
  8
HIDDEN
100
AcDbLine
 10
4.710236061864959
 20
-89.8766581279117
 30
0.0
 11
4.71023606186496
 21
-89.8766581279117
 31
0.0
1001
DBPROPERTIES
1002
{
1000
PbHidd
1002
}
  0
LINE
  5
1FA
330
1F
100
AcDbEntity
  8
HIDDEN
100
AcDbLine
 10
1.957364763486101
 20
-37.34874459982107
 30
0.0
 11
1.957364763486101
 21
-37.34874459982107
 31
0.0
1001
DBPROPERTIES
1002
{
1000
PbHidd
1002
}
  0
LINE
  5
1FB
330
1F
100
AcDbEntity
  8
HIDDEN
100
AcDbLine
 10
-1.95736476348609
 20
-37.34874459982107
 30
0.0
 11
-1.95736476348609
 21
-37.34874459982108
 31
0.0
1001
DBPROPERTIES
1002
{
1000
PbHidd
1002
}
  0
LINE
  5
1FC
330
1F
100
AcDbEntity
  8
HIDDEN
100
AcDbLine
 10
14.07910185362079
 20
-88.89195065356243
 30
0.0
 11
14.07910185362079
 21
-88.89195065356243
 31
0.0
1001
DBPROPERTIES
1002
{
1000
PbHidd
1002
}
  0
LINE
  5
1FD
330
1F
100
AcDbEntity
  8
HIDDEN
100
AcDbLine
 10
23.29371405922688
 20
-86.9333243660162
 30
0.0
 11
23.29371405922688
 21
-86.9333243660162
 31
0.0
1001
DBPROPERTIES
1002
{
1000
PbHidd
1002
}
  0
LINE
  5
1FE
330
1F
100
AcDbEntity
  8
HIDDEN
100
AcDbLine
 10
9.679832286834275
 20
-36.12562590321117
 30
0.0
 11
9.679832286834275
 21
-36.12562590321117
 31
0.0
1001
DBPROPERTIES
1002
{
1000
PbHidd
1002
}
  0
LINE
  5
1FF
330
1F
100
AcDbEntity
  8
HIDDEN
100
AcDbLine
 10
5.850648992504635
 20
-36.93954393825815
 30
0.0
 11
5.850648992504635
 21
-36.93954393825816
 31
0.0
1001
DBPROPERTIES
1002
{
1000
PbHidd
1002
}
  0
LINE
  5
200
330
1F
100
AcDbEntity
  8
HIDDEN
100
AcDbLine
 10
32.25311545907703
 20
-84.0222383847482
 30
0.0
 11
32.25311545907703
 21
-84.0222383847482
 31
0.0
1001
DBPROPERTIES
1002
{
1000
PbHidd
1002
}
  0
LINE
  5
201
330
1F
100
AcDbEntity
  8
HIDDEN
100
AcDbLine
 10
40.85914497655923
 20
-80.19058717695316
 30
0.0
 11
40.85914497655923
 21
-80.19058717695316
 31
0.0
1001
DBPROPERTIES
1002
{
1000
PbHidd
1002
}
  0
LINE
  5
202
330
1F
100
AcDbEntity
  8
HIDDEN
100
AcDbLine
 10
16.97924469025905
 20
-33.32364400464496
 30
0.0
 11
16.97924469025905
 21
-33.32364400464497
 31
0.0
1001
DBPROPERTIES
1002
{
1000
PbHidd
1002
}
  0
LINE
  5
203
330
1F
100
AcDbEntity
  8
HIDDEN
100
AcDbLine
 10
13.40296131299423
 20
-34.91590795099535
 30
0.0
 11
13.40296131299423
 21
-34.91590795099536
 31
0.0
1001
DBPROPERTIES
1002
{
1000
PbHidd
1002
}
  0
LINE
  5
204
330
1F
100
AcDbEntity
  8
HIDDEN
100
AcDbLine
 10
49.01751315135246
 20
-75.48035111508821
 30
0.0
 11
49.01751315135246
 21
-75.48035111508821
 31
0.0
1001
DBPROPERTIES
1002
{
1000
PbHidd
1002
}
  0
LINE
  5
205
330
1F
100
AcDbEntity
  8
HIDDEN
100
AcDbLine
 10
56.63883519448538
 20
-69.94313653112742
 30
0.0
 11
56.63883519448538
 21
-69.94313653112742
 31
0.0
1001
DBPROPERTIES
1002
{
1000
PbHidd
1002
}
  0
LINE
  5
206
330
1F
100
AcDbEntity
  8
HIDDEN
100
AcDbLine
 10
23.53658262526391
 20
-29.06525895849073
 30
0.0
 11
23.53658262526391
 21
-29.06525895849074
 31
0.0
1001
DBPROPERTIES
1002
{
1000
PbHidd
1002
}
  0
LINE
  5
207
330
1F
100
AcDbEntity
  8
HIDDEN
100
AcDbLine
 10
20.36949990956201
 20
-31.36627924115887
 30
0.0
 11
20.36949990956201
 21
-31.36627924115887
 31
0.0
1001
DBPROPERTIES
1002
{
1000
PbHidd
1002
}
  0
LINE
  5
208
330
1F
100
AcDbEntity
  8
HIDDEN
100
AcDbLine
 10
63.6396103067893
 20
-63.63961030678932
 30
0.0
 11
63.6396103067893
 21
-63.63961030678932
 31
0.0
1001
DBPROPERTIES
1002
{
1000
PbHidd
1002
}
  0
LINE
  5
209
330
1F
100
AcDbEntity
  8
HIDDEN
100
AcDbLine
 10
69.94313653112741
 20
-56.63883519448541
 30
0.0
 11
69.94313653112741
 21
-56.63883519448541
 31
0.0
1001
DBPROPERTIES
1002
{
1000
PbHidd
1002
}
  0
LINE
  5
20A
330
1F
100
AcDbEntity
  8
HIDDEN
100
AcDbLine
 10
29.06525895849069
 20
-23.53658262526394
 30
0.0
 11
29.06525895849069
 21
-23.53658262526395
 31
0.0
1001
DBPROPERTIES
1002
{
1000
PbHidd
1002
}
  0
LINE
  5
20B
330
1F
100
AcDbEntity
  8
HIDDEN
100
AcDbLine
 10
26.44579361637687
 20
-26.4457936163769
 30
0.0
 11
26.44579361637687
 21
-26.4457936163769
 31
0.0
1001
DBPROPERTIES
1002
{
1000
PbHidd
1002
}
  0
LINE
  5
20C
330
1F
100
AcDbEntity
  8
HIDDEN
100
AcDbLine
 10
75.48035111508818
 20
-49.01751315135248
 30
0.0
 11
75.48035111508818
 21
-49.01751315135248
 31
0.0
1001
DBPROPERTIES
1002
{
1000
PbHidd
1002
}
  0
LINE
  5
20D
330
1F
100
AcDbEntity
  8
HIDDEN
100
AcDbLine
 10
80.19058717695314
 20
-40.85914497655924
 30
0.0
 11
80.19058717695314
 21
-40.85914497655924
 31
0.0
1001
DBPROPERTIES
1002
{
1000
PbHidd
1002
}
  0
LINE
  5
20E
330
1F
100
AcDbEntity
  8
HIDDEN
100
AcDbLine
 10
33.32364400464495
 20
-16.97924469025907
 30
0.0
 11
33.32364400464495
 21
-16.97924469025908
 31
0.0
1001
DBPROPERTIES
1002
{
1000
PbHidd
1002
}
  0
LINE
  5
20F
330
1F
100
AcDbEntity
  8
HIDDEN
100
AcDbLine
 10
31.36627924115884
 20
-20.36949990956203
 30
0.0
 11
31.36627924115884
 21
-20.36949990956204
 31
0.0
1001
DBPROPERTIES
1002
{
1000
PbHidd
1002
}
  0
LINE
  5
210
330
1F
100
AcDbEntity
  8
HIDDEN
100
AcDbLine
 10
84.02223838474819
 20
-32.25311545907705
 30
0.0
 11
84.02223838474819
 21
-32.25311545907705
 31
0.0
1001
DBPROPERTIES
1002
{
1000
PbHidd
1002
}
  0
LINE
  5
211
330
1F
100
AcDbEntity
  8
HIDDEN
100
AcDbLine
 10
86.93332436601618
 20
-23.2937140592269
 30
0.0
 11
86.93332436601618
 21
-23.2937140592269
 31
0.0
1001
DBPROPERTIES
1002
{
1000
PbHidd
1002
}
  0
LINE
  5
212
330
1F
100
AcDbEntity
  8
HIDDEN
100
AcDbLine
 10
36.12562590321114
 20
-9.679832286834298
 30
0.0
 11
36.12562590321114
 21
-9.679832286834305
 31
0.0
1001
DBPROPERTIES
1002
{
1000
PbHidd
1002
}
  0
LINE
  5
213
330
1F
100
AcDbEntity
  8
HIDDEN
100
AcDbLine
 10
34.91590795099534
 20
-13.40296131299425
 30
0.0
 11
34.91590795099534
 21
-13.40296131299425
 31
0.0
1001
DBPROPERTIES
1002
{
1000
PbHidd
1002
}
  0
LINE
  5
214
330
1F
100
AcDbEntity
  8
HIDDEN
100
AcDbLine
 10
86.93332436601615
 20
23.29371405922692
 30
0.0
 11
86.93332436601615
 21
23.29371405922692
 31
0.0
1001
DBPROPERTIES
1002
{
1000
PbHidd
1002
}
  0
ARC
  5
215
330
1F
100
AcDbEntity
  8
HIDDEN
100
AcDbCircle
 10
0.0000000000000413
 20
-0.0000000000000268
 30
0.0
 40
78.0
100
AcDbArc
 50
350.9999789540851
 51
9.000021045914972
1001
DBPROPERTIES
1002
{
1000
PbHidd
1002
}
  0
ARC
  5
216
330
1F
100
AcDbEntity
  8
HIDDEN
100
AcDbCircle
 10
0.0000000000000413
 20
-0.0000000000000268
 30
0.0
 40
78.0
100
AcDbArc
 50
14.99997778074544
 51
20.99999181135542
1001
DBPROPERTIES
1002
{
1000
PbHidd
1002
}
  0
ARC
  5
217
330
1F
100
AcDbEntity
  8
HIDDEN
100
AcDbCircle
 10
0.0000000000000413
 20
-0.0000000000000268
 30
0.0
 40
78.0
100
AcDbArc
 50
27.0000058419654
 51
33.00001987257539
1001
DBPROPERTIES
1002
{
1000
PbHidd
1002
}
  0
ARC
  5
218
330
1F
100
AcDbEntity
  8
HIDDEN
100
AcDbCircle
 10
0.0000000000000413
 20
-0.0000000000000268
 30
0.0
 40
78.0
100
AcDbArc
 50
38.99997660740585
 51
44.99999063801582
1001
DBPROPERTIES
1002
{
1000
PbHidd
1002
}
  0
ARC
  5
219
330
1F
100
AcDbEntity
  8
HIDDEN
100
AcDbCircle
 10
0.0000000000000413
 20
-0.0000000000000268
 30
0.0
 40
78.0
100
AcDbArc
 50
51.00000466862581
 51
57.0000186992358
1001
DBPROPERTIES
1002
{
1000
PbHidd
1002
}
  0
ARC
  5
21A
330
1F
100
AcDbEntity
  8
HIDDEN
100
AcDbCircle
 10
0.0000000000000413
 20
-0.0000000000000268
 30
0.0
 40
78.0
100
AcDbArc
 50
62.99997543406626
 51
68.99998946467625
1001
DBPROPERTIES
1002
{
1000
PbHidd
1002
}
  0
ARC
  5
21B
330
1F
100
AcDbEntity
  8
HIDDEN
100
AcDbCircle
 10
0.0000000000000413
 20
-0.0000000000000268
 30
0.0
 40
78.0
100
AcDbArc
 50
75.00000349528622
 51
81.0000175258962
1001
DBPROPERTIES
1002
{
1000
PbHidd
1002
}
  0
ARC
  5
21C
330
1F
100
AcDbEntity
  8
HIDDEN
100
AcDbCircle
 10
0.0000000000000413
 20
-0.0000000000000268
 30
0.0
 40
78.0
100
AcDbArc
 50
86.99997426072667
 51
89.99998127603165
1001
DBPROPERTIES
1002
{
1000
PbHidd
1002
}
  0
ARC
  5
21D
330
1F
100
AcDbEntity
  8
HIDDEN
100
AcDbCircle
 10
0.0000000000000413
 20
-0.0000000000000268
 30
0.0
 40
78.0
100
AcDbArc
 50
99.00000232194662
 51
105.0000163525566
1001
DBPROPERTIES
1002
{
1000
PbHidd
1002
}
  0
ARC
  5
21E
330
1F
100
AcDbEntity
  8
HIDDEN
100
AcDbCircle
 10
0.0000000000000413
 20
-0.0000000000000268
 30
0.0
 40
78.0
100
AcDbArc
 50
110.9999730873871
 51
116.9999871179971
1001
DBPROPERTIES
1002
{
1000
PbHidd
1002
}
  0
ARC
  5
21F
330
1F
100
AcDbEntity
  8
HIDDEN
100
AcDbCircle
 10
0.0000000000000413
 20
-0.0000000000000268
 30
0.0
 40
78.0
100
AcDbArc
 50
123.000001148607
 51
129.000015179217
1001
DBPROPERTIES
1002
{
1000
PbHidd
1002
}
  0
ARC
  5
220
330
1F
100
AcDbEntity
  8
HIDDEN
100
AcDbCircle
 10
0.0000000000000413
 20
-0.0000000000000268
 30
0.0
 40
78.0
100
AcDbArc
 50
134.9999719140475
 51
140.9999859446575
1001
DBPROPERTIES
1002
{
1000
PbHidd
1002
}
  0
ARC
  5
221
330
1F
100
AcDbEntity
  8
HIDDEN
100
AcDbCircle
 10
0.0000000000000413
 20
-0.0000000000000268
 30
0.0
 40
78.0
100
AcDbArc
 50
146.9999999752674
 51
153.0000140058774
1001
DBPROPERTIES
1002
{
1000
PbHidd
1002
}
  0
ARC
  5
222
330
1F
100
AcDbEntity
  8
HIDDEN
100
AcDbCircle
 10
0.0000000000000413
 20
-0.0000000000000268
 30
0.0
 40
78.0
100
AcDbArc
 50
159.0000280364874
 51
164.9999847713179
1001
DBPROPERTIES
1002
{
1000
PbHidd
1002
}
  0
ARC
  5
223
330
1F
100
AcDbEntity
  8
HIDDEN
100
AcDbCircle
 10
0.0000000000000413
 20
-0.0000000000000268
 30
0.0
 40
78.0
100
AcDbArc
 50
170.9999988019279
 51
177.0000128325378
1001
DBPROPERTIES
1002
{
1000
PbHidd
1002
}
  0
ARC
  5
224
330
1F
100
AcDbEntity
  8
HIDDEN
100
AcDbCircle
 10
0.0000000000000413
 20
-0.0000000000000268
 30
0.0
 40
78.0
100
AcDbArc
 50
182.9999871674622
 51
189.0000011980722
1001
DBPROPERTIES
1002
{
1000
PbHidd
1002
}
  0
ARC
  5
225
330
1F
100
AcDbEntity
  8
HIDDEN
100
AcDbCircle
 10
0.0000000000000413
 20
-0.0000000000000268
 30
0.0
 40
78.0
100
AcDbArc
 50
195.0000152286821
 51
200.9999719635126
1001
DBPROPERTIES
1002
{
1000
PbHidd
1002
}
  0
ARC
  5
226
330
1F
100
AcDbEntity
  8
HIDDEN
100
AcDbCircle
 10
0.0000000000000413
 20
-0.0000000000000268
 30
0.0
 40
78.0
100
AcDbArc
 50
206.9999859941226
 51
213.0000000247326
1001
DBPROPERTIES
1002
{
1000
PbHidd
1002
}
  0
ARC
  5
227
330
1F
100
AcDbEntity
  8
HIDDEN
100
AcDbCircle
 10
0.0000000000000413
 20
-0.0000000000000268
 30
0.0
 40
78.0
100
AcDbArc
 50
219.0000140553425
 51
225.0000280859525
1001
DBPROPERTIES
1002
{
1000
PbHidd
1002
}
  0
ARC
  5
228
330
1F
100
AcDbEntity
  8
HIDDEN
100
AcDbCircle
 10
0.0000000000000413
 20
-0.0000000000000268
 30
0.0
 40
78.0
100
AcDbArc
 50
230.999984820783
 51
236.999998851393
1001
DBPROPERTIES
1002
{
1000
PbHidd
1002
}
  0
ARC
  5
229
330
1F
100
AcDbEntity
  8
HIDDEN
100
AcDbCircle
 10
0.0000000000000413
 20
-0.0000000000000268
 30
0.0
 40
78.0
100
AcDbArc
 50
243.0000128820029
 51
249.0000269126129
1001
DBPROPERTIES
1002
{
1000
PbHidd
1002
}
  0
ARC
  5
22A
330
1F
100
AcDbEntity
  8
HIDDEN
100
AcDbCircle
 10
0.0000000000000413
 20
-0.0000000000000268
 30
0.0
 40
78.0
100
AcDbArc
 50
254.9999836474434
 51
260.9999976780534
1001
DBPROPERTIES
1002
{
1000
PbHidd
1002
}
  0
ARC
  5
22B
330
1F
100
AcDbEntity
  8
HIDDEN
100
AcDbCircle
 10
0.0000000000000413
 20
-0.0000000000000268
 30
0.0
 40
78.0
100
AcDbArc
 50
270.0000187239684
 51
273.0000257392733
1001
DBPROPERTIES
1002
{
1000
PbHidd
1002
}
  0
ARC
  5
22C
330
1F
100
AcDbEntity
  8
HIDDEN
100
AcDbCircle
 10
0.0000000000000413
 20
-0.0000000000000268
 30
0.0
 40
78.0
100
AcDbArc
 50
278.9999824741038
 51
284.9999965047138
1001
DBPROPERTIES
1002
{
1000
PbHidd
1002
}
  0
ARC
  5
22D
330
1F
100
AcDbEntity
  8
HIDDEN
100
AcDbCircle
 10
0.0000000000000413
 20
-0.0000000000000268
 30
0.0
 40
78.0
100
AcDbArc
 50
291.0000105353237
 51
297.0000245659338
1001
DBPROPERTIES
1002
{
1000
PbHidd
1002
}
  0
ARC
  5
22E
330
1F
100
AcDbEntity
  8
HIDDEN
100
AcDbCircle
 10
0.0000000000000413
 20
-0.0000000000000268
 30
0.0
 40
78.0
100
AcDbArc
 50
302.9999813007643
 51
308.9999953313742
1001
DBPROPERTIES
1002
{
1000
PbHidd
1002
}
  0
ARC
  5
22F
330
1F
100
AcDbEntity
  8
HIDDEN
100
AcDbCircle
 10
0.0000000000000413
 20
-0.0000000000000268
 30
0.0
 40
78.0
100
AcDbArc
 50
315.0000093619842
 51
321.0000233925941
1001
DBPROPERTIES
1002
{
1000
PbHidd
1002
}
  0
ARC
  5
230
330
1F
100
AcDbEntity
  8
HIDDEN
100
AcDbCircle
 10
0.0000000000000413
 20
-0.0000000000000268
 30
0.0
 40
78.0
100
AcDbArc
 50
326.9999801274246
 51
332.9999941580346
1001
DBPROPERTIES
1002
{
1000
PbHidd
1002
}
  0
ARC
  5
231
330
1F
100
AcDbEntity
  8
HIDDEN
100
AcDbCircle
 10
0.0000000000000413
 20
-0.0000000000000268
 30
0.0
 40
78.0
100
AcDbArc
 50
339.0000081886445
 51
345.0000222192546
1001
DBPROPERTIES
1002
{
1000
PbHidd
1002
}
  0
LINE
  5
232
330
1F
100
AcDbEntity
  8
HIDDEN
100
AcDbLine
 10
37.1914078159822
 20
-65.12909629854616
 30
0.0
 11
141.1374566230409
 21
-148.0233041016471
 31
0.0
1001
DBPROPERTIES
1002
{
1000
PbHidd
1002
}
  0
LINE
  5
233
330
1F
100
AcDbEntity
  8
THICK
100
AcDbLine
 10
176.8503232729653
 20
-103.2407857784049
 30
0.0
 11
119.6352896153336
 21
-57.6133189924326
 31
0.0
1001
DBPROPERTIES
1002
{
1000
PbThick
1002
}
  0
LINE
  5
234
330
1F
100
AcDbEntity
  8
HIDDEN
100
AcDbLine
 10
119.6352896153336
 20
-57.6133189924326
 30
0.0
 11
72.31760676837072
 21
-19.87872609840231
 31
0.0
1001
DBPROPERTIES
1002
{
1000
PbHidd
1002
}
  0
ELLIPSE
  5
235
330
1F
100
AcDbEntity
  8
HIDDEN
100
AcDbEllipse
 10
85.78574848247199
 20
-67.25050027172644
 30
0.0
 11
-77.40131676433496
 21
61.72549038401463
 31
0.0
210
0.0
220
0.0
230
1.0
 40
0.8910065241883677
 41
2.810924217632188
 42
3.141592653589793
1001
DBPROPERTIES
1002
{
1000
PbHidd
1002
}
  0
ELLIPSE
  5
236
330
1F
100
AcDbEntity
  8
THICK
100
AcDbEllipse
 10
85.78574848247199
 20
-67.25050027172644
 30
0.0
 11
-77.40131676433496
 21
61.72549038401463
 31
0.0
210
0.0
220
0.0
230
1.0
 40
0.8910065241883677
 41
3.141592653589793
 42
3.472261089547398
1001
DBPROPERTIES
1002
{
1000
PbThick
1002
}
  0
LINE
  5
237
330
1F
100
AcDbEntity
  8
HIDDEN
100
AcDbLine
 10
72.05026729073037
 20
-20.82688126759045
 30
0.0
 11
118.5081907067507
 21
-57.87583889460338
 31
0.0
1001
DBPROPERTIES
1002
{
1000
PbHidd
1002
}
  0
LINE
  5
238
330
1F
100
AcDbEntity
  8
THICK
100
AcDbLine
 10
118.5081907067507
 20
-57.87583889460338
 30
0.0
 11
176.2842063795085
 21
-103.9506739092804
 31
0.0
1001
DBPROPERTIES
1002
{
1000
PbThick
1002
}
  0
LINE
  5
239
330
1F
100
AcDbEntity
  8
THICK
100
AcDbLine
 10
176.2842063795085
 20
-103.9506739092804
 30
0.0
 11
176.8503232729653
 21
-103.2407857784049
 31
0.0
1001
DBPROPERTIES
1002
{
1000
PbThick
1002
}
  0
LINE
  5
23A
330
1F
100
AcDbEntity
  8
HIDDEN
100
AcDbLine
 10
36.33740064080609
 20
-65.60939959083262
 30
0.0
 11
82.79532405682646
 21
-102.6583572178456
 31
0.0
1001
DBPROPERTIES
1002
{
1000
PbHidd
1002
}
  0
LINE
  5
23B
330
1F
100
AcDbEntity
  8
THICK
100
AcDbLine
 10
82.79532405682646
 20
-102.6583572178456
 30
0.0
 11
140.5713397295843
 21
-148.7331922325226
 31
0.0
1001
DBPROPERTIES
1002
{
1000
PbThick
1002
}
  0
LINE
  5
23C
330
1F
100
AcDbEntity
  8
HIDDEN
100
AcDbLine
 10
140.5713397295843
 20
-148.7331922325226
 30
0.0
 11
141.137456623041
 21
-148.023304101647
 31
0.0
1001
DBPROPERTIES
1002
{
1000
PbHidd
1002
}
  0
ELLIPSE
  5
23D
330
1F
100
AcDbEntity
  8
THICK
100
AcDbEllipse
 10
85.21963158901526
 20
-67.96038840260198
 30
0.0
 11
77.40131676433496
 21
-61.72549038401463
 31
0.0
210
0.0
220
0.0
230
1.0
 40
0.8910065241883677
 41
0.0
 42
0.3306684359576054
1001
DBPROPERTIES
1002
{
1000
PbThick
1002
}
  0
ELLIPSE
  5
23E
330
1F
100
AcDbEntity
  8
THICK
100
AcDbEllipse
 10
85.21963158901526
 20
-67.96038840260198
 30
0.0
 11
77.40131676433496
 21
-61.72549038401463
 31
0.0
210
0.0
220
0.0
230
1.0
 40
0.8910065241883677
 41
-0.3306684359576055
 42
0.0
1001
DBPROPERTIES
1002
{
1000
PbThick
1002
}
  0
LINE
  5
23F
330
1F
100
AcDbEntity
  8
THICK
100
AcDbLine
 10
190.9812696124085
 20
73.89757335073507
 30
0.0
 11
119.6352896153335
 21
57.61331899243253
 31
0.0
1001
DBPROPERTIES
1002
{
1000
PbThick
1002
}
  0
LINE
  5
240
330
1F
100
AcDbEntity
  8
HIDDEN
100
AcDbLine
 10
119.6352896153335
 20
57.61331899243253
 30
0.0
 11
60.631104209999
 21
44.14599871195839
 31
0.0
1001
DBPROPERTIES
1002
{
1000
PbHidd
1002
}
  0
ELLIPSE
  5
241
330
1F
100
AcDbEntity
  8
HIDDEN
100
AcDbEllipse
 10
106.0650976478001
 20
25.13999782136117
 30
0.0
 11
-96.51786330600052
 21
-22.02957246167515
 31
0.0
210
0.0
220
0.0
230
1.0
 40
0.8910065241883678
 41
2.810924217632187
 42
3.141592653589793
1001
DBPROPERTIES
1002
{
1000
PbHidd
1002
}
  0
ELLIPSE
  5
242
330
1F
100
AcDbEntity
  8
THICK
100
AcDbEllipse
 10
106.0650976478001
 20
25.13999782136117
 30
0.0
 11
-96.51786330600052
 21
-22.02957246167515
 31
0.0
210
0.0
220
0.0
230
1.0
 40
0.8910065241883678
 41
3.141592653589793
 42
3.472261089547398
1001
DBPROPERTIES
1002
{
1000
PbThick
1002
}
  0
LINE
  5
243
330
1F
100
AcDbEntity
  8
HIDDEN
100
AcDbLine
 10
74.10844140092946
 20
-11.52991383857651
 30
0.0
 11
203.7270441503519
 21
18.05468639854834
 31
0.0
1001
DBPROPERTIES
1002
{
1000
PbHidd
1002
}
  0
LINE
  5
244
330
1F
100
AcDbEntity
  8
HIDDEN
100
AcDbLine
 10
61.2057183335921
 20
43.34581921326416
 30
0.0
 11
119.1378012644376
 21
56.56843910005864
 31
0.0
1001
DBPROPERTIES
1002
{
1000
PbHidd
1002
}
  0
LINE
  5
245
330
1F
100
AcDbEntity
  8
THICK
100
AcDbLine
 10
119.1378012644376
 20
56.56843910005864
 30
0.0
 11
191.1833143924271
 21
73.01235733061216
 31
0.0
1001
DBPROPERTIES
1002
{
1000
PbThick
1002
}
  0
LINE
  5
246
330
1F
100
AcDbEntity
  8
THICK
100
AcDbLine
 10
191.1833143924273
 20
73.01235733061219
 30
0.0
 11
190.9812696124087
 21
73.8975733507351
 31
0.0
1001
DBPROPERTIES
1002
{
1000
PbThick
1002
}
  0
LINE
  5
247
330
1F
100
AcDbEntity
  8
HIDDEN
100
AcDbLine
 10
73.95149287153556
 20
-12.49706773892257
 30
0.0
 11
131.8835758023811
 21
0.725552147871916
 31
0.0
1001
DBPROPERTIES
1002
{
1000
PbHidd
1002
}
  0
LINE
  5
248
330
1F
100
AcDbEntity
  8
THICK
100
AcDbLine
 10
131.8835758023811
 20
0.725552147871916
 30
0.0
 11
203.9290889303706
 21
17.16947037842542
 31
0.0
1001
DBPROPERTIES
1002
{
1000
PbThick
1002
}
  0
LINE
  5
249
330
1F
100
AcDbEntity
  8
HIDDEN
100
AcDbLine
 10
203.9290889303708
 20
17.16947037842546
 30
0.0
 11
203.7270441503521
 21
18.05468639854838
 31
0.0
1001
DBPROPERTIES
1002
{
1000
PbHidd
1002
}
  0
ELLIPSE
  5
24A
330
1F
100
AcDbEntity
  8
THICK
100
AcDbEllipse
 10
106.2671424278188
 20
24.25478180123825
 30
0.0
 11
96.51786330600052
 21
22.02957246167515
 31
0.0
210
0.0
220
0.0
230
1.0
 40
0.8910065241883678
 41
0.0
 42
0.3306684359576052
1001
DBPROPERTIES
1002
{
1000
PbThick
1002
}
  0
ELLIPSE
  5
24B
330
1F
100
AcDbEntity
  8
THICK
100
AcDbEllipse
 10
106.2671424278188
 20
24.25478180123825
 30
0.0
 11
96.51786330600052
 21
22.02957246167515
 31
0.0
210
0.0
220
0.0
230
1.0
 40
0.8910065241883678
 41
-0.2591098528824429
 42
0.0
1001
DBPROPERTIES
1002
{
1000
PbThick
1002
}
  0
ELLIPSE
  5
24C
330
1F
100
AcDbEntity
  8
HIDDEN
100
AcDbEllipse
 10
106.2671424278188
 20
24.25478180123825
 30
0.0
 11
96.51786330600052
 21
22.02957246167515
 31
0.0
210
0.0
220
0.0
230
1.0
 40
0.8910065241883678
 41
-0.3048758683433117
 42
-0.2591098528824429
1001
DBPROPERTIES
1002
{
1000
PbHidd
1002
}
  0
ELLIPSE
  5
24D
330
1F
100
AcDbEntity
  8
THICK
100
AcDbEllipse
 10
106.2671424278188
 20
24.25478180123825
 30
0.0
 11
96.51786330600052
 21
22.02957246167515
 31
0.0
210
0.0
220
0.0
230
1.0
 40
0.8910065241883678
 41
-0.3306684359576053
 42
-0.3048758683433117
1001
DBPROPERTIES
1002
{
1000
PbThick
1002
}
  0
LINE
  5
24E
330
1F
100
AcDbEntity
  8
HIDDEN
100
AcDbLine
 10
55.22030707426796
 20
50.75152890922144
 30
0.0
 11
112.9060121580959
 21
170.5371297921519
 31
0.0
1001
DBPROPERTIES
1002
{
1000
PbHidd
1002
}
  0
LINE
  5
24F
330
1F
100
AcDbEntity
  8
THICK
100
AcDbLine
 10
61.29942462577473
 20
195.3895525109868
 30
0.0
 11
29.54747641981945
 21
129.455952678464
 31
0.0
1001
DBPROPERTIES
1002
{
1000
PbThick
1002
}
  0
LINE
  5
250
330
1F
100
AcDbEntity
  8
HIDDEN
100
AcDbLine
 10
29.54747641981945
 20
129.455952678464
 30
0.0
 11
3.288143532366313
 21
74.92788607795194
 31
0.0
1001
DBPROPERTIES
1002
{
1000
PbHidd
1002
}
  0
ELLIPSE
  5
251
330
1F
100
AcDbEntity
  8
HIDDEN
100
AcDbEllipse
 10
46.47526495063623
 20
98.59956479246532
 30
0.0
 11
-42.95449017263822
 21
-89.19591792233952
 31
0.0
210
0.0
220
0.0
230
1.0
 40
0.8910065241883677
 41
2.810924217632188
 42
3.141592653589793
1001
DBPROPERTIES
1002
{
1000
PbHidd
1002
}
  0
ELLIPSE
  5
252
330
1F
100
AcDbEntity
  8
THICK
100
AcDbEllipse
 10
46.47526495063623
 20
98.59956479246532
 30
0.0
 11
-42.95449017263822
 21
-89.19591792233952
 31
0.0
210
0.0
220
0.0
230
1.0
 40
0.8910065241883677
 41
3.141592653589793
 42
3.472261089547398
1001
DBPROPERTIES
1002
{
1000
PbThick
1002
}
  0
LINE
  5
253
330
1F
100
AcDbEntity
  8
HIDDEN
100
AcDbLine
 10
4.272015102135249
 20
74.87823373295552
 30
0.0
 11
30.05421750174807
 21
128.4155286665102
 31
0.0
1001
DBPROPERTIES
1002
{
1000
PbHidd
1002
}
  0
LINE
  5
254
330
1F
100
AcDbEntity
  8
THICK
100
AcDbLine
 10
30.05421750174807
 20
128.4155286665102
 30
0.0
 11
62.11748723895232
 21
194.9955943198851
 31
0.0
1001
DBPROPERTIES
1002
{
1000
PbThick
1002
}
  0
LINE
  5
255
330
1F
100
AcDbEntity
  8
THICK
100
AcDbLine
 10
62.11748723895238
 20
194.9955943198853
 30
0.0
 11
61.29942462577479
 21
195.389552510987
 31
0.0
1001
DBPROPERTIES
1002
{
1000
PbThick
1002
}
  0
LINE
  5
256
330
1F
100
AcDbEntity
  8
HIDDEN
100
AcDbLine
 10
55.87860263445646
 20
50.02581101412059
 30
0.0
 11
81.66080503406924
 21
103.5631059476752
 31
0.0
1001
DBPROPERTIES
1002
{
1000
PbHidd
1002
}
  0
LINE
  5
257
330
1F
100
AcDbEntity
  8
THICK
100
AcDbLine
 10
81.66080503406924
 20
103.5631059476752
 30
0.0
 11
113.7240747712735
 21
170.1431716010502
 31
0.0
1001
DBPROPERTIES
1002
{
1000
PbThick
1002
}
  0
LINE
  5
258
330
1F
100
AcDbEntity
  8
HIDDEN
100
AcDbLine
 10
113.7240747712736
 20
170.1431716010503
 30
0.0
 11
112.906012158096
 21
170.537129792152
 31
0.0
1001
DBPROPERTIES
1002
{
1000
PbHidd
1002
}
  0
ELLIPSE
  5
259
330
1F
100
AcDbEntity
  8
THICK
100
AcDbEllipse
 10
47.29332756381381
 20
98.20560660136363
 30
0.0
 11
42.95449017263822
 21
89.19591792233952
 31
0.0
210
0.0
220
0.0
230
1.0
 40
0.8910065241883677
 41
0.0
 42
0.3306684359576053
1001
DBPROPERTIES
1002
{
1000
PbThick
1002
}
  0
ELLIPSE
  5
25A
330
1F
100
AcDbEntity
  8
THICK
100
AcDbEllipse
 10
47.29332756381381
 20
98.20560660136363
 30
0.0
 11
42.95449017263822
 21
89.19591792233952
 31
0.0
210
0.0
220
0.0
230
1.0
 40
0.8910065241883677
 41
-0.3306684359576058
 42
0.0
1001
DBPROPERTIES
1002
{
1000
PbThick
1002
}
  0
LINE
  5
25B
330
1F
100
AcDbEntity
  8
HIDDEN
100
AcDbLine
 10
-5.249844768301941
 20
74.81603524585299
 30
0.0
 11
-62.93554985212994
 21
194.6016361287834
 31
0.0
1001
DBPROPERTIES
1002
{
1000
PbHidd
1002
}
  0
LINE
  5
25C
330
1F
100
AcDbEntity
  8
THICK
100
AcDbLine
 10
-114.5421373844512
 20
169.7492134099485
 30
0.0
 11
-82.7901891784959
 21
103.8156135774258
 31
0.0
1001
DBPROPERTIES
1002
{
1000
PbThick
1002
}
  0
LINE
  5
25D
330
1F
100
AcDbEntity
  8
HIDDEN
100
AcDbLine
 10
-82.7901891784959
 20
103.8156135774258
 30
0.0
 11
-56.53085629104271
 21
49.28754697691362
 31
0.0
1001
DBPROPERTIES
1002
{
1000
PbHidd
1002
}
  0
ELLIPSE
  5
25E
330
1F
100
AcDbEntity
  8
HIDDEN
100
AcDbEllipse
 10
-48.11139017699143
 20
97.81164841026194
 30
0.0
 11
42.95449017263828
 21
-89.19591792233948
 31
0.0
210
0.0
220
0.0
230
1.0
 40
0.891006524188368
 41
2.810924217632188
 42
3.141592653589793
1001
DBPROPERTIES
1002
{
1000
PbHidd
1002
}
  0
ELLIPSE
  5
25F
330
1F
100
AcDbEntity
  8
THICK
100
AcDbEllipse
 10
-48.11139017699143
 20
97.81164841026194
 30
0.0
 11
42.95449017263828
 21
-89.19591792233948
 31
0.0
210
0.0
220
0.0
230
1.0
 40
0.891006524188368
 41
3.141592653589793
 42
3.472261089547398
1001
DBPROPERTIES
1002
{
1000
PbThick
1002
}
  0
LINE
  5
260
330
1F
100
AcDbEntity
  8
HIDDEN
100
AcDbLine
 10
-55.87860263445646
 20
50.02581101412058
 30
0.0
 11
-81.66080503406924
 21
103.5631059476751
 31
0.0
1001
DBPROPERTIES
1002
{
1000
PbHidd
1002
}
  0
LINE
  5
261
330
1F
100
AcDbEntity
  8
THICK
100
AcDbLine
 10
-81.66080503406924
 20
103.5631059476751
 30
0.0
 11
-113.7240747712736
 21
170.1431716010502
 31
0.0
1001
DBPROPERTIES
1002
{
1000
PbThick
1002
}
  0
LINE
  5
262
330
1F
100
AcDbEntity
  8
THICK
100
AcDbLine
 10
-113.7240747712736
 20
170.1431716010503
 30
0.0
 11
-114.5421373844512
 21
169.7492134099487
 31
0.0
1001
DBPROPERTIES
1002
{
1000
PbThick
1002
}
  0
LINE
  5
263
330
1F
100
AcDbEntity
  8
HIDDEN
100
AcDbLine
 10
-4.272015102135246
 20
74.8782337329555
 30
0.0
 11
-30.05421750174805
 21
128.4155286665101
 31
0.0
1001
DBPROPERTIES
1002
{
1000
PbHidd
1002
}
  0
LINE
  5
264
330
1F
100
AcDbEntity
  8
THICK
100
AcDbLine
 10
-30.05421750174805
 20
128.4155286665101
 30
0.0
 11
-62.11748723895235
 21
194.9955943198851
 31
0.0
1001
DBPROPERTIES
1002
{
1000
PbThick
1002
}
  0
LINE
  5
265
330
1F
100
AcDbEntity
  8
HIDDEN
100
AcDbLine
 10
-62.11748723895243
 20
194.9955943198852
 30
0.0
 11
-62.93554985213002
 21
194.6016361287836
 31
0.0
1001
DBPROPERTIES
1002
{
1000
PbHidd
1002
}
  0
ELLIPSE
  5
266
330
1F
100
AcDbEntity
  8
THICK
100
AcDbEllipse
 10
-47.29332756381385
 20
98.20560660136363
 30
0.0
 11
-42.95449017263828
 21
89.19591792233948
 31
0.0
210
0.0
220
0.0
230
1.0
 40
0.891006524188368
 41
0.0
 42
0.3306684359576053
1001
DBPROPERTIES
1002
{
1000
PbThick
1002
}
  0
ELLIPSE
  5
267
330
1F
100
AcDbEntity
  8
THICK
100
AcDbEllipse
 10
-47.29332756381385
 20
98.20560660136363
 30
0.0
 11
-42.95449017263828
 21
89.19591792233948
 31
0.0
210
0.0
220
0.0
230
1.0
 40
0.891006524188368
 41
-0.3306684359576054
 42
0.0
1001
DBPROPERTIES
1002
{
1000
PbThick
1002
}
  0
LINE
  5
268
330
1F
100
AcDbEntity
  8
THICK
100
AcDbLine
 10
-204.1311337103893
 20
16.28425435830246
 30
0.0
 11
-132.7851537133144
 21
-0.0000000000000391
 31
0.0
1001
DBPROPERTIES
1002
{
1000
PbThick
1002
}
  0
LINE
  5
269
330
1F
100
AcDbEntity
  8
HIDDEN
100
AcDbLine
 10
-132.7851537133144
 20
-0.0000000000000391
 30
0.0
 11
-73.78096830797983
 21
-13.46732028047418
 31
0.0
1001
DBPROPERTIES
1002
{
1000
PbHidd
1002
}
  0
ELLIPSE
  5
26A
330
1F
100
AcDbEntity
  8
HIDDEN
100
AcDbEllipse
 10
-106.4691872078375
 20
23.3695657811153
 30
0.0
 11
96.51786330600052
 21
-22.02957246167511
 31
0.0
210
0.0
220
0.0
230
1.0
 40
0.8910065241883677
 41
2.810924217632188
 42
3.141592653589793
1001
DBPROPERTIES
1002
{
1000
PbHidd
1002
}
  0
ELLIPSE
  5
26B
330
1F
100
AcDbEntity
  8
THICK
100
AcDbEllipse
 10
-106.4691872078375
 20
23.3695657811153
 30
0.0
 11
96.51786330600052
 21
-22.02957246167511
 31
0.0
210
0.0
220
0.0
230
1.0
 40
0.8910065241883677
 41
3.141592653589793
 42
3.390427840726189
1001
DBPROPERTIES
1002
{
1000
PbThick
1002
}
  0
ELLIPSE
  5
26C
330
1F
100
AcDbEntity
  8
HIDDEN
100
AcDbEllipse
 10
-106.4691872078375
 20
23.3695657811153
 30
0.0
 11
96.51786330600052
 21
-22.02957246167511
 31
0.0
210
0.0
220
0.0
230
1.0
 40
0.8910065241883677
 41
-2.892757466453396
 42
-2.847059189637713
1001
DBPROPERTIES
1002
{
1000
PbHidd
1002
}
  0
ELLIPSE
  5
26D
330
1F
100
AcDbEntity
  8
THICK
100
AcDbEllipse
 10
-106.4691872078375
 20
23.3695657811153
 30
0.0
 11
96.51786330600052
 21
-22.02957246167511
 31
0.0
210
0.0
220
0.0
230
1.0
 40
0.8910065241883677
 41
-2.847059189637713
 42
-2.810924217632188
1001
DBPROPERTIES
1002
{
1000
PbThick
1002
}
  0
LINE
  5
26E
330
1F
100
AcDbEntity
  8
HIDDEN
100
AcDbLine
 10
-61.76675642302335
 20
42.54254107336436
 30
0.0
 11
-191.3853591724458
 21
72.12714131048918
 31
0.0
1001
DBPROPERTIES
1002
{
1000
PbHidd
1002
}
  0
LINE
  5
26F
330
1F
100
AcDbEntity
  8
HIDDEN
100
AcDbLine
 10
-73.95149287153559
 20
-12.49706773892257
 30
0.0
 11
-131.883575802381
 21
0.725552147871884
 31
0.0
1001
DBPROPERTIES
1002
{
1000
PbHidd
1002
}
  0
LINE
  5
270
330
1F
100
AcDbEntity
  8
THICK
100
AcDbLine
 10
-131.883575802381
 20
0.725552147871884
 30
0.0
 11
-203.9290889303706
 21
17.16947037842538
 31
0.0
1001
DBPROPERTIES
1002
{
1000
PbThick
1002
}
  0
LINE
  5
271
330
1F
100
AcDbEntity
  8
THICK
100
AcDbLine
 10
-203.9290889303708
 20
17.16947037842542
 30
0.0
 11
-204.1311337103895
 21
16.2842543583025
 31
0.0
1001
DBPROPERTIES
1002
{
1000
PbThick
1002
}
  0
LINE
  5
272
330
1F
100
AcDbEntity
  8
HIDDEN
100
AcDbLine
 10
-61.2057183335921
 20
43.34581921326414
 30
0.0
 11
-119.1378012644376
 21
56.56843910005861
 31
0.0
1001
DBPROPERTIES
1002
{
1000
PbHidd
1002
}
  0
LINE
  5
273
330
1F
100
AcDbEntity
  8
THICK
100
AcDbLine
 10
-119.1378012644376
 20
56.56843910005861
 30
0.0
 11
-191.1833143924271
 21
73.0123573306121
 31
0.0
1001
DBPROPERTIES
1002
{
1000
PbThick
1002
}
  0
LINE
  5
274
330
1F
100
AcDbEntity
  8
HIDDEN
100
AcDbLine
 10
-191.1833143924273
 20
73.01235733061213
 30
0.0
 11
-191.385359172446
 21
72.12714131048922
 31
0.0
1001
DBPROPERTIES
1002
{
1000
PbHidd
1002
}
  0
ELLIPSE
  5
275
330
1F
100
AcDbEntity
  8
THICK
100
AcDbEllipse
 10
-106.2671424278188
 20
24.25478180123822
 30
0.0
 11
-96.51786330600052
 21
22.02957246167511
 31
0.0
210
0.0
220
0.0
230
1.0
 40
0.8910065241883677
 41
0.304875868343311
 42
0.3306684359576053
1001
DBPROPERTIES
1002
{
1000
PbThick
1002
}
  0
ELLIPSE
  5
276
330
1F
100
AcDbEntity
  8
HIDDEN
100
AcDbEllipse
 10
-106.2671424278188
 20
24.25478180123822
 30
0.0
 11
-96.51786330600052
 21
22.02957246167511
 31
0.0
210
0.0
220
0.0
230
1.0
 40
0.8910065241883677
 41
0.2591098528824421
 42
0.304875868343311
1001
DBPROPERTIES
1002
{
1000
PbHidd
1002
}
  0
ELLIPSE
  5
277
330
1F
100
AcDbEntity
  8
THICK
100
AcDbEllipse
 10
-106.2671424278188
 20
24.25478180123822
 30
0.0
 11
-96.51786330600052
 21
22.02957246167511
 31
0.0
210
0.0
220
0.0
230
1.0
 40
0.8910065241883677
 41
0.0
 42
0.2591098528824421
1001
DBPROPERTIES
1002
{
1000
PbThick
1002
}
  0
ELLIPSE
  5
278
330
1F
100
AcDbEntity
  8
THICK
100
AcDbEllipse
 10
-106.2671424278188
 20
24.25478180123822
 30
0.0
 11
-96.51786330600052
 21
22.02957246167511
 31
0.0
210
0.0
220
0.0
230
1.0
 40
0.8910065241883677
 41
-0.3306684359576053
 42
0.0
1001
DBPROPERTIES
1002
{
1000
PbThick
1002
}
  0
LINE
  5
279
330
1F
100
AcDbEntity
  8
HIDDEN
100
AcDbLine
 10
-71.77204067899305
 20
-21.76635423705511
 30
0.0
 11
-175.7180894860518
 21
-104.660562040156
 31
0.0
1001
DBPROPERTIES
1002
{
1000
PbHidd
1002
}
  0
LINE
  5
27A
330
1F
100
AcDbEntity
  8
THICK
100
AcDbLine
 10
-140.0052228361275
 20
-149.4430803633982
 30
0.0
 11
-82.79018917849591
 21
-103.8156135774259
 31
0.0
1001
DBPROPERTIES
1002
{
1000
PbThick
1002
}
  0
LINE
  5
27B
330
1F
100
AcDbEntity
  8
HIDDEN
100
AcDbLine
 10
-82.79018917849591
 20
-103.8156135774259
 30
0.0
 11
-35.472506331533
 21
-66.08102068339556
 31
0.0
1001
DBPROPERTIES
1002
{
1000
PbHidd
1002
}
  0
ELLIPSE
  5
27C
330
1F
100
AcDbEntity
  8
HIDDEN
100
AcDbEllipse
 10
-84.65351469555851
 20
-68.67027653347755
 30
0.0
 11
77.40131676433498
 21
61.72549038401463
 31
0.0
210
0.0
220
0.0
230
1.0
 40
0.8910065241883678
 41
2.810924217632188
 42
3.141592653589793
1001
DBPROPERTIES
1002
{
1000
PbHidd
1002
}
  0
ELLIPSE
  5
27D
330
1F
100
AcDbEntity
  8
THICK
100
AcDbEllipse
 10
-84.65351469555851
 20
-68.67027653347755
 30
0.0
 11
77.40131676433498
 21
61.72549038401463
 31
0.0
210
0.0
220
0.0
230
1.0
 40
0.8910065241883678
 41
3.141592653589793
 42
3.472261089547398
1001
DBPROPERTIES
1002
{
1000
PbThick
1002
}
  0
LINE
  5
27E
330
1F
100
AcDbEntity
  8
HIDDEN
100
AcDbLine
 10
-36.33740064080608
 20
-65.60939959083264
 30
0.0
 11
-82.79532405682644
 21
-102.6583572178456
 31
0.0
1001
DBPROPERTIES
1002
{
1000
PbHidd
1002
}
  0
LINE
  5
27F
330
1F
100
AcDbEntity
  8
THICK
100
AcDbLine
 10
-82.79532405682644
 20
-102.6583572178456
 30
0.0
 11
-140.5713397295842
 21
-148.7331922325226
 31
0.0
1001
DBPROPERTIES
1002
{
1000
PbThick
1002
}
  0
LINE
  5
280
330
1F
100
AcDbEntity
  8
THICK
100
AcDbLine
 10
-140.5713397295842
 20
-148.7331922325226
 30
0.0
 11
-140.0052228361275
 21
-149.4430803633982
 31
0.0
1001
DBPROPERTIES
1002
{
1000
PbThick
1002
}
  0
LINE
  5
281
330
1F
100
AcDbEntity
  8
HIDDEN
100
AcDbLine
 10
-72.05026729073036
 20
-20.82688126759048
 30
0.0
 11
-118.5081907067507
 21
-57.87583889460342
 31
0.0
1001
DBPROPERTIES
1002
{
1000
PbHidd
1002
}
  0
LINE
  5
282
330
1F
100
AcDbEntity
  8
THICK
100
AcDbLine
 10
-118.5081907067507
 20
-57.87583889460342
 30
0.0
 11
-176.2842063795085
 21
-103.9506739092805
 31
0.0
1001
DBPROPERTIES
1002
{
1000
PbThick
1002
}
  0
LINE
  5
283
330
1F
100
AcDbEntity
  8
HIDDEN
100
AcDbLine
 10
-176.2842063795085
 20
-103.9506739092805
 30
0.0
 11
-175.7180894860518
 21
-104.660562040156
 31
0.0
1001
DBPROPERTIES
1002
{
1000
PbHidd
1002
}
  0
ELLIPSE
  5
284
330
1F
100
AcDbEntity
  8
THICK
100
AcDbEllipse
 10
-85.21963158901524
 20
-67.960388402602
 30
0.0
 11
-77.40131676433498
 21
-61.72549038401463
 31
0.0
210
0.0
220
0.0
230
1.0
 40
0.8910065241883678
 41
0.0
 42
0.3306684359576053
1001
DBPROPERTIES
1002
{
1000
PbThick
1002
}
  0
ELLIPSE
  5
285
330
1F
100
AcDbEntity
  8
THICK
100
AcDbEllipse
 10
-85.21963158901524
 20
-67.960388402602
 30
0.0
 11
-77.40131676433498
 21
-61.72549038401463
 31
0.0
210
0.0
220
0.0
230
1.0
 40
0.8910065241883678
 41
-0.3306684359576049
 42
0.0
1001
DBPROPERTIES
1002
{
1000
PbThick
1002
}
  0
LINE
  5
286
330
1F
100
AcDbEntity
  8
HIDDEN
100
AcDbLine
 10
-27.73151442086131
 20
-69.68474085426139
 30
0.0
 11
-27.73151442086131
 21
-202.6367274881704
 31
0.0
1001
DBPROPERTIES
1002
{
1000
PbHidd
1002
}
  0
LINE
  5
287
330
1F
100
AcDbEntity
  8
THICK
100
AcDbLine
 10
29.5474764198195
 20
-202.6367274881704
 30
0.0
 11
29.54747641981949
 21
-129.4559526784641
 31
0.0
1001
DBPROPERTIES
1002
{
1000
PbThick
1002
}
  0
LINE
  5
288
330
1F
100
AcDbEntity
  8
HIDDEN
100
AcDbLine
 10
29.54747641981949
 20
-129.4559526784641
 30
0.0
 11
29.54747641981949
 21
-68.93436470455222
 31
0.0
1001
DBPROPERTIES
1002
{
1000
PbHidd
1002
}
  0
ELLIPSE
  5
289
330
1F
100
AcDbEntity
  8
HIDDEN
100
AcDbEllipse
 10
0.9079809994790989
 20
-109.0
 30
0.0
 11
2.379391042168954E-14
 21
99.0
 31
0.0
210
0.0
220
0.0
230
1.0
 40
0.8910065241883679
 41
2.810924217632188
 42
3.141592653589793
1001
DBPROPERTIES
1002
{
1000
PbHidd
1002
}
  0
ELLIPSE
  5
28A
330
1F
100
AcDbEntity
  8
THICK
100
AcDbEllipse
 10
0.9079809994790989
 20
-109.0
 30
0.0
 11
2.379391042168954E-14
 21
99.0
 31
0.0
210
0.0
220
0.0
230
1.0
 40
0.8910065241883679
 41
-3.141592653589793
 42
-2.927906906752655
1001
DBPROPERTIES
1002
{
1000
PbThick
1002
}
  0
ELLIPSE
  5
28B
330
1F
100
AcDbEntity
  8
HIDDEN
100
AcDbEllipse
 10
0.9079809994790989
 20
-109.0
 30
0.0
 11
2.379391042168954E-14
 21
99.0
 31
0.0
210
0.0
220
0.0
230
1.0
 40
0.8910065241883679
 41
-2.927906906752655
 42
-2.882297702342626
1001
DBPROPERTIES
1002
{
1000
PbHidd
1002
}
  0
ELLIPSE
  5
28C
330
1F
100
AcDbEntity
  8
THICK
100
AcDbEllipse
 10
0.9079809994790989
 20
-109.0
 30
0.0
 11
2.379391042168954E-14
 21
99.0
 31
0.0
210
0.0
220
0.0
230
1.0
 40
0.8910065241883679
 41
-2.882297702342626
 42
-2.810924217632188
1001
DBPROPERTIES
1002
{
1000
PbThick
1002
}
  0
LINE
  5
28D
330
1F
100
AcDbEntity
  8
HIDDEN
100
AcDbLine
 10
28.6394954203404
 20
-69.31651536299489
 30
0.0
 11
28.6394954203404
 21
-128.7384297496672
 31
0.0
1001
DBPROPERTIES
1002
{
1000
PbHidd
1002
}
  0
LINE
  5
28E
330
1F
100
AcDbEntity
  8
THICK
100
AcDbLine
 10
28.6394954203404
 20
-128.7384297496672
 30
0.0
 11
28.6394954203404
 21
-202.6367274881704
 31
0.0
1001
DBPROPERTIES
1002
{
1000
PbThick
1002
}
  0
LINE
  5
28F
330
1F
100
AcDbEntity
  8
THICK
100
AcDbLine
 10
28.6394954203404
 20
-202.6367274881704
 30
0.0
 11
29.5474764198195
 21
-202.6367274881704
 31
0.0
1001
DBPROPERTIES
1002
{
1000
PbThick
1002
}
  0
LINE
  5
290
330
1F
100
AcDbEntity
  8
HIDDEN
100
AcDbLine
 10
-28.6394954203404
 20
-69.31651536299489
 30
0.0
 11
-28.6394954203404
 21
-128.7384297496672
 31
0.0
1001
DBPROPERTIES
1002
{
1000
PbHidd
1002
}
  0
LINE
  5
291
330
1F
100
AcDbEntity
  8
THICK
100
AcDbLine
 10
-28.6394954203404
 20
-128.7384297496672
 30
0.0
 11
-28.6394954203404
 21
-202.6367274881704
 31
0.0
1001
DBPROPERTIES
1002
{
1000
PbThick
1002
}
  0
LINE
  5
292
330
1F
100
AcDbEntity
  8
HIDDEN
100
AcDbLine
 10
-28.6394954203404
 20
-202.6367274881704
 30
0.0
 11
-27.7315144208613
 21
-202.6367274881704
 31
0.0
1001
DBPROPERTIES
1002
{
1000
PbHidd
1002
}
  0
ELLIPSE
  5
293
330
1F
100
AcDbEntity
  8
THICK
100
AcDbEllipse
 10
0.0000000000000054
 20
-109.0
 30
0.0
 11
-2.379391042168954E-14
 21
-99.0
 31
0.0
210
0.0
220
0.0
230
1.0
 40
0.8910065241883679
 41
0.269629082979003
 42
0.3306684359576056
1001
DBPROPERTIES
1002
{
1000
PbThick
1002
}
  0
ELLIPSE
  5
294
330
1F
100
AcDbEntity
  8
HIDDEN
100
AcDbEllipse
 10
0.0000000000000054
 20
-109.0
 30
0.0
 11
-2.379391042168954E-14
 21
-99.0
 31
0.0
210
0.0
220
0.0
230
1.0
 40
0.8910065241883679
 41
0.2239611435602522
 42
0.269629082979003
1001
DBPROPERTIES
1002
{
1000
PbHidd
1002
}
  0
ELLIPSE
  5
295
330
1F
100
AcDbEntity
  8
THICK
100
AcDbEllipse
 10
0.0000000000000054
 20
-109.0
 30
0.0
 11
-2.379391042168954E-14
 21
-99.0
 31
0.0
210
0.0
220
0.0
230
1.0
 40
0.8910065241883679
 41
0.0
 42
0.2239611435602522
1001
DBPROPERTIES
1002
{
1000
PbThick
1002
}
  0
ELLIPSE
  5
296
330
1F
100
AcDbEntity
  8
THICK
100
AcDbEllipse
 10
0.0000000000000054
 20
-109.0
 30
0.0
 11
-2.379391042168954E-14
 21
-99.0
 31
0.0
210
0.0
220
0.0
230
1.0
 40
0.8910065241883679
 41
-0.2239611435602521
 42
0.0
1001
DBPROPERTIES
1002
{
1000
PbThick
1002
}
  0
ELLIPSE
  5
297
330
1F
100
AcDbEntity
  8
HIDDEN
100
AcDbEllipse
 10
0.0000000000000054
 20
-109.0
 30
0.0
 11
-2.379391042168954E-14
 21
-99.0
 31
0.0
210
0.0
220
0.0
230
1.0
 40
0.8910065241883679
 41
-0.269629082979003
 42
-0.2239611435602521
1001
DBPROPERTIES
1002
{
1000
PbHidd
1002
}
  0
ELLIPSE
  5
298
330
1F
100
AcDbEntity
  8
THICK
100
AcDbEllipse
 10
0.0000000000000054
 20
-109.0
 30
0.0
 11
-2.379391042168954E-14
 21
-99.0
 31
0.0
210
0.0
220
0.0
230
1.0
 40
0.8910065241883679
 41
-0.330668435957605
 42
-0.269629082979003
1001
DBPROPERTIES
1002
{
1000
PbThick
1002
}
  0
ARC
  5
299
330
1F
100
AcDbEntity
  8
HIDDEN
100
AcDbCircle
 10
0.0
 20
-0.0000000000000413
 30
0.0
 40
63.0
100
AcDbArc
 50
89.99998127603165
 51
270.0000187239684
1001
DBPROPERTIES
1002
{
1000
PbHidd
1002
}
  0
LINE
  5
29A
330
1F
100
AcDbEntity
  8
HIDDEN
100
AcDbLine
 10
29.93325909419153
 20
223.0
 30
0.0
 11
29.93325909419153
 21
223.0
 31
0.0
1001
DBPROPERTIES
1002
{
1000
PbHidd
1002
}
  0
LINE
  5
29B
330
1F
100
AcDbEntity
  8
THICK
100
AcDbLine
 10
25.44926102337288
 20
223.0
 30
0.0
 11
29.93325909419153
 21
223.0
 31
0.0
1001
DBPROPERTIES
1002
{
1000
PbThick
1002
}
  0
LINE
  5
29C
330
1F
100
AcDbEntity
  8
HIDDEN
100
AcDbLine
 10
25.44926102337288
 20
223.0
 30
0.0
 11
25.44926102337288
 21
223.0
 31
0.0
1001
DBPROPERTIES
1002
{
1000
PbHidd
1002
}
  0
LINE
  5
29D
330
1F
100
AcDbEntity
  8
HIDDEN
100
AcDbLine
 10
21.42722790511881
 20
223.0
 30
0.0
 11
25.44926102337288
 21
223.0
 31
0.0
1001
DBPROPERTIES
1002
{
1000
PbHidd
1002
}
  0
LINE
  5
29E
330
1F
100
AcDbEntity
  8
HIDDEN
100
AcDbLine
 10
21.42722790511881
 20
223.0
 30
0.0
 11
21.42722790511881
 21
223.0
 31
0.0
1001
DBPROPERTIES
1002
{
1000
PbHidd
1002
}
  0
LINE
  5
29F
330
1F
100
AcDbEntity
  8
THICK
100
AcDbLine
 10
-21.42722790511881
 20
223.0
 30
0.0
 11
21.42722790511881
 21
223.0
 31
0.0
1001
DBPROPERTIES
1002
{
1000
PbThick
1002
}
  0
LINE
  5
2A0
330
1F
100
AcDbEntity
  8
HIDDEN
100
AcDbLine
 10
-21.42722790511881
 20
223.0
 30
0.0
 11
-21.42722790511881
 21
223.0
 31
0.0
1001
DBPROPERTIES
1002
{
1000
PbHidd
1002
}
  0
LINE
  5
2A1
330
1F
100
AcDbEntity
  8
HIDDEN
100
AcDbLine
 10
-25.44926102337288
 20
223.0
 30
0.0
 11
-21.42722790511881
 21
223.0
 31
0.0
1001
DBPROPERTIES
1002
{
1000
PbHidd
1002
}
  0
LINE
  5
2A2
330
1F
100
AcDbEntity
  8
HIDDEN
100
AcDbLine
 10
-25.44926102337288
 20
223.0
 30
0.0
 11
-25.44926102337288
 21
223.0
 31
0.0
1001
DBPROPERTIES
1002
{
1000
PbHidd
1002
}
  0
LINE
  5
2A3
330
1F
100
AcDbEntity
  8
THICK
100
AcDbLine
 10
-29.93325909419153
 20
223.0
 30
0.0
 11
-25.44926102337288
 21
223.0
 31
0.0
1001
DBPROPERTIES
1002
{
1000
PbThick
1002
}
  0
LINE
  5
2A4
330
1F
100
AcDbEntity
  8
HIDDEN
100
AcDbLine
 10
-29.93325909419153
 20
223.0
 30
0.0
 11
-29.93325909419153
 21
223.0
 31
0.0
1001
DBPROPERTIES
1002
{
1000
PbHidd
1002
}
  0
LINE
  5
2A5
330
1F
100
AcDbEntity
  8
HIDDEN
100
AcDbLine
 10
-42.42640687119285
 20
223.0
 30
0.0
 11
-42.42640687119285
 21
223.0
 31
0.0
1001
DBPROPERTIES
1002
{
1000
PbHidd
1002
}
  0
LINE
  5
2A6
330
1F
100
AcDbEntity
  8
HIDDEN
100
AcDbLine
 10
-46.875
 20
223.0
 30
0.0
 11
-42.42640687119285
 21
223.0
 31
0.0
1001
DBPROPERTIES
1002
{
1000
PbHidd
1002
}
  0
LINE
  5
2A7
330
1F
100
AcDbEntity
  8
HIDDEN
100
AcDbLine
 10
-46.875
 20
223.0
 30
0.0
 11
-46.875
 21
223.0
 31
0.0
1001
DBPROPERTIES
1002
{
1000
PbHidd
1002
}
  0
LINE
  5
2A8
330
1F
100
AcDbEntity
  8
HIDDEN
100
AcDbLine
 10
42.42640687119285
 20
223.0
 30
0.0
 11
46.875
 21
223.0
 31
0.0
1001
DBPROPERTIES
1002
{
1000
PbHidd
1002
}
  0
LINE
  5
2A9
330
1F
100
AcDbEntity
  8
HIDDEN
100
AcDbLine
 10
42.42640687119285
 20
223.0
 30
0.0
 11
42.42640687119285
 21
223.0
 31
0.0
1001
DBPROPERTIES
1002
{
1000
PbHidd
1002
}
  0
LINE
  5
2AA
330
1F
100
AcDbEntity
  8
HIDDEN
100
AcDbLine
 10
46.875
 20
223.0
 30
0.0
 11
46.875
 21
223.0
 31
0.0
1001
DBPROPERTIES
1002
{
1000
PbHidd
1002
}
  0
LINE
  5
2AB
330
1F
100
AcDbEntity
  8
HIDDEN
100
AcDbLine
 10
46.875
 20
274.25
 30
0.0
 11
-46.875
 21
274.25
 31
0.0
1001
DBPROPERTIES
1002
{
1000
PbHidd
1002
}
  0
LINE
  5
2AC
330
1F
100
AcDbEntity
  8
THICK
100
AcDbLine
 10
-46.875
 20
274.25
 30
0.0
 11
46.875
 21
274.25
 31
0.0
1001
DBPROPERTIES
1002
{
1000
PbThick
1002
}
  0
ELLIPSE
  5
2AD
330
1F
100
AcDbEntity
  8
THICK
100
AcDbEllipse
 10
41.87499999999999
 20
274.25
 30
0.0
 11
0.0
 21
-5.0
 31
0.0
210
0.0
220
0.0
230
1.0
 40
0.9999999999999943
 41
1.570796326794897
 42
3.141592653589789
1001
DBPROPERTIES
1002
{
1000
PbThick
1002
}
  0
LINE
  5
2AE
330
1F
100
AcDbEntity
  8
THICK
100
AcDbLine
 10
-41.87499999999999
 20
279.25
 30
0.0
 11
41.875
 21
279.25
 31
0.0
1001
DBPROPERTIES
1002
{
1000
PbThick
1002
}
  0
ELLIPSE
  5
2AF
330
1F
100
AcDbEntity
  8
THICK
100
AcDbEllipse
 10
-41.875
 20
274.25
 30
0.0
 11
-5.000000000000008
 21
0.0
 31
0.0
210
0.0
220
0.0
230
1.0
 40
0.9999999999999984
 41
-1.570796326794897
 42
0.0
1001
DBPROPERTIES
1002
{
1000
PbThick
1002
}
  0
LINE
  5
2B0
330
1F
100
AcDbEntity
  8
HIDDEN
100
AcDbLine
 10
41.875
 20
279.25
 30
0.0
 11
41.875
 21
279.25
 31
0.0
1001
DBPROPERTIES
1002
{
1000
PbHidd
1002
}
  0
LINE
  5
2B1
330
1F
100
AcDbEntity
  8
HIDDEN
100
AcDbLine
 10
46.875
 20
274.25
 30
0.0
 11
46.875
 21
274.25
 31
0.0
1001
DBPROPERTIES
1002
{
1000
PbHidd
1002
}
  0
LINE
  5
2B2
330
1F
100
AcDbEntity
  8
HIDDEN
100
AcDbLine
 10
46.875
 20
223.0
 30
0.0
 11
46.875
 21
264.376595739865
 31
0.0
1001
DBPROPERTIES
1002
{
1000
PbHidd
1002
}
  0
LINE
  5
2B3
330
1F
100
AcDbEntity
  8
THICK
100
AcDbLine
 10
46.875
 20
264.376595739865
 30
0.0
 11
46.875
 21
274.25
 31
0.0
1001
DBPROPERTIES
1002
{
1000
PbThick
1002
}
  0
LINE
  5
2B4
330
1F
100
AcDbEntity
  8
THICK
100
AcDbLine
 10
-46.875
 20
274.25
 30
0.0
 11
-46.875
 21
264.376595739865
 31
0.0
1001
DBPROPERTIES
1002
{
1000
PbThick
1002
}
  0
LINE
  5
2B5
330
1F
100
AcDbEntity
  8
HIDDEN
100
AcDbLine
 10
-46.875
 20
264.376595739865
 30
0.0
 11
-46.875
 21
223.0
 31
0.0
1001
DBPROPERTIES
1002
{
1000
PbHidd
1002
}
  0
LINE
  5
2B6
330
1F
100
AcDbEntity
  8
HIDDEN
100
AcDbLine
 10
-46.87499999999999
 20
274.25
 30
0.0
 11
-46.87500000000001
 21
274.25
 31
0.0
1001
DBPROPERTIES
1002
{
1000
PbHidd
1002
}
  0
LINE
  5
2B7
330
1F
100
AcDbEntity
  8
HIDDEN
100
AcDbLine
 10
-41.87499999999998
 20
279.25
 30
0.0
 11
-41.87499999999999
 21
279.25
 31
0.0
1001
DBPROPERTIES
1002
{
1000
PbHidd
1002
}
  0
ARC
  5
2B8
330
1F
100
AcDbEntity
  8
HIDDEN
100
AcDbCircle
 10
0.0
 20
0.0
 30
0.0
 40
227.0
100
AcDbArc
 50
0.0
 51
180.0000198478428
1001
DBPROPERTIES
1002
{
1000
PbHidd
1002
}
  0
ARC
  5
2B9
330
1F
100
AcDbEntity
  8
THICK
100
AcDbCircle
 10
176.7766952966368
 20
-176.7766952966369
 30
0.0
 40
5.999999999999999
100
AcDbArc
 50
315.0000093619842
 51
134.9999719140475
1001
DBPROPERTIES
1002
{
1000
PbThick
1002
}
  0
ARC
  5
2BA
330
1F
100
AcDbEntity
  8
THICK
100
AcDbCircle
 10
-0.0000000000000459
 20
-250.0
 30
0.0
 40
6.0
100
AcDbArc
 50
270.0000187239684
 51
89.99998127603165
1001
DBPROPERTIES
1002
{
1000
PbThick
1002
}
  0
ARC
  5
2BB
330
1F
100
AcDbEntity
  8
THICK
100
AcDbCircle
 10
-176.7766952966369
 20
-176.7766952966369
 30
0.0
 40
6.0
100
AcDbArc
 50
225.0000280859525
 51
44.99999063801582
1001
DBPROPERTIES
1002
{
1000
PbThick
1002
}
  0
ARC
  5
2BC
330
1F
100
AcDbEntity
  8
THICK
100
AcDbCircle
 10
-250.0
 20
0.0000000000000306
 30
0.0
 40
6.0
100
AcDbArc
 50
180.0000198478428
 51
0.0
1001
DBPROPERTIES
1002
{
1000
PbThick
1002
}
  0
ARC
  5
2BD
330
1F
100
AcDbEntity
  8
THICK
100
AcDbCircle
 10
-176.7766952966369
 20
176.7766952966369
 30
0.0
 40
5.999999999999999
100
AcDbArc
 50
134.9999719140475
 51
315.0000093619842
1001
DBPROPERTIES
1002
{
1000
PbThick
1002
}
  0
ARC
  5
2BE
330
1F
100
AcDbEntity
  8
THICK
100
AcDbCircle
 10
0.0000000000000153
 20
250.0
 30
0.0
 40
6.0
100
AcDbArc
 50
89.99998127603165
 51
270.0000187239684
1001
DBPROPERTIES
1002
{
1000
PbThick
1002
}
  0
ARC
  5
2BF
330
1F
100
AcDbEntity
  8
THICK
100
AcDbCircle
 10
176.7766952966369
 20
176.7766952966369
 30
0.0
 40
5.999999999999999
100
AcDbArc
 50
44.99999063801582
 51
225.0000280859525
1001
DBPROPERTIES
1002
{
1000
PbThick
1002
}
  0
ARC
  5
2C0
330
1F
100
AcDbEntity
  8
THICK
100
AcDbCircle
 10
250.0
 20
0.0
 30
0.0
 40
6.0
100
AcDbArc
 50
0.0
 51
180.0000198478428
1001
DBPROPERTIES
1002
{
1000
PbThick
1002
}
  0
ARC
  5
2C1
330
1F
100
AcDbEntity
  8
THICK
100
AcDbCircle
 10
0.0000000000000012
 20
-0.0000000000000006
 30
0.0
 40
268.5
100
AcDbArc
 50
0.0
 51
89.99998127603165
1001
DBPROPERTIES
1002
{
1000
PbThick
1002
}
  0
ARC
  5
2C2
330
1F
100
AcDbEntity
  8
THICK
100
AcDbCircle
 10
0.0
 20
0.0
 30
0.0
 40
258.5
100
AcDbArc
 50
270.0000187239684
 51
89.99998127603165
1001
DBPROPERTIES
1002
{
1000
PbThick
1002
}
  0
ARC
  5
2C3
330
1F
100
AcDbEntity
  8
HIDDEN
100
AcDbCircle
 10
0.0
 20
0.0
 30
0.0
 40
258.5
100
AcDbArc
 50
89.99998127603165
 51
270.0000187239684
1001
DBPROPERTIES
1002
{
1000
PbHidd
1002
}
  0
ARC
  5
2C4
330
1F
100
AcDbEntity
  8
THICK
100
AcDbCircle
 10
0.0
 20
0.0
 30
0.0
 40
225.0
100
AcDbArc
 50
0.0
 51
180.0000198478428
1001
DBPROPERTIES
1002
{
1000
PbThick
1002
}
  0
LINE
  5
2C5
330
1F
100
AcDbEntity
  8
HIDDEN
100
AcDbLine
 10
25.45568379432475
 20
223.061108583642
 30
0.0
 11
25.45568379432475
 21
223.061108583642
 31
0.0
1001
DBPROPERTIES
1002
{
1000
PbHidd
1002
}
  0
LINE
  5
2C6
330
1F
100
AcDbEntity
  8
THICK
100
AcDbLine
 10
24.67172031981735
 20
215.60219436838
 30
0.0
 11
25.45568379432475
 21
223.061108583642
 31
0.0
1001
DBPROPERTIES
1002
{
1000
PbThick
1002
}
  0
LINE
  5
2C7
330
1F
100
AcDbEntity
  8
HIDDEN
100
AcDbLine
 10
24.67172031981735
 20
215.60219436838
 30
0.0
 11
24.67172031981735
 21
215.60219436838
 31
0.0
1001
DBPROPERTIES
1002
{
1000
PbHidd
1002
}
  0
LINE
  5
2C8
330
1F
100
AcDbEntity
  8
HIDDEN
100
AcDbLine
 10
15.77325468584242
 20
130.9389492433677
 30
0.0
 11
23.52485799604933
 21
204.6905282412345
 31
0.0
1001
DBPROPERTIES
1002
{
1000
PbHidd
1002
}
  0
LINE
  5
2C9
330
1F
100
AcDbEntity
  8
THICK
100
AcDbLine
 10
23.52485799604933
 20
204.6905282412345
 30
0.0
 11
24.67172031981735
 21
215.60219436838
 31
0.0
1001
DBPROPERTIES
1002
{
1000
PbThick
1002
}
  0
LINE
  5
2CA
330
1F
100
AcDbEntity
  8
HIDDEN
100
AcDbLine
 10
15.77325468584243
 20
130.9389492433677
 30
0.0
 11
15.33059394682085
 21
126.7273136427409
 31
0.0
1001
DBPROPERTIES
1002
{
1000
PbHidd
1002
}
  0
LINE
  5
2CB
330
1F
100
AcDbEntity
  8
HIDDEN
100
AcDbLine
 10
13.68577883038697
 20
111.0779431651745
 30
0.0
 11
15.33059394682084
 21
126.7273136427409
 31
0.0
1001
DBPROPERTIES
1002
{
1000
PbHidd
1002
}
  0
LINE
  5
2CC
330
1F
100
AcDbEntity
  8
HIDDEN
100
AcDbLine
 10
11.58631987219055
 20
91.10292548021131
 30
0.0
 11
13.68577883038697
 21
111.0779431651745
 31
0.0
1001
DBPROPERTIES
1002
{
1000
PbHidd
1002
}
  0
LINE
  5
2CD
330
1F
100
AcDbEntity
  8
HIDDEN
100
AcDbLine
 10
11.58631987219056
 20
91.10292548021133
 30
0.0
 11
11.58631987219055
 21
91.10292548021133
 31
0.0
1001
DBPROPERTIES
1002
{
1000
PbHidd
1002
}
  0
LINE
  5
2CE
330
1F
100
AcDbEntity
  8
HIDDEN
100
AcDbLine
 10
21.47759621285165
 20
223.4792224367127
 30
0.0
 11
21.47759621285165
 21
223.4792224367127
 31
0.0
1001
DBPROPERTIES
1002
{
1000
PbHidd
1002
}
  0
LINE
  5
2CF
330
1F
100
AcDbEntity
  8
THICK
100
AcDbLine
 10
21.47759621285165
 20
223.4792224367127
 30
0.0
 11
25.45568379432475
 21
223.061108583642
 31
0.0
1001
DBPROPERTIES
1002
{
1000
PbThick
1002
}
  0
LINE
  5
2D0
330
1F
100
AcDbEntity
  8
HIDDEN
100
AcDbLine
 10
-21.47759621285165
 20
223.4792224367127
 30
0.0
 11
-21.47759621285165
 21
223.4792224367127
 31
0.0
1001
DBPROPERTIES
1002
{
1000
PbHidd
1002
}
  0
LINE
  5
2D1
330
1F
100
AcDbEntity
  8
THICK
100
AcDbLine
 10
-20.69363273834425
 20
216.0203082214506
 30
0.0
 11
-21.47759621285165
 21
223.4792224367127
 31
0.0
1001
DBPROPERTIES
1002
{
1000
PbThick
1002
}
  0
LINE
  5
2D2
330
1F
100
AcDbEntity
  8
HIDDEN
100
AcDbLine
 10
-20.69363273834425
 20
216.0203082214506
 30
0.0
 11
-20.69363273834425
 21
216.0203082214506
 31
0.0
1001
DBPROPERTIES
1002
{
1000
PbHidd
1002
}
  0
LINE
  5
2D3
330
1F
100
AcDbEntity
  8
HIDDEN
100
AcDbLine
 10
-11.79516710436934
 20
131.3570630964384
 30
0.0
 11
-19.59079523809467
 21
205.5275103102924
 31
0.0
1001
DBPROPERTIES
1002
{
1000
PbHidd
1002
}
  0
LINE
  5
2D4
330
1F
100
AcDbEntity
  8
THICK
100
AcDbLine
 10
-19.59079523809467
 20
205.5275103102924
 30
0.0
 11
-20.69363273834425
 21
216.0203082214506
 31
0.0
1001
DBPROPERTIES
1002
{
1000
PbThick
1002
}
  0
LINE
  5
2D5
330
1F
100
AcDbEntity
  8
HIDDEN
100
AcDbLine
 10
-11.79516710436933
 20
131.3570630964384
 30
0.0
 11
-11.35250636534774
 21
127.1454274958115
 31
0.0
1001
DBPROPERTIES
1002
{
1000
PbHidd
1002
}
  0
LINE
  5
2D6
330
1F
100
AcDbEntity
  8
HIDDEN
100
AcDbLine
 10
-9.707691248913875
 20
111.4960570182451
 30
0.0
 11
-11.35250636534774
 21
127.1454274958115
 31
0.0
1001
DBPROPERTIES
1002
{
1000
PbHidd
1002
}
  0
LINE
  5
2D7
330
1F
100
AcDbEntity
  8
HIDDEN
100
AcDbLine
 10
-7.608232290717456
 20
91.52103933328192
 30
0.0
 11
-9.707691248913873
 21
111.4960570182451
 31
0.0
1001
DBPROPERTIES
1002
{
1000
PbHidd
1002
}
  0
LINE
  5
2D8
330
1F
100
AcDbEntity
  8
HIDDEN
100
AcDbLine
 10
-7.608232290717456
 20
91.52103933328192
 30
0.0
 11
-7.608232290717457
 21
91.52103933328192
 31
0.0
1001
DBPROPERTIES
1002
{
1000
PbHidd
1002
}
  0
LINE
  5
2D9
330
1F
100
AcDbEntity
  8
HIDDEN
100
AcDbLine
 10
-25.45568379432474
 20
223.061108583642
 30
0.0
 11
-25.45568379432474
 21
223.061108583642
 31
0.0
1001
DBPROPERTIES
1002
{
1000
PbHidd
1002
}
  0
LINE
  5
2DA
330
1F
100
AcDbEntity
  8
THICK
100
AcDbLine
 10
-25.45568379432474
 20
223.061108583642
 30
0.0
 11
-21.47759621285165
 21
223.4792224367127
 31
0.0
1001
DBPROPERTIES
1002
{
1000
PbThick
1002
}
  0
ARC
  5
2DB
330
1F
100
AcDbEntity
  8
HIDDEN
100
AcDbCircle
 10
0.0000000000000344
 20
0.0
 30
0.0
 40
91.83673469387755
100
AcDbArc
 50
0.0
 51
5.31372518360228
1001
DBPROPERTIES
1002
{
1000
PbHidd
1002
}
  0
ARC
  5
2DC
330
1F
100
AcDbEntity
  8
THICK
100
AcDbCircle
 10
0.0000000000000344
 20
0.0
 30
0.0
 40
91.83673469387755
100
AcDbArc
 50
5.31372518360228
 51
19.80331216044518
1001
DBPROPERTIES
1002
{
1000
PbThick
1002
}
  0
ARC
  5
2DD
330
1F
100
AcDbEntity
  8
HIDDEN
100
AcDbCircle
 10
0.0000000000000344
 20
0.0
 30
0.0
 40
91.83673469387755
100
AcDbArc
 50
19.80331216044518
 51
56.74230228298595
1001
DBPROPERTIES
1002
{
1000
PbHidd
1002
}
  0
ARC
  5
2DE
330
1F
100
AcDbEntity
  8
THICK
100
AcDbCircle
 10
0.0000000000000344
 20
0.0
 30
0.0
 40
91.83673469387755
100
AcDbArc
 50
56.74230228298595
 51
71.23188925982885
1001
DBPROPERTIES
1002
{
1000
PbThick
1002
}
  0
ARC
  5
2DF
330
1F
100
AcDbEntity
  8
HIDDEN
100
AcDbCircle
 10
0.0000000000000344
 20
0.0
 30
0.0
 40
91.83673469387755
100
AcDbArc
 50
71.23188925982885
 51
108.1708793823696
1001
DBPROPERTIES
1002
{
1000
PbHidd
1002
}
  0
ARC
  5
2E0
330
1F
100
AcDbEntity
  8
THICK
100
AcDbCircle
 10
0.0000000000000344
 20
0.0
 30
0.0
 40
91.83673469387755
100
AcDbArc
 50
108.1708793823696
 51
122.660409063433
1001
DBPROPERTIES
1002
{
1000
PbThick
1002
}
  0
ARC
  5
2E1
330
1F
100
AcDbEntity
  8
HIDDEN
100
AcDbCircle
 10
0.0000000000000344
 20
0.0
 30
0.0
 40
91.83673469387755
100
AcDbArc
 50
122.660409063433
 51
159.5994564817533
1001
DBPROPERTIES
1002
{
1000
PbHidd
1002
}
  0
ARC
  5
2E2
330
1F
100
AcDbEntity
  8
THICK
100
AcDbCircle
 10
0.0000000000000344
 20
0.0
 30
0.0
 40
91.83673469387755
100
AcDbArc
 50
159.5994564817533
 51
174.0889861628167
1001
DBPROPERTIES
1002
{
1000
PbThick
1002
}
  0
ARC
  5
2E3
330
1F
100
AcDbEntity
  8
HIDDEN
100
AcDbCircle
 10
0.0000000000000344
 20
0.0
 30
0.0
 40
91.83673469387755
100
AcDbArc
 50
174.0889861628167
 51
180.0000198478428
1001
DBPROPERTIES
1002
{
1000
PbHidd
1002
}
  0
ARC
  5
2E4
330
1F
100
AcDbEntity
  8
HIDDEN
100
AcDbCircle
 10
0.0
 20
0.0
 30
0.0
 40
37.39999999999999
100
AcDbArc
 50
20.99999181135542
 51
27.0000058419654
1001
DBPROPERTIES
1002
{
1000
PbHidd
1002
}
  0
LINE
  5
2E5
330
1F
100
AcDbEntity
  8
HIDDEN
100
AcDbLine
 10
33.32364400464495
 20
16.97924469025904
 30
0.0
 11
50.11911698559572
 21
25.53696561034952
 31
0.0
1001
DBPROPERTIES
1002
{
1000
PbHidd
1002
}
  0
ARC
  5
2E6
330
1F
100
AcDbEntity
  8
HIDDEN
100
AcDbCircle
 10
0.0000000000000344
 20
0.0
 30
0.0
 40
56.25
100
AcDbArc
 50
20.99999181135542
 51
27.0000058419654
1001
DBPROPERTIES
1002
{
1000
PbHidd
1002
}
  0
LINE
  5
2E7
330
1F
100
AcDbEntity
  8
HIDDEN
100
AcDbLine
 10
52.51389899046762
 20
20.15819716192314
 30
0.0
 11
34.91590795099533
 21
13.40296131299422
 31
0.0
1001
DBPROPERTIES
1002
{
1000
PbHidd
1002
}
  0
LINE
  5
2E8
330
1F
100
AcDbEntity
  8
HIDDEN
100
AcDbLine
 10
29.06525895849069
 20
23.5365826252639
 30
0.0
 11
43.71446033195461
 21
35.39927199655335
 31
0.0
1001
DBPROPERTIES
1002
{
1000
PbHidd
1002
}
  0
ARC
  5
2E9
330
1F
100
AcDbEntity
  8
HIDDEN
100
AcDbCircle
 10
0.0000000000000344
 20
0.0
 30
0.0
 40
56.25
100
AcDbArc
 50
33.00001987257539
 51
38.99997660740585
1001
DBPROPERTIES
1002
{
1000
PbHidd
1002
}
  0
LINE
  5
2EA
330
1F
100
AcDbEntity
  8
HIDDEN
100
AcDbLine
 10
47.17521944693011
 20
30.63594571959528
 30
0.0
 11
31.36627924115884
 21
20.369499909562
 31
0.0
1001
DBPROPERTIES
1002
{
1000
PbHidd
1002
}
  0
ARC
  5
2EB
330
1F
100
AcDbEntity
  8
HIDDEN
100
AcDbCircle
 10
0.0
 20
0.0
 30
0.0
 40
37.39999999999998
100
AcDbArc
 50
33.00001987257539
 51
38.99997660740585
1001
DBPROPERTIES
1002
{
1000
PbHidd
1002
}
  0
LINE
  5
2EC
330
1F
100
AcDbEntity
  8
HIDDEN
100
AcDbLine
 10
23.53658262526391
 20
29.0652589584907
 30
0.0
 11
35.39927199655337
 21
43.71446033195463
 31
0.0
1001
DBPROPERTIES
1002
{
1000
PbHidd
1002
}
  0
ARC
  5
2ED
330
1F
100
AcDbEntity
  8
HIDDEN
100
AcDbCircle
 10
0.0000000000000344
 20
0.0
 30
0.0
 40
56.25
100
AcDbArc
 50
44.99999063801582
 51
51.00000466862581
1001
DBPROPERTIES
1002
{
1000
PbHidd
1002
}
  0
LINE
  5
2EE
330
1F
100
AcDbEntity
  8
HIDDEN
100
AcDbLine
 10
39.77475644174331
 20
39.77475644174329
 30
0.0
 11
26.44579361637687
 21
26.44579361637686
 31
0.0
1001
DBPROPERTIES
1002
{
1000
PbHidd
1002
}
  0
ARC
  5
2EF
330
1F
100
AcDbEntity
  8
HIDDEN
100
AcDbCircle
 10
0.0
 20
0.0
 30
0.0
 40
37.39999999999999
100
AcDbArc
 50
44.99999063801582
 51
51.00000466862581
1001
DBPROPERTIES
1002
{
1000
PbHidd
1002
}
  0
LINE
  5
2F0
330
1F
100
AcDbEntity
  8
HIDDEN
100
AcDbLine
 10
16.97924469025905
 20
33.32364400464493
 30
0.0
 11
25.53696561034952
 21
50.11911698559568
 31
0.0
1001
DBPROPERTIES
1002
{
1000
PbHidd
1002
}
  0
ARC
  5
2F1
330
1F
100
AcDbEntity
  8
HIDDEN
100
AcDbCircle
 10
0.0000000000000344
 20
0.0
 30
0.0
 40
56.25
100
AcDbArc
 50
57.0000186992358
 51
62.99997543406626
1001
DBPROPERTIES
1002
{
1000
PbHidd
1002
}
  0
LINE
  5
2F2
330
1F
100
AcDbEntity
  8
HIDDEN
100
AcDbLine
 10
30.63594571959528
 20
47.17521944693009
 30
0.0
 11
20.36949990956201
 21
31.36627924115884
 31
0.0
1001
DBPROPERTIES
1002
{
1000
PbHidd
1002
}
  0
ARC
  5
2F3
330
1F
100
AcDbEntity
  8
HIDDEN
100
AcDbCircle
 10
0.0
 20
0.0
 30
0.0
 40
37.39999999999998
100
AcDbArc
 50
57.0000186992358
 51
62.99997543406626
1001
DBPROPERTIES
1002
{
1000
PbHidd
1002
}
  0
LINE
  5
2F4
330
1F
100
AcDbEntity
  8
HIDDEN
100
AcDbLine
 10
9.679832286834277
 20
36.12562590321114
 30
0.0
 11
14.5585712870168
 21
54.33332772876009
 31
0.0
1001
DBPROPERTIES
1002
{
1000
PbHidd
1002
}
  0
ARC
  5
2F5
330
1F
100
AcDbEntity
  8
HIDDEN
100
AcDbCircle
 10
0.0000000000000344
 20
0.0
 30
0.0
 40
56.25
100
AcDbArc
 50
68.99998946467625
 51
75.00000349528622
1001
DBPROPERTIES
1002
{
1000
PbHidd
1002
}
  0
LINE
  5
2F6
330
1F
100
AcDbEntity
  8
HIDDEN
100
AcDbLine
 10
20.15819716192314
 20
52.5138989904676
 30
0.0
 11
13.40296131299423
 21
34.91590795099533
 31
0.0
1001
DBPROPERTIES
1002
{
1000
PbHidd
1002
}
  0
ARC
  5
2F7
330
1F
100
AcDbEntity
  8
HIDDEN
100
AcDbCircle
 10
0.0
 20
0.0
 30
0.0
 40
37.39999999999998
100
AcDbArc
 50
68.99998946467625
 51
75.00000349528622
1001
DBPROPERTIES
1002
{
1000
PbHidd
1002
}
  0
LINE
  5
2F8
330
1F
100
AcDbEntity
  8
HIDDEN
100
AcDbLine
 10
1.957364763486104
 20
37.34874459982104
 30
0.0
 11
2.943897538665599
 21
56.17291132994477
 31
0.0
1001
DBPROPERTIES
1002
{
1000
PbHidd
1002
}
  0
ARC
  5
2F9
330
1F
100
AcDbEntity
  8
HIDDEN
100
AcDbCircle
 10
0.0000000000000344
 20
0.0
 30
0.0
 40
56.25
100
AcDbArc
 50
81.0000175258962
 51
86.99997426072667
1001
DBPROPERTIES
1002
{
1000
PbHidd
1002
}
  0
LINE
  5
2FA
330
1F
100
AcDbEntity
  8
HIDDEN
100
AcDbLine
 10
8.799438658512992
 20
55.55746915847648
 30
0.0
 11
5.850648992504635
 21
36.93954393825813
 31
0.0
1001
DBPROPERTIES
1002
{
1000
PbHidd
1002
}
  0
ARC
  5
2FB
330
1F
100
AcDbEntity
  8
HIDDEN
100
AcDbCircle
 10
0.0
 20
0.0
 30
0.0
 40
37.39999999999998
100
AcDbArc
 50
81.0000175258962
 51
86.99997426072667
1001
DBPROPERTIES
1002
{
1000
PbHidd
1002
}
  0
LINE
  5
2FC
330
1F
100
AcDbEntity
  8
HIDDEN
100
AcDbLine
 10
-5.850648992504625
 20
36.93954393825814
 30
0.0
 11
-8.79943865851297
 21
55.55746915847648
 31
0.0
1001
DBPROPERTIES
1002
{
1000
PbHidd
1002
}
  0
ARC
  5
2FD
330
1F
100
AcDbEntity
  8
HIDDEN
100
AcDbCircle
 10
0.0000000000000344
 20
0.0
 30
0.0
 40
56.25
100
AcDbArc
 50
92.99998829133665
 51
99.00000232194662
1001
DBPROPERTIES
1002
{
1000
PbHidd
1002
}
  0
LINE
  5
2FE
330
1F
100
AcDbEntity
  8
HIDDEN
100
AcDbLine
 10
-2.943897538665575
 20
56.17291132994477
 30
0.0
 11
-1.957364763486089
 21
37.34874459982105
 31
0.0
1001
DBPROPERTIES
1002
{
1000
PbHidd
1002
}
  0
ARC
  5
2FF
330
1F
100
AcDbEntity
  8
HIDDEN
100
AcDbCircle
 10
0.0
 20
0.0
 30
0.0
 40
37.39999999999998
100
AcDbArc
 50
92.99998829133665
 51
99.00000232194662
1001
DBPROPERTIES
1002
{
1000
PbHidd
1002
}
  0
LINE
  5
300
330
1F
100
AcDbEntity
  8
HIDDEN
100
AcDbLine
 10
-13.40296131299422
 20
34.91590795099533
 30
0.0
 11
-20.15819716192312
 21
52.51389899046757
 31
0.0
1001
DBPROPERTIES
1002
{
1000
PbHidd
1002
}
  0
ARC
  5
301
330
1F
100
AcDbEntity
  8
HIDDEN
100
AcDbCircle
 10
0.0000000000000344
 20
0.0
 30
0.0
 40
56.25
100
AcDbArc
 50
105.0000163525566
 51
110.9999730873871
1001
DBPROPERTIES
1002
{
1000
PbHidd
1002
}
  0
LINE
  5
302
330
1F
100
AcDbEntity
  8
HIDDEN
100
AcDbLine
 10
-14.55857128701677
 20
54.33332772876005
 30
0.0
 11
-9.679832286834264
 21
36.12562590321114
 31
0.0
1001
DBPROPERTIES
1002
{
1000
PbHidd
1002
}
  0
ARC
  5
303
330
1F
100
AcDbEntity
  8
HIDDEN
100
AcDbCircle
 10
0.0
 20
0.0
 30
0.0
 40
37.39999999999998
100
AcDbArc
 50
105.0000163525566
 51
110.9999730873871
1001
DBPROPERTIES
1002
{
1000
PbHidd
1002
}
  0
LINE
  5
304
330
1F
100
AcDbEntity
  8
HIDDEN
100
AcDbLine
 10
-20.369499909562
 20
31.36627924115886
 30
0.0
 11
-30.63594571959525
 21
47.17521944693009
 31
0.0
1001
DBPROPERTIES
1002
{
1000
PbHidd
1002
}
  0
ARC
  5
305
330
1F
100
AcDbEntity
  8
HIDDEN
100
AcDbCircle
 10
0.0000000000000344
 20
0.0
 30
0.0
 40
56.25
100
AcDbArc
 50
116.9999871179971
 51
123.000001148607
1001
DBPROPERTIES
1002
{
1000
PbHidd
1002
}
  0
LINE
  5
306
330
1F
100
AcDbEntity
  8
HIDDEN
100
AcDbLine
 10
-25.53696561034948
 20
50.11911698559567
 30
0.0
 11
-16.97924469025904
 21
33.32364400464494
 31
0.0
1001
DBPROPERTIES
1002
{
1000
PbHidd
1002
}
  0
ARC
  5
307
330
1F
100
AcDbEntity
  8
HIDDEN
100
AcDbCircle
 10
0.0
 20
0.0
 30
0.0
 40
37.39999999999998
100
AcDbArc
 50
116.9999871179971
 51
123.000001148607
1001
DBPROPERTIES
1002
{
1000
PbHidd
1002
}
  0
LINE
  5
308
330
1F
100
AcDbEntity
  8
HIDDEN
100
AcDbLine
 10
-26.44579361637685
 20
26.44579361637687
 30
0.0
 11
-39.77475644174326
 21
39.77475644174328
 31
0.0
1001
DBPROPERTIES
1002
{
1000
PbHidd
1002
}
  0
ARC
  5
309
330
1F
100
AcDbEntity
  8
HIDDEN
100
AcDbCircle
 10
0.0000000000000344
 20
0.0
 30
0.0
 40
56.25
100
AcDbArc
 50
129.000015179217
 51
134.9999719140475
1001
DBPROPERTIES
1002
{
1000
PbHidd
1002
}
  0
LINE
  5
30A
330
1F
100
AcDbEntity
  8
HIDDEN
100
AcDbLine
 10
-35.39927199655332
 20
43.71446033195458
 30
0.0
 11
-23.5365826252639
 21
29.0652589584907
 31
0.0
1001
DBPROPERTIES
1002
{
1000
PbHidd
1002
}
  0
ARC
  5
30B
330
1F
100
AcDbEntity
  8
HIDDEN
100
AcDbCircle
 10
0.0
 20
0.0
 30
0.0
 40
37.39999999999998
100
AcDbArc
 50
129.000015179217
 51
134.9999719140475
1001
DBPROPERTIES
1002
{
1000
PbHidd
1002
}
  0
LINE
  5
30C
330
1F
100
AcDbEntity
  8
HIDDEN
100
AcDbLine
 10
-31.36627924115883
 20
20.36949990956202
 30
0.0
 11
-47.17521944693004
 21
30.63594571959527
 31
0.0
1001
DBPROPERTIES
1002
{
1000
PbHidd
1002
}
  0
ARC
  5
30D
330
1F
100
AcDbEntity
  8
HIDDEN
100
AcDbCircle
 10
0.0000000000000344
 20
0.0
 30
0.0
 40
56.25
100
AcDbArc
 50
140.9999859446575
 51
146.9999999752674
1001
DBPROPERTIES
1002
{
1000
PbHidd
1002
}
  0
LINE
  5
30E
330
1F
100
AcDbEntity
  8
HIDDEN
100
AcDbLine
 10
-43.71446033195455
 20
35.39927199655335
 30
0.0
 11
-29.06525895849068
 21
23.53658262526393
 31
0.0
1001
DBPROPERTIES
1002
{
1000
PbHidd
1002
}
  0
ARC
  5
30F
330
1F
100
AcDbEntity
  8
HIDDEN
100
AcDbCircle
 10
0.0
 20
0.0
 30
0.0
 40
37.39999999999998
100
AcDbArc
 50
140.9999859446575
 51
146.9999999752674
1001
DBPROPERTIES
1002
{
1000
PbHidd
1002
}
  0
LINE
  5
310
330
1F
100
AcDbEntity
  8
HIDDEN
100
AcDbLine
 10
-34.91590795099532
 20
13.40296131299423
 30
0.0
 11
-52.51389899046755
 21
20.15819716192313
 31
0.0
1001
DBPROPERTIES
1002
{
1000
PbHidd
1002
}
  0
ARC
  5
311
330
1F
100
AcDbEntity
  8
HIDDEN
100
AcDbCircle
 10
0.0000000000000344
 20
0.0
 30
0.0
 40
56.25
100
AcDbArc
 50
153.0000140058774
 51
159.0000280364874
1001
DBPROPERTIES
1002
{
1000
PbHidd
1002
}
  0
LINE
  5
312
330
1F
100
AcDbEntity
  8
HIDDEN
100
AcDbLine
 10
-50.11911698559565
 20
25.53696561034949
 30
0.0
 11
-33.32364400464493
 21
16.97924469025904
 31
0.0
1001
DBPROPERTIES
1002
{
1000
PbHidd
1002
}
  0
ARC
  5
313
330
1F
100
AcDbEntity
  8
HIDDEN
100
AcDbCircle
 10
0.0
 20
0.0
 30
0.0
 40
37.39999999999998
100
AcDbArc
 50
153.0000140058774
 51
159.0000280364874
1001
DBPROPERTIES
1002
{
1000
PbHidd
1002
}
  0
LINE
  5
314
330
1F
100
AcDbEntity
  8
HIDDEN
100
AcDbLine
 10
-36.93954393825813
 20
5.850648992504644
 30
0.0
 11
-55.55746915847644
 21
8.799438658512996
 31
0.0
1001
DBPROPERTIES
1002
{
1000
PbHidd
1002
}
  0
ARC
  5
315
330
1F
100
AcDbEntity
  8
HIDDEN
100
AcDbCircle
 10
0.0000000000000344
 20
0.0
 30
0.0
 40
56.25
100
AcDbArc
 50
164.9999847713179
 51
170.9999988019279
1001
DBPROPERTIES
1002
{
1000
PbHidd
1002
}
  0
LINE
  5
316
330
1F
100
AcDbEntity
  8
HIDDEN
100
AcDbLine
 10
-54.33332772876003
 20
14.5585712870168
 30
0.0
 11
-36.12562590321113
 21
9.679832286834284
 31
0.0
1001
DBPROPERTIES
1002
{
1000
PbHidd
1002
}
  0
ARC
  5
317
330
1F
100
AcDbEntity
  8
HIDDEN
100
AcDbCircle
 10
0.0
 20
0.0
 30
0.0
 40
37.39999999999998
100
AcDbArc
 50
164.9999847713179
 51
170.9999988019279
1001
DBPROPERTIES
1002
{
1000
PbHidd
1002
}
  0
LINE
  5
318
330
1F
100
AcDbEntity
  8
HIDDEN
100
AcDbLine
 10
-37.34874459982105
 20
-1.957364763486081
 30
0.0
 11
-56.17291132994472
 21
-2.943897538665562
 31
0.0
1001
DBPROPERTIES
1002
{
1000
PbHidd
1002
}
  0
ARC
  5
319
330
1F
100
AcDbEntity
  8
HIDDEN
100
AcDbCircle
 10
0.0000000000000344
 20
0.0
 30
0.0
 40
56.25
100
AcDbArc
 50
177.0000128325378
 51
180.0000198478428
1001
DBPROPERTIES
1002
{
1000
PbHidd
1002
}
  0
LINE
  5
31A
330
1F
100
AcDbEntity
  8
HIDDEN
100
AcDbLine
 10
-56.17291132994472
 20
2.943897538665614
 30
0.0
 11
-37.34874459982105
 21
1.957364763486116
 31
0.0
1001
DBPROPERTIES
1002
{
1000
PbHidd
1002
}
  0
ARC
  5
31B
330
1F
100
AcDbEntity
  8
HIDDEN
100
AcDbCircle
 10
0.0
 20
0.0
 30
0.0
 40
37.39999999999999
100
AcDbArc
 50
177.0000128325378
 51
182.9999871674622
1001
DBPROPERTIES
1002
{
1000
PbHidd
1002
}
  0
LINE
  5
31C
330
1F
100
AcDbEntity
  8
HIDDEN
100
AcDbLine
 10
-36.12562590321114
 20
-9.67983228683427
 30
0.0
 11
-54.33332772876004
 21
-14.55857128701677
 31
0.0
1001
DBPROPERTIES
1002
{
1000
PbHidd
1002
}
  0
ARC
  5
31D
330
1F
100
AcDbEntity
  8
HIDDEN
100
AcDbCircle
 10
0.0000000000000344
 20
0.0
 30
0.0
 40
56.25
100
AcDbArc
 50
189.0000011980722
 51
195.0000152286821
1001
DBPROPERTIES
1002
{
1000
PbHidd
1002
}
  0
LINE
  5
31E
330
1F
100
AcDbEntity
  8
HIDDEN
100
AcDbLine
 10
-55.55746915847644
 20
-8.799438658512969
 30
0.0
 11
-36.93954393825813
 21
-5.850648992504626
 31
0.0
1001
DBPROPERTIES
1002
{
1000
PbHidd
1002
}
  0
ARC
  5
31F
330
1F
100
AcDbEntity
  8
HIDDEN
100
AcDbCircle
 10
0.0
 20
0.0
 30
0.0
 40
37.39999999999998
100
AcDbArc
 50
189.0000011980722
 51
195.0000152286821
1001
DBPROPERTIES
1002
{
1000
PbHidd
1002
}
  0
LINE
  5
320
330
1F
100
AcDbEntity
  8
HIDDEN
100
AcDbLine
 10
-33.32364400464495
 20
-16.97924469025903
 30
0.0
 11
-50.11911698559566
 21
-25.53696561034947
 31
0.0
1001
DBPROPERTIES
1002
{
1000
PbHidd
1002
}
  0
ARC
  5
321
330
1F
100
AcDbEntity
  8
HIDDEN
100
AcDbCircle
 10
0.0000000000000344
 20
0.0
 30
0.0
 40
56.25
100
AcDbArc
 50
200.9999719635126
 51
206.9999859941226
1001
DBPROPERTIES
1002
{
1000
PbHidd
1002
}
  0
LINE
  5
322
330
1F
100
AcDbEntity
  8
HIDDEN
100
AcDbLine
 10
-52.51389899046755
 20
-20.15819716192311
 30
0.0
 11
-34.91590795099533
 21
-13.40296131299421
 31
0.0
1001
DBPROPERTIES
1002
{
1000
PbHidd
1002
}
  0
ARC
  5
323
330
1F
100
AcDbEntity
  8
HIDDEN
100
AcDbCircle
 10
0.0
 20
0.0
 30
0.0
 40
37.39999999999999
100
AcDbArc
 50
200.9999719635126
 51
206.9999859941226
1001
DBPROPERTIES
1002
{
1000
PbHidd
1002
}
  0
LINE
  5
324
330
1F
100
AcDbEntity
  8
HIDDEN
100
AcDbLine
 10
-29.06525895849071
 20
-23.5365826252639
 30
0.0
 11
-43.71446033195459
 21
-35.39927199655331
 31
0.0
1001
DBPROPERTIES
1002
{
1000
PbHidd
1002
}
  0
ARC
  5
325
330
1F
100
AcDbEntity
  8
HIDDEN
100
AcDbCircle
 10
0.0000000000000344
 20
0.0
 30
0.0
 40
56.25
100
AcDbArc
 50
213.0000000247326
 51
219.0000140553425
1001
DBPROPERTIES
1002
{
1000
PbHidd
1002
}
  0
LINE
  5
326
330
1F
100
AcDbEntity
  8
HIDDEN
100
AcDbLine
 10
-47.17521944693007
 20
-30.63594571959523
 30
0.0
 11
-31.36627924115885
 21
-20.36949990956199
 31
0.0
1001
DBPROPERTIES
1002
{
1000
PbHidd
1002
}
  0
ARC
  5
327
330
1F
100
AcDbEntity
  8
HIDDEN
100
AcDbCircle
 10
0.0
 20
0.0
 30
0.0
 40
37.39999999999998
100
AcDbArc
 50
213.0000000247326
 51
219.0000140553425
1001
DBPROPERTIES
1002
{
1000
PbHidd
1002
}
  0
LINE
  5
328
330
1F
100
AcDbEntity
  8
HIDDEN
100
AcDbLine
 10
-23.53658262526391
 20
-29.06525895849069
 30
0.0
 11
-35.39927199655334
 21
-43.71446033195457
 31
0.0
1001
DBPROPERTIES
1002
{
1000
PbHidd
1002
}
  0
ARC
  5
329
330
1F
100
AcDbEntity
  8
HIDDEN
100
AcDbCircle
 10
0.0000000000000344
 20
0.0
 30
0.0
 40
56.25
100
AcDbArc
 50
225.0000280859525
 51
230.999984820783
1001
DBPROPERTIES
1002
{
1000
PbHidd
1002
}
  0
LINE
  5
32A
330
1F
100
AcDbEntity
  8
HIDDEN
100
AcDbLine
 10
-39.77475644174328
 20
-39.77475644174325
 30
0.0
 11
-26.44579361637687
 21
-26.44579361637685
 31
0.0
1001
DBPROPERTIES
1002
{
1000
PbHidd
1002
}
  0
ARC
  5
32B
330
1F
100
AcDbEntity
  8
HIDDEN
100
AcDbCircle
 10
0.0
 20
0.0
 30
0.0
 40
37.39999999999998
100
AcDbArc
 50
225.0000280859525
 51
230.999984820783
1001
DBPROPERTIES
1002
{
1000
PbHidd
1002
}
  0
LINE
  5
32C
330
1F
100
AcDbEntity
  8
HIDDEN
100
AcDbLine
 10
-16.97924469025906
 20
-33.32364400464494
 30
0.0
 11
-25.53696561034951
 21
-50.11911698559565
 31
0.0
1001
DBPROPERTIES
1002
{
1000
PbHidd
1002
}
  0
ARC
  5
32D
330
1F
100
AcDbEntity
  8
HIDDEN
100
AcDbCircle
 10
0.0000000000000344
 20
0.0
 30
0.0
 40
56.25
100
AcDbArc
 50
236.999998851393
 51
243.0000128820029
1001
DBPROPERTIES
1002
{
1000
PbHidd
1002
}
  0
LINE
  5
32E
330
1F
100
AcDbEntity
  8
HIDDEN
100
AcDbLine
 10
-30.63594571959527
 20
-47.17521944693007
 30
0.0
 11
-20.36949990956201
 21
-31.36627924115884
 31
0.0
1001
DBPROPERTIES
1002
{
1000
PbHidd
1002
}
  0
ARC
  5
32F
330
1F
100
AcDbEntity
  8
HIDDEN
100
AcDbCircle
 10
0.0
 20
0.0
 30
0.0
 40
37.39999999999998
100
AcDbArc
 50
236.999998851393
 51
243.0000128820029
1001
DBPROPERTIES
1002
{
1000
PbHidd
1002
}
  0
LINE
  5
330
330
1F
100
AcDbEntity
  8
HIDDEN
100
AcDbLine
 10
-9.679832286834294
 20
-36.12562590321114
 30
0.0
 11
-14.55857128701682
 21
-54.33332772876007
 31
0.0
1001
DBPROPERTIES
1002
{
1000
PbHidd
1002
}
  0
ARC
  5
331
330
1F
100
AcDbEntity
  8
HIDDEN
100
AcDbCircle
 10
0.0000000000000344
 20
0.0
 30
0.0
 40
56.25
100
AcDbArc
 50
249.0000269126129
 51
254.9999836474434
1001
DBPROPERTIES
1002
{
1000
PbHidd
1002
}
  0
LINE
  5
332
330
1F
100
AcDbEntity
  8
HIDDEN
100
AcDbLine
 10
-20.15819716192317
 20
-52.51389899046757
 30
0.0
 11
-13.40296131299425
 21
-34.91590795099532
 31
0.0
1001
DBPROPERTIES
1002
{
1000
PbHidd
1002
}
  0
ARC
  5
333
330
1F
100
AcDbEntity
  8
HIDDEN
100
AcDbCircle
 10
0.0
 20
0.0
 30
0.0
 40
37.39999999999998
100
AcDbArc
 50
249.0000269126129
 51
254.9999836474434
1001
DBPROPERTIES
1002
{
1000
PbHidd
1002
}
  0
LINE
  5
334
330
1F
100
AcDbEntity
  8
HIDDEN
100
AcDbLine
 10
-1.957364763486109
 20
-37.34874459982105
 30
0.0
 11
-2.943897538665604
 21
-56.17291132994476
 31
0.0
1001
DBPROPERTIES
1002
{
1000
PbHidd
1002
}
  0
ARC
  5
335
330
1F
100
AcDbEntity
  8
HIDDEN
100
AcDbCircle
 10
0.0000000000000344
 20
0.0
 30
0.0
 40
56.25
100
AcDbArc
 50
260.9999976780534
 51
267.0000117086634
1001
DBPROPERTIES
1002
{
1000
PbHidd
1002
}
  0
LINE
  5
336
330
1F
100
AcDbEntity
  8
HIDDEN
100
AcDbLine
 10
-8.799438658512996
 20
-55.55746915847647
 30
0.0
 11
-5.85064899250464
 21
-36.93954393825813
 31
0.0
1001
DBPROPERTIES
1002
{
1000
PbHidd
1002
}
  0
ARC
  5
337
330
1F
100
AcDbEntity
  8
HIDDEN
100
AcDbCircle
 10
0.0
 20
0.0
 30
0.0
 40
37.39999999999998
100
AcDbArc
 50
260.9999976780534
 51
267.0000117086634
1001
DBPROPERTIES
1002
{
1000
PbHidd
1002
}
  0
LINE
  5
338
330
1F
100
AcDbEntity
  8
HIDDEN
100
AcDbLine
 10
5.850648992504603
 20
-36.93954393825815
 30
0.0
 11
8.79943865851294
 21
-55.55746915847649
 31
0.0
1001
DBPROPERTIES
1002
{
1000
PbHidd
1002
}
  0
ARC
  5
339
330
1F
100
AcDbEntity
  8
HIDDEN
100
AcDbCircle
 10
0.0000000000000344
 20
0.0
 30
0.0
 40
56.25
100
AcDbArc
 50
273.0000257392733
 51
278.9999824741038
1001
DBPROPERTIES
1002
{
1000
PbHidd
1002
}
  0
LINE
  5
33A
330
1F
100
AcDbEntity
  8
HIDDEN
100
AcDbLine
 10
2.943897538665544
 20
-56.17291132994477
 30
0.0
 11
1.957364763486068
 21
-37.34874459982105
 31
0.0
1001
DBPROPERTIES
1002
{
1000
PbHidd
1002
}
  0
ARC
  5
33B
330
1F
100
AcDbEntity
  8
HIDDEN
100
AcDbCircle
 10
0.0
 20
0.0
 30
0.0
 40
37.39999999999998
100
AcDbArc
 50
273.0000257392733
 51
278.9999824741038
1001
DBPROPERTIES
1002
{
1000
PbHidd
1002
}
  0
LINE
  5
33C
330
1F
100
AcDbEntity
  8
HIDDEN
100
AcDbLine
 10
13.4029613129942
 20
-34.91590795099533
 30
0.0
 11
20.15819716192311
 21
-52.51389899046761
 31
0.0
1001
DBPROPERTIES
1002
{
1000
PbHidd
1002
}
  0
ARC
  5
33D
330
1F
100
AcDbEntity
  8
HIDDEN
100
AcDbCircle
 10
0.0000000000000344
 20
0.0
 30
0.0
 40
56.25
100
AcDbArc
 50
284.9999965047138
 51
291.0000105353237
1001
DBPROPERTIES
1002
{
1000
PbHidd
1002
}
  0
LINE
  5
33E
330
1F
100
AcDbEntity
  8
HIDDEN
100
AcDbLine
 10
14.55857128701676
 20
-54.33332772876008
 30
0.0
 11
9.679832286834252
 21
-36.12562590321114
 31
0.0
1001
DBPROPERTIES
1002
{
1000
PbHidd
1002
}
  0
ARC
  5
33F
330
1F
100
AcDbEntity
  8
HIDDEN
100
AcDbCircle
 10
0.0
 20
0.0
 30
0.0
 40
37.39999999999998
100
AcDbArc
 50
284.9999965047138
 51
291.0000105353237
1001
DBPROPERTIES
1002
{
1000
PbHidd
1002
}
  0
LINE
  5
340
330
1F
100
AcDbEntity
  8
HIDDEN
100
AcDbLine
 10
20.369499909562
 20
-31.36627924115885
 30
0.0
 11
30.63594571959526
 21
-47.17521944693011
 31
0.0
1001
DBPROPERTIES
1002
{
1000
PbHidd
1002
}
  0
ARC
  5
341
330
1F
100
AcDbEntity
  8
HIDDEN
100
AcDbCircle
 10
0.0000000000000344
 20
0.0
 30
0.0
 40
56.25
100
AcDbArc
 50
297.0000245659338
 51
302.9999813007643
1001
DBPROPERTIES
1002
{
1000
PbHidd
1002
}
  0
LINE
  5
342
330
1F
100
AcDbEntity
  8
HIDDEN
100
AcDbLine
 10
25.53696561034949
 20
-50.1191169855957
 30
0.0
 11
16.97924469025903
 21
-33.32364400464495
 31
0.0
1001
DBPROPERTIES
1002
{
1000
PbHidd
1002
}
  0
ARC
  5
343
330
1F
100
AcDbEntity
  8
HIDDEN
100
AcDbCircle
 10
0.0
 20
0.0
 30
0.0
 40
37.39999999999998
100
AcDbArc
 50
297.0000245659338
 51
302.9999813007643
1001
DBPROPERTIES
1002
{
1000
PbHidd
1002
}
  0
LINE
  5
344
330
1F
100
AcDbEntity
  8
HIDDEN
100
AcDbLine
 10
26.44579361637685
 20
-26.44579361637689
 30
0.0
 11
39.77475644174328
 21
-39.77475644174334
 31
0.0
1001
DBPROPERTIES
1002
{
1000
PbHidd
1002
}
  0
ARC
  5
345
330
1F
100
AcDbEntity
  8
HIDDEN
100
AcDbCircle
 10
0.0000000000000344
 20
0.0
 30
0.0
 40
56.25
100
AcDbArc
 50
308.9999953313742
 51
315.0000093619842
1001
DBPROPERTIES
1002
{
1000
PbHidd
1002
}
  0
LINE
  5
346
330
1F
100
AcDbEntity
  8
HIDDEN
100
AcDbLine
 10
35.39927199655332
 20
-43.71446033195465
 30
0.0
 11
23.53658262526389
 21
-29.06525895849072
 31
0.0
1001
DBPROPERTIES
1002
{
1000
PbHidd
1002
}
  0
ARC
  5
347
330
1F
100
AcDbEntity
  8
HIDDEN
100
AcDbCircle
 10
0.0
 20
0.0
 30
0.0
 40
37.39999999999998
100
AcDbArc
 50
308.9999953313742
 51
315.0000093619842
1001
DBPROPERTIES
1002
{
1000
PbHidd
1002
}
  0
LINE
  5
348
330
1F
100
AcDbEntity
  8
HIDDEN
100
AcDbLine
 10
31.36627924115883
 20
-20.36949990956202
 30
0.0
 11
47.1752194469301
 21
-30.6359457195953
 31
0.0
1001
DBPROPERTIES
1002
{
1000
PbHidd
1002
}
  0
ARC
  5
349
330
1F
100
AcDbEntity
  8
HIDDEN
100
AcDbCircle
 10
0.0000000000000344
 20
0.0
 30
0.0
 40
56.25
100
AcDbArc
 50
321.0000233925941
 51
326.9999801274246
1001
DBPROPERTIES
1002
{
1000
PbHidd
1002
}
  0
LINE
  5
34A
330
1F
100
AcDbEntity
  8
HIDDEN
100
AcDbLine
 10
43.7144603319546
 20
-35.39927199655339
 30
0.0
 11
29.06525895849068
 21
-23.53658262526393
 31
0.0
1001
DBPROPERTIES
1002
{
1000
PbHidd
1002
}
  0
ARC
  5
34B
330
1F
100
AcDbEntity
  8
HIDDEN
100
AcDbCircle
 10
0.0
 20
0.0
 30
0.0
 40
37.39999999999998
100
AcDbArc
 50
321.0000233925941
 51
326.9999801274246
1001
DBPROPERTIES
1002
{
1000
PbHidd
1002
}
  0
LINE
  5
34C
330
1F
100
AcDbEntity
  8
HIDDEN
100
AcDbLine
 10
34.91590795099533
 20
-13.40296131299424
 30
0.0
 11
52.51389899046762
 21
-20.15819716192317
 31
0.0
1001
DBPROPERTIES
1002
{
1000
PbHidd
1002
}
  0
ARC
  5
34D
330
1F
100
AcDbEntity
  8
HIDDEN
100
AcDbCircle
 10
0.0000000000000344
 20
0.0
 30
0.0
 40
56.25
100
AcDbArc
 50
332.9999941580346
 51
339.0000081886445
1001
DBPROPERTIES
1002
{
1000
PbHidd
1002
}
  0
LINE
  5
34E
330
1F
100
AcDbEntity
  8
HIDDEN
100
AcDbLine
 10
50.1191169855957
 20
-25.53696561034953
 30
0.0
 11
33.32364400464494
 21
-16.97924469025905
 31
0.0
1001
DBPROPERTIES
1002
{
1000
PbHidd
1002
}
  0
ARC
  5
34F
330
1F
100
AcDbEntity
  8
HIDDEN
100
AcDbCircle
 10
0.0
 20
0.0
 30
0.0
 40
37.39999999999998
100
AcDbArc
 50
332.9999941580346
 51
339.0000081886445
1001
DBPROPERTIES
1002
{
1000
PbHidd
1002
}
  0
LINE
  5
350
330
1F
100
AcDbEntity
  8
HIDDEN
100
AcDbLine
 10
36.93954393825813
 20
-5.850648992504661
 30
0.0
 11
55.55746915847651
 21
-8.799438658513036
 31
0.0
1001
DBPROPERTIES
1002
{
1000
PbHidd
1002
}
  0
ARC
  5
351
330
1F
100
AcDbEntity
  8
HIDDEN
100
AcDbCircle
 10
0.0000000000000344
 20
0.0
 30
0.0
 40
56.25
100
AcDbArc
 50
345.0000222192546
 51
350.9999789540851
1001
DBPROPERTIES
1002
{
1000
PbHidd
1002
}
  0
LINE
  5
352
330
1F
100
AcDbEntity
  8
HIDDEN
100
AcDbLine
 10
54.3333277287601
 20
-14.55857128701684
 30
0.0
 11
36.12562590321112
 21
-9.6798322868343
 31
0.0
1001
DBPROPERTIES
1002
{
1000
PbHidd
1002
}
  0
ARC
  5
353
330
1F
100
AcDbEntity
  8
HIDDEN
100
AcDbCircle
 10
0.0
 20
0.0
 30
0.0
 40
37.39999999999998
100
AcDbArc
 50
345.0000222192546
 51
350.9999789540851
1001
DBPROPERTIES
1002
{
1000
PbHidd
1002
}
  0
LINE
  5
354
330
1F
100
AcDbEntity
  8
HIDDEN
100
AcDbLine
 10
36.12562590321114
 20
9.679832286834271
 30
0.0
 11
54.33332772876011
 21
14.55857128701679
 31
0.0
1001
DBPROPERTIES
1002
{
1000
PbHidd
1002
}
  0
ARC
  5
355
330
1F
100
AcDbEntity
  8
HIDDEN
100
AcDbCircle
 10
0.0000000000000344
 20
0.0
 30
0.0
 40
56.25
100
AcDbArc
 50
9.000021045914972
 51
14.99997778074544
1001
DBPROPERTIES
1002
{
1000
PbHidd
1002
}
  0
LINE
  5
356
330
1F
100
AcDbEntity
  8
HIDDEN
100
AcDbLine
 10
55.55746915847652
 20
8.799438658512987
 30
0.0
 11
36.93954393825813
 21
5.850648992504629
 31
0.0
1001
DBPROPERTIES
1002
{
1000
PbHidd
1002
}
  0
ARC
  5
357
330
1F
100
AcDbEntity
  8
HIDDEN
100
AcDbCircle
 10
0.0
 20
0.0
 30
0.0
 40
37.39999999999998
100
AcDbArc
 50
9.000021045914972
 51
14.99997778074544
1001
DBPROPERTIES
1002
{
1000
PbHidd
1002
}
  0
ARC
  5
358
330
1F
100
AcDbEntity
  8
HIDDEN
100
AcDbCircle
 10
0.0000000000000021
 20
0.0
 30
0.0
 40
123.8054445662277
100
AcDbArc
 50
96.92560862467548
 51
173.074392499199
1001
DBPROPERTIES
1002
{
1000
PbHidd
1002
}
  0
LINE
  5
359
330
1F
100
AcDbEntity
  8
HIDDEN
100
AcDbLine
 10
-130.9389492433677
 20
15.77325468584242
 30
0.0
 11
-126.7273136427409
 21
15.33059394682084
 31
0.0
1001
DBPROPERTIES
1002
{
1000
PbHidd
1002
}
  0
LINE
  5
35A
330
1F
100
AcDbEntity
  8
HIDDEN
100
AcDbLine
 10
-15.77325468584243
 20
130.9389492433679
 30
0.0
 11
-15.33059394682085
 21
126.727313642741
 31
0.0
1001
DBPROPERTIES
1002
{
1000
PbHidd
1002
}
  0
LINE
  5
35B
330
1F
100
AcDbEntity
  8
HIDDEN
100
AcDbLine
 10
-131.3570630964384
 20
11.79516710436934
 30
0.0
 11
-127.1454274958115
 21
11.35250636534775
 31
0.0
1001
DBPROPERTIES
1002
{
1000
PbHidd
1002
}
  0
ARC
  5
35C
330
1F
100
AcDbEntity
  8
HIDDEN
100
AcDbCircle
 10
0.0000000000000021
 20
0.0
 30
0.0
 40
123.8054445662277
100
AcDbArc
 50
174.9256191352667
 51
185.0743808647333
1001
DBPROPERTIES
1002
{
1000
PbHidd
1002
}
  0
LINE
  5
35D
330
1F
100
AcDbEntity
  8
HIDDEN
100
AcDbLine
 10
-131.3570630964384
 20
-11.79516710436933
 30
0.0
 11
-127.1454274958115
 21
-11.35250636534775
 31
0.0
1001
DBPROPERTIES
1002
{
1000
PbHidd
1002
}
  0
ARC
  5
35E
330
1F
100
AcDbEntity
  8
HIDDEN
100
AcDbCircle
 10
0.0000000000000021
 20
0.0
 30
0.0
 40
131.8855715851499
100
AcDbArc
 50
84.86891503751708
 51
89.99998127603165
1001
DBPROPERTIES
1002
{
1000
PbHidd
1002
}
  0
LINE
  5
35F
330
1F
100
AcDbEntity
  8
HIDDEN
100
AcDbLine
 10
11.79516710436934
 20
131.3570630964385
 30
0.0
 11
11.35250636534775
 21
127.1454274958116
 31
0.0
1001
DBPROPERTIES
1002
{
1000
PbHidd
1002
}
  0
ARC
  5
360
330
1F
100
AcDbEntity
  8
HIDDEN
100
AcDbCircle
 10
0.0000000000000021
 20
0.0
 30
0.0
 40
123.8054445662277
100
AcDbArc
 50
89.99998127603165
 51
95.0743819886078
1001
DBPROPERTIES
1002
{
1000
PbHidd
1002
}
  0
ARC
  5
361
330
1F
100
AcDbEntity
  8
HIDDEN
100
AcDbCircle
 10
0.0000000000000021
 20
0.0
 30
0.0
 40
123.8054445662277
100
AcDbArc
 50
186.925607500801
 51
263.0743913753245
1001
DBPROPERTIES
1002
{
1000
PbHidd
1002
}
  0
LINE
  5
362
330
1F
100
AcDbEntity
  8
HIDDEN
100
AcDbLine
 10
-15.77325468584244
 20
-130.9389492433677
 30
0.0
 11
-15.33059394682086
 21
-126.7273136427409
 31
0.0
1001
DBPROPERTIES
1002
{
1000
PbHidd
1002
}
  0
LINE
  5
363
330
1F
100
AcDbEntity
  8
HIDDEN
100
AcDbLine
 10
-130.9389492433679
 20
-15.77325468584242
 30
0.0
 11
-126.727313642741
 21
-15.33059394682084
 31
0.0
1001
DBPROPERTIES
1002
{
1000
PbHidd
1002
}
  0
ARC
  5
364
330
1F
100
AcDbEntity
  8
HIDDEN
100
AcDbCircle
 10
0.0000000000000021
 20
0.0
 30
0.0
 40
131.8855715851499
100
AcDbArc
 50
77.05365612037363
 51
83.13107674910577
1001
DBPROPERTIES
1002
{
1000
PbHidd
1002
}
  0
ARC
  5
365
330
1F
100
AcDbEntity
  8
THICK
100
AcDbCircle
 10
0.0000000000000021
 20
0.0
 30
0.0
 40
131.8855715851499
100
AcDbArc
 50
51.11333572050269
 51
77.05365612037363
1001
DBPROPERTIES
1002
{
1000
PbThick
1002
}
  0
ARC
  5
366
330
1F
100
AcDbEntity
  8
HIDDEN
100
AcDbCircle
 10
0.0000000000000021
 20
0.0
 30
0.0
 40
131.8855715851499
100
AcDbArc
 50
25.62507902098996
 51
51.11333572050269
1001
DBPROPERTIES
1002
{
1000
PbHidd
1002
}
  0
ARC
  5
367
330
1F
100
AcDbEntity
  8
THICK
100
AcDbCircle
 10
0.0000000000000021
 20
0.0
 30
0.0
 40
131.8855715851499
100
AcDbArc
 50
6.868904526925873
 51
25.62507902098996
1001
DBPROPERTIES
1002
{
1000
PbThick
1002
}
  0
LINE
  5
368
330
1F
100
AcDbEntity
  8
HIDDEN
100
AcDbLine
 10
130.9389492433678
 20
15.7732546858424
 30
0.0
 11
126.7273136427409
 21
15.33059394682081
 31
0.0
1001
DBPROPERTIES
1002
{
1000
PbHidd
1002
}
  0
ARC
  5
369
330
1F
100
AcDbEntity
  8
HIDDEN
100
AcDbCircle
 10
0.0000000000000021
 20
0.0
 30
0.0
 40
123.8054445662277
100
AcDbArc
 50
6.925627348643825
 51
83.07435392738783
1001
DBPROPERTIES
1002
{
1000
PbHidd
1002
}
  0
LINE
  5
36A
330
1F
100
AcDbEntity
  8
HIDDEN
100
AcDbLine
 10
-11.79516710436935
 20
-131.3570630964384
 30
0.0
 11
-11.35250636534776
 21
-127.1454274958115
 31
0.0
1001
DBPROPERTIES
1002
{
1000
PbHidd
1002
}
  0
ARC
  5
36B
330
1F
100
AcDbEntity
  8
HIDDEN
100
AcDbCircle
 10
0.0000000000000021
 20
0.0
 30
0.0
 40
123.8054445662277
100
AcDbArc
 50
264.9256180113922
 51
270.0000187239684
1001
DBPROPERTIES
1002
{
1000
PbHidd
1002
}
  0
LINE
  5
36C
330
1F
100
AcDbEntity
  8
HIDDEN
100
AcDbLine
 10
11.79516710436931
 20
-131.3570630964383
 30
0.0
 11
11.35250636534773
 21
-127.1454274958115
 31
0.0
1001
DBPROPERTIES
1002
{
1000
PbHidd
1002
}
  0
ARC
  5
36D
330
1F
100
AcDbEntity
  8
THICK
100
AcDbCircle
 10
0.0000000000000021
 20
0.0
 30
0.0
 40
131.8855715851499
100
AcDbArc
 50
270.0000187239684
 51
275.1310849624829
1001
DBPROPERTIES
1002
{
1000
PbThick
1002
}
  0
ARC
  5
36E
330
1F
100
AcDbEntity
  8
THICK
100
AcDbCircle
 10
0.0000000000000021
 20
0.0
 30
0.0
 40
131.8855715851499
100
AcDbArc
 50
359.6848159168985
 51
5.131123534294087
1001
DBPROPERTIES
1002
{
1000
PbThick
1002
}
  0
ARC
  5
36F
330
1F
100
AcDbEntity
  8
HIDDEN
100
AcDbCircle
 10
0.0000000000000021
 20
0.0
 30
0.0
 40
131.8855715851499
100
AcDbArc
 50
354.8688764657059
 51
359.6848159168985
1001
DBPROPERTIES
1002
{
1000
PbHidd
1002
}
  0
LINE
  5
370
330
1F
100
AcDbEntity
  8
HIDDEN
100
AcDbLine
 10
131.3570630964384
 20
-11.79516710436936
 30
0.0
 11
127.1454274958115
 21
-11.35250636534777
 31
0.0
1001
DBPROPERTIES
1002
{
1000
PbHidd
1002
}
  0
ARC
  5
371
330
1F
100
AcDbEntity
  8
HIDDEN
100
AcDbCircle
 10
0.0000000000000021
 20
0.0
 30
0.0
 40
123.8054445662277
100
AcDbArc
 50
354.9255992874238
 51
5.074400712576136
1001
DBPROPERTIES
1002
{
1000
PbHidd
1002
}
  0
LINE
  5
372
330
1F
100
AcDbEntity
  8
HIDDEN
100
AcDbLine
 10
131.3570630964384
 20
11.79516710436931
 30
0.0
 11
127.1454274958115
 21
11.35250636534772
 31
0.0
1001
DBPROPERTIES
1002
{
1000
PbHidd
1002
}
  0
ARC
  5
373
330
1F
100
AcDbEntity
  8
THICK
100
AcDbCircle
 10
0.0000000000000017
 20
0.0
 30
0.0
 40
120.0554445662277
100
AcDbArc
 50
155.229679265629
 51
173.0454581305449
1001
DBPROPERTIES
1002
{
1000
PbThick
1002
}
  0
ARC
  5
374
330
1F
100
AcDbEntity
  8
HIDDEN
100
AcDbCircle
 10
0.0000000000000017
 20
0.0
 30
0.0
 40
120.0554445662277
100
AcDbArc
 50
127.1808168838971
 51
155.229679265629
1001
DBPROPERTIES
1002
{
1000
PbHidd
1002
}
  0
ARC
  5
375
330
1F
100
AcDbEntity
  8
THICK
100
AcDbCircle
 10
0.0000000000000017
 20
0.0
 30
0.0
 40
120.0554445662277
100
AcDbArc
 50
103.8011021662453
 51
127.1808168838971
1001
DBPROPERTIES
1002
{
1000
PbThick
1002
}
  0
ARC
  5
376
330
1F
100
AcDbEntity
  8
HIDDEN
100
AcDbCircle
 10
0.0000000000000017
 20
0.0
 30
0.0
 40
120.0554445662277
100
AcDbArc
 50
96.9545429933296
 51
103.8011021662453
1001
DBPROPERTIES
1002
{
1000
PbHidd
1002
}
  0
ARC
  5
377
330
1F
100
AcDbEntity
  8
HIDDEN
100
AcDbCircle
 10
0.0000000000000017
 20
0.0
 30
0.0
 40
120.0554445662277
100
AcDbArc
 50
178.6093939832808
 51
185.0454464960792
1001
DBPROPERTIES
1002
{
1000
PbHidd
1002
}
  0
ARC
  5
378
330
1F
100
AcDbEntity
  8
THICK
100
AcDbCircle
 10
0.0000000000000017
 20
0.0
 30
0.0
 40
120.0554445662277
100
AcDbArc
 50
174.9545535039208
 51
178.6093939832808
1001
DBPROPERTIES
1002
{
1000
PbThick
1002
}
  0
ARC
  5
379
330
1F
100
AcDbEntity
  8
HIDDEN
100
AcDbCircle
 10
0.0000000000000017
 20
0.0
 30
0.0
 40
120.0554445662277
100
AcDbArc
 50
89.99998127603165
 51
95.04544761995368
1001
DBPROPERTIES
1002
{
1000
PbHidd
1002
}
  0
ARC
  5
37A
330
1F
100
AcDbEntity
  8
THICK
100
AcDbCircle
 10
0.0000000000000017
 20
0.0
 30
0.0
 40
120.0554445662277
100
AcDbArc
 50
258.0867937687107
 51
263.0454570066704
1001
DBPROPERTIES
1002
{
1000
PbThick
1002
}
  0
ARC
  5
37B
330
1F
100
AcDbEntity
  8
HIDDEN
100
AcDbCircle
 10
0.0000000000000017
 20
0.0
 30
0.0
 40
120.0554445662277
100
AcDbArc
 50
230.0379886827584
 51
258.0867937687107
1001
DBPROPERTIES
1002
{
1000
PbHidd
1002
}
  0
ARC
  5
37C
330
1F
100
AcDbEntity
  8
THICK
100
AcDbCircle
 10
0.0000000000000017
 20
0.0
 30
0.0
 40
120.0554445662277
100
AcDbArc
 50
206.6582739651065
 51
230.0379886827584
1001
DBPROPERTIES
1002
{
1000
PbThick
1002
}
  0
ARC
  5
37D
330
1F
100
AcDbEntity
  8
HIDDEN
100
AcDbCircle
 10
0.0000000000000017
 20
0.0
 30
0.0
 40
120.0554445662277
100
AcDbArc
 50
186.9545418694551
 51
206.6582739651065
1001
DBPROPERTIES
1002
{
1000
PbHidd
1002
}
  0
ARC
  5
37E
330
1F
100
AcDbEntity
  8
HIDDEN
100
AcDbCircle
 10
0.0000000000000017
 20
0.0
 30
0.0
 40
120.0554445662277
100
AcDbArc
 50
75.75223978451348
 51
83.04547685451324
1001
DBPROPERTIES
1002
{
1000
PbHidd
1002
}
  0
ARC
  5
37F
330
1F
100
AcDbEntity
  8
THICK
100
AcDbCircle
 10
0.0000000000000017
 20
0.0
 30
0.0
 40
120.0554445662277
100
AcDbArc
 50
52.37252506686169
 51
75.75223978451348
1001
DBPROPERTIES
1002
{
1000
PbThick
1002
}
  0
ARC
  5
380
330
1F
100
AcDbEntity
  8
HIDDEN
100
AcDbCircle
 10
0.0000000000000017
 20
0.0
 30
0.0
 40
120.0554445662277
100
AcDbArc
 50
24.32366268512981
 51
52.37252506686169
1001
DBPROPERTIES
1002
{
1000
PbHidd
1002
}
  0
ARC
  5
381
330
1F
100
AcDbEntity
  8
THICK
100
AcDbCircle
 10
0.0000000000000017
 20
0.0
 30
0.0
 40
120.0554445662277
100
AcDbArc
 50
6.954504421518419
 51
24.32366268512981
1001
DBPROPERTIES
1002
{
1000
PbThick
1002
}
  0
ARC
  5
382
330
1F
100
AcDbEntity
  8
THICK
100
AcDbCircle
 10
0.0000000000000017
 20
0.0
 30
0.0
 40
120.0554445662277
100
AcDbArc
 50
264.9545523800463
 51
270.0000187239684
1001
DBPROPERTIES
1002
{
1000
PbThick
1002
}
  0
ARC
  5
383
330
1F
100
AcDbEntity
  8
THICK
100
AcDbCircle
 10
0.0000000000000017
 20
0.0
 30
0.0
 40
120.0554445662277
100
AcDbArc
 50
0.9439479674780313
 51
5.045466343922029
1001
DBPROPERTIES
1002
{
1000
PbThick
1002
}
  0
ARC
  5
384
330
1F
100
AcDbEntity
  8
HIDDEN
100
AcDbCircle
 10
0.0000000000000017
 20
0.0
 30
0.0
 40
120.0554445662277
100
AcDbArc
 50
354.954533656078
 51
0.9439479674780313
1001
DBPROPERTIES
1002
{
1000
PbHidd
1002
}
  0
ARC
  5
385
330
1F
100
AcDbEntity
  8
HIDDEN
100
AcDbCircle
 10
0.0000000000000017
 20
0.0
 30
0.0
 40
120.0554445662277
100
AcDbArc
 50
332.8950855857461
 51
353.0454955784816
1001
DBPROPERTIES
1002
{
1000
PbHidd
1002
}
  0
ARC
  5
386
330
1F
100
AcDbEntity
  8
THICK
100
AcDbCircle
 10
0.0000000000000017
 20
0.0
 30
0.0
 40
120.0554445662277
100
AcDbArc
 50
309.5153708680944
 51
332.8950855857461
1001
DBPROPERTIES
1002
{
1000
PbThick
1002
}
  0
ARC
  5
387
330
1F
100
AcDbEntity
  8
HIDDEN
100
AcDbCircle
 10
0.0000000000000017
 20
0.0
 30
0.0
 40
120.0554445662277
100
AcDbArc
 50
281.4665084863625
 51
309.5153708680944
1001
DBPROPERTIES
1002
{
1000
PbHidd
1002
}
  0
ARC
  5
388
330
1F
100
AcDbEntity
  8
THICK
100
AcDbCircle
 10
0.0000000000000017
 20
0.0
 30
0.0
 40
120.0554445662277
100
AcDbArc
 50
276.9545231454867
 51
281.4665084863625
1001
DBPROPERTIES
1002
{
1000
PbThick
1002
}
  0
ARC
  5
389
330
1F
100
AcDbEntity
  8
HIDDEN
100
AcDbCircle
 10
0.0000000000000021
 20
0.0
 30
0.0
 40
123.8054445662277
100
AcDbArc
 50
276.9256460726122
 51
353.0743726513562
1001
DBPROPERTIES
1002
{
1000
PbHidd
1002
}
  0
ARC
  5
38A
330
1F
100
AcDbEntity
  8
HIDDEN
100
AcDbCircle
 10
0.0000000000000017
 20
0.0
 30
0.0
 40
128.1355715851499
100
AcDbArc
 50
76.66788363691204
 51
89.99998127603165
1001
DBPROPERTIES
1002
{
1000
PbHidd
1002
}
  0
ARC
  5
38B
330
1F
100
AcDbEntity
  8
THICK
100
AcDbCircle
 10
0.0000000000000017
 20
0.0
 30
0.0
 40
128.1355715851499
100
AcDbArc
 50
51.48667501980994
 51
76.66788363691204
1001
DBPROPERTIES
1002
{
1000
PbThick
1002
}
  0
ARC
  5
38C
330
1F
100
AcDbEntity
  8
HIDDEN
100
AcDbCircle
 10
0.0000000000000017
 20
0.0
 30
0.0
 40
128.1355715851499
100
AcDbArc
 50
25.23930653752838
 51
51.48667501980994
1001
DBPROPERTIES
1002
{
1000
PbHidd
1002
}
  0
ARC
  5
38D
330
1F
100
AcDbEntity
  8
THICK
100
AcDbCircle
 10
0.0000000000000017
 20
0.0
 30
0.0
 40
128.1355715851499
100
AcDbArc
 50
0.0580979204262655
 51
25.23930653752838
1001
DBPROPERTIES
1002
{
1000
PbThick
1002
}
  0
ARC
  5
38E
330
1F
100
AcDbEntity
  8
HIDDEN
100
AcDbCircle
 10
0.0000000000000017
 20
0.0
 30
0.0
 40
128.1355715851499
100
AcDbArc
 50
333.8107294381447
 51
0.0580979204262655
1001
DBPROPERTIES
1002
{
1000
PbHidd
1002
}
  0
ARC
  5
38F
330
1F
100
AcDbEntity
  8
THICK
100
AcDbCircle
 10
0.0000000000000017
 20
0.0
 30
0.0
 40
128.1355715851499
100
AcDbArc
 50
308.6295208210426
 51
333.8107294381447
1001
DBPROPERTIES
1002
{
1000
PbThick
1002
}
  0
ARC
  5
390
330
1F
100
AcDbEntity
  8
HIDDEN
100
AcDbCircle
 10
0.0000000000000017
 20
0.0
 30
0.0
 40
128.1355715851499
100
AcDbArc
 50
282.382152338761
 51
308.6295208210426
1001
DBPROPERTIES
1002
{
1000
PbHidd
1002
}
  0
ARC
  5
391
330
1F
100
AcDbEntity
  8
THICK
100
AcDbCircle
 10
0.0000000000000017
 20
0.0
 30
0.0
 40
128.1355715851499
100
AcDbArc
 50
270.0000187239684
 51
282.382152338761
1001
DBPROPERTIES
1002
{
1000
PbThick
1002
}
  0
ARC
  5
392
330
1F
100
AcDbEntity
  8
THICK
100
AcDbCircle
 10
0.0000000000000021
 20
0.0
 30
0.0
 40
131.8855715851499
100
AcDbArc
 50
275.1310849624829
 51
276.8689232508942
1001
DBPROPERTIES
1002
{
1000
PbThick
1002
}
  0
ARC
  5
393
330
1F
100
AcDbEntity
  8
HIDDEN
100
AcDbCircle
 10
0.0000000000000021
 20
0.0
 30
0.0
 40
131.8855715851499
100
AcDbArc
 50
334.1965019216063
 51
353.1310954730741
1001
DBPROPERTIES
1002
{
1000
PbHidd
1002
}
  0
ARC
  5
394
330
1F
100
AcDbEntity
  8
THICK
100
AcDbCircle
 10
0.0000000000000021
 20
0.0
 30
0.0
 40
131.8855715851499
100
AcDbArc
 50
308.2562388175149
 51
334.1965019216063
1001
DBPROPERTIES
1002
{
1000
PbThick
1002
}
  0
ARC
  5
395
330
1F
100
AcDbEntity
  8
HIDDEN
100
AcDbCircle
 10
0.0000000000000021
 20
0.0
 30
0.0
 40
131.8855715851499
100
AcDbArc
 50
282.7679248222227
 51
308.2562388175149
1001
DBPROPERTIES
1002
{
1000
PbHidd
1002
}
  0
ARC
  5
396
330
1F
100
AcDbEntity
  8
THICK
100
AcDbCircle
 10
0.0000000000000021
 20
0.0
 30
0.0
 40
131.8855715851499
100
AcDbArc
 50
276.8689232508942
 51
282.7679248222227
1001
DBPROPERTIES
1002
{
1000
PbThick
1002
}
  0
ARC
  5
397
330
1F
100
AcDbEntity
  8
HIDDEN
100
AcDbCircle
 10
0.0000000000000021
 20
0.0
 30
0.0
 40
131.8855715851499
100
AcDbArc
 50
353.1310954730741
 51
354.8688764657059
1001
DBPROPERTIES
1002
{
1000
PbHidd
1002
}
  0
ARC
  5
398
330
1F
100
AcDbEntity
  8
THICK
100
AcDbCircle
 10
0.0000000000000021
 20
0.0
 30
0.0
 40
131.8855715851499
100
AcDbArc
 50
5.131123534294087
 51
6.868904526925873
1001
DBPROPERTIES
1002
{
1000
PbThick
1002
}
  0
ARC
  5
399
330
1F
100
AcDbEntity
  8
HIDDEN
100
AcDbCircle
 10
0.0000000000000021
 20
0.0
 30
0.0
 40
131.8855715851499
100
AcDbArc
 50
83.13107674910577
 51
84.86891503751708
1001
DBPROPERTIES
1002
{
1000
PbHidd
1002
}
  0
LINE
  5
39A
330
1F
100
AcDbEntity
  8
HIDDEN
100
AcDbLine
 10
130.9389492433677
 20
-15.77325468584246
 30
0.0
 11
126.7273136427409
 21
-15.33059394682088
 31
0.0
1001
DBPROPERTIES
1002
{
1000
PbHidd
1002
}
  0
LINE
  5
39B
330
1F
100
AcDbEntity
  8
HIDDEN
100
AcDbLine
 10
15.77325468584241
 20
-130.9389492433678
 30
0.0
 11
15.33059394682082
 21
-126.7273136427409
 31
0.0
1001
DBPROPERTIES
1002
{
1000
PbHidd
1002
}
  0
LINE
  5
39C
330
1F
100
AcDbEntity
  8
HIDDEN
100
AcDbLine
 10
126.7273136427409
 20
-15.33059394682084
 30
0.0
 11
127.1454274958115
 21
-11.35250636534775
 31
0.0
1001
DBPROPERTIES
1002
{
1000
PbHidd
1002
}
  0
LINE
  5
39D
330
1F
100
AcDbEntity
  8
THICK
100
AcDbLine
 10
11.35250636534773
 20
-127.1454274958115
 30
0.0
 11
15.33059394682082
 21
-126.7273136427409
 31
0.0
1001
DBPROPERTIES
1002
{
1000
PbThick
1002
}
  0
LINE
  5
39E
330
1F
100
AcDbEntity
  8
THICK
100
AcDbLine
 10
-15.33059394682085
 20
-126.7273136427409
 30
0.0
 11
-11.35250636534776
 21
-127.1454274958115
 31
0.0
1001
DBPROPERTIES
1002
{
1000
PbThick
1002
}
  0
LINE
  5
39F
330
1F
100
AcDbEntity
  8
HIDDEN
100
AcDbLine
 10
-127.1454274958115
 20
-11.35250636534771
 30
0.0
 11
-126.7273136427409
 21
-15.33059394682081
 31
0.0
1001
DBPROPERTIES
1002
{
1000
PbHidd
1002
}
  0
LINE
  5
3A0
330
1F
100
AcDbEntity
  8
THICK
100
AcDbLine
 10
-126.7273136427409
 20
15.33059394682086
 30
0.0
 11
-127.1454274958115
 21
11.35250636534776
 31
0.0
1001
DBPROPERTIES
1002
{
1000
PbThick
1002
}
  0
LINE
  5
3A1
330
1F
100
AcDbEntity
  8
HIDDEN
100
AcDbLine
 10
-11.35250636534774
 20
127.1454274958115
 30
0.0
 11
-15.33059394682083
 21
126.7273136427409
 31
0.0
1001
DBPROPERTIES
1002
{
1000
PbHidd
1002
}
  0
LINE
  5
3A2
330
1F
100
AcDbEntity
  8
HIDDEN
100
AcDbLine
 10
15.33059394682083
 20
126.7273136427409
 30
0.0
 11
11.35250636534774
 21
127.1454274958115
 31
0.0
1001
DBPROPERTIES
1002
{
1000
PbHidd
1002
}
  0
LINE
  5
3A3
330
1F
100
AcDbEntity
  8
THICK
100
AcDbLine
 10
127.1454274958115
 20
11.35250636534774
 30
0.0
 11
126.7273136427409
 21
15.33059394682083
 31
0.0
1001
DBPROPERTIES
1002
{
1000
PbThick
1002
}
  0
LINE
  5
3A4
330
1F
100
AcDbEntity
  8
HIDDEN
100
AcDbLine
 10
111.0779431651745
 20
-13.68577883038699
 30
0.0
 11
126.7273136427409
 21
-15.33059394682086
 31
0.0
1001
DBPROPERTIES
1002
{
1000
PbHidd
1002
}
  0
LINE
  5
3A5
330
1F
100
AcDbEntity
  8
HIDDEN
100
AcDbLine
 10
127.1454274958115
 20
-11.35250636534777
 30
0.0
 11
111.4960570182451
 21
-9.707691248913894
 31
0.0
1001
DBPROPERTIES
1002
{
1000
PbHidd
1002
}
  0
LINE
  5
3A6
330
1F
100
AcDbEntity
  8
HIDDEN
100
AcDbLine
 10
111.4960570182451
 20
-9.707691248913894
 30
0.0
 11
111.0779431651745
 21
-13.68577883038698
 31
0.0
1001
DBPROPERTIES
1002
{
1000
PbHidd
1002
}
  0
LINE
  5
3A7
330
1F
100
AcDbEntity
  8
THICK
100
AcDbLine
 10
216.0203082214506
 20
-20.69363273834429
 30
0.0
 11
204.2259876377803
 21
-19.4539996929194
 31
0.0
1001
DBPROPERTIES
1002
{
1000
PbThick
1002
}
  0
LINE
  5
3A8
330
1F
100
AcDbEntity
  8
HIDDEN
100
AcDbLine
 10
204.2259876377803
 20
-19.4539996929194
 30
0.0
 11
131.3570630964384
 21
-11.79516710436936
 31
0.0
1001
DBPROPERTIES
1002
{
1000
PbHidd
1002
}
  0
LINE
  5
3A9
330
1F
100
AcDbEntity
  8
HIDDEN
100
AcDbLine
 10
216.0203082214506
 20
-20.69363273834429
 30
0.0
 11
216.0203082214506
 21
-20.69363273834429
 31
0.0
1001
DBPROPERTIES
1002
{
1000
PbHidd
1002
}
  0
LINE
  5
3AA
330
1F
100
AcDbEntity
  8
THICK
100
AcDbLine
 10
223.4792224367127
 20
-21.4775962128517
 30
0.0
 11
216.0203082214506
 21
-20.6936327383443
 31
0.0
1001
DBPROPERTIES
1002
{
1000
PbThick
1002
}
  0
LINE
  5
3AB
330
1F
100
AcDbEntity
  8
HIDDEN
100
AcDbLine
 10
223.4792224367127
 20
-21.4775962128517
 30
0.0
 11
223.4792224367127
 21
-21.4775962128517
 31
0.0
1001
DBPROPERTIES
1002
{
1000
PbHidd
1002
}
  0
LINE
  5
3AC
330
1F
100
AcDbEntity
  8
HIDDEN
100
AcDbLine
 10
111.4960570182451
 20
-9.707691248913894
 30
0.0
 11
91.52103933328196
 21
-7.608232290717478
 31
0.0
1001
DBPROPERTIES
1002
{
1000
PbHidd
1002
}
  0
LINE
  5
3AD
330
1F
100
AcDbEntity
  8
THICK
100
AcDbLine
 10
111.4960570182451
 20
9.707691248913852
 30
0.0
 11
127.1454274958115
 21
11.35250636534772
 31
0.0
1001
DBPROPERTIES
1002
{
1000
PbThick
1002
}
  0
LINE
  5
3AE
330
1F
100
AcDbEntity
  8
THICK
100
AcDbLine
 10
126.7273136427409
 20
15.33059394682082
 30
0.0
 11
111.0779431651745
 21
13.68577883038695
 31
0.0
1001
DBPROPERTIES
1002
{
1000
PbThick
1002
}
  0
LINE
  5
3AF
330
1F
100
AcDbEntity
  8
THICK
100
AcDbLine
 10
111.0779431651745
 20
13.68577883038695
 30
0.0
 11
111.4960570182451
 21
9.707691248913855
 31
0.0
1001
DBPROPERTIES
1002
{
1000
PbThick
1002
}
  0
LINE
  5
3B0
330
1F
100
AcDbEntity
  8
THICK
100
AcDbLine
 10
215.60219436838
 20
24.6717203198173
 30
0.0
 11
130.9389492433678
 21
15.77325468584239
 31
0.0
1001
DBPROPERTIES
1002
{
1000
PbThick
1002
}
  0
LINE
  5
3B1
330
1F
100
AcDbEntity
  8
HIDDEN
100
AcDbLine
 10
215.60219436838
 20
24.6717203198173
 30
0.0
 11
215.60219436838
 21
24.6717203198173
 31
0.0
1001
DBPROPERTIES
1002
{
1000
PbHidd
1002
}
  0
LINE
  5
3B2
330
1F
100
AcDbEntity
  8
THICK
100
AcDbLine
 10
223.061108583642
 20
25.4556837943247
 30
0.0
 11
215.60219436838
 21
24.6717203198173
 31
0.0
1001
DBPROPERTIES
1002
{
1000
PbThick
1002
}
  0
LINE
  5
3B3
330
1F
100
AcDbEntity
  8
HIDDEN
100
AcDbLine
 10
223.061108583642
 20
25.4556837943247
 30
0.0
 11
223.061108583642
 21
25.4556837943247
 31
0.0
1001
DBPROPERTIES
1002
{
1000
PbHidd
1002
}
  0
LINE
  5
3B4
330
1F
100
AcDbEntity
  8
HIDDEN
100
AcDbLine
 10
91.10292548021137
 20
11.58631987219054
 30
0.0
 11
91.10292548021137
 21
11.58631987219054
 31
0.0
1001
DBPROPERTIES
1002
{
1000
PbHidd
1002
}
  0
LINE
  5
3B5
330
1F
100
AcDbEntity
  8
THICK
100
AcDbLine
 10
111.0779431651745
 20
13.68577883038695
 30
0.0
 11
91.10292548021134
 21
11.58631987219054
 31
0.0
1001
DBPROPERTIES
1002
{
1000
PbThick
1002
}
  0
LINE
  5
3B6
330
1F
100
AcDbEntity
  8
THICK
100
AcDbLine
 10
-13.68577883038698
 20
-111.0779431651745
 30
0.0
 11
-15.33059394682085
 21
-126.7273136427409
 31
0.0
1001
DBPROPERTIES
1002
{
1000
PbThick
1002
}
  0
LINE
  5
3B7
330
1F
100
AcDbEntity
  8
THICK
100
AcDbLine
 10
-11.35250636534776
 20
-127.1454274958115
 30
0.0
 11
-9.707691248913886
 21
-111.4960570182451
 31
0.0
1001
DBPROPERTIES
1002
{
1000
PbThick
1002
}
  0
LINE
  5
3B8
330
1F
100
AcDbEntity
  8
THICK
100
AcDbLine
 10
-9.707691248913887
 20
-111.4960570182451
 30
0.0
 11
-13.68577883038698
 21
-111.0779431651745
 31
0.0
1001
DBPROPERTIES
1002
{
1000
PbThick
1002
}
  0
LINE
  5
3B9
330
1F
100
AcDbEntity
  8
THICK
100
AcDbLine
 10
-20.69363273834428
 20
-216.0203082214506
 30
0.0
 11
-11.79516710436934
 21
-131.3570630964384
 31
0.0
1001
DBPROPERTIES
1002
{
1000
PbThick
1002
}
  0
LINE
  5
3BA
330
1F
100
AcDbEntity
  8
HIDDEN
100
AcDbLine
 10
-20.69363273834428
 20
-216.0203082214506
 30
0.0
 11
-20.69363273834428
 21
-216.0203082214506
 31
0.0
1001
DBPROPERTIES
1002
{
1000
PbHidd
1002
}
  0
LINE
  5
3BB
330
1F
100
AcDbEntity
  8
THICK
100
AcDbLine
 10
-21.47759621285168
 20
-223.4792224367127
 30
0.0
 11
-20.69363273834428
 21
-216.0203082214506
 31
0.0
1001
DBPROPERTIES
1002
{
1000
PbThick
1002
}
  0
LINE
  5
3BC
330
1F
100
AcDbEntity
  8
HIDDEN
100
AcDbLine
 10
-21.47759621285168
 20
-223.4792224367127
 30
0.0
 11
-21.47759621285168
 21
-223.4792224367127
 31
0.0
1001
DBPROPERTIES
1002
{
1000
PbHidd
1002
}
  0
LINE
  5
3BD
330
1F
100
AcDbEntity
  8
THICK
100
AcDbLine
 10
-9.707691248913887
 20
-111.4960570182451
 30
0.0
 11
-7.608232290717467
 21
-91.52103933328192
 31
0.0
1001
DBPROPERTIES
1002
{
1000
PbThick
1002
}
  0
LINE
  5
3BE
330
1F
100
AcDbEntity
  8
THICK
100
AcDbLine
 10
9.707691248913859
 20
-111.4960570182451
 30
0.0
 11
11.35250636534773
 21
-127.1454274958115
 31
0.0
1001
DBPROPERTIES
1002
{
1000
PbThick
1002
}
  0
LINE
  5
3BF
330
1F
100
AcDbEntity
  8
THICK
100
AcDbLine
 10
15.33059394682082
 20
-126.7273136427409
 30
0.0
 11
13.68577883038696
 21
-111.0779431651745
 31
0.0
1001
DBPROPERTIES
1002
{
1000
PbThick
1002
}
  0
LINE
  5
3C0
330
1F
100
AcDbEntity
  8
THICK
100
AcDbLine
 10
13.68577883038695
 20
-111.0779431651745
 30
0.0
 11
9.707691248913862
 21
-111.4960570182451
 31
0.0
1001
DBPROPERTIES
1002
{
1000
PbThick
1002
}
  0
LINE
  5
3C1
330
1F
100
AcDbEntity
  8
THICK
100
AcDbLine
 10
24.67172031981731
 20
-215.60219436838
 30
0.0
 11
15.7732546858424
 21
-130.9389492433678
 31
0.0
1001
DBPROPERTIES
1002
{
1000
PbThick
1002
}
  0
LINE
  5
3C2
330
1F
100
AcDbEntity
  8
HIDDEN
100
AcDbLine
 10
24.67172031981731
 20
-215.60219436838
 30
0.0
 11
24.67172031981731
 21
-215.60219436838
 31
0.0
1001
DBPROPERTIES
1002
{
1000
PbHidd
1002
}
  0
LINE
  5
3C3
330
1F
100
AcDbEntity
  8
THICK
100
AcDbLine
 10
25.45568379432471
 20
-223.061108583642
 30
0.0
 11
24.67172031981731
 21
-215.60219436838
 31
0.0
1001
DBPROPERTIES
1002
{
1000
PbThick
1002
}
  0
LINE
  5
3C4
330
1F
100
AcDbEntity
  8
HIDDEN
100
AcDbLine
 10
25.45568379432471
 20
-223.061108583642
 30
0.0
 11
25.45568379432471
 21
-223.061108583642
 31
0.0
1001
DBPROPERTIES
1002
{
1000
PbHidd
1002
}
  0
LINE
  5
3C5
330
1F
100
AcDbEntity
  8
THICK
100
AcDbLine
 10
13.68577883038695
 20
-111.0779431651745
 30
0.0
 11
11.7283370284721
 21
-92.45412846382632
 31
0.0
1001
DBPROPERTIES
1002
{
1000
PbThick
1002
}
  0
LINE
  5
3C6
330
1F
100
AcDbEntity
  8
HIDDEN
100
AcDbLine
 10
11.7283370284721
 20
-92.45412846382632
 30
0.0
 11
11.58631987219054
 21
-91.1029254802113
 31
0.0
1001
DBPROPERTIES
1002
{
1000
PbHidd
1002
}
  0
LINE
  5
3C7
330
1F
100
AcDbEntity
  8
THICK
100
AcDbLine
 10
-111.0779431651745
 20
13.68577883038697
 30
0.0
 11
-126.7273136427409
 21
15.33059394682085
 31
0.0
1001
DBPROPERTIES
1002
{
1000
PbThick
1002
}
  0
LINE
  5
3C8
330
1F
100
AcDbEntity
  8
THICK
100
AcDbLine
 10
-127.1454274958115
 20
11.35250636534775
 30
0.0
 11
-111.4960570182451
 21
9.707691248913878
 31
0.0
1001
DBPROPERTIES
1002
{
1000
PbThick
1002
}
  0
LINE
  5
3C9
330
1F
100
AcDbEntity
  8
THICK
100
AcDbLine
 10
-111.4960570182451
 20
9.70769124891388
 30
0.0
 11
-111.0779431651745
 21
13.68577883038697
 31
0.0
1001
DBPROPERTIES
1002
{
1000
PbThick
1002
}
  0
LINE
  5
3CA
330
1F
100
AcDbEntity
  8
THICK
100
AcDbLine
 10
-216.0203082214506
 20
20.69363273834426
 30
0.0
 11
-131.3570630964384
 21
11.79516710436933
 31
0.0
1001
DBPROPERTIES
1002
{
1000
PbThick
1002
}
  0
LINE
  5
3CB
330
1F
100
AcDbEntity
  8
HIDDEN
100
AcDbLine
 10
-216.0203082214506
 20
20.69363273834426
 30
0.0
 11
-216.0203082214506
 21
20.69363273834426
 31
0.0
1001
DBPROPERTIES
1002
{
1000
PbHidd
1002
}
  0
LINE
  5
3CC
330
1F
100
AcDbEntity
  8
THICK
100
AcDbLine
 10
-223.4792224367127
 20
21.47759621285167
 30
0.0
 11
-216.0203082214506
 21
20.69363273834427
 31
0.0
1001
DBPROPERTIES
1002
{
1000
PbThick
1002
}
  0
LINE
  5
3CD
330
1F
100
AcDbEntity
  8
HIDDEN
100
AcDbLine
 10
-223.4792224367127
 20
21.47759621285167
 30
0.0
 11
-223.4792224367127
 21
21.47759621285167
 31
0.0
1001
DBPROPERTIES
1002
{
1000
PbHidd
1002
}
  0
LINE
  5
3CE
330
1F
100
AcDbEntity
  8
HIDDEN
100
AcDbLine
 10
-91.52103933328188
 20
7.608232290717456
 30
0.0
 11
-91.52103933328188
 21
7.608232290717456
 31
0.0
1001
DBPROPERTIES
1002
{
1000
PbHidd
1002
}
  0
LINE
  5
3CF
330
1F
100
AcDbEntity
  8
THICK
100
AcDbLine
 10
-111.4960570182451
 20
9.70769124891388
 30
0.0
 11
-96.95090277791913
 21
8.178933935663107
 31
0.0
1001
DBPROPERTIES
1002
{
1000
PbThick
1002
}
  0
LINE
  5
3D0
330
1F
100
AcDbEntity
  8
HIDDEN
100
AcDbLine
 10
-96.95090277791913
 20
8.178933935663107
 30
0.0
 11
-91.52103933328186
 21
7.608232290717456
 31
0.0
1001
DBPROPERTIES
1002
{
1000
PbHidd
1002
}
  0
LINE
  5
3D1
330
1F
100
AcDbEntity
  8
HIDDEN
100
AcDbLine
 10
-111.4960570182451
 20
-9.707691248913868
 30
0.0
 11
-127.1454274958115
 21
-11.35250636534773
 31
0.0
1001
DBPROPERTIES
1002
{
1000
PbHidd
1002
}
  0
LINE
  5
3D2
330
1F
100
AcDbEntity
  8
HIDDEN
100
AcDbLine
 10
-126.7273136427409
 20
-15.33059394682083
 30
0.0
 11
-111.0779431651745
 21
-13.68577883038696
 31
0.0
1001
DBPROPERTIES
1002
{
1000
PbHidd
1002
}
  0
LINE
  5
3D3
330
1F
100
AcDbEntity
  8
HIDDEN
100
AcDbLine
 10
-111.0779431651745
 20
-13.68577883038696
 30
0.0
 11
-111.4960570182451
 21
-9.70769124891387
 31
0.0
1001
DBPROPERTIES
1002
{
1000
PbHidd
1002
}
  0
LINE
  5
3D4
330
1F
100
AcDbEntity
  8
THICK
100
AcDbLine
 10
-215.60219436838
 20
-24.67172031981733
 30
0.0
 11
-204.8483056771678
 21
-23.54144107279526
 31
0.0
1001
DBPROPERTIES
1002
{
1000
PbThick
1002
}
  0
LINE
  5
3D5
330
1F
100
AcDbEntity
  8
HIDDEN
100
AcDbLine
 10
-204.8483056771678
 20
-23.54144107279526
 30
0.0
 11
-130.9389492433677
 21
-15.77325468584241
 31
0.0
1001
DBPROPERTIES
1002
{
1000
PbHidd
1002
}
  0
LINE
  5
3D6
330
1F
100
AcDbEntity
  8
HIDDEN
100
AcDbLine
 10
-215.60219436838
 20
-24.67172031981733
 30
0.0
 11
-215.60219436838
 21
-24.67172031981733
 31
0.0
1001
DBPROPERTIES
1002
{
1000
PbHidd
1002
}
  0
LINE
  5
3D7
330
1F
100
AcDbEntity
  8
THICK
100
AcDbLine
 10
-223.061108583642
 20
-25.45568379432473
 30
0.0
 11
-215.60219436838
 21
-24.67172031981733
 31
0.0
1001
DBPROPERTIES
1002
{
1000
PbThick
1002
}
  0
LINE
  5
3D8
330
1F
100
AcDbEntity
  8
HIDDEN
100
AcDbLine
 10
-223.061108583642
 20
-25.45568379432473
 30
0.0
 11
-223.061108583642
 21
-25.45568379432473
 31
0.0
1001
DBPROPERTIES
1002
{
1000
PbHidd
1002
}
  0
LINE
  5
3D9
330
1F
100
AcDbEntity
  8
HIDDEN
100
AcDbLine
 10
-111.0779431651745
 20
-13.68577883038696
 30
0.0
 11
-91.10292548021127
 21
-11.58631987219054
 31
0.0
1001
DBPROPERTIES
1002
{
1000
PbHidd
1002
}
  0
LINE
  5
3DA
330
1F
100
AcDbEntity
  8
HIDDEN
100
AcDbLine
 10
11.35250636534774
 20
127.1454274958115
 30
0.0
 11
9.707691248913871
 21
111.4960570182451
 31
0.0
1001
DBPROPERTIES
1002
{
1000
PbHidd
1002
}
  0
LINE
  5
3DB
330
1F
100
AcDbEntity
  8
HIDDEN
100
AcDbLine
 10
9.707691248913873
 20
111.4960570182451
 30
0.0
 11
13.68577883038696
 21
111.0779431651745
 31
0.0
1001
DBPROPERTIES
1002
{
1000
PbHidd
1002
}
  0
LINE
  5
3DC
330
1F
100
AcDbEntity
  8
HIDDEN
100
AcDbLine
 10
7.608232290717456
 20
91.52103933328193
 30
0.0
 11
7.608232290717456
 21
91.52103933328193
 31
0.0
1001
DBPROPERTIES
1002
{
1000
PbHidd
1002
}
  0
LINE
  5
3DD
330
1F
100
AcDbEntity
  8
HIDDEN
100
AcDbLine
 10
9.707691248913873
 20
111.4960570182451
 30
0.0
 11
7.608232290717456
 21
91.52103933328193
 31
0.0
1001
DBPROPERTIES
1002
{
1000
PbHidd
1002
}
  0
LINE
  5
3DE
330
1F
100
AcDbEntity
  8
THICK
100
AcDbLine
 10
20.69363273834425
 20
216.0203082214506
 30
0.0
 11
19.61400520253763
 21
205.7483383709722
 31
0.0
1001
DBPROPERTIES
1002
{
1000
PbThick
1002
}
  0
LINE
  5
3DF
330
1F
100
AcDbEntity
  8
HIDDEN
100
AcDbLine
 10
19.61400520253763
 20
205.7483383709722
 30
0.0
 11
11.79516710436932
 21
131.3570630964384
 31
0.0
1001
DBPROPERTIES
1002
{
1000
PbHidd
1002
}
  0
LINE
  5
3E0
330
1F
100
AcDbEntity
  8
HIDDEN
100
AcDbLine
 10
20.69363273834425
 20
216.0203082214506
 30
0.0
 11
20.69363273834425
 21
216.0203082214506
 31
0.0
1001
DBPROPERTIES
1002
{
1000
PbHidd
1002
}
  0
LINE
  5
3E1
330
1F
100
AcDbEntity
  8
THICK
100
AcDbLine
 10
21.47759621285165
 20
223.4792224367127
 30
0.0
 11
20.69363273834426
 21
216.0203082214506
 31
0.0
1001
DBPROPERTIES
1002
{
1000
PbThick
1002
}
  0
LINE
  5
3E2
330
1F
100
AcDbEntity
  8
HIDDEN
100
AcDbLine
 10
-15.33059394682084
 20
126.7273136427409
 30
0.0
 11
-13.68577883038697
 21
111.0779431651745
 31
0.0
1001
DBPROPERTIES
1002
{
1000
PbHidd
1002
}
  0
LINE
  5
3E3
330
1F
100
AcDbEntity
  8
HIDDEN
100
AcDbLine
 10
-13.68577883038697
 20
111.0779431651745
 30
0.0
 11
-9.707691248913877
 21
111.4960570182451
 31
0.0
1001
DBPROPERTIES
1002
{
1000
PbHidd
1002
}
  0
LINE
  5
3E4
330
1F
100
AcDbEntity
  8
HIDDEN
100
AcDbLine
 10
-11.58631987219055
 20
91.10292548021131
 30
0.0
 11
-11.58631987219055
 21
91.10292548021131
 31
0.0
1001
DBPROPERTIES
1002
{
1000
PbHidd
1002
}
  0
LINE
  5
3E5
330
1F
100
AcDbEntity
  8
HIDDEN
100
AcDbLine
 10
-13.68577883038697
 20
111.0779431651745
 30
0.0
 11
-11.58631987219055
 21
91.10292548021131
 31
0.0
1001
DBPROPERTIES
1002
{
1000
PbHidd
1002
}
  0
LINE
  5
3E6
330
1F
100
AcDbEntity
  8
THICK
100
AcDbLine
 10
-24.67172031981734
 20
215.60219436838
 30
0.0
 11
-23.4967508687143
 21
204.4231067880078
 31
0.0
1001
DBPROPERTIES
1002
{
1000
PbThick
1002
}
  0
LINE
  5
3E7
330
1F
100
AcDbEntity
  8
HIDDEN
100
AcDbLine
 10
-23.4967508687143
 20
204.4231067880078
 30
0.0
 11
-15.77325468584243
 21
130.9389492433678
 31
0.0
1001
DBPROPERTIES
1002
{
1000
PbHidd
1002
}
  0
LINE
  5
3E8
330
1F
100
AcDbEntity
  8
HIDDEN
100
AcDbLine
 10
-24.67172031981734
 20
215.60219436838
 30
0.0
 11
-24.67172031981734
 21
215.60219436838
 31
0.0
1001
DBPROPERTIES
1002
{
1000
PbHidd
1002
}
  0
LINE
  5
3E9
330
1F
100
AcDbEntity
  8
THICK
100
AcDbLine
 10
-25.45568379432474
 20
223.061108583642
 30
0.0
 11
-24.67172031981734
 21
215.60219436838
 31
0.0
1001
DBPROPERTIES
1002
{
1000
PbThick
1002
}
  0
LINE
  5
3EA
330
1F
100
AcDbEntity
  8
HIDDEN
100
AcDbLine
 10
91.10292548021134
 20
-11.58631987219057
 30
0.0
 11
111.0779431651745
 21
-13.68577883038699
 31
0.0
1001
DBPROPERTIES
1002
{
1000
PbHidd
1002
}
  0
LINE
  5
3EB
330
1F
100
AcDbEntity
  8
HIDDEN
100
AcDbLine
 10
130.9389492433677
 20
-15.77325468584245
 30
0.0
 11
204.5923051490369
 21
-23.51453433305851
 31
0.0
1001
DBPROPERTIES
1002
{
1000
PbHidd
1002
}
  0
LINE
  5
3EC
330
1F
100
AcDbEntity
  8
THICK
100
AcDbLine
 10
204.5923051490369
 20
-23.51453433305851
 30
0.0
 11
215.60219436838
 21
-24.67172031981739
 31
0.0
1001
DBPROPERTIES
1002
{
1000
PbThick
1002
}
  0
LINE
  5
3ED
330
1F
100
AcDbEntity
  8
HIDDEN
100
AcDbLine
 10
215.60219436838
 20
-24.67172031981739
 30
0.0
 11
215.60219436838
 21
-24.67172031981739
 31
0.0
1001
DBPROPERTIES
1002
{
1000
PbHidd
1002
}
  0
LINE
  5
3EE
330
1F
100
AcDbEntity
  8
THICK
100
AcDbLine
 10
216.0203082214506
 20
-20.69363273834429
 30
0.0
 11
215.60219436838
 21
-24.67172031981738
 31
0.0
1001
DBPROPERTIES
1002
{
1000
PbThick
1002
}
  0
LINE
  5
3EF
330
1F
100
AcDbEntity
  8
THICK
100
AcDbLine
 10
215.60219436838
 20
-24.67172031981739
 30
0.0
 11
223.061108583642
 21
-25.45568379432479
 31
0.0
1001
DBPROPERTIES
1002
{
1000
PbThick
1002
}
  0
LINE
  5
3F0
330
1F
100
AcDbEntity
  8
THICK
100
AcDbLine
 10
223.4792224367127
 20
-21.4775962128517
 30
0.0
 11
223.061108583642
 21
-25.45568379432479
 31
0.0
1001
DBPROPERTIES
1002
{
1000
PbThick
1002
}
  0
LINE
  5
3F1
330
1F
100
AcDbEntity
  8
HIDDEN
100
AcDbLine
 10
223.061108583642
 20
-25.45568379432479
 30
0.0
 11
223.061108583642
 21
-25.45568379432479
 31
0.0
1001
DBPROPERTIES
1002
{
1000
PbHidd
1002
}
  0
LINE
  5
3F2
330
1F
100
AcDbEntity
  8
HIDDEN
100
AcDbLine
 10
124.9922244307896
 20
-11.12619560382693
 30
0.0
 11
124.574110577719
 21
-15.10428318530002
 31
0.0
1001
DBPROPERTIES
1002
{
1000
PbHidd
1002
}
  0
LINE
  5
3F3
330
1F
100
AcDbEntity
  8
HIDDEN
100
AcDbLine
 10
107.7665999106141
 20
-9.315709511660192
 30
0.0
 11
107.3484860575435
 21
-13.29379709313328
 31
0.0
1001
DBPROPERTIES
1002
{
1000
PbHidd
1002
}
  0
LINE
  5
3F4
330
1F
100
AcDbEntity
  8
HIDDEN
100
AcDbLine
 10
91.52103933328195
 20
7.60823229071744
 30
0.0
 11
94.1570290067198
 21
7.885285969512346
 31
0.0
1001
DBPROPERTIES
1002
{
1000
PbHidd
1002
}
  0
LINE
  5
3F5
330
1F
100
AcDbEntity
  8
THICK
100
AcDbLine
 10
94.1570290067198
 20
7.885285969512346
 30
0.0
 11
111.4960570182451
 21
9.707691248913852
 31
0.0
1001
DBPROPERTIES
1002
{
1000
PbThick
1002
}
  0
LINE
  5
3F6
330
1F
100
AcDbEntity
  8
THICK
100
AcDbLine
 10
131.3570630964384
 20
11.7951671043693
 30
0.0
 11
216.0203082214506
 21
20.69363273834421
 31
0.0
1001
DBPROPERTIES
1002
{
1000
PbThick
1002
}
  0
LINE
  5
3F7
330
1F
100
AcDbEntity
  8
HIDDEN
100
AcDbLine
 10
216.0203082214506
 20
20.69363273834421
 30
0.0
 11
216.0203082214506
 21
20.69363273834421
 31
0.0
1001
DBPROPERTIES
1002
{
1000
PbHidd
1002
}
  0
LINE
  5
3F8
330
1F
100
AcDbEntity
  8
THICK
100
AcDbLine
 10
215.60219436838
 20
24.6717203198173
 30
0.0
 11
216.0203082214506
 21
20.69363273834421
 31
0.0
1001
DBPROPERTIES
1002
{
1000
PbThick
1002
}
  0
LINE
  5
3F9
330
1F
100
AcDbEntity
  8
THICK
100
AcDbLine
 10
216.0203082214506
 20
20.69363273834421
 30
0.0
 11
223.4792224367127
 21
21.4775962128516
 31
0.0
1001
DBPROPERTIES
1002
{
1000
PbThick
1002
}
  0
LINE
  5
3FA
330
1F
100
AcDbEntity
  8
THICK
100
AcDbLine
 10
223.061108583642
 20
25.4556837943247
 30
0.0
 11
223.4792224367127
 21
21.47759621285161
 31
0.0
1001
DBPROPERTIES
1002
{
1000
PbThick
1002
}
  0
LINE
  5
3FB
330
1F
100
AcDbEntity
  8
HIDDEN
100
AcDbLine
 10
223.4792224367127
 20
21.4775962128516
 30
0.0
 11
223.4792224367127
 21
21.4775962128516
 31
0.0
1001
DBPROPERTIES
1002
{
1000
PbHidd
1002
}
  0
LINE
  5
3FC
330
1F
100
AcDbEntity
  8
HIDDEN
100
AcDbLine
 10
124.574110577719
 20
15.10428318529998
 30
0.0
 11
124.9922244307896
 21
11.12619560382689
 31
0.0
1001
DBPROPERTIES
1002
{
1000
PbHidd
1002
}
  0
LINE
  5
3FD
330
1F
100
AcDbEntity
  8
HIDDEN
100
AcDbLine
 10
107.3484860575435
 20
13.29379709313325
 30
0.0
 11
107.7665999106141
 21
9.315709511660156
 31
0.0
1001
DBPROPERTIES
1002
{
1000
PbHidd
1002
}
  0
LINE
  5
3FE
330
1F
100
AcDbEntity
  8
HIDDEN
100
AcDbLine
 10
91.52103933328198
 20
7.608232290717445
 30
0.0
 11
91.52103933328198
 21
7.608232290717445
 31
0.0
1001
DBPROPERTIES
1002
{
1000
PbHidd
1002
}
  0
LINE
  5
3FF
330
1F
100
AcDbEntity
  8
THICK
100
AcDbLine
 10
-11.58631987219056
 20
-91.1029254802113
 30
0.0
 11
-13.68577883038698
 21
-111.0779431651745
 31
0.0
1001
DBPROPERTIES
1002
{
1000
PbThick
1002
}
  0
LINE
  5
400
330
1F
100
AcDbEntity
  8
THICK
100
AcDbLine
 10
-15.77325468584244
 20
-130.9389492433677
 30
0.0
 11
-24.67172031981738
 21
-215.60219436838
 31
0.0
1001
DBPROPERTIES
1002
{
1000
PbThick
1002
}
  0
LINE
  5
401
330
1F
100
AcDbEntity
  8
HIDDEN
100
AcDbLine
 10
-24.67172031981738
 20
-215.60219436838
 30
0.0
 11
-24.67172031981738
 21
-215.60219436838
 31
0.0
1001
DBPROPERTIES
1002
{
1000
PbHidd
1002
}
  0
LINE
  5
402
330
1F
100
AcDbEntity
  8
THICK
100
AcDbLine
 10
-20.69363273834428
 20
-216.0203082214506
 30
0.0
 11
-24.67172031981737
 21
-215.60219436838
 31
0.0
1001
DBPROPERTIES
1002
{
1000
PbThick
1002
}
  0
LINE
  5
403
330
1F
100
AcDbEntity
  8
THICK
100
AcDbLine
 10
-24.67172031981737
 20
-215.60219436838
 30
0.0
 11
-25.45568379432477
 21
-223.061108583642
 31
0.0
1001
DBPROPERTIES
1002
{
1000
PbThick
1002
}
  0
LINE
  5
404
330
1F
100
AcDbEntity
  8
THICK
100
AcDbLine
 10
-21.47759621285168
 20
-223.4792224367127
 30
0.0
 11
-25.45568379432477
 21
-223.061108583642
 31
0.0
1001
DBPROPERTIES
1002
{
1000
PbThick
1002
}
  0
LINE
  5
405
330
1F
100
AcDbEntity
  8
HIDDEN
100
AcDbLine
 10
-25.45568379432477
 20
-223.061108583642
 30
0.0
 11
-25.45568379432477
 21
-223.061108583642
 31
0.0
1001
DBPROPERTIES
1002
{
1000
PbHidd
1002
}
  0
LINE
  5
406
330
1F
100
AcDbEntity
  8
HIDDEN
100
AcDbLine
 10
-11.12619560382692
 20
-124.9922244307896
 30
0.0
 11
-15.10428318530001
 21
-124.574110577719
 31
0.0
1001
DBPROPERTIES
1002
{
1000
PbHidd
1002
}
  0
LINE
  5
407
330
1F
100
AcDbEntity
  8
HIDDEN
100
AcDbLine
 10
-9.315709511660184
 20
-107.7665999106141
 30
0.0
 11
-13.29379709313327
 21
-107.3484860575435
 31
0.0
1001
DBPROPERTIES
1002
{
1000
PbHidd
1002
}
  0
LINE
  5
408
330
1F
100
AcDbEntity
  8
THICK
100
AcDbLine
 10
7.608232290717444
 20
-91.52103933328192
 30
0.0
 11
9.707691248913859
 21
-111.4960570182451
 31
0.0
1001
DBPROPERTIES
1002
{
1000
PbThick
1002
}
  0
LINE
  5
409
330
1F
100
AcDbEntity
  8
THICK
100
AcDbLine
 10
11.79516710436931
 20
-131.3570630964384
 30
0.0
 11
20.69363273834422
 21
-216.0203082214506
 31
0.0
1001
DBPROPERTIES
1002
{
1000
PbThick
1002
}
  0
LINE
  5
40A
330
1F
100
AcDbEntity
  8
HIDDEN
100
AcDbLine
 10
20.69363273834422
 20
-216.0203082214506
 30
0.0
 11
20.69363273834422
 21
-216.0203082214506
 31
0.0
1001
DBPROPERTIES
1002
{
1000
PbHidd
1002
}
  0
LINE
  5
40B
330
1F
100
AcDbEntity
  8
THICK
100
AcDbLine
 10
24.67172031981731
 20
-215.60219436838
 30
0.0
 11
20.69363273834422
 21
-216.0203082214506
 31
0.0
1001
DBPROPERTIES
1002
{
1000
PbThick
1002
}
  0
LINE
  5
40C
330
1F
100
AcDbEntity
  8
THICK
100
AcDbLine
 10
20.69363273834422
 20
-216.0203082214506
 30
0.0
 11
21.47759621285162
 21
-223.4792224367127
 31
0.0
1001
DBPROPERTIES
1002
{
1000
PbThick
1002
}
  0
LINE
  5
40D
330
1F
100
AcDbEntity
  8
THICK
100
AcDbLine
 10
25.45568379432471
 20
-223.061108583642
 30
0.0
 11
21.47759621285162
 21
-223.4792224367127
 31
0.0
1001
DBPROPERTIES
1002
{
1000
PbThick
1002
}
  0
LINE
  5
40E
330
1F
100
AcDbEntity
  8
HIDDEN
100
AcDbLine
 10
21.47759621285162
 20
-223.4792224367127
 30
0.0
 11
21.47759621285162
 21
-223.4792224367127
 31
0.0
1001
DBPROPERTIES
1002
{
1000
PbHidd
1002
}
  0
LINE
  5
40F
330
1F
100
AcDbEntity
  8
HIDDEN
100
AcDbLine
 10
15.10428318529998
 20
-124.574110577719
 30
0.0
 11
11.12619560382689
 21
-124.9922244307896
 31
0.0
1001
DBPROPERTIES
1002
{
1000
PbHidd
1002
}
  0
LINE
  5
410
330
1F
100
AcDbEntity
  8
HIDDEN
100
AcDbLine
 10
13.29379709313325
 20
-107.3484860575435
 30
0.0
 11
9.315709511660163
 21
-107.7665999106141
 31
0.0
1001
DBPROPERTIES
1002
{
1000
PbHidd
1002
}
  0
LINE
  5
411
330
1F
100
AcDbEntity
  8
THICK
100
AcDbLine
 10
-91.10292548021125
 20
11.58631987219055
 30
0.0
 11
-111.0779431651745
 21
13.68577883038698
 31
0.0
1001
DBPROPERTIES
1002
{
1000
PbThick
1002
}
  0
LINE
  5
412
330
1F
100
AcDbEntity
  8
THICK
100
AcDbLine
 10
-130.9389492433677
 20
15.77325468584243
 30
0.0
 11
-215.60219436838
 21
24.67172031981736
 31
0.0
1001
DBPROPERTIES
1002
{
1000
PbThick
1002
}
  0
LINE
  5
413
330
1F
100
AcDbEntity
  8
HIDDEN
100
AcDbLine
 10
-215.60219436838
 20
24.67172031981736
 30
0.0
 11
-215.60219436838
 21
24.67172031981736
 31
0.0
1001
DBPROPERTIES
1002
{
1000
PbHidd
1002
}
  0
LINE
  5
414
330
1F
100
AcDbEntity
  8
THICK
100
AcDbLine
 10
-216.0203082214506
 20
20.69363273834426
 30
0.0
 11
-215.60219436838
 21
24.67172031981735
 31
0.0
1001
DBPROPERTIES
1002
{
1000
PbThick
1002
}
  0
LINE
  5
415
330
1F
100
AcDbEntity
  8
THICK
100
AcDbLine
 10
-215.60219436838
 20
24.67172031981736
 30
0.0
 11
-223.061108583642
 21
25.45568379432476
 31
0.0
1001
DBPROPERTIES
1002
{
1000
PbThick
1002
}
  0
LINE
  5
416
330
1F
100
AcDbEntity
  8
THICK
100
AcDbLine
 10
-223.4792224367127
 20
21.47759621285167
 30
0.0
 11
-223.061108583642
 21
25.45568379432476
 31
0.0
1001
DBPROPERTIES
1002
{
1000
PbThick
1002
}
  0
LINE
  5
417
330
1F
100
AcDbEntity
  8
HIDDEN
100
AcDbLine
 10
-223.061108583642
 20
25.45568379432476
 30
0.0
 11
-223.061108583642
 21
25.45568379432476
 31
0.0
1001
DBPROPERTIES
1002
{
1000
PbHidd
1002
}
  0
LINE
  5
418
330
1F
100
AcDbEntity
  8
HIDDEN
100
AcDbLine
 10
-124.9922244307896
 20
11.12619560382691
 30
0.0
 11
-124.574110577719
 21
15.1042831853
 31
0.0
1001
DBPROPERTIES
1002
{
1000
PbHidd
1002
}
  0
LINE
  5
419
330
1F
100
AcDbEntity
  8
HIDDEN
100
AcDbLine
 10
-107.7665999106141
 20
9.315709511660177
 30
0.0
 11
-107.3484860575435
 21
13.29379709313327
 31
0.0
1001
DBPROPERTIES
1002
{
1000
PbHidd
1002
}
  0
LINE
  5
41A
330
1F
100
AcDbEntity
  8
HIDDEN
100
AcDbLine
 10
-91.10292548021127
 20
11.58631987219056
 30
0.0
 11
-91.10292548021127
 21
11.58631987219056
 31
0.0
1001
DBPROPERTIES
1002
{
1000
PbHidd
1002
}
  0
LINE
  5
41B
330
1F
100
AcDbEntity
  8
HIDDEN
100
AcDbLine
 10
-91.52103933328188
 20
-7.608232290717446
 30
0.0
 11
-111.4960570182451
 21
-9.707691248913866
 31
0.0
1001
DBPROPERTIES
1002
{
1000
PbHidd
1002
}
  0
LINE
  5
41C
330
1F
100
AcDbEntity
  8
HIDDEN
100
AcDbLine
 10
-131.3570630964384
 20
-11.79516710436932
 30
0.0
 11
-204.5287899373822
 21
-19.48582549705569
 31
0.0
1001
DBPROPERTIES
1002
{
1000
PbHidd
1002
}
  0
LINE
  5
41D
330
1F
100
AcDbEntity
  8
THICK
100
AcDbLine
 10
-204.5287899373822
 20
-19.48582549705569
 30
0.0
 11
-216.0203082214506
 21
-20.69363273834423
 31
0.0
1001
DBPROPERTIES
1002
{
1000
PbThick
1002
}
  0
LINE
  5
41E
330
1F
100
AcDbEntity
  8
HIDDEN
100
AcDbLine
 10
-216.0203082214506
 20
-20.69363273834423
 30
0.0
 11
-216.0203082214506
 21
-20.69363273834423
 31
0.0
1001
DBPROPERTIES
1002
{
1000
PbHidd
1002
}
  0
LINE
  5
41F
330
1F
100
AcDbEntity
  8
THICK
100
AcDbLine
 10
-215.60219436838
 20
-24.67172031981733
 30
0.0
 11
-216.0203082214506
 21
-20.69363273834424
 31
0.0
1001
DBPROPERTIES
1002
{
1000
PbThick
1002
}
  0
LINE
  5
420
330
1F
100
AcDbEntity
  8
THICK
100
AcDbLine
 10
-216.0203082214506
 20
-20.69363273834423
 30
0.0
 11
-223.4792224367127
 21
-21.47759621285163
 31
0.0
1001
DBPROPERTIES
1002
{
1000
PbThick
1002
}
  0
LINE
  5
421
330
1F
100
AcDbEntity
  8
THICK
100
AcDbLine
 10
-223.061108583642
 20
-25.45568379432473
 30
0.0
 11
-223.4792224367127
 21
-21.47759621285164
 31
0.0
1001
DBPROPERTIES
1002
{
1000
PbThick
1002
}
  0
LINE
  5
422
330
1F
100
AcDbEntity
  8
HIDDEN
100
AcDbLine
 10
-223.4792224367127
 20
-21.47759621285163
 30
0.0
 11
-223.4792224367127
 21
-21.47759621285163
 31
0.0
1001
DBPROPERTIES
1002
{
1000
PbHidd
1002
}
  0
LINE
  5
423
330
1F
100
AcDbEntity
  8
HIDDEN
100
AcDbLine
 10
-124.574110577719
 20
-15.10428318529999
 30
0.0
 11
-124.9922244307896
 21
-11.1261956038269
 31
0.0
1001
DBPROPERTIES
1002
{
1000
PbHidd
1002
}
  0
LINE
  5
424
330
1F
100
AcDbEntity
  8
HIDDEN
100
AcDbLine
 10
-107.3484860575435
 20
-13.29379709313326
 30
0.0
 11
-107.7665999106141
 21
-9.31570951166017
 31
0.0
1001
DBPROPERTIES
1002
{
1000
PbHidd
1002
}
  0
LINE
  5
425
330
1F
100
AcDbEntity
  8
THICK
100
AcDbLine
 10
20.69363273834425
 20
216.0203082214506
 30
0.0
 11
24.67172031981734
 21
215.60219436838
 31
0.0
1001
DBPROPERTIES
1002
{
1000
PbThick
1002
}
  0
LINE
  5
426
330
1F
100
AcDbEntity
  8
HIDDEN
100
AcDbLine
 10
11.12619560382691
 20
124.9922244307896
 30
0.0
 11
15.1042831853
 21
124.574110577719
 31
0.0
1001
DBPROPERTIES
1002
{
1000
PbHidd
1002
}
  0
LINE
  5
427
330
1F
100
AcDbEntity
  8
HIDDEN
100
AcDbLine
 10
9.31570951166017
 20
107.7665999106141
 30
0.0
 11
13.29379709313326
 21
107.3484860575435
 31
0.0
1001
DBPROPERTIES
1002
{
1000
PbHidd
1002
}
  0
LINE
  5
428
330
1F
100
AcDbEntity
  8
THICK
100
AcDbLine
 10
-24.67172031981734
 20
215.60219436838
 30
0.0
 11
-20.69363273834425
 21
216.0203082214506
 31
0.0
1001
DBPROPERTIES
1002
{
1000
PbThick
1002
}
  0
LINE
  5
429
330
1F
100
AcDbEntity
  8
HIDDEN
100
AcDbLine
 10
-15.1042831853
 20
124.574110577719
 30
0.0
 11
-11.12619560382691
 21
124.9922244307896
 31
0.0
1001
DBPROPERTIES
1002
{
1000
PbHidd
1002
}
  0
LINE
  5
42A
330
1F
100
AcDbEntity
  8
HIDDEN
100
AcDbLine
 10
-13.29379709313327
 20
107.3484860575435
 30
0.0
 11
-9.315709511660177
 21
107.7665999106141
 31
0.0
1001
DBPROPERTIES
1002
{
1000
PbHidd
1002
}
  0
ARC
  5
42B
330
1F
100
AcDbEntity
  8
HIDDEN
100
AcDbCircle
 10
0.0000000000000381
 20
0.0
 30
0.0
 40
64.28571428571429
100
AcDbArc
 50
177.0000128325378
 51
180.0000198478428
1001
DBPROPERTIES
1002
{
1000
PbHidd
1002
}
  0
LINE
  5
42C
330
1F
100
AcDbEntity
  8
HIDDEN
100
AcDbLine
 10
-64.19761294850828
 20
3.364454329903561
 30
0.0
 11
-64.19761294850828
 21
3.364454329903561
 31
0.0
1001
DBPROPERTIES
1002
{
1000
PbHidd
1002
}
  0
LINE
  5
42D
330
1F
100
AcDbEntity
  8
HIDDEN
100
AcDbLine
 10
-62.0952316900115
 20
-16.63836718516203
 30
0.0
 11
-62.0952316900115
 21
-16.63836718516203
 31
0.0
1001
DBPROPERTIES
1002
{
1000
PbHidd
1002
}
  0
ARC
  5
42E
330
1F
100
AcDbEntity
  8
HIDDEN
100
AcDbCircle
 10
0.0000000000000381
 20
0.0
 30
0.0
 40
64.28571428571429
100
AcDbArc
 50
189.0000011980722
 51
195.0000152286821
1001
DBPROPERTIES
1002
{
1000
PbHidd
1002
}
  0
LINE
  5
42F
330
1F
100
AcDbEntity
  8
HIDDEN
100
AcDbLine
 10
-63.49425046683025
 20
-10.05650132401483
 30
0.0
 11
-63.49425046683025
 21
-10.05650132401483
 31
0.0
1001
DBPROPERTIES
1002
{
1000
PbHidd
1002
}
  0
LINE
  5
430
330
1F
100
AcDbEntity
  8
HIDDEN
100
AcDbLine
 10
-63.49425046683025
 20
10.05650132401486
 30
0.0
 11
-63.49425046683025
 21
10.05650132401486
 31
0.0
1001
DBPROPERTIES
1002
{
1000
PbHidd
1002
}
  0
ARC
  5
431
330
1F
100
AcDbEntity
  8
HIDDEN
100
AcDbCircle
 10
0.0000000000000381
 20
0.0
 30
0.0
 40
64.28571428571429
100
AcDbArc
 50
164.9999847713179
 51
170.9999988019279
1001
DBPROPERTIES
1002
{
1000
PbHidd
1002
}
  0
LINE
  5
432
330
1F
100
AcDbEntity
  8
HIDDEN
100
AcDbLine
 10
-62.0952316900115
 20
16.63836718516206
 30
0.0
 11
-62.0952316900115
 21
16.63836718516206
 31
0.0
1001
DBPROPERTIES
1002
{
1000
PbHidd
1002
}
  0
LINE
  5
433
330
1F
100
AcDbEntity
  8
HIDDEN
100
AcDbLine
 10
-57.27899084068078
 20
-29.18510355468512
 30
0.0
 11
-57.27899084068078
 21
-29.18510355468512
 31
0.0
1001
DBPROPERTIES
1002
{
1000
PbHidd
1002
}
  0
ARC
  5
434
330
1F
100
AcDbEntity
  8
HIDDEN
100
AcDbCircle
 10
0.0000000000000381
 20
0.0
 30
0.0
 40
64.28571428571429
100
AcDbArc
 50
200.9999719635126
 51
206.9999859941226
1001
DBPROPERTIES
1002
{
1000
PbHidd
1002
}
  0
LINE
  5
435
330
1F
100
AcDbEntity
  8
HIDDEN
100
AcDbLine
 10
-60.01588456053437
 20
-23.03793961362642
 30
0.0
 11
-60.01588456053437
 21
-23.03793961362642
 31
0.0
1001
DBPROPERTIES
1002
{
1000
PbHidd
1002
}
  0
LINE
  5
436
330
1F
100
AcDbEntity
  8
HIDDEN
100
AcDbLine
 10
-60.01588456053437
 20
23.03793961362645
 30
0.0
 11
-60.01588456053437
 21
23.03793961362645
 31
0.0
1001
DBPROPERTIES
1002
{
1000
PbHidd
1002
}
  0
ARC
  5
437
330
1F
100
AcDbEntity
  8
HIDDEN
100
AcDbCircle
 10
0.0000000000000381
 20
0.0
 30
0.0
 40
64.28571428571429
100
AcDbArc
 50
153.0000140058774
 51
159.0000280364874
1001
DBPROPERTIES
1002
{
1000
PbHidd
1002
}
  0
LINE
  5
438
330
1F
100
AcDbEntity
  8
HIDDEN
100
AcDbLine
 10
-57.27899084068076
 20
29.18510355468515
 30
0.0
 11
-57.27899084068076
 21
29.18510355468515
 31
0.0
1001
DBPROPERTIES
1002
{
1000
PbHidd
1002
}
  0
LINE
  5
439
330
1F
100
AcDbEntity
  8
HIDDEN
100
AcDbLine
 10
-49.95938323651956
 20
-40.4563108532038
 30
0.0
 11
-49.95938323651956
 21
-40.4563108532038
 31
0.0
1001
DBPROPERTIES
1002
{
1000
PbHidd
1002
}
  0
ARC
  5
43A
330
1F
100
AcDbEntity
  8
HIDDEN
100
AcDbCircle
 10
0.0000000000000381
 20
0.0
 30
0.0
 40
64.28571428571429
100
AcDbArc
 50
213.0000000247326
 51
219.0000140553425
1001
DBPROPERTIES
1002
{
1000
PbHidd
1002
}
  0
LINE
  5
43B
330
1F
100
AcDbEntity
  8
HIDDEN
100
AcDbLine
 10
-53.91453651077725
 20
-35.01250939382314
 30
0.0
 11
-53.91453651077725
 21
-35.01250939382314
 31
0.0
1001
DBPROPERTIES
1002
{
1000
PbHidd
1002
}
  0
LINE
  5
43C
330
1F
100
AcDbEntity
  8
HIDDEN
100
AcDbLine
 10
-53.91453651077722
 20
35.01250939382318
 30
0.0
 11
-53.91453651077722
 21
35.01250939382318
 31
0.0
1001
DBPROPERTIES
1002
{
1000
PbHidd
1002
}
  0
ARC
  5
43D
330
1F
100
AcDbEntity
  8
HIDDEN
100
AcDbCircle
 10
0.0000000000000381
 20
0.0
 30
0.0
 40
64.28571428571429
100
AcDbArc
 50
140.9999859446575
 51
146.9999999752674
1001
DBPROPERTIES
1002
{
1000
PbHidd
1002
}
  0
LINE
  5
43E
330
1F
100
AcDbEntity
  8
HIDDEN
100
AcDbLine
 10
-49.95938323651951
 20
40.45631085320386
 30
0.0
 11
-49.95938323651951
 21
40.45631085320386
 31
0.0
1001
DBPROPERTIES
1002
{
1000
PbHidd
1002
}
  0
LINE
  5
43F
330
1F
100
AcDbEntity
  8
HIDDEN
100
AcDbLine
 10
-40.45631085320384
 20
-49.95938323651953
 30
0.0
 11
-40.45631085320384
 21
-49.95938323651953
 31
0.0
1001
DBPROPERTIES
1002
{
1000
PbHidd
1002
}
  0
ARC
  5
440
330
1F
100
AcDbEntity
  8
HIDDEN
100
AcDbCircle
 10
0.0000000000000381
 20
0.0
 30
0.0
 40
64.28571428571429
100
AcDbArc
 50
225.0000280859525
 51
230.999984820783
1001
DBPROPERTIES
1002
{
1000
PbHidd
1002
}
  0
LINE
  5
441
330
1F
100
AcDbEntity
  8
HIDDEN
100
AcDbLine
 10
-45.45686450484948
 20
-45.45686450484945
 30
0.0
 11
-45.45686450484948
 21
-45.45686450484945
 31
0.0
1001
DBPROPERTIES
1002
{
1000
PbHidd
1002
}
  0
LINE
  5
442
330
1F
100
AcDbEntity
  8
HIDDEN
100
AcDbLine
 10
-45.45686450484946
 20
45.45686450484948
 30
0.0
 11
-45.45686450484946
 21
45.45686450484948
 31
0.0
1001
DBPROPERTIES
1002
{
1000
PbHidd
1002
}
  0
ARC
  5
443
330
1F
100
AcDbEntity
  8
HIDDEN
100
AcDbCircle
 10
0.0000000000000381
 20
0.0
 30
0.0
 40
64.28571428571429
100
AcDbArc
 50
129.000015179217
 51
134.9999719140475
1001
DBPROPERTIES
1002
{
1000
PbHidd
1002
}
  0
LINE
  5
444
330
1F
100
AcDbEntity
  8
HIDDEN
100
AcDbLine
 10
-40.45631085320382
 20
49.95938323651956
 30
0.0
 11
-40.45631085320382
 21
49.95938323651956
 31
0.0
1001
DBPROPERTIES
1002
{
1000
PbHidd
1002
}
  0
LINE
  5
445
330
1F
100
AcDbEntity
  8
HIDDEN
100
AcDbLine
 10
-29.18510355468517
 20
-57.27899084068076
 30
0.0
 11
-29.18510355468517
 21
-57.27899084068076
 31
0.0
1001
DBPROPERTIES
1002
{
1000
PbHidd
1002
}
  0
ARC
  5
446
330
1F
100
AcDbEntity
  8
HIDDEN
100
AcDbCircle
 10
0.0000000000000381
 20
0.0
 30
0.0
 40
64.28571428571429
100
AcDbArc
 50
236.999998851393
 51
243.0000128820029
1001
DBPROPERTIES
1002
{
1000
PbHidd
1002
}
  0
LINE
  5
447
330
1F
100
AcDbEntity
  8
HIDDEN
100
AcDbLine
 10
-35.01250939382318
 20
-53.91453651077724
 30
0.0
 11
-35.01250939382318
 21
-53.91453651077724
 31
0.0
1001
DBPROPERTIES
1002
{
1000
PbHidd
1002
}
  0
LINE
  5
448
330
1F
100
AcDbEntity
  8
HIDDEN
100
AcDbLine
 10
-35.01250939382315
 20
53.91453651077725
 30
0.0
 11
-35.01250939382315
 21
53.91453651077725
 31
0.0
1001
DBPROPERTIES
1002
{
1000
PbHidd
1002
}
  0
ARC
  5
449
330
1F
100
AcDbEntity
  8
HIDDEN
100
AcDbCircle
 10
0.0000000000000381
 20
0.0
 30
0.0
 40
64.28571428571429
100
AcDbArc
 50
116.9999871179971
 51
123.000001148607
1001
DBPROPERTIES
1002
{
1000
PbHidd
1002
}
  0
LINE
  5
44A
330
1F
100
AcDbEntity
  8
HIDDEN
100
AcDbLine
 10
-29.18510355468513
 20
57.27899084068079
 30
0.0
 11
-29.18510355468513
 21
57.27899084068079
 31
0.0
1001
DBPROPERTIES
1002
{
1000
PbHidd
1002
}
  0
LINE
  5
44B
330
1F
100
AcDbEntity
  8
HIDDEN
100
AcDbLine
 10
-16.63836718516209
 20
-62.09523169001152
 30
0.0
 11
-16.63836718516209
 21
-62.09523169001152
 31
0.0
1001
DBPROPERTIES
1002
{
1000
PbHidd
1002
}
  0
ARC
  5
44C
330
1F
100
AcDbEntity
  8
HIDDEN
100
AcDbCircle
 10
0.0000000000000381
 20
0.0
 30
0.0
 40
64.28571428571429
100
AcDbArc
 50
249.0000269126129
 51
254.9999836474434
1001
DBPROPERTIES
1002
{
1000
PbHidd
1002
}
  0
LINE
  5
44D
330
1F
100
AcDbEntity
  8
HIDDEN
100
AcDbLine
 10
-23.03793961362648
 20
-60.01588456053437
 30
0.0
 11
-23.03793961362648
 21
-60.01588456053437
 31
0.0
1001
DBPROPERTIES
1002
{
1000
PbHidd
1002
}
  0
LINE
  5
44E
330
1F
100
AcDbEntity
  8
HIDDEN
100
AcDbLine
 10
-23.03793961362643
 20
60.01588456053439
 30
0.0
 11
-23.03793961362643
 21
60.01588456053439
 31
0.0
1001
DBPROPERTIES
1002
{
1000
PbHidd
1002
}
  0
ARC
  5
44F
330
1F
100
AcDbEntity
  8
HIDDEN
100
AcDbCircle
 10
0.0000000000000381
 20
0.0
 30
0.0
 40
64.28571428571429
100
AcDbArc
 50
105.0000163525566
 51
110.9999730873871
1001
DBPROPERTIES
1002
{
1000
PbHidd
1002
}
  0
LINE
  5
450
330
1F
100
AcDbEntity
  8
HIDDEN
100
AcDbLine
 10
-16.63836718516204
 20
62.09523169001153
 30
0.0
 11
-16.63836718516204
 21
62.09523169001153
 31
0.0
1001
DBPROPERTIES
1002
{
1000
PbHidd
1002
}
  0
LINE
  5
451
330
1F
100
AcDbEntity
  8
HIDDEN
100
AcDbLine
 10
-3.364454329903551
 20
-64.19761294850832
 30
0.0
 11
-3.364454329903547
 21
-64.19761294850832
 31
0.0
1001
DBPROPERTIES
1002
{
1000
PbHidd
1002
}
  0
ARC
  5
452
330
1F
100
AcDbEntity
  8
HIDDEN
100
AcDbCircle
 10
0.0000000000000381
 20
0.0
 30
0.0
 40
64.28571428571429
100
AcDbArc
 50
260.9999976780534
 51
267.0000117086634
1001
DBPROPERTIES
1002
{
1000
PbHidd
1002
}
  0
LINE
  5
453
330
1F
100
AcDbEntity
  8
HIDDEN
100
AcDbLine
 10
-10.05650132401485
 20
-63.49425046683028
 30
0.0
 11
-10.05650132401486
 21
-63.49425046683028
 31
0.0
1001
DBPROPERTIES
1002
{
1000
PbHidd
1002
}
  0
LINE
  5
454
330
1F
100
AcDbEntity
  8
HIDDEN
100
AcDbLine
 10
-10.05650132401483
 20
63.49425046683029
 30
0.0
 11
-10.05650132401483
 21
63.49425046683029
 31
0.0
1001
DBPROPERTIES
1002
{
1000
PbHidd
1002
}
  0
ARC
  5
455
330
1F
100
AcDbEntity
  8
HIDDEN
100
AcDbCircle
 10
0.0000000000000381
 20
0.0
 30
0.0
 40
64.28571428571429
100
AcDbArc
 50
92.99998829133665
 51
99.00000232194662
1001
DBPROPERTIES
1002
{
1000
PbHidd
1002
}
  0
LINE
  5
456
330
1F
100
AcDbEntity
  8
HIDDEN
100
AcDbLine
 10
-3.364454329903514
 20
64.19761294850832
 30
0.0
 11
-3.364454329903518
 21
64.19761294850832
 31
0.0
1001
DBPROPERTIES
1002
{
1000
PbHidd
1002
}
  0
LINE
  5
457
330
1F
100
AcDbEntity
  8
HIDDEN
100
AcDbLine
 10
10.05650132401479
 20
-63.49425046683031
 30
0.0
 11
10.05650132401479
 21
-63.49425046683031
 31
0.0
1001
DBPROPERTIES
1002
{
1000
PbHidd
1002
}
  0
ARC
  5
458
330
1F
100
AcDbEntity
  8
HIDDEN
100
AcDbCircle
 10
0.0000000000000381
 20
0.0
 30
0.0
 40
64.28571428571429
100
AcDbArc
 50
273.0000257392733
 51
278.9999824741038
1001
DBPROPERTIES
1002
{
1000
PbHidd
1002
}
  0
LINE
  5
459
330
1F
100
AcDbEntity
  8
HIDDEN
100
AcDbLine
 10
3.364454329903483
 20
-64.19761294850834
 30
0.0
 11
3.364454329903479
 21
-64.19761294850834
 31
0.0
1001
DBPROPERTIES
1002
{
1000
PbHidd
1002
}
  0
LINE
  5
45A
330
1F
100
AcDbEntity
  8
HIDDEN
100
AcDbLine
 10
3.364454329903541
 20
64.19761294850834
 30
0.0
 11
3.364454329903544
 21
64.19761294850834
 31
0.0
1001
DBPROPERTIES
1002
{
1000
PbHidd
1002
}
  0
ARC
  5
45B
330
1F
100
AcDbEntity
  8
HIDDEN
100
AcDbCircle
 10
0.0000000000000381
 20
0.0
 30
0.0
 40
64.28571428571429
100
AcDbArc
 50
81.0000175258962
 51
86.99997426072667
1001
DBPROPERTIES
1002
{
1000
PbHidd
1002
}
  0
LINE
  5
45C
330
1F
100
AcDbEntity
  8
HIDDEN
100
AcDbLine
 10
10.05650132401485
 20
63.49425046683029
 30
0.0
 11
10.05650132401485
 21
63.49425046683029
 31
0.0
1001
DBPROPERTIES
1002
{
1000
PbHidd
1002
}
  0
LINE
  5
45D
330
1F
100
AcDbEntity
  8
HIDDEN
100
AcDbLine
 10
23.03793961362642
 20
-60.01588456053443
 30
0.0
 11
23.03793961362642
 21
-60.01588456053443
 31
0.0
1001
DBPROPERTIES
1002
{
1000
PbHidd
1002
}
  0
ARC
  5
45E
330
1F
100
AcDbEntity
  8
HIDDEN
100
AcDbCircle
 10
0.0000000000000381
 20
0.0
 30
0.0
 40
64.28571428571429
100
AcDbArc
 50
284.9999965047138
 51
291.0000105353237
1001
DBPROPERTIES
1002
{
1000
PbHidd
1002
}
  0
LINE
  5
45F
330
1F
100
AcDbEntity
  8
HIDDEN
100
AcDbLine
 10
16.63836718516202
 20
-62.09523169001156
 30
0.0
 11
16.63836718516202
 21
-62.09523169001156
 31
0.0
1001
DBPROPERTIES
1002
{
1000
PbHidd
1002
}
  0
LINE
  5
460
330
1F
100
AcDbEntity
  8
HIDDEN
100
AcDbLine
 10
16.63836718516206
 20
62.09523169001154
 30
0.0
 11
16.63836718516206
 21
62.09523169001154
 31
0.0
1001
DBPROPERTIES
1002
{
1000
PbHidd
1002
}
  0
ARC
  5
461
330
1F
100
AcDbEntity
  8
HIDDEN
100
AcDbCircle
 10
0.0000000000000381
 20
0.0
 30
0.0
 40
64.28571428571429
100
AcDbArc
 50
68.99998946467625
 51
75.00000349528622
1001
DBPROPERTIES
1002
{
1000
PbHidd
1002
}
  0
LINE
  5
462
330
1F
100
AcDbEntity
  8
HIDDEN
100
AcDbLine
 10
23.03793961362646
 20
60.01588456053442
 30
0.0
 11
23.03793961362646
 21
60.01588456053442
 31
0.0
1001
DBPROPERTIES
1002
{
1000
PbHidd
1002
}
  0
LINE
  5
463
330
1F
100
AcDbEntity
  8
HIDDEN
100
AcDbLine
 10
35.01250939382317
 20
-53.9145365107773
 30
0.0
 11
35.01250939382317
 21
-53.9145365107773
 31
0.0
1001
DBPROPERTIES
1002
{
1000
PbHidd
1002
}
  0
ARC
  5
464
330
1F
100
AcDbEntity
  8
HIDDEN
100
AcDbCircle
 10
0.0000000000000381
 20
0.0
 30
0.0
 40
64.28571428571429
100
AcDbArc
 50
297.0000245659338
 51
302.9999813007643
1001
DBPROPERTIES
1002
{
1000
PbHidd
1002
}
  0
LINE
  5
465
330
1F
100
AcDbEntity
  8
HIDDEN
100
AcDbLine
 10
29.18510355468515
 20
-57.27899084068082
 30
0.0
 11
29.18510355468515
 21
-57.27899084068082
 31
0.0
1001
DBPROPERTIES
1002
{
1000
PbHidd
1002
}
  0
LINE
  5
466
330
1F
100
AcDbEntity
  8
HIDDEN
100
AcDbLine
 10
29.18510355468518
 20
57.27899084068081
 30
0.0
 11
29.18510355468518
 21
57.27899084068081
 31
0.0
1001
DBPROPERTIES
1002
{
1000
PbHidd
1002
}
  0
ARC
  5
467
330
1F
100
AcDbEntity
  8
HIDDEN
100
AcDbCircle
 10
0.0000000000000381
 20
0.0
 30
0.0
 40
64.28571428571429
100
AcDbArc
 50
57.0000186992358
 51
62.99997543406626
1001
DBPROPERTIES
1002
{
1000
PbHidd
1002
}
  0
LINE
  5
468
330
1F
100
AcDbEntity
  8
HIDDEN
100
AcDbLine
 10
35.01250939382319
 20
53.91453651077728
 30
0.0
 11
35.01250939382319
 21
53.91453651077728
 31
0.0
1001
DBPROPERTIES
1002
{
1000
PbHidd
1002
}
  0
LINE
  5
469
330
1F
100
AcDbEntity
  8
HIDDEN
100
AcDbLine
 10
45.45686450484947
 20
-45.45686450484954
 30
0.0
 11
45.45686450484947
 21
-45.45686450484954
 31
0.0
1001
DBPROPERTIES
1002
{
1000
PbHidd
1002
}
  0
ARC
  5
46A
330
1F
100
AcDbEntity
  8
HIDDEN
100
AcDbCircle
 10
0.0000000000000381
 20
0.0
 30
0.0
 40
64.28571428571429
100
AcDbArc
 50
308.9999953313742
 51
315.0000093619842
1001
DBPROPERTIES
1002
{
1000
PbHidd
1002
}
  0
LINE
  5
46B
330
1F
100
AcDbEntity
  8
HIDDEN
100
AcDbLine
 10
40.45631085320382
 20
-49.95938323651961
 30
0.0
 11
40.45631085320382
 21
-49.95938323651961
 31
0.0
1001
DBPROPERTIES
1002
{
1000
PbHidd
1002
}
  0
LINE
  5
46C
330
1F
100
AcDbEntity
  8
HIDDEN
100
AcDbLine
 10
40.45631085320386
 20
49.95938323651959
 30
0.0
 11
40.45631085320386
 21
49.95938323651959
 31
0.0
1001
DBPROPERTIES
1002
{
1000
PbHidd
1002
}
  0
ARC
  5
46D
330
1F
100
AcDbEntity
  8
HIDDEN
100
AcDbCircle
 10
0.0000000000000381
 20
0.0
 30
0.0
 40
64.28571428571429
100
AcDbArc
 50
44.99999063801582
 51
51.00000466862581
1001
DBPROPERTIES
1002
{
1000
PbHidd
1002
}
  0
LINE
  5
46E
330
1F
100
AcDbEntity
  8
HIDDEN
100
AcDbLine
 10
45.45686450484952
 20
45.4568645048495
 30
0.0
 11
45.45686450484952
 21
45.4568645048495
 31
0.0
1001
DBPROPERTIES
1002
{
1000
PbHidd
1002
}
  0
LINE
  5
46F
330
1F
100
AcDbEntity
  8
HIDDEN
100
AcDbLine
 10
53.91453651077728
 20
-35.01250939382322
 30
0.0
 11
53.91453651077728
 21
-35.01250939382322
 31
0.0
1001
DBPROPERTIES
1002
{
1000
PbHidd
1002
}
  0
ARC
  5
470
330
1F
100
AcDbEntity
  8
HIDDEN
100
AcDbCircle
 10
0.0000000000000381
 20
0.0
 30
0.0
 40
64.28571428571429
100
AcDbArc
 50
321.0000233925941
 51
326.9999801274246
1001
DBPROPERTIES
1002
{
1000
PbHidd
1002
}
  0
LINE
  5
471
330
1F
100
AcDbEntity
  8
HIDDEN
100
AcDbLine
 10
49.95938323651956
 20
-40.45631085320389
 30
0.0
 11
49.95938323651956
 21
-40.45631085320389
 31
0.0
1001
DBPROPERTIES
1002
{
1000
PbHidd
1002
}
  0
LINE
  5
472
330
1F
100
AcDbEntity
  8
HIDDEN
100
AcDbLine
 10
49.95938323651959
 20
40.45631085320386
 30
0.0
 11
49.95938323651959
 21
40.45631085320386
 31
0.0
1001
DBPROPERTIES
1002
{
1000
PbHidd
1002
}
  0
ARC
  5
473
330
1F
100
AcDbEntity
  8
HIDDEN
100
AcDbCircle
 10
0.0000000000000381
 20
0.0
 30
0.0
 40
64.28571428571429
100
AcDbArc
 50
33.00001987257539
 51
38.99997660740585
1001
DBPROPERTIES
1002
{
1000
PbHidd
1002
}
  0
LINE
  5
474
330
1F
100
AcDbEntity
  8
HIDDEN
100
AcDbLine
 10
53.9145365107773
 20
35.01250939382319
 30
0.0
 11
53.9145365107773
 21
35.01250939382319
 31
0.0
1001
DBPROPERTIES
1002
{
1000
PbHidd
1002
}
  0
LINE
  5
475
330
1F
100
AcDbEntity
  8
HIDDEN
100
AcDbLine
 10
60.01588456053443
 20
-23.03793961362648
 30
0.0
 11
60.01588456053443
 21
-23.03793961362648
 31
0.0
1001
DBPROPERTIES
1002
{
1000
PbHidd
1002
}
  0
ARC
  5
476
330
1F
100
AcDbEntity
  8
HIDDEN
100
AcDbCircle
 10
0.0000000000000381
 20
0.0
 30
0.0
 40
64.28571428571429
100
AcDbArc
 50
332.9999941580346
 51
339.0000081886445
1001
DBPROPERTIES
1002
{
1000
PbHidd
1002
}
  0
LINE
  5
477
330
1F
100
AcDbEntity
  8
HIDDEN
100
AcDbLine
 10
57.27899084068082
 20
-29.18510355468519
 30
0.0
 11
57.27899084068082
 21
-29.18510355468519
 31
0.0
1001
DBPROPERTIES
1002
{
1000
PbHidd
1002
}
  0
LINE
  5
478
330
1F
100
AcDbEntity
  8
HIDDEN
100
AcDbLine
 10
57.27899084068083
 20
29.18510355468516
 30
0.0
 11
57.27899084068083
 21
29.18510355468516
 31
0.0
1001
DBPROPERTIES
1002
{
1000
PbHidd
1002
}
  0
ARC
  5
479
330
1F
100
AcDbEntity
  8
HIDDEN
100
AcDbCircle
 10
0.0000000000000381
 20
0.0
 30
0.0
 40
64.28571428571429
100
AcDbArc
 50
20.99999181135542
 51
27.0000058419654
1001
DBPROPERTIES
1002
{
1000
PbHidd
1002
}
  0
LINE
  5
47A
330
1F
100
AcDbEntity
  8
HIDDEN
100
AcDbLine
 10
60.01588456053444
 20
23.03793961362646
 30
0.0
 11
60.01588456053444
 21
23.03793961362646
 31
0.0
1001
DBPROPERTIES
1002
{
1000
PbHidd
1002
}
  0
LINE
  5
47B
330
1F
100
AcDbEntity
  8
HIDDEN
100
AcDbLine
 10
63.49425046683032
 20
-10.0565013240149
 30
0.0
 11
63.49425046683032
 21
-10.0565013240149
 31
0.0
1001
DBPROPERTIES
1002
{
1000
PbHidd
1002
}
  0
ARC
  5
47C
330
1F
100
AcDbEntity
  8
HIDDEN
100
AcDbCircle
 10
0.0000000000000381
 20
0.0
 30
0.0
 40
64.28571428571429
100
AcDbArc
 50
345.0000222192546
 51
350.9999789540851
1001
DBPROPERTIES
1002
{
1000
PbHidd
1002
}
  0
LINE
  5
47D
330
1F
100
AcDbEntity
  8
HIDDEN
100
AcDbLine
 10
62.09523169001156
 20
-16.63836718516211
 30
0.0
 11
62.09523169001156
 21
-16.63836718516211
 31
0.0
1001
DBPROPERTIES
1002
{
1000
PbHidd
1002
}
  0
ARC
  5
47E
330
1F
100
AcDbEntity
  8
HIDDEN
100
AcDbCircle
 10
0.0000000000000381
 20
0.0
 30
0.0
 40
64.28571428571429
100
AcDbArc
 50
9.000021045914972
 51
14.99997778074544
1001
DBPROPERTIES
1002
{
1000
PbHidd
1002
}
  0
LINE
  5
47F
330
1F
100
AcDbEntity
  8
HIDDEN
100
AcDbLine
 10
63.49425046683033
 20
10.05650132401484
 30
0.0
 11
63.49425046683033
 21
10.05650132401484
 31
0.0
1001
DBPROPERTIES
1002
{
1000
PbHidd
1002
}
  0
LINE
  5
480
330
1F
100
AcDbEntity
  8
HIDDEN
100
AcDbLine
 10
62.09523169001157
 20
16.63836718516206
 30
0.0
 11
62.09523169001157
 21
16.63836718516206
 31
0.0
1001
DBPROPERTIES
1002
{
1000
PbHidd
1002
}
  0
LINE
  5
481
330
1F
100
AcDbEntity
  8
HIDDEN
100
AcDbLine
 10
-56.17291132994475
 20
2.943897538665615
 30
0.0
 11
-56.17291132994475
 21
2.943897538665615
 31
0.0
1001
DBPROPERTIES
1002
{
1000
PbHidd
1002
}
  0
LINE
  5
482
330
1F
100
AcDbEntity
  8
HIDDEN
100
AcDbLine
 10
-54.33332772876006
 20
-14.55857128701678
 30
0.0
 11
-54.33332772876006
 21
-14.55857128701678
 31
0.0
1001
DBPROPERTIES
1002
{
1000
PbHidd
1002
}
  0
LINE
  5
483
330
1F
100
AcDbEntity
  8
HIDDEN
100
AcDbLine
 10
-55.55746915847647
 20
-8.799438658512972
 30
0.0
 11
-55.55746915847647
 21
-8.799438658512972
 31
0.0
1001
DBPROPERTIES
1002
{
1000
PbHidd
1002
}
  0
LINE
  5
484
330
1F
100
AcDbEntity
  8
HIDDEN
100
AcDbLine
 10
-55.55746915847646
 20
8.799438658512997
 30
0.0
 11
-55.55746915847646
 21
8.799438658512997
 31
0.0
1001
DBPROPERTIES
1002
{
1000
PbHidd
1002
}
  0
LINE
  5
485
330
1F
100
AcDbEntity
  8
HIDDEN
100
AcDbLine
 10
-54.33332772876005
 20
14.5585712870168
 30
0.0
 11
-54.33332772876005
 21
14.5585712870168
 31
0.0
1001
DBPROPERTIES
1002
{
1000
PbHidd
1002
}
  0
LINE
  5
486
330
1F
100
AcDbEntity
  8
HIDDEN
100
AcDbLine
 10
-50.11911698559567
 20
-25.53696561034948
 30
0.0
 11
-50.11911698559567
 21
-25.53696561034948
 31
0.0
1001
DBPROPERTIES
1002
{
1000
PbHidd
1002
}
  0
LINE
  5
487
330
1F
100
AcDbEntity
  8
HIDDEN
100
AcDbLine
 10
-52.51389899046757
 20
-20.15819716192311
 30
0.0
 11
-52.51389899046757
 21
-20.15819716192311
 31
0.0
1001
DBPROPERTIES
1002
{
1000
PbHidd
1002
}
  0
LINE
  5
488
330
1F
100
AcDbEntity
  8
HIDDEN
100
AcDbLine
 10
-52.51389899046757
 20
20.15819716192313
 30
0.0
 11
-52.51389899046757
 21
20.15819716192313
 31
0.0
1001
DBPROPERTIES
1002
{
1000
PbHidd
1002
}
  0
LINE
  5
489
330
1F
100
AcDbEntity
  8
HIDDEN
100
AcDbLine
 10
-50.11911698559566
 20
25.5369656103495
 30
0.0
 11
-50.11911698559566
 21
25.5369656103495
 31
0.0
1001
DBPROPERTIES
1002
{
1000
PbHidd
1002
}
  0
LINE
  5
48A
330
1F
100
AcDbEntity
  8
HIDDEN
100
AcDbLine
 10
-43.71446033195461
 20
-35.39927199655332
 30
0.0
 11
-43.71446033195461
 21
-35.39927199655332
 31
0.0
1001
DBPROPERTIES
1002
{
1000
PbHidd
1002
}
  0
LINE
  5
48B
330
1F
100
AcDbEntity
  8
HIDDEN
100
AcDbLine
 10
-47.17521944693009
 20
-30.63594571959523
 30
0.0
 11
-47.17521944693009
 21
-30.63594571959523
 31
0.0
1001
DBPROPERTIES
1002
{
1000
PbHidd
1002
}
  0
LINE
  5
48C
330
1F
100
AcDbEntity
  8
HIDDEN
100
AcDbLine
 10
-47.17521944693006
 20
30.63594571959528
 30
0.0
 11
-47.17521944693006
 21
30.63594571959528
 31
0.0
1001
DBPROPERTIES
1002
{
1000
PbHidd
1002
}
  0
LINE
  5
48D
330
1F
100
AcDbEntity
  8
HIDDEN
100
AcDbLine
 10
-43.71446033195458
 20
35.39927199655337
 30
0.0
 11
-43.71446033195458
 21
35.39927199655337
 31
0.0
1001
DBPROPERTIES
1002
{
1000
PbHidd
1002
}
  0
LINE
  5
48E
330
1F
100
AcDbEntity
  8
HIDDEN
100
AcDbLine
 10
-35.39927199655335
 20
-43.71446033195459
 30
0.0
 11
-35.39927199655335
 21
-43.71446033195459
 31
0.0
1001
DBPROPERTIES
1002
{
1000
PbHidd
1002
}
  0
LINE
  5
48F
330
1F
100
AcDbEntity
  8
HIDDEN
100
AcDbLine
 10
-39.77475644174329
 20
-39.77475644174327
 30
0.0
 11
-39.77475644174329
 21
-39.77475644174327
 31
0.0
1001
DBPROPERTIES
1002
{
1000
PbHidd
1002
}
  0
LINE
  5
490
330
1F
100
AcDbEntity
  8
HIDDEN
100
AcDbLine
 10
-39.77475644174328
 20
39.77475644174329
 30
0.0
 11
-39.77475644174328
 21
39.77475644174329
 31
0.0
1001
DBPROPERTIES
1002
{
1000
PbHidd
1002
}
  0
LINE
  5
491
330
1F
100
AcDbEntity
  8
HIDDEN
100
AcDbLine
 10
-35.39927199655333
 20
43.7144603319546
 30
0.0
 11
-35.39927199655333
 21
43.7144603319546
 31
0.0
1001
DBPROPERTIES
1002
{
1000
PbHidd
1002
}
  0
LINE
  5
492
330
1F
100
AcDbEntity
  8
HIDDEN
100
AcDbLine
 10
-25.53696561034952
 20
-50.11911698559567
 30
0.0
 11
-25.53696561034952
 21
-50.11911698559567
 31
0.0
1001
DBPROPERTIES
1002
{
1000
PbHidd
1002
}
  0
LINE
  5
493
330
1F
100
AcDbEntity
  8
HIDDEN
100
AcDbLine
 10
-30.63594571959528
 20
-47.17521944693007
 30
0.0
 11
-30.63594571959527
 21
-47.17521944693007
 31
0.0
1001
DBPROPERTIES
1002
{
1000
PbHidd
1002
}
  0
LINE
  5
494
330
1F
100
AcDbEntity
  8
HIDDEN
100
AcDbLine
 10
-30.63594571959525
 20
47.17521944693009
 30
0.0
 11
-30.63594571959525
 21
47.17521944693009
 31
0.0
1001
DBPROPERTIES
1002
{
1000
PbHidd
1002
}
  0
LINE
  5
495
330
1F
100
AcDbEntity
  8
HIDDEN
100
AcDbLine
 10
-25.53696561034949
 20
50.11911698559568
 30
0.0
 11
-25.53696561034949
 21
50.11911698559568
 31
0.0
1001
DBPROPERTIES
1002
{
1000
PbHidd
1002
}
  0
LINE
  5
496
330
1F
100
AcDbEntity
  8
HIDDEN
100
AcDbLine
 10
-14.55857128701682
 20
-54.33332772876008
 30
0.0
 11
-14.55857128701683
 21
-54.33332772876008
 31
0.0
1001
DBPROPERTIES
1002
{
1000
PbHidd
1002
}
  0
LINE
  5
497
330
1F
100
AcDbEntity
  8
HIDDEN
100
AcDbLine
 10
-20.15819716192317
 20
-52.51389899046758
 30
0.0
 11
-20.15819716192317
 21
-52.51389899046758
 31
0.0
1001
DBPROPERTIES
1002
{
1000
PbHidd
1002
}
  0
LINE
  5
498
330
1F
100
AcDbEntity
  8
HIDDEN
100
AcDbLine
 10
-20.15819716192312
 20
52.5138989904676
 30
0.0
 11
-20.15819716192313
 21
52.5138989904676
 31
0.0
1001
DBPROPERTIES
1002
{
1000
PbHidd
1002
}
  0
LINE
  5
499
330
1F
100
AcDbEntity
  8
HIDDEN
100
AcDbLine
 10
-14.55857128701678
 20
54.33332772876008
 30
0.0
 11
-14.55857128701678
 21
54.33332772876008
 31
0.0
1001
DBPROPERTIES
1002
{
1000
PbHidd
1002
}
  0
LINE
  5
49A
330
1F
100
AcDbEntity
  8
HIDDEN
100
AcDbLine
 10
-2.943897538665602
 20
-56.17291132994478
 30
0.0
 11
-2.943897538665609
 21
-56.17291132994478
 31
0.0
1001
DBPROPERTIES
1002
{
1000
PbHidd
1002
}
  0
LINE
  5
49B
330
1F
100
AcDbEntity
  8
HIDDEN
100
AcDbLine
 10
-8.799438658513003
 20
-55.55746915847649
 30
0.0
 11
-8.799438658512996
 21
-55.55746915847649
 31
0.0
1001
DBPROPERTIES
1002
{
1000
PbHidd
1002
}
  0
LINE
  5
49C
330
1F
100
AcDbEntity
  8
HIDDEN
100
AcDbLine
 10
-8.79943865851297
 20
55.55746915847649
 30
0.0
 11
-8.799438658512978
 21
55.55746915847649
 31
0.0
1001
DBPROPERTIES
1002
{
1000
PbHidd
1002
}
  0
LINE
  5
49D
330
1F
100
AcDbEntity
  8
HIDDEN
100
AcDbLine
 10
-2.94389753866558
 20
56.17291132994478
 30
0.0
 11
-2.943897538665573
 21
56.17291132994478
 31
0.0
1001
DBPROPERTIES
1002
{
1000
PbHidd
1002
}
  0
LINE
  5
49E
330
1F
100
AcDbEntity
  8
HIDDEN
100
AcDbLine
 10
8.799438658512944
 20
-55.55746915847651
 30
0.0
 11
8.799438658512937
 21
-55.55746915847651
 31
0.0
1001
DBPROPERTIES
1002
{
1000
PbHidd
1002
}
  0
LINE
  5
49F
330
1F
100
AcDbEntity
  8
HIDDEN
100
AcDbLine
 10
2.943897538665542
 20
-56.17291132994479
 30
0.0
 11
2.943897538665549
 21
-56.17291132994479
 31
0.0
1001
DBPROPERTIES
1002
{
1000
PbHidd
1002
}
  0
LINE
  5
4A0
330
1F
100
AcDbEntity
  8
HIDDEN
100
AcDbLine
 10
2.943897538665603
 20
56.17291132994478
 30
0.0
 11
2.943897538665596
 21
56.17291132994478
 31
0.0
1001
DBPROPERTIES
1002
{
1000
PbHidd
1002
}
  0
LINE
  5
4A1
330
1F
100
AcDbEntity
  8
HIDDEN
100
AcDbLine
 10
8.799438658512992
 20
55.55746915847651
 30
0.0
 11
8.799438658513
 21
55.55746915847651
 31
0.0
1001
DBPROPERTIES
1002
{
1000
PbHidd
1002
}
  0
LINE
  5
4A2
330
1F
100
AcDbEntity
  8
HIDDEN
100
AcDbLine
 10
20.15819716192312
 20
-52.51389899046762
 30
0.0
 11
20.15819716192312
 21
-52.51389899046762
 31
0.0
1001
DBPROPERTIES
1002
{
1000
PbHidd
1002
}
  0
LINE
  5
4A3
330
1F
100
AcDbEntity
  8
HIDDEN
100
AcDbLine
 10
14.55857128701676
 20
-54.33332772876011
 30
0.0
 11
14.55857128701677
 21
-54.33332772876011
 31
0.0
1001
DBPROPERTIES
1002
{
1000
PbHidd
1002
}
  0
LINE
  5
4A4
330
1F
100
AcDbEntity
  8
HIDDEN
100
AcDbLine
 10
14.5585712870168
 20
54.3333277287601
 30
0.0
 11
14.5585712870168
 21
54.3333277287601
 31
0.0
1001
DBPROPERTIES
1002
{
1000
PbHidd
1002
}
  0
LINE
  5
4A5
330
1F
100
AcDbEntity
  8
HIDDEN
100
AcDbLine
 10
20.15819716192315
 20
52.51389899046761
 30
0.0
 11
20.15819716192316
 21
52.51389899046761
 31
0.0
1001
DBPROPERTIES
1002
{
1000
PbHidd
1002
}
  0
LINE
  5
4A6
330
1F
100
AcDbEntity
  8
HIDDEN
100
AcDbLine
 10
30.63594571959528
 20
-47.17521944693013
 30
0.0
 11
30.63594571959527
 21
-47.17521944693013
 31
0.0
1001
DBPROPERTIES
1002
{
1000
PbHidd
1002
}
  0
LINE
  5
4A7
330
1F
100
AcDbEntity
  8
HIDDEN
100
AcDbLine
 10
25.5369656103495
 20
-50.11911698559572
 30
0.0
 11
25.53696561034951
 21
-50.11911698559572
 31
0.0
1001
DBPROPERTIES
1002
{
1000
PbHidd
1002
}
  0
LINE
  5
4A8
330
1F
100
AcDbEntity
  8
HIDDEN
100
AcDbLine
 10
25.53696561034953
 20
50.1191169855957
 30
0.0
 11
25.53696561034953
 21
50.1191169855957
 31
0.0
1001
DBPROPERTIES
1002
{
1000
PbHidd
1002
}
  0
LINE
  5
4A9
330
1F
100
AcDbEntity
  8
HIDDEN
100
AcDbLine
 10
30.63594571959529
 20
47.17521944693011
 30
0.0
 11
30.6359457195953
 21
47.17521944693011
 31
0.0
1001
DBPROPERTIES
1002
{
1000
PbHidd
1002
}
  0
LINE
  5
4AA
330
1F
100
AcDbEntity
  8
HIDDEN
100
AcDbLine
 10
39.77475644174329
 20
-39.77475644174335
 30
0.0
 11
39.77475644174329
 21
-39.77475644174335
 31
0.0
1001
DBPROPERTIES
1002
{
1000
PbHidd
1002
}
  0
LINE
  5
4AB
330
1F
100
AcDbEntity
  8
HIDDEN
100
AcDbLine
 10
35.39927199655334
 20
-43.71446033195466
 30
0.0
 11
35.39927199655334
 21
-43.71446033195466
 31
0.0
1001
DBPROPERTIES
1002
{
1000
PbHidd
1002
}
  0
LINE
  5
4AC
330
1F
100
AcDbEntity
  8
HIDDEN
100
AcDbLine
 10
35.39927199655337
 20
43.71446033195463
 30
0.0
 11
35.39927199655337
 21
43.71446033195463
 31
0.0
1001
DBPROPERTIES
1002
{
1000
PbHidd
1002
}
  0
LINE
  5
4AD
330
1F
100
AcDbEntity
  8
HIDDEN
100
AcDbLine
 10
39.77475644174332
 20
39.77475644174331
 30
0.0
 11
39.77475644174332
 21
39.77475644174331
 31
0.0
1001
DBPROPERTIES
1002
{
1000
PbHidd
1002
}
  0
LINE
  5
4AE
330
1F
100
AcDbEntity
  8
HIDDEN
100
AcDbLine
 10
47.17521944693011
 20
-30.63594571959532
 30
0.0
 11
47.17521944693011
 21
-30.63594571959532
 31
0.0
1001
DBPROPERTIES
1002
{
1000
PbHidd
1002
}
  0
LINE
  5
4AF
330
1F
100
AcDbEntity
  8
HIDDEN
100
AcDbLine
 10
43.71446033195462
 20
-35.39927199655341
 30
0.0
 11
43.71446033195462
 21
-35.39927199655341
 31
0.0
1001
DBPROPERTIES
1002
{
1000
PbHidd
1002
}
  0
LINE
  5
4B0
330
1F
100
AcDbEntity
  8
HIDDEN
100
AcDbLine
 10
43.71446033195463
 20
35.39927199655337
 30
0.0
 11
43.71446033195463
 21
35.39927199655337
 31
0.0
1001
DBPROPERTIES
1002
{
1000
PbHidd
1002
}
  0
LINE
  5
4B1
330
1F
100
AcDbEntity
  8
HIDDEN
100
AcDbLine
 10
47.17521944693013
 20
30.63594571959529
 30
0.0
 11
47.17521944693013
 21
30.63594571959529
 31
0.0
1001
DBPROPERTIES
1002
{
1000
PbHidd
1002
}
  0
LINE
  5
4B2
330
1F
100
AcDbEntity
  8
HIDDEN
100
AcDbLine
 10
52.51389899046762
 20
-20.15819716192317
 30
0.0
 11
52.51389899046762
 21
-20.15819716192317
 31
0.0
1001
DBPROPERTIES
1002
{
1000
PbHidd
1002
}
  0
LINE
  5
4B3
330
1F
100
AcDbEntity
  8
HIDDEN
100
AcDbLine
 10
50.11911698559572
 20
-25.53696561034954
 30
0.0
 11
50.11911698559572
 21
-25.53696561034954
 31
0.0
1001
DBPROPERTIES
1002
{
1000
PbHidd
1002
}
  0
LINE
  5
4B4
330
1F
100
AcDbEntity
  8
HIDDEN
100
AcDbLine
 10
50.11911698559572
 20
25.53696561034952
 30
0.0
 11
50.11911698559572
 21
25.53696561034952
 31
0.0
1001
DBPROPERTIES
1002
{
1000
PbHidd
1002
}
  0
LINE
  5
4B5
330
1F
100
AcDbEntity
  8
HIDDEN
100
AcDbLine
 10
52.51389899046764
 20
20.15819716192315
 30
0.0
 11
52.51389899046764
 21
20.15819716192315
 31
0.0
1001
DBPROPERTIES
1002
{
1000
PbHidd
1002
}
  0
LINE
  5
4B6
330
1F
100
AcDbEntity
  8
HIDDEN
100
AcDbLine
 10
55.55746915847652
 20
-8.79943865851304
 30
0.0
 11
55.55746915847652
 21
-8.79943865851304
 31
0.0
1001
DBPROPERTIES
1002
{
1000
PbHidd
1002
}
  0
LINE
  5
4B7
330
1F
100
AcDbEntity
  8
HIDDEN
100
AcDbLine
 10
54.33332772876012
 20
-14.55857128701685
 30
0.0
 11
54.33332772876012
 21
-14.55857128701685
 31
0.0
1001
DBPROPERTIES
1002
{
1000
PbHidd
1002
}
  0
ARC
  5
4B8
330
1F
100
AcDbEntity
  8
HIDDEN
100
AcDbCircle
 10
0.0000000000000381
 20
0.0
 30
0.0
 40
90.0
100
AcDbArc
 50
0.0
 51
9.000021045914972
1001
DBPROPERTIES
1002
{
1000
PbHidd
1002
}
  0
LINE
  5
4B9
330
1F
100
AcDbEntity
  8
HIDDEN
100
AcDbLine
 10
63.49425046683031
 20
10.05650132401484
 30
0.0
 11
88.89195065356235
 21
14.07910185362077
 31
0.0
1001
DBPROPERTIES
1002
{
1000
PbHidd
1002
}
  0
LINE
  5
4BA
330
1F
100
AcDbEntity
  8
HIDDEN
100
AcDbLine
 10
86.93332436601615
 20
23.29371405922686
 30
0.0
 11
62.09523169001156
 21
16.63836718516205
 31
0.0
1001
DBPROPERTIES
1002
{
1000
PbHidd
1002
}
  0
ARC
  5
4BB
330
1F
100
AcDbEntity
  8
HIDDEN
100
AcDbCircle
 10
0.0000000000000381
 20
0.0
 30
0.0
 40
90.0
100
AcDbArc
 50
14.99997778074544
 51
20.99999181135542
1001
DBPROPERTIES
1002
{
1000
PbHidd
1002
}
  0
LINE
  5
4BC
330
1F
100
AcDbEntity
  8
HIDDEN
100
AcDbLine
 10
60.0158845605344
 20
23.03793961362644
 30
0.0
 11
84.02223838474814
 21
32.25311545907701
 31
0.0
1001
DBPROPERTIES
1002
{
1000
PbHidd
1002
}
  0
LINE
  5
4BD
330
1F
100
AcDbEntity
  8
HIDDEN
100
AcDbLine
 10
80.19058717695313
 20
40.85914497655921
 30
0.0
 11
57.27899084068083
 21
29.18510355468516
 31
0.0
1001
DBPROPERTIES
1002
{
1000
PbHidd
1002
}
  0
ARC
  5
4BE
330
1F
100
AcDbEntity
  8
HIDDEN
100
AcDbCircle
 10
0.0000000000000381
 20
0.0
 30
0.0
 40
90.0
100
AcDbArc
 50
27.0000058419654
 51
33.00001987257539
1001
DBPROPERTIES
1002
{
1000
PbHidd
1002
}
  0
LINE
  5
4BF
330
1F
100
AcDbEntity
  8
HIDDEN
100
AcDbLine
 10
53.91453651077726
 20
35.01250939382317
 30
0.0
 11
75.48035111508814
 21
49.01751315135242
 31
0.0
1001
DBPROPERTIES
1002
{
1000
PbHidd
1002
}
  0
LINE
  5
4C0
330
1F
100
AcDbEntity
  8
HIDDEN
100
AcDbLine
 10
69.94313653112735
 20
56.63883519448535
 30
0.0
 11
49.95938323651955
 21
40.45631085320383
 31
0.0
1001
DBPROPERTIES
1002
{
1000
PbHidd
1002
}
  0
ARC
  5
4C1
330
1F
100
AcDbEntity
  8
HIDDEN
100
AcDbCircle
 10
0.0000000000000381
 20
0.0
 30
0.0
 40
90.0
100
AcDbArc
 50
38.99997660740585
 51
44.99999063801582
1001
DBPROPERTIES
1002
{
1000
PbHidd
1002
}
  0
LINE
  5
4C2
330
1F
100
AcDbEntity
  8
HIDDEN
100
AcDbLine
 10
45.45686450484951
 20
45.45686450484949
 30
0.0
 11
63.63961030678927
 21
63.63961030678925
 31
0.0
1001
DBPROPERTIES
1002
{
1000
PbHidd
1002
}
  0
LINE
  5
4C3
330
1F
100
AcDbEntity
  8
HIDDEN
100
AcDbLine
 10
56.63883519448535
 20
69.94313653112737
 30
0.0
 11
40.45631085320385
 21
49.95938323651957
 31
0.0
1001
DBPROPERTIES
1002
{
1000
PbHidd
1002
}
  0
ARC
  5
4C4
330
1F
100
AcDbEntity
  8
HIDDEN
100
AcDbCircle
 10
0.0000000000000381
 20
0.0
 30
0.0
 40
90.0
100
AcDbArc
 50
51.00000466862581
 51
57.0000186992358
1001
DBPROPERTIES
1002
{
1000
PbHidd
1002
}
  0
LINE
  5
4C5
330
1F
100
AcDbEntity
  8
HIDDEN
100
AcDbLine
 10
35.01250939382318
 20
53.91453651077725
 30
0.0
 11
49.01751315135242
 21
75.4803511150881
 31
0.0
1001
DBPROPERTIES
1002
{
1000
PbHidd
1002
}
  0
LINE
  5
4C6
330
1F
100
AcDbEntity
  8
HIDDEN
100
AcDbLine
 10
40.8591449765592
 20
80.19058717695304
 30
0.0
 11
29.18510355468516
 21
57.27899084068078
 31
0.0
1001
DBPROPERTIES
1002
{
1000
PbHidd
1002
}
  0
ARC
  5
4C7
330
1F
100
AcDbEntity
  8
HIDDEN
100
AcDbCircle
 10
0.0000000000000381
 20
0.0
 30
0.0
 40
90.0
100
AcDbArc
 50
62.99997543406626
 51
68.99998946467625
1001
DBPROPERTIES
1002
{
1000
PbHidd
1002
}
  0
LINE
  5
4C8
330
1F
100
AcDbEntity
  8
HIDDEN
100
AcDbLine
 10
23.03793961362645
 20
60.01588456053438
 30
0.0
 11
32.25311545907702
 21
84.02223838474809
 31
0.0
1001
DBPROPERTIES
1002
{
1000
PbHidd
1002
}
  0
LINE
  5
4C9
330
1F
100
AcDbEntity
  8
HIDDEN
100
AcDbLine
 10
23.29371405922687
 20
86.93332436601612
 30
0.0
 11
16.63836718516205
 21
62.09523169001153
 31
0.0
1001
DBPROPERTIES
1002
{
1000
PbHidd
1002
}
  0
ARC
  5
4CA
330
1F
100
AcDbEntity
  8
HIDDEN
100
AcDbCircle
 10
0.0000000000000381
 20
0.0
 30
0.0
 40
90.0
100
AcDbArc
 50
75.00000349528622
 51
81.0000175258962
1001
DBPROPERTIES
1002
{
1000
PbHidd
1002
}
  0
LINE
  5
4CB
330
1F
100
AcDbEntity
  8
HIDDEN
100
AcDbLine
 10
10.05650132401485
 20
63.49425046683026
 30
0.0
 11
14.07910185362078
 21
88.89195065356233
 31
0.0
1001
DBPROPERTIES
1002
{
1000
PbHidd
1002
}
  0
LINE
  5
4CC
330
1F
100
AcDbEntity
  8
HIDDEN
100
AcDbLine
 10
4.710236061864955
 20
89.8766581279116
 30
0.0
 11
3.364454329903541
 21
64.1976129485083
 31
0.0
1001
DBPROPERTIES
1002
{
1000
PbHidd
1002
}
  0
ARC
  5
4CD
330
1F
100
AcDbEntity
  8
HIDDEN
100
AcDbCircle
 10
0.0000000000000381
 20
0.0
 30
0.0
 40
90.0
100
AcDbArc
 50
86.99997426072667
 51
92.99998829133665
1001
DBPROPERTIES
1002
{
1000
PbHidd
1002
}
  0
LINE
  5
4CE
330
1F
100
AcDbEntity
  8
HIDDEN
100
AcDbLine
 10
-3.364454329903514
 20
64.19761294850828
 30
0.0
 11
-4.710236061864919
 21
89.87665812791158
 31
0.0
1001
DBPROPERTIES
1002
{
1000
PbHidd
1002
}
  0
LINE
  5
4CF
330
1F
100
AcDbEntity
  8
HIDDEN
100
AcDbLine
 10
-14.07910185362075
 20
88.89195065356236
 30
0.0
 11
-10.05650132401482
 21
63.49425046683027
 31
0.0
1001
DBPROPERTIES
1002
{
1000
PbHidd
1002
}
  0
ARC
  5
4D0
330
1F
100
AcDbEntity
  8
HIDDEN
100
AcDbCircle
 10
0.0000000000000381
 20
0.0
 30
0.0
 40
90.0
100
AcDbArc
 50
99.00000232194662
 51
105.0000163525566
1001
DBPROPERTIES
1002
{
1000
PbHidd
1002
}
  0
LINE
  5
4D1
330
1F
100
AcDbEntity
  8
HIDDEN
100
AcDbLine
 10
-16.63836718516202
 20
62.09523169001149
 30
0.0
 11
-23.29371405922683
 21
86.93332436601605
 31
0.0
1001
DBPROPERTIES
1002
{
1000
PbHidd
1002
}
  0
LINE
  5
4D2
330
1F
100
AcDbEntity
  8
HIDDEN
100
AcDbLine
 10
-32.25311545907698
 20
84.02223838474808
 30
0.0
 11
-23.03793961362642
 21
60.01588456053436
 31
0.0
1001
DBPROPERTIES
1002
{
1000
PbHidd
1002
}
  0
ARC
  5
4D3
330
1F
100
AcDbEntity
  8
HIDDEN
100
AcDbCircle
 10
0.0000000000000381
 20
0.0
 30
0.0
 40
90.0
100
AcDbArc
 50
110.9999730873871
 51
116.9999871179971
1001
DBPROPERTIES
1002
{
1000
PbHidd
1002
}
  0
LINE
  5
4D4
330
1F
100
AcDbEntity
  8
HIDDEN
100
AcDbLine
 10
-29.18510355468512
 20
57.27899084068076
 30
0.0
 11
-40.85914497655916
 21
80.19058717695304
 31
0.0
1001
DBPROPERTIES
1002
{
1000
PbHidd
1002
}
  0
LINE
  5
4D5
330
1F
100
AcDbEntity
  8
HIDDEN
100
AcDbLine
 10
-49.01751315135241
 20
75.48035111508815
 30
0.0
 11
-35.01250939382315
 21
53.91453651077725
 31
0.0
1001
DBPROPERTIES
1002
{
1000
PbHidd
1002
}
  0
ARC
  5
4D6
330
1F
100
AcDbEntity
  8
HIDDEN
100
AcDbCircle
 10
0.0000000000000381
 20
0.0
 30
0.0
 40
90.0
100
AcDbArc
 50
123.000001148607
 51
129.000015179217
1001
DBPROPERTIES
1002
{
1000
PbHidd
1002
}
  0
LINE
  5
4D7
330
1F
100
AcDbEntity
  8
HIDDEN
100
AcDbLine
 10
-40.4563108532038
 20
49.95938323651953
 30
0.0
 11
-56.6388351944853
 21
69.94313653112732
 31
0.0
1001
DBPROPERTIES
1002
{
1000
PbHidd
1002
}
  0
LINE
  5
4D8
330
1F
100
AcDbEntity
  8
HIDDEN
100
AcDbLine
 10
-63.63961030678919
 20
63.63961030678923
 30
0.0
 11
-45.45686450484943
 21
45.45686450484946
 31
0.0
1001
DBPROPERTIES
1002
{
1000
PbHidd
1002
}
  0
ARC
  5
4D9
330
1F
100
AcDbEntity
  8
HIDDEN
100
AcDbCircle
 10
0.0000000000000381
 20
0.0
 30
0.0
 40
90.0
100
AcDbArc
 50
134.9999719140475
 51
140.9999859446575
1001
DBPROPERTIES
1002
{
1000
PbHidd
1002
}
  0
LINE
  5
4DA
330
1F
100
AcDbEntity
  8
HIDDEN
100
AcDbLine
 10
-49.95938323651949
 20
40.45631085320383
 30
0.0
 11
-69.94313653112727
 21
56.63883519448535
 31
0.0
1001
DBPROPERTIES
1002
{
1000
PbHidd
1002
}
  0
LINE
  5
4DB
330
1F
100
AcDbEntity
  8
HIDDEN
100
AcDbLine
 10
-75.48035111508807
 20
49.01751315135243
 30
0.0
 11
-53.91453651077719
 21
35.01250939382317
 31
0.0
1001
DBPROPERTIES
1002
{
1000
PbHidd
1002
}
  0
ARC
  5
4DC
330
1F
100
AcDbEntity
  8
HIDDEN
100
AcDbCircle
 10
0.0000000000000381
 20
0.0
 30
0.0
 40
90.0
100
AcDbArc
 50
146.9999999752674
 51
153.0000140058774
1001
DBPROPERTIES
1002
{
1000
PbHidd
1002
}
  0
LINE
  5
4DD
330
1F
100
AcDbEntity
  8
HIDDEN
100
AcDbLine
 10
-57.27899084068073
 20
29.18510355468513
 30
0.0
 11
-80.190587176953
 21
40.85914497655918
 31
0.0
1001
DBPROPERTIES
1002
{
1000
PbHidd
1002
}
  0
LINE
  5
4DE
330
1F
100
AcDbEntity
  8
HIDDEN
100
AcDbLine
 10
-84.02223838474806
 20
32.25311545907701
 30
0.0
 11
-60.01588456053435
 21
23.03793961362643
 31
0.0
1001
DBPROPERTIES
1002
{
1000
PbHidd
1002
}
  0
ARC
  5
4DF
330
1F
100
AcDbEntity
  8
HIDDEN
100
AcDbCircle
 10
0.0000000000000381
 20
0.0
 30
0.0
 40
90.0
100
AcDbArc
 50
159.0000280364874
 51
164.9999847713179
1001
DBPROPERTIES
1002
{
1000
PbHidd
1002
}
  0
LINE
  5
4E0
330
1F
100
AcDbEntity
  8
HIDDEN
100
AcDbLine
 10
-62.09523169001146
 20
16.63836718516205
 30
0.0
 11
-86.93332436601604
 21
23.29371405922686
 31
0.0
1001
DBPROPERTIES
1002
{
1000
PbHidd
1002
}
  0
LINE
  5
4E1
330
1F
100
AcDbEntity
  8
HIDDEN
100
AcDbLine
 10
-88.8919506535623
 20
14.07910185362079
 30
0.0
 11
-63.49425046683023
 21
10.05650132401485
 31
0.0
1001
DBPROPERTIES
1002
{
1000
PbHidd
1002
}
  0
ARC
  5
4E2
330
1F
100
AcDbEntity
  8
HIDDEN
100
AcDbCircle
 10
0.0000000000000381
 20
0.0
 30
0.0
 40
90.0
100
AcDbArc
 50
170.9999988019279
 51
177.0000128325378
1001
DBPROPERTIES
1002
{
1000
PbHidd
1002
}
  0
LINE
  5
4E3
330
1F
100
AcDbEntity
  8
HIDDEN
100
AcDbLine
 10
-64.19761294850827
 20
3.364454329903559
 30
0.0
 11
-89.87665812791155
 21
4.710236061864983
 31
0.0
1001
DBPROPERTIES
1002
{
1000
PbHidd
1002
}
  0
LINE
  5
4E4
330
1F
100
AcDbEntity
  8
HIDDEN
100
AcDbLine
 10
-89.87665812791155
 20
-4.710236061864897
 30
0.0
 11
-64.19761294850827
 21
-3.364454329903499
 31
0.0
1001
DBPROPERTIES
1002
{
1000
PbHidd
1002
}
  0
ARC
  5
4E5
330
1F
100
AcDbEntity
  8
HIDDEN
100
AcDbCircle
 10
0.0000000000000381
 20
0.0
 30
0.0
 40
90.0
100
AcDbArc
 50
182.9999871674622
 51
189.0000011980722
1001
DBPROPERTIES
1002
{
1000
PbHidd
1002
}
  0
LINE
  5
4E6
330
1F
100
AcDbEntity
  8
HIDDEN
100
AcDbLine
 10
-63.49425046683022
 20
-10.05650132401482
 30
0.0
 11
-88.89195065356228
 21
-14.07910185362075
 31
0.0
1001
DBPROPERTIES
1002
{
1000
PbHidd
1002
}
  0
LINE
  5
4E7
330
1F
100
AcDbEntity
  8
HIDDEN
100
AcDbLine
 10
-86.93332436601608
 20
-23.29371405922683
 30
0.0
 11
-62.09523169001149
 21
-16.63836718516202
 31
0.0
1001
DBPROPERTIES
1002
{
1000
PbHidd
1002
}
  0
ARC
  5
4E8
330
1F
100
AcDbEntity
  8
HIDDEN
100
AcDbCircle
 10
0.0000000000000381
 20
0.0
 30
0.0
 40
90.0
100
AcDbArc
 50
195.0000152286821
 51
200.9999719635126
1001
DBPROPERTIES
1002
{
1000
PbHidd
1002
}
  0
LINE
  5
4E9
330
1F
100
AcDbEntity
  8
HIDDEN
100
AcDbLine
 10
-60.01588456053435
 20
-23.03793961362641
 30
0.0
 11
-84.02223838474806
 21
-32.25311545907697
 31
0.0
1001
DBPROPERTIES
1002
{
1000
PbHidd
1002
}
  0
LINE
  5
4EA
330
1F
100
AcDbEntity
  8
HIDDEN
100
AcDbLine
 10
-80.19058717695307
 20
-40.85914497655916
 30
0.0
 11
-57.27899084068076
 21
-29.18510355468511
 31
0.0
1001
DBPROPERTIES
1002
{
1000
PbHidd
1002
}
  0
ARC
  5
4EB
330
1F
100
AcDbEntity
  8
HIDDEN
100
AcDbCircle
 10
0.0000000000000381
 20
0.0
 30
0.0
 40
90.0
100
AcDbArc
 50
206.9999859941226
 51
213.0000000247326
1001
DBPROPERTIES
1002
{
1000
PbHidd
1002
}
  0
LINE
  5
4EC
330
1F
100
AcDbEntity
  8
HIDDEN
100
AcDbLine
 10
-53.91453651077722
 20
-35.01250939382311
 30
0.0
 11
-75.48035111508813
 21
-49.01751315135236
 31
0.0
1001
DBPROPERTIES
1002
{
1000
PbHidd
1002
}
  0
LINE
  5
4ED
330
1F
100
AcDbEntity
  8
HIDDEN
100
AcDbLine
 10
-69.94313653112732
 20
-56.63883519448527
 30
0.0
 11
-49.95938323651953
 21
-40.45631085320377
 31
0.0
1001
DBPROPERTIES
1002
{
1000
PbHidd
1002
}
  0
ARC
  5
4EE
330
1F
100
AcDbEntity
  8
HIDDEN
100
AcDbCircle
 10
0.0000000000000381
 20
0.0
 30
0.0
 40
90.0
100
AcDbArc
 50
219.0000140553425
 51
225.0000280859525
1001
DBPROPERTIES
1002
{
1000
PbHidd
1002
}
  0
LINE
  5
4EF
330
1F
100
AcDbEntity
  8
HIDDEN
100
AcDbLine
 10
-45.45686450484946
 20
-45.45686450484943
 30
0.0
 11
-63.63961030678924
 21
-63.6396103067892
 31
0.0
1001
DBPROPERTIES
1002
{
1000
PbHidd
1002
}
  0
LINE
  5
4F0
330
1F
100
AcDbEntity
  8
HIDDEN
100
AcDbLine
 10
-56.63883519448534
 20
-69.9431365311273
 30
0.0
 11
-40.45631085320382
 21
-49.95938323651951
 31
0.0
1001
DBPROPERTIES
1002
{
1000
PbHidd
1002
}
  0
ARC
  5
4F1
330
1F
100
AcDbEntity
  8
HIDDEN
100
AcDbCircle
 10
0.0000000000000381
 20
0.0
 30
0.0
 40
90.0
100
AcDbArc
 50
230.999984820783
 51
236.999998851393
1001
DBPROPERTIES
1002
{
1000
PbHidd
1002
}
  0
LINE
  5
4F2
330
1F
100
AcDbEntity
  8
HIDDEN
100
AcDbLine
 10
-35.01250939382317
 20
-53.91453651077722
 30
0.0
 11
-49.01751315135243
 21
-75.4803511150881
 31
0.0
1001
DBPROPERTIES
1002
{
1000
PbHidd
1002
}
  0
LINE
  5
4F3
330
1F
100
AcDbEntity
  8
HIDDEN
100
AcDbLine
 10
-40.85914497655921
 20
-80.19058717695303
 30
0.0
 11
-29.18510355468516
 21
-57.27899084068073
 31
0.0
1001
DBPROPERTIES
1002
{
1000
PbHidd
1002
}
  0
ARC
  5
4F4
330
1F
100
AcDbEntity
  8
HIDDEN
100
AcDbCircle
 10
0.0000000000000381
 20
0.0
 30
0.0
 40
90.0
100
AcDbArc
 50
243.0000128820029
 51
249.0000269126129
1001
DBPROPERTIES
1002
{
1000
PbHidd
1002
}
  0
LINE
  5
4F5
330
1F
100
AcDbEntity
  8
HIDDEN
100
AcDbLine
 10
-23.03793961362647
 20
-60.01588456053435
 30
0.0
 11
-32.25311545907705
 21
-84.02223838474808
 31
0.0
1001
DBPROPERTIES
1002
{
1000
PbHidd
1002
}
  0
LINE
  5
4F6
330
1F
100
AcDbEntity
  8
HIDDEN
100
AcDbLine
 10
-23.29371405922691
 20
-86.9333243660161
 30
0.0
 11
-16.63836718516208
 21
-62.0952316900115
 31
0.0
1001
DBPROPERTIES
1002
{
1000
PbHidd
1002
}
  0
ARC
  5
4F7
330
1F
100
AcDbEntity
  8
HIDDEN
100
AcDbCircle
 10
0.0000000000000381
 20
0.0
 30
0.0
 40
90.0
100
AcDbArc
 50
254.9999836474434
 51
260.9999976780534
1001
DBPROPERTIES
1002
{
1000
PbHidd
1002
}
  0
LINE
  5
4F8
330
1F
100
AcDbEntity
  8
HIDDEN
100
AcDbLine
 10
-10.05650132401485
 20
-63.49425046683025
 30
0.0
 11
-14.07910185362079
 21
-88.89195065356232
 31
0.0
1001
DBPROPERTIES
1002
{
1000
PbHidd
1002
}
  0
LINE
  5
4F9
330
1F
100
AcDbEntity
  8
HIDDEN
100
AcDbLine
 10
-4.710236061864965
 20
-89.87665812791158
 30
0.0
 11
-3.364454329903547
 21
-64.1976129485083
 31
0.0
1001
DBPROPERTIES
1002
{
1000
PbHidd
1002
}
  0
ARC
  5
4FA
330
1F
100
AcDbEntity
  8
HIDDEN
100
AcDbCircle
 10
0.0000000000000381
 20
0.0
 30
0.0
 40
90.0
100
AcDbArc
 50
267.0000117086634
 51
273.0000257392733
1001
DBPROPERTIES
1002
{
1000
PbHidd
1002
}
  0
LINE
  5
4FB
330
1F
100
AcDbEntity
  8
HIDDEN
100
AcDbLine
 10
3.364454329903479
 20
-64.1976129485083
 30
0.0
 11
4.71023606186487
 21
-89.87665812791158
 31
0.0
1001
DBPROPERTIES
1002
{
1000
PbHidd
1002
}
  0
LINE
  5
4FC
330
1F
100
AcDbEntity
  8
HIDDEN
100
AcDbLine
 10
14.0791018536207
 20
-88.89195065356239
 30
0.0
 11
10.05650132401479
 21
-63.49425046683029
 31
0.0
1001
DBPROPERTIES
1002
{
1000
PbHidd
1002
}
  0
ARC
  5
4FD
330
1F
100
AcDbEntity
  8
HIDDEN
100
AcDbCircle
 10
0.0000000000000381
 20
0.0
 30
0.0
 40
90.0
100
AcDbArc
 50
278.9999824741038
 51
284.9999965047138
1001
DBPROPERTIES
1002
{
1000
PbHidd
1002
}
  0
LINE
  5
4FE
330
1F
100
AcDbEntity
  8
HIDDEN
100
AcDbLine
 10
16.63836718516201
 20
-62.09523169001152
 30
0.0
 11
23.2937140592268
 21
-86.9333243660161
 31
0.0
1001
DBPROPERTIES
1002
{
1000
PbHidd
1002
}
  0
LINE
  5
4FF
330
1F
100
AcDbEntity
  8
HIDDEN
100
AcDbLine
 10
32.25311545907697
 20
-84.02223838474814
 30
0.0
 11
23.03793961362641
 21
-60.0158845605344
 31
0.0
1001
DBPROPERTIES
1002
{
1000
PbHidd
1002
}
  0
ARC
  5
500
330
1F
100
AcDbEntity
  8
HIDDEN
100
AcDbCircle
 10
0.0000000000000381
 20
0.0
 30
0.0
 40
90.0
100
AcDbArc
 50
291.0000105353237
 51
297.0000245659338
1001
DBPROPERTIES
1002
{
1000
PbHidd
1002
}
  0
LINE
  5
501
330
1F
100
AcDbEntity
  8
HIDDEN
100
AcDbLine
 10
29.18510355468513
 20
-57.27899084068079
 30
0.0
 11
40.85914497655916
 21
-80.19058717695307
 31
0.0
1001
DBPROPERTIES
1002
{
1000
PbHidd
1002
}
  0
LINE
  5
502
330
1F
100
AcDbEntity
  8
HIDDEN
100
AcDbLine
 10
49.0175131513524
 20
-75.48035111508815
 30
0.0
 11
35.01250939382315
 21
-53.91453651077727
 31
0.0
1001
DBPROPERTIES
1002
{
1000
PbHidd
1002
}
  0
ARC
  5
503
330
1F
100
AcDbEntity
  8
HIDDEN
100
AcDbCircle
 10
0.0000000000000381
 20
0.0
 30
0.0
 40
90.0
100
AcDbArc
 50
302.9999813007643
 51
308.9999953313742
1001
DBPROPERTIES
1002
{
1000
PbHidd
1002
}
  0
LINE
  5
504
330
1F
100
AcDbEntity
  8
HIDDEN
100
AcDbLine
 10
40.4563108532038
 20
-49.9593832365196
 30
0.0
 11
56.6388351944853
 21
-69.94313653112741
 31
0.0
1001
DBPROPERTIES
1002
{
1000
PbHidd
1002
}
  0
LINE
  5
505
330
1F
100
AcDbEntity
  8
HIDDEN
100
AcDbLine
 10
63.63961030678921
 20
-63.63961030678931
 30
0.0
 11
45.45686450484945
 21
-45.45686450484952
 31
0.0
1001
DBPROPERTIES
1002
{
1000
PbHidd
1002
}
  0
ARC
  5
506
330
1F
100
AcDbEntity
  8
HIDDEN
100
AcDbCircle
 10
0.0000000000000381
 20
0.0
 30
0.0
 40
90.0
100
AcDbArc
 50
315.0000093619842
 51
321.0000233925941
1001
DBPROPERTIES
1002
{
1000
PbHidd
1002
}
  0
LINE
  5
507
330
1F
100
AcDbEntity
  8
HIDDEN
100
AcDbLine
 10
49.95938323651953
 20
-40.45631085320386
 30
0.0
 11
69.9431365311273
 21
-56.63883519448538
 31
0.0
1001
DBPROPERTIES
1002
{
1000
PbHidd
1002
}
  0
LINE
  5
508
330
1F
100
AcDbEntity
  8
HIDDEN
100
AcDbLine
 10
75.4803511150881
 20
-49.01751315135246
 30
0.0
 11
53.91453651077725
 21
-35.0125093938232
 31
0.0
1001
DBPROPERTIES
1002
{
1000
PbHidd
1002
}
  0
ARC
  5
509
330
1F
100
AcDbEntity
  8
HIDDEN
100
AcDbCircle
 10
0.0000000000000381
 20
0.0
 30
0.0
 40
90.0
100
AcDbArc
 50
326.9999801274246
 51
332.9999941580346
1001
DBPROPERTIES
1002
{
1000
PbHidd
1002
}
  0
LINE
  5
50A
330
1F
100
AcDbEntity
  8
HIDDEN
100
AcDbLine
 10
57.27899084068079
 20
-29.18510355468517
 30
0.0
 11
80.19058717695309
 21
-40.85914497655924
 31
0.0
1001
DBPROPERTIES
1002
{
1000
PbHidd
1002
}
  0
LINE
  5
50B
330
1F
100
AcDbEntity
  8
HIDDEN
100
AcDbLine
 10
84.02223838474814
 20
-32.25311545907705
 30
0.0
 11
60.0158845605344
 21
-23.03793961362647
 31
0.0
1001
DBPROPERTIES
1002
{
1000
PbHidd
1002
}
  0
ARC
  5
50C
330
1F
100
AcDbEntity
  8
HIDDEN
100
AcDbCircle
 10
0.0000000000000381
 20
0.0
 30
0.0
 40
90.0
100
AcDbArc
 50
339.0000081886445
 51
345.0000222192546
1001
DBPROPERTIES
1002
{
1000
PbHidd
1002
}
  0
LINE
  5
50D
330
1F
100
AcDbEntity
  8
HIDDEN
100
AcDbLine
 10
62.09523169001152
 20
-16.6383671851621
 30
0.0
 11
86.93332436601608
 21
-23.29371405922693
 31
0.0
1001
DBPROPERTIES
1002
{
1000
PbHidd
1002
}
  0
LINE
  5
50E
330
1F
100
AcDbEntity
  8
HIDDEN
100
AcDbLine
 10
88.89195065356238
 20
-14.07910185362085
 30
0.0
 11
63.4942504668303
 21
-10.0565013240149
 31
0.0
1001
DBPROPERTIES
1002
{
1000
PbHidd
1002
}
  0
LINE
  5
50F
330
1F
100
AcDbEntity
  8
HIDDEN
100
AcDbLine
 10
55.55746915847654
 20
8.799438658512988
 30
0.0
 11
55.55746915847654
 21
8.799438658512988
 31
0.0
1001
DBPROPERTIES
1002
{
1000
PbHidd
1002
}
  0
LINE
  5
510
330
1F
100
AcDbEntity
  8
HIDDEN
100
AcDbLine
 10
54.33332772876013
 20
14.5585712870168
 30
0.0
 11
54.33332772876013
 21
14.5585712870168
 31
0.0
1001
DBPROPERTIES
1002
{
1000
PbHidd
1002
}
  0
LINE
  5
511
330
1F
100
AcDbEntity
  8
HIDDEN
100
AcDbLine
 10
88.89195065356242
 20
14.07910185362078
 30
0.0
 11
88.89195065356242
 21
14.07910185362078
 31
0.0
1001
DBPROPERTIES
1002
{
1000
PbHidd
1002
}
  0
LINE
  5
512
330
1F
100
AcDbEntity
  8
HIDDEN
100
AcDbLine
 10
36.93954393825814
 20
5.850648992504631
 30
0.0
 11
36.93954393825814
 21
5.850648992504631
 31
0.0
1001
DBPROPERTIES
1002
{
1000
PbHidd
1002
}
  0
LINE
  5
513
330
1F
100
AcDbEntity
  8
HIDDEN
100
AcDbLine
 10
36.93954393825813
 20
-5.850648992504663
 30
0.0
 11
36.93954393825813
 21
-5.850648992504663
 31
0.0
1001
DBPROPERTIES
1002
{
1000
PbHidd
1002
}
  0
LINE
  5
514
330
1F
100
AcDbEntity
  8
HIDDEN
100
AcDbLine
 10
34.91590795099533
 20
-13.40296131299424
 30
0.0
 11
34.91590795099533
 21
-13.40296131299424
 31
0.0
1001
DBPROPERTIES
1002
{
1000
PbHidd
1002
}
  0
LINE
  5
515
330
1F
100
AcDbEntity
  8
HIDDEN
100
AcDbLine
 10
84.02223838474818
 20
-32.25311545907707
 30
0.0
 11
84.02223838474818
 21
-32.25311545907707
 31
0.0
1001
DBPROPERTIES
1002
{
1000
PbHidd
1002
}
  0
LINE
  5
516
330
1F
100
AcDbEntity
  8
HIDDEN
100
AcDbLine
 10
36.12562590321113
 20
-9.679832286834305
 30
0.0
 11
36.12562590321113
 21
-9.679832286834305
 31
0.0
1001
DBPROPERTIES
1002
{
1000
PbHidd
1002
}
  0
LINE
  5
517
330
1F
100
AcDbEntity
  8
HIDDEN
100
AcDbLine
 10
80.19058717695313
 20
-40.85914497655925
 30
0.0
 11
80.19058717695313
 21
-40.85914497655925
 31
0.0
1001
DBPROPERTIES
1002
{
1000
PbHidd
1002
}
  0
LINE
  5
518
330
1F
100
AcDbEntity
  8
HIDDEN
100
AcDbLine
 10
75.48035111508817
 20
-49.01751315135249
 30
0.0
 11
75.48035111508817
 21
-49.01751315135249
 31
0.0
1001
DBPROPERTIES
1002
{
1000
PbHidd
1002
}
  0
LINE
  5
519
330
1F
100
AcDbEntity
  8
HIDDEN
100
AcDbLine
 10
31.36627924115884
 20
-20.36949990956202
 30
0.0
 11
31.36627924115884
 21
-20.36949990956202
 31
0.0
1001
DBPROPERTIES
1002
{
1000
PbHidd
1002
}
  0
LINE
  5
51A
330
1F
100
AcDbEntity
  8
HIDDEN
100
AcDbLine
 10
33.32364400464494
 20
-16.97924469025906
 30
0.0
 11
33.32364400464494
 21
-16.97924469025906
 31
0.0
1001
DBPROPERTIES
1002
{
1000
PbHidd
1002
}
  0
LINE
  5
51B
330
1F
100
AcDbEntity
  8
HIDDEN
100
AcDbLine
 10
69.94313653112737
 20
-56.63883519448542
 30
0.0
 11
69.94313653112737
 21
-56.63883519448542
 31
0.0
1001
DBPROPERTIES
1002
{
1000
PbHidd
1002
}
  0
LINE
  5
51C
330
1F
100
AcDbEntity
  8
HIDDEN
100
AcDbLine
 10
63.63961030678924
 20
-63.63961030678934
 30
0.0
 11
63.63961030678924
 21
-63.63961030678934
 31
0.0
1001
DBPROPERTIES
1002
{
1000
PbHidd
1002
}
  0
LINE
  5
51D
330
1F
100
AcDbEntity
  8
HIDDEN
100
AcDbLine
 10
26.44579361637685
 20
-26.44579361637689
 30
0.0
 11
26.44579361637685
 21
-26.44579361637689
 31
0.0
1001
DBPROPERTIES
1002
{
1000
PbHidd
1002
}
  0
LINE
  5
51E
330
1F
100
AcDbEntity
  8
HIDDEN
100
AcDbLine
 10
29.06525895849068
 20
-23.53658262526393
 30
0.0
 11
29.06525895849068
 21
-23.53658262526393
 31
0.0
1001
DBPROPERTIES
1002
{
1000
PbHidd
1002
}
  0
LINE
  5
51F
330
1F
100
AcDbEntity
  8
HIDDEN
100
AcDbLine
 10
56.63883519448532
 20
-69.94313653112744
 30
0.0
 11
56.63883519448532
 21
-69.94313653112744
 31
0.0
1001
DBPROPERTIES
1002
{
1000
PbHidd
1002
}
  0
LINE
  5
520
330
1F
100
AcDbEntity
  8
HIDDEN
100
AcDbLine
 10
49.01751315135242
 20
-75.4803511150882
 30
0.0
 11
49.01751315135242
 21
-75.4803511150882
 31
0.0
1001
DBPROPERTIES
1002
{
1000
PbHidd
1002
}
  0
LINE
  5
521
330
1F
100
AcDbEntity
  8
HIDDEN
100
AcDbLine
 10
20.369499909562
 20
-31.36627924115886
 30
0.0
 11
20.369499909562
 21
-31.36627924115886
 31
0.0
1001
DBPROPERTIES
1002
{
1000
PbHidd
1002
}
  0
LINE
  5
522
330
1F
100
AcDbEntity
  8
HIDDEN
100
AcDbLine
 10
23.53658262526389
 20
-29.06525895849072
 30
0.0
 11
23.53658262526389
 21
-29.06525895849072
 31
0.0
1001
DBPROPERTIES
1002
{
1000
PbHidd
1002
}
  0
LINE
  5
523
330
1F
100
AcDbEntity
  8
HIDDEN
100
AcDbLine
 10
40.85914497655919
 20
-80.19058717695313
 30
0.0
 11
40.85914497655919
 21
-80.19058717695313
 31
0.0
1001
DBPROPERTIES
1002
{
1000
PbHidd
1002
}
  0
LINE
  5
524
330
1F
100
AcDbEntity
  8
HIDDEN
100
AcDbLine
 10
32.25311545907698
 20
-84.02223838474819
 30
0.0
 11
32.25311545907698
 21
-84.02223838474819
 31
0.0
1001
DBPROPERTIES
1002
{
1000
PbHidd
1002
}
  0
LINE
  5
525
330
1F
100
AcDbEntity
  8
HIDDEN
100
AcDbLine
 10
13.40296131299421
 20
-34.91590795099534
 30
0.0
 11
13.40296131299421
 21
-34.91590795099534
 31
0.0
1001
DBPROPERTIES
1002
{
1000
PbHidd
1002
}
  0
LINE
  5
526
330
1F
100
AcDbEntity
  8
HIDDEN
100
AcDbLine
 10
16.97924469025904
 20
-33.32364400464495
 30
0.0
 11
16.97924469025904
 21
-33.32364400464495
 31
0.0
1001
DBPROPERTIES
1002
{
1000
PbHidd
1002
}
  0
LINE
  5
527
330
1F
100
AcDbEntity
  8
HIDDEN
100
AcDbLine
 10
23.29371405922683
 20
-86.93332436601617
 30
0.0
 11
23.29371405922682
 21
-86.93332436601617
 31
0.0
1001
DBPROPERTIES
1002
{
1000
PbHidd
1002
}
  0
LINE
  5
528
330
1F
100
AcDbEntity
  8
HIDDEN
100
AcDbLine
 10
14.07910185362071
 20
-88.89195065356242
 30
0.0
 11
14.07910185362071
 21
-88.89195065356242
 31
0.0
1001
DBPROPERTIES
1002
{
1000
PbHidd
1002
}
  0
LINE
  5
529
330
1F
100
AcDbEntity
  8
HIDDEN
100
AcDbLine
 10
5.850648992504604
 20
-36.93954393825815
 30
0.0
 11
5.850648992504604
 21
-36.93954393825815
 31
0.0
1001
DBPROPERTIES
1002
{
1000
PbHidd
1002
}
  0
LINE
  5
52A
330
1F
100
AcDbEntity
  8
HIDDEN
100
AcDbLine
 10
9.679832286834253
 20
-36.12562590321114
 30
0.0
 11
9.679832286834253
 21
-36.12562590321114
 31
0.0
1001
DBPROPERTIES
1002
{
1000
PbHidd
1002
}
  0
LINE
  5
52B
330
1F
100
AcDbEntity
  8
HIDDEN
100
AcDbLine
 10
4.710236061864875
 20
-89.87665812791165
 30
0.0
 11
4.710236061864873
 21
-89.87665812791165
 31
0.0
1001
DBPROPERTIES
1002
{
1000
PbHidd
1002
}
  0
LINE
  5
52C
330
1F
100
AcDbEntity
  8
HIDDEN
100
AcDbLine
 10
-4.710236061864967
 20
-89.87665812791164
 30
0.0
 11
-4.710236061864965
 21
-89.87665812791164
 31
0.0
1001
DBPROPERTIES
1002
{
1000
PbHidd
1002
}
  0
LINE
  5
52D
330
1F
100
AcDbEntity
  8
HIDDEN
100
AcDbLine
 10
-1.957364763486106
 20
-37.34874459982105
 30
0.0
 11
-1.957364763486106
 21
-37.34874459982105
 31
0.0
1001
DBPROPERTIES
1002
{
1000
PbHidd
1002
}
  0
LINE
  5
52E
330
1F
100
AcDbEntity
  8
HIDDEN
100
AcDbLine
 10
1.957364763486069
 20
-37.34874459982105
 30
0.0
 11
1.957364763486069
 21
-37.34874459982105
 31
0.0
1001
DBPROPERTIES
1002
{
1000
PbHidd
1002
}
  0
LINE
  5
52F
330
1F
100
AcDbEntity
  8
HIDDEN
100
AcDbLine
 10
-14.07910185362079
 20
-88.89195065356238
 30
0.0
 11
-14.0791018536208
 21
-88.89195065356238
 31
0.0
1001
DBPROPERTIES
1002
{
1000
PbHidd
1002
}
  0
LINE
  5
530
330
1F
100
AcDbEntity
  8
HIDDEN
100
AcDbLine
 10
-23.29371405922692
 20
-86.93332436601611
 30
0.0
 11
-23.29371405922691
 21
-86.93332436601611
 31
0.0
1001
DBPROPERTIES
1002
{
1000
PbHidd
1002
}
  0
LINE
  5
531
330
1F
100
AcDbEntity
  8
HIDDEN
100
AcDbLine
 10
-9.679832286834296
 20
-36.12562590321114
 30
0.0
 11
-9.679832286834296
 21
-36.12562590321114
 31
0.0
1001
DBPROPERTIES
1002
{
1000
PbHidd
1002
}
  0
LINE
  5
532
330
1F
100
AcDbEntity
  8
HIDDEN
100
AcDbLine
 10
-5.850648992504641
 20
-36.93954393825813
 30
0.0
 11
-5.850648992504641
 21
-36.93954393825813
 31
0.0
1001
DBPROPERTIES
1002
{
1000
PbHidd
1002
}
  0
LINE
  5
533
330
1F
100
AcDbEntity
  8
HIDDEN
100
AcDbLine
 10
-32.25311545907707
 20
-84.02223838474812
 30
0.0
 11
-32.25311545907707
 21
-84.02223838474812
 31
0.0
1001
DBPROPERTIES
1002
{
1000
PbHidd
1002
}
  0
LINE
  5
534
330
1F
100
AcDbEntity
  8
HIDDEN
100
AcDbLine
 10
-40.85914497655924
 20
-80.19058717695307
 30
0.0
 11
-40.85914497655924
 21
-80.19058717695307
 31
0.0
1001
DBPROPERTIES
1002
{
1000
PbHidd
1002
}
  0
LINE
  5
535
330
1F
100
AcDbEntity
  8
HIDDEN
100
AcDbLine
 10
-16.97924469025906
 20
-33.32364400464495
 30
0.0
 11
-16.97924469025906
 21
-33.32364400464495
 31
0.0
1001
DBPROPERTIES
1002
{
1000
PbHidd
1002
}
  0
LINE
  5
536
330
1F
100
AcDbEntity
  8
HIDDEN
100
AcDbLine
 10
-13.40296131299425
 20
-34.91590795099533
 30
0.0
 11
-13.40296131299425
 21
-34.91590795099533
 31
0.0
1001
DBPROPERTIES
1002
{
1000
PbHidd
1002
}
  0
LINE
  5
537
330
1F
100
AcDbEntity
  8
HIDDEN
100
AcDbLine
 10
-49.01751315135245
 20
-75.48035111508813
 30
0.0
 11
-49.01751315135245
 21
-75.48035111508813
 31
0.0
1001
DBPROPERTIES
1002
{
1000
PbHidd
1002
}
  0
LINE
  5
538
330
1F
100
AcDbEntity
  8
HIDDEN
100
AcDbLine
 10
-56.63883519448537
 20
-69.94313653112735
 30
0.0
 11
-56.63883519448537
 21
-69.94313653112735
 31
0.0
1001
DBPROPERTIES
1002
{
1000
PbHidd
1002
}
  0
LINE
  5
539
330
1F
100
AcDbEntity
  8
HIDDEN
100
AcDbLine
 10
-23.53658262526392
 20
-29.06525895849069
 30
0.0
 11
-23.53658262526392
 21
-29.06525895849069
 31
0.0
1001
DBPROPERTIES
1002
{
1000
PbHidd
1002
}
  0
LINE
  5
53A
330
1F
100
AcDbEntity
  8
HIDDEN
100
AcDbLine
 10
-20.36949990956202
 20
-31.36627924115884
 30
0.0
 11
-20.36949990956202
 21
-31.36627924115884
 31
0.0
1001
DBPROPERTIES
1002
{
1000
PbHidd
1002
}
  0
LINE
  5
53B
330
1F
100
AcDbEntity
  8
HIDDEN
100
AcDbLine
 10
-63.63961030678927
 20
-63.63961030678924
 30
0.0
 11
-63.63961030678927
 21
-63.63961030678924
 31
0.0
1001
DBPROPERTIES
1002
{
1000
PbHidd
1002
}
  0
LINE
  5
53C
330
1F
100
AcDbEntity
  8
HIDDEN
100
AcDbLine
 10
-69.94313653112738
 20
-56.63883519448532
 30
0.0
 11
-69.94313653112738
 21
-56.63883519448532
 31
0.0
1001
DBPROPERTIES
1002
{
1000
PbHidd
1002
}
  0
LINE
  5
53D
330
1F
100
AcDbEntity
  8
HIDDEN
100
AcDbLine
 10
-29.06525895849071
 20
-23.5365826252639
 30
0.0
 11
-29.06525895849071
 21
-23.5365826252639
 31
0.0
1001
DBPROPERTIES
1002
{
1000
PbHidd
1002
}
  0
LINE
  5
53E
330
1F
100
AcDbEntity
  8
HIDDEN
100
AcDbLine
 10
-26.44579361637687
 20
-26.44579361637686
 30
0.0
 11
-26.44579361637687
 21
-26.44579361637686
 31
0.0
1001
DBPROPERTIES
1002
{
1000
PbHidd
1002
}
  0
LINE
  5
53F
330
1F
100
AcDbEntity
  8
HIDDEN
100
AcDbLine
 10
-75.48035111508815
 20
-49.01751315135239
 30
0.0
 11
-75.48035111508815
 21
-49.01751315135239
 31
0.0
1001
DBPROPERTIES
1002
{
1000
PbHidd
1002
}
  0
LINE
  5
540
330
1F
100
AcDbEntity
  8
HIDDEN
100
AcDbLine
 10
-80.1905871769531
 20
-40.85914497655916
 30
0.0
 11
-80.1905871769531
 21
-40.85914497655916
 31
0.0
1001
DBPROPERTIES
1002
{
1000
PbHidd
1002
}
  0
LINE
  5
541
330
1F
100
AcDbEntity
  8
HIDDEN
100
AcDbLine
 10
-33.32364400464495
 20
-16.97924469025903
 30
0.0
 11
-33.32364400464495
 21
-16.97924469025903
 31
0.0
1001
DBPROPERTIES
1002
{
1000
PbHidd
1002
}
  0
LINE
  5
542
330
1F
100
AcDbEntity
  8
HIDDEN
100
AcDbLine
 10
-31.36627924115885
 20
-20.36949990956199
 30
0.0
 11
-31.36627924115885
 21
-20.36949990956199
 31
0.0
1001
DBPROPERTIES
1002
{
1000
PbHidd
1002
}
  0
LINE
  5
543
330
1F
100
AcDbEntity
  8
HIDDEN
100
AcDbLine
 10
-84.02223838474814
 20
-32.25311545907699
 30
0.0
 11
-84.02223838474814
 21
-32.25311545907699
 31
0.0
1001
DBPROPERTIES
1002
{
1000
PbHidd
1002
}
  0
LINE
  5
544
330
1F
100
AcDbEntity
  8
HIDDEN
100
AcDbLine
 10
-86.93332436601611
 20
-23.29371405922684
 30
0.0
 11
-86.93332436601611
 21
-23.29371405922684
 31
0.0
1001
DBPROPERTIES
1002
{
1000
PbHidd
1002
}
  0
LINE
  5
545
330
1F
100
AcDbEntity
  8
HIDDEN
100
AcDbLine
 10
-36.12562590321114
 20
-9.67983228683427
 30
0.0
 11
-36.12562590321114
 21
-9.67983228683427
 31
0.0
1001
DBPROPERTIES
1002
{
1000
PbHidd
1002
}
  0
LINE
  5
546
330
1F
100
AcDbEntity
  8
HIDDEN
100
AcDbLine
 10
-34.91590795099534
 20
-13.40296131299421
 30
0.0
 11
-34.91590795099534
 21
-13.40296131299421
 31
0.0
1001
DBPROPERTIES
1002
{
1000
PbHidd
1002
}
  0
LINE
  5
547
330
1F
100
AcDbEntity
  8
HIDDEN
100
AcDbLine
 10
-88.89195065356235
 20
-14.07910185362076
 30
0.0
 11
-88.89195065356235
 21
-14.07910185362076
 31
0.0
1001
DBPROPERTIES
1002
{
1000
PbHidd
1002
}
  0
LINE
  5
548
330
1F
100
AcDbEntity
  8
HIDDEN
100
AcDbLine
 10
-89.87665812791161
 20
-4.710236061864901
 30
0.0
 11
-89.87665812791161
 21
-4.710236061864901
 31
0.0
1001
DBPROPERTIES
1002
{
1000
PbHidd
1002
}
  0
LINE
  5
549
330
1F
100
AcDbEntity
  8
HIDDEN
100
AcDbLine
 10
-37.34874459982105
 20
-1.957364763486082
 30
0.0
 11
-37.34874459982105
 21
-1.957364763486082
 31
0.0
1001
DBPROPERTIES
1002
{
1000
PbHidd
1002
}
  0
LINE
  5
54A
330
1F
100
AcDbEntity
  8
HIDDEN
100
AcDbLine
 10
-36.93954393825814
 20
-5.850648992504627
 30
0.0
 11
-36.93954393825814
 21
-5.850648992504627
 31
0.0
1001
DBPROPERTIES
1002
{
1000
PbHidd
1002
}
  0
LINE
  5
54B
330
1F
100
AcDbEntity
  8
HIDDEN
100
AcDbLine
 10
-89.8766581279116
 20
4.710236061864985
 30
0.0
 11
-89.8766581279116
 21
4.710236061864985
 31
0.0
1001
DBPROPERTIES
1002
{
1000
PbHidd
1002
}
  0
LINE
  5
54C
330
1F
100
AcDbEntity
  8
HIDDEN
100
AcDbLine
 10
-88.89195065356235
 20
14.0791018536208
 30
0.0
 11
-88.89195065356235
 21
14.0791018536208
 31
0.0
1001
DBPROPERTIES
1002
{
1000
PbHidd
1002
}
  0
LINE
  5
54D
330
1F
100
AcDbEntity
  8
HIDDEN
100
AcDbLine
 10
-36.93954393825813
 20
5.850648992504642
 30
0.0
 11
-36.93954393825813
 21
5.850648992504642
 31
0.0
1001
DBPROPERTIES
1002
{
1000
PbHidd
1002
}
  0
LINE
  5
54E
330
1F
100
AcDbEntity
  8
HIDDEN
100
AcDbLine
 10
-37.34874459982105
 20
1.957364763486115
 30
0.0
 11
-37.34874459982105
 21
1.957364763486115
 31
0.0
1001
DBPROPERTIES
1002
{
1000
PbHidd
1002
}
  0
LINE
  5
54F
330
1F
100
AcDbEntity
  8
HIDDEN
100
AcDbLine
 10
-86.93332436601611
 20
23.29371405922688
 30
0.0
 11
-86.93332436601611
 21
23.29371405922688
 31
0.0
1001
DBPROPERTIES
1002
{
1000
PbHidd
1002
}
  0
LINE
  5
550
330
1F
100
AcDbEntity
  8
HIDDEN
100
AcDbLine
 10
-84.0222383847481
 20
32.25311545907703
 30
0.0
 11
-84.0222383847481
 21
32.25311545907703
 31
0.0
1001
DBPROPERTIES
1002
{
1000
PbHidd
1002
}
  0
LINE
  5
551
330
1F
100
AcDbEntity
  8
HIDDEN
100
AcDbLine
 10
-34.91590795099533
 20
13.40296131299423
 30
0.0
 11
-34.91590795099533
 21
13.40296131299423
 31
0.0
1001
DBPROPERTIES
1002
{
1000
PbHidd
1002
}
  0
LINE
  5
552
330
1F
100
AcDbEntity
  8
HIDDEN
100
AcDbLine
 10
-36.12562590321114
 20
9.679832286834282
 30
0.0
 11
-36.12562590321114
 21
9.679832286834282
 31
0.0
1001
DBPROPERTIES
1002
{
1000
PbHidd
1002
}
  0
LINE
  5
553
330
1F
100
AcDbEntity
  8
HIDDEN
100
AcDbLine
 10
-80.19058717695307
 20
40.85914497655921
 30
0.0
 11
-80.19058717695307
 21
40.85914497655921
 31
0.0
1001
DBPROPERTIES
1002
{
1000
PbHidd
1002
}
  0
LINE
  5
554
330
1F
100
AcDbEntity
  8
HIDDEN
100
AcDbLine
 10
-75.48035111508811
 20
49.01751315135246
 30
0.0
 11
-75.48035111508811
 21
49.01751315135246
 31
0.0
1001
DBPROPERTIES
1002
{
1000
PbHidd
1002
}
  0
LINE
  5
555
330
1F
100
AcDbEntity
  8
HIDDEN
100
AcDbLine
 10
-31.36627924115884
 20
20.36949990956202
 30
0.0
 11
-31.36627924115884
 21
20.36949990956202
 31
0.0
1001
DBPROPERTIES
1002
{
1000
PbHidd
1002
}
  0
LINE
  5
556
330
1F
100
AcDbEntity
  8
HIDDEN
100
AcDbLine
 10
-33.32364400464494
 20
16.97924469025904
 30
0.0
 11
-33.32364400464494
 21
16.97924469025904
 31
0.0
1001
DBPROPERTIES
1002
{
1000
PbHidd
1002
}
  0
LINE
  5
557
330
1F
100
AcDbEntity
  8
HIDDEN
100
AcDbLine
 10
-69.94313653112732
 20
56.6388351944854
 30
0.0
 11
-69.94313653112732
 21
56.6388351944854
 31
0.0
1001
DBPROPERTIES
1002
{
1000
PbHidd
1002
}
  0
LINE
  5
558
330
1F
100
AcDbEntity
  8
HIDDEN
100
AcDbLine
 10
-63.63961030678924
 20
63.63961030678927
 30
0.0
 11
-63.63961030678924
 21
63.63961030678927
 31
0.0
1001
DBPROPERTIES
1002
{
1000
PbHidd
1002
}
  0
LINE
  5
559
330
1F
100
AcDbEntity
  8
HIDDEN
100
AcDbLine
 10
-26.44579361637686
 20
26.44579361637687
 30
0.0
 11
-26.44579361637686
 21
26.44579361637687
 31
0.0
1001
DBPROPERTIES
1002
{
1000
PbHidd
1002
}
  0
LINE
  5
55A
330
1F
100
AcDbEntity
  8
HIDDEN
100
AcDbLine
 10
-29.06525895849068
 20
23.53658262526393
 30
0.0
 11
-29.06525895849068
 21
23.53658262526393
 31
0.0
1001
DBPROPERTIES
1002
{
1000
PbHidd
1002
}
  0
LINE
  5
55B
330
1F
100
AcDbEntity
  8
HIDDEN
100
AcDbLine
 10
-56.63883519448534
 20
69.94313653112737
 30
0.0
 11
-56.63883519448534
 21
69.94313653112737
 31
0.0
1001
DBPROPERTIES
1002
{
1000
PbHidd
1002
}
  0
LINE
  5
55C
330
1F
100
AcDbEntity
  8
HIDDEN
100
AcDbLine
 10
-49.01751315135241
 20
75.48035111508815
 30
0.0
 11
-49.01751315135241
 21
75.48035111508815
 31
0.0
1001
DBPROPERTIES
1002
{
1000
PbHidd
1002
}
  0
LINE
  5
55D
330
1F
100
AcDbEntity
  8
HIDDEN
100
AcDbLine
 10
-20.369499909562
 20
31.36627924115885
 30
0.0
 11
-20.369499909562
 21
31.36627924115885
 31
0.0
1001
DBPROPERTIES
1002
{
1000
PbHidd
1002
}
  0
LINE
  5
55E
330
1F
100
AcDbEntity
  8
HIDDEN
100
AcDbLine
 10
-23.5365826252639
 20
29.0652589584907
 30
0.0
 11
-23.5365826252639
 21
29.0652589584907
 31
0.0
1001
DBPROPERTIES
1002
{
1000
PbHidd
1002
}
  0
LINE
  5
55F
330
1F
100
AcDbEntity
  8
HIDDEN
100
AcDbLine
 10
-40.85914497655919
 20
80.1905871769531
 30
0.0
 11
-40.85914497655919
 21
80.1905871769531
 31
0.0
1001
DBPROPERTIES
1002
{
1000
PbHidd
1002
}
  0
LINE
  5
560
330
1F
100
AcDbEntity
  8
HIDDEN
100
AcDbLine
 10
-32.253115459077
 20
84.02223838474815
 30
0.0
 11
-32.253115459077
 21
84.02223838474815
 31
0.0
1001
DBPROPERTIES
1002
{
1000
PbHidd
1002
}
  0
LINE
  5
561
330
1F
100
AcDbEntity
  8
HIDDEN
100
AcDbLine
 10
-13.40296131299422
 20
34.91590795099533
 30
0.0
 11
-13.40296131299422
 21
34.91590795099533
 31
0.0
1001
DBPROPERTIES
1002
{
1000
PbHidd
1002
}
  0
LINE
  5
562
330
1F
100
AcDbEntity
  8
HIDDEN
100
AcDbLine
 10
-16.97924469025904
 20
33.32364400464495
 30
0.0
 11
-16.97924469025904
 21
33.32364400464495
 31
0.0
1001
DBPROPERTIES
1002
{
1000
PbHidd
1002
}
  0
LINE
  5
563
330
1F
100
AcDbEntity
  8
HIDDEN
100
AcDbLine
 10
-23.29371405922684
 20
86.93332436601612
 30
0.0
 11
-23.29371405922685
 21
86.93332436601612
 31
0.0
1001
DBPROPERTIES
1002
{
1000
PbHidd
1002
}
  0
LINE
  5
564
330
1F
100
AcDbEntity
  8
HIDDEN
100
AcDbLine
 10
-14.07910185362076
 20
88.89195065356239
 30
0.0
 11
-14.07910185362075
 21
88.89195065356239
 31
0.0
1001
DBPROPERTIES
1002
{
1000
PbHidd
1002
}
  0
LINE
  5
565
330
1F
100
AcDbEntity
  8
HIDDEN
100
AcDbLine
 10
-5.850648992504624
 20
36.93954393825814
 30
0.0
 11
-5.850648992504624
 21
36.93954393825814
 31
0.0
1001
DBPROPERTIES
1002
{
1000
PbHidd
1002
}
  0
LINE
  5
566
330
1F
100
AcDbEntity
  8
HIDDEN
100
AcDbLine
 10
-9.679832286834266
 20
36.12562590321114
 30
0.0
 11
-9.679832286834266
 21
36.12562590321114
 31
0.0
1001
DBPROPERTIES
1002
{
1000
PbHidd
1002
}
  0
LINE
  5
567
330
1F
100
AcDbEntity
  8
HIDDEN
100
AcDbLine
 10
-4.710236061864919
 20
89.87665812791164
 30
0.0
 11
-4.71023606186492
 21
89.87665812791164
 31
0.0
1001
DBPROPERTIES
1002
{
1000
PbHidd
1002
}
  0
LINE
  5
568
330
1F
100
AcDbEntity
  8
HIDDEN
100
AcDbLine
 10
4.710236061864959
 20
89.87665812791165
 30
0.0
 11
4.71023606186496
 21
89.87665812791165
 31
0.0
1001
DBPROPERTIES
1002
{
1000
PbHidd
1002
}
  0
LINE
  5
569
330
1F
100
AcDbEntity
  8
HIDDEN
100
AcDbLine
 10
1.957364763486101
 20
37.34874459982105
 30
0.0
 11
1.957364763486101
 21
37.34874459982105
 31
0.0
1001
DBPROPERTIES
1002
{
1000
PbHidd
1002
}
  0
LINE
  5
56A
330
1F
100
AcDbEntity
  8
HIDDEN
100
AcDbLine
 10
-1.95736476348609
 20
37.34874459982105
 30
0.0
 11
-1.95736476348609
 21
37.34874459982105
 31
0.0
1001
DBPROPERTIES
1002
{
1000
PbHidd
1002
}
  0
LINE
  5
56B
330
1F
100
AcDbEntity
  8
HIDDEN
100
AcDbLine
 10
14.07910185362079
 20
88.89195065356239
 30
0.0
 11
14.07910185362079
 21
88.89195065356239
 31
0.0
1001
DBPROPERTIES
1002
{
1000
PbHidd
1002
}
  0
LINE
  5
56C
330
1F
100
AcDbEntity
  8
HIDDEN
100
AcDbLine
 10
23.29371405922688
 20
86.93332436601615
 30
0.0
 11
23.29371405922688
 21
86.93332436601615
 31
0.0
1001
DBPROPERTIES
1002
{
1000
PbHidd
1002
}
  0
LINE
  5
56D
330
1F
100
AcDbEntity
  8
HIDDEN
100
AcDbLine
 10
9.679832286834275
 20
36.12562590321114
 30
0.0
 11
9.679832286834275
 21
36.12562590321114
 31
0.0
1001
DBPROPERTIES
1002
{
1000
PbHidd
1002
}
  0
LINE
  5
56E
330
1F
100
AcDbEntity
  8
HIDDEN
100
AcDbLine
 10
5.850648992504635
 20
36.93954393825813
 30
0.0
 11
5.850648992504635
 21
36.93954393825813
 31
0.0
1001
DBPROPERTIES
1002
{
1000
PbHidd
1002
}
  0
LINE
  5
56F
330
1F
100
AcDbEntity
  8
HIDDEN
100
AcDbLine
 10
32.25311545907703
 20
84.02223838474816
 30
0.0
 11
32.25311545907703
 21
84.02223838474816
 31
0.0
1001
DBPROPERTIES
1002
{
1000
PbHidd
1002
}
  0
LINE
  5
570
330
1F
100
AcDbEntity
  8
HIDDEN
100
AcDbLine
 10
40.85914497655923
 20
80.19058717695312
 30
0.0
 11
40.85914497655923
 21
80.19058717695312
 31
0.0
1001
DBPROPERTIES
1002
{
1000
PbHidd
1002
}
  0
LINE
  5
571
330
1F
100
AcDbEntity
  8
HIDDEN
100
AcDbLine
 10
16.97924469025905
 20
33.32364400464494
 30
0.0
 11
16.97924469025905
 21
33.32364400464494
 31
0.0
1001
DBPROPERTIES
1002
{
1000
PbHidd
1002
}
  0
LINE
  5
572
330
1F
100
AcDbEntity
  8
HIDDEN
100
AcDbLine
 10
13.40296131299423
 20
34.91590795099533
 30
0.0
 11
13.40296131299423
 21
34.91590795099533
 31
0.0
1001
DBPROPERTIES
1002
{
1000
PbHidd
1002
}
  0
LINE
  5
573
330
1F
100
AcDbEntity
  8
HIDDEN
100
AcDbLine
 10
49.01751315135246
 20
75.48035111508817
 30
0.0
 11
49.01751315135246
 21
75.48035111508817
 31
0.0
1001
DBPROPERTIES
1002
{
1000
PbHidd
1002
}
  0
LINE
  5
574
330
1F
100
AcDbEntity
  8
HIDDEN
100
AcDbLine
 10
56.63883519448538
 20
69.94313653112738
 30
0.0
 11
56.63883519448538
 21
69.94313653112738
 31
0.0
1001
DBPROPERTIES
1002
{
1000
PbHidd
1002
}
  0
LINE
  5
575
330
1F
100
AcDbEntity
  8
HIDDEN
100
AcDbLine
 10
23.53658262526391
 20
29.0652589584907
 30
0.0
 11
23.53658262526391
 21
29.0652589584907
 31
0.0
1001
DBPROPERTIES
1002
{
1000
PbHidd
1002
}
  0
LINE
  5
576
330
1F
100
AcDbEntity
  8
HIDDEN
100
AcDbLine
 10
20.36949990956201
 20
31.36627924115884
 30
0.0
 11
20.36949990956201
 21
31.36627924115884
 31
0.0
1001
DBPROPERTIES
1002
{
1000
PbHidd
1002
}
  0
LINE
  5
577
330
1F
100
AcDbEntity
  8
HIDDEN
100
AcDbLine
 10
63.6396103067893
 20
63.63961030678929
 30
0.0
 11
63.6396103067893
 21
63.63961030678929
 31
0.0
1001
DBPROPERTIES
1002
{
1000
PbHidd
1002
}
  0
LINE
  5
578
330
1F
100
AcDbEntity
  8
HIDDEN
100
AcDbLine
 10
69.94313653112741
 20
56.63883519448538
 30
0.0
 11
69.94313653112741
 21
56.63883519448538
 31
0.0
1001
DBPROPERTIES
1002
{
1000
PbHidd
1002
}
  0
LINE
  5
579
330
1F
100
AcDbEntity
  8
HIDDEN
100
AcDbLine
 10
29.06525895849069
 20
23.53658262526391
 30
0.0
 11
29.06525895849069
 21
23.53658262526391
 31
0.0
1001
DBPROPERTIES
1002
{
1000
PbHidd
1002
}
  0
LINE
  5
57A
330
1F
100
AcDbEntity
  8
HIDDEN
100
AcDbLine
 10
26.44579361637687
 20
26.44579361637687
 30
0.0
 11
26.44579361637687
 21
26.44579361637687
 31
0.0
1001
DBPROPERTIES
1002
{
1000
PbHidd
1002
}
  0
LINE
  5
57B
330
1F
100
AcDbEntity
  8
HIDDEN
100
AcDbLine
 10
75.48035111508818
 20
49.01751315135245
 30
0.0
 11
75.48035111508818
 21
49.01751315135245
 31
0.0
1001
DBPROPERTIES
1002
{
1000
PbHidd
1002
}
  0
LINE
  5
57C
330
1F
100
AcDbEntity
  8
HIDDEN
100
AcDbLine
 10
80.19058717695314
 20
40.85914497655921
 30
0.0
 11
80.19058717695314
 21
40.85914497655921
 31
0.0
1001
DBPROPERTIES
1002
{
1000
PbHidd
1002
}
  0
LINE
  5
57D
330
1F
100
AcDbEntity
  8
HIDDEN
100
AcDbLine
 10
33.32364400464495
 20
16.97924469025904
 30
0.0
 11
33.32364400464495
 21
16.97924469025904
 31
0.0
1001
DBPROPERTIES
1002
{
1000
PbHidd
1002
}
  0
LINE
  5
57E
330
1F
100
AcDbEntity
  8
HIDDEN
100
AcDbLine
 10
31.36627924115884
 20
20.369499909562
 30
0.0
 11
31.36627924115884
 21
20.369499909562
 31
0.0
1001
DBPROPERTIES
1002
{
1000
PbHidd
1002
}
  0
LINE
  5
57F
330
1F
100
AcDbEntity
  8
HIDDEN
100
AcDbLine
 10
84.02223838474819
 20
32.25311545907702
 30
0.0
 11
84.02223838474819
 21
32.25311545907702
 31
0.0
1001
DBPROPERTIES
1002
{
1000
PbHidd
1002
}
  0
LINE
  5
580
330
1F
100
AcDbEntity
  8
HIDDEN
100
AcDbLine
 10
86.93332436601618
 20
23.29371405922687
 30
0.0
 11
86.93332436601618
 21
23.29371405922687
 31
0.0
1001
DBPROPERTIES
1002
{
1000
PbHidd
1002
}
  0
LINE
  5
581
330
1F
100
AcDbEntity
  8
HIDDEN
100
AcDbLine
 10
36.12562590321114
 20
9.679832286834273
 30
0.0
 11
36.12562590321114
 21
9.679832286834273
 31
0.0
1001
DBPROPERTIES
1002
{
1000
PbHidd
1002
}
  0
LINE
  5
582
330
1F
100
AcDbEntity
  8
HIDDEN
100
AcDbLine
 10
34.91590795099534
 20
13.40296131299422
 30
0.0
 11
34.91590795099534
 21
13.40296131299422
 31
0.0
1001
DBPROPERTIES
1002
{
1000
PbHidd
1002
}
  0
LINE
  5
583
330
1F
100
AcDbEntity
  8
HIDDEN
100
AcDbLine
 10
86.93332436601615
 20
-23.29371405922695
 30
0.0
 11
86.93332436601615
 21
-23.29371405922695
 31
0.0
1001
DBPROPERTIES
1002
{
1000
PbHidd
1002
}
  0
ARC
  5
584
330
1F
100
AcDbEntity
  8
HIDDEN
100
AcDbCircle
 10
0.0000000000000413
 20
0.0
 30
0.0
 40
78.0
100
AcDbArc
 50
350.9999789540851
 51
9.000021045914972
1001
DBPROPERTIES
1002
{
1000
PbHidd
1002
}
  0
ARC
  5
585
330
1F
100
AcDbEntity
  8
HIDDEN
100
AcDbCircle
 10
0.0000000000000413
 20
0.0
 30
0.0
 40
78.0
100
AcDbArc
 50
339.0000081886445
 51
345.0000222192546
1001
DBPROPERTIES
1002
{
1000
PbHidd
1002
}
  0
ARC
  5
586
330
1F
100
AcDbEntity
  8
HIDDEN
100
AcDbCircle
 10
0.0000000000000413
 20
0.0
 30
0.0
 40
78.0
100
AcDbArc
 50
326.9999801274246
 51
332.9999941580346
1001
DBPROPERTIES
1002
{
1000
PbHidd
1002
}
  0
ARC
  5
587
330
1F
100
AcDbEntity
  8
HIDDEN
100
AcDbCircle
 10
0.0000000000000413
 20
0.0
 30
0.0
 40
78.0
100
AcDbArc
 50
315.0000093619842
 51
321.0000233925941
1001
DBPROPERTIES
1002
{
1000
PbHidd
1002
}
  0
ARC
  5
588
330
1F
100
AcDbEntity
  8
HIDDEN
100
AcDbCircle
 10
0.0000000000000413
 20
0.0
 30
0.0
 40
78.0
100
AcDbArc
 50
302.9999813007643
 51
308.9999953313742
1001
DBPROPERTIES
1002
{
1000
PbHidd
1002
}
  0
ARC
  5
589
330
1F
100
AcDbEntity
  8
HIDDEN
100
AcDbCircle
 10
0.0000000000000413
 20
0.0
 30
0.0
 40
78.0
100
AcDbArc
 50
291.0000105353237
 51
297.0000245659338
1001
DBPROPERTIES
1002
{
1000
PbHidd
1002
}
  0
ARC
  5
58A
330
1F
100
AcDbEntity
  8
HIDDEN
100
AcDbCircle
 10
0.0000000000000413
 20
0.0
 30
0.0
 40
78.0
100
AcDbArc
 50
278.9999824741038
 51
284.9999965047138
1001
DBPROPERTIES
1002
{
1000
PbHidd
1002
}
  0
ARC
  5
58B
330
1F
100
AcDbEntity
  8
HIDDEN
100
AcDbCircle
 10
0.0000000000000413
 20
0.0
 30
0.0
 40
78.0
100
AcDbArc
 50
270.0000187239684
 51
273.0000257392733
1001
DBPROPERTIES
1002
{
1000
PbHidd
1002
}
  0
ARC
  5
58C
330
1F
100
AcDbEntity
  8
HIDDEN
100
AcDbCircle
 10
0.0000000000000413
 20
0.0
 30
0.0
 40
78.0
100
AcDbArc
 50
254.9999836474434
 51
260.9999976780534
1001
DBPROPERTIES
1002
{
1000
PbHidd
1002
}
  0
ARC
  5
58D
330
1F
100
AcDbEntity
  8
HIDDEN
100
AcDbCircle
 10
0.0000000000000413
 20
0.0
 30
0.0
 40
78.0
100
AcDbArc
 50
243.0000128820029
 51
249.0000269126129
1001
DBPROPERTIES
1002
{
1000
PbHidd
1002
}
  0
ARC
  5
58E
330
1F
100
AcDbEntity
  8
HIDDEN
100
AcDbCircle
 10
0.0000000000000413
 20
0.0
 30
0.0
 40
78.0
100
AcDbArc
 50
230.999984820783
 51
236.999998851393
1001
DBPROPERTIES
1002
{
1000
PbHidd
1002
}
  0
ARC
  5
58F
330
1F
100
AcDbEntity
  8
HIDDEN
100
AcDbCircle
 10
0.0000000000000413
 20
0.0
 30
0.0
 40
78.0
100
AcDbArc
 50
219.0000140553425
 51
225.0000280859525
1001
DBPROPERTIES
1002
{
1000
PbHidd
1002
}
  0
ARC
  5
590
330
1F
100
AcDbEntity
  8
HIDDEN
100
AcDbCircle
 10
0.0000000000000413
 20
0.0
 30
0.0
 40
78.0
100
AcDbArc
 50
206.9999859941226
 51
213.0000000247326
1001
DBPROPERTIES
1002
{
1000
PbHidd
1002
}
  0
ARC
  5
591
330
1F
100
AcDbEntity
  8
HIDDEN
100
AcDbCircle
 10
0.0000000000000413
 20
0.0
 30
0.0
 40
78.0
100
AcDbArc
 50
195.0000152286821
 51
200.9999719635126
1001
DBPROPERTIES
1002
{
1000
PbHidd
1002
}
  0
ARC
  5
592
330
1F
100
AcDbEntity
  8
HIDDEN
100
AcDbCircle
 10
0.0000000000000413
 20
0.0
 30
0.0
 40
78.0
100
AcDbArc
 50
182.9999871674622
 51
189.0000011980722
1001
DBPROPERTIES
1002
{
1000
PbHidd
1002
}
  0
ARC
  5
593
330
1F
100
AcDbEntity
  8
HIDDEN
100
AcDbCircle
 10
0.0000000000000413
 20
0.0
 30
0.0
 40
78.0
100
AcDbArc
 50
170.9999988019279
 51
177.0000128325378
1001
DBPROPERTIES
1002
{
1000
PbHidd
1002
}
  0
ARC
  5
594
330
1F
100
AcDbEntity
  8
HIDDEN
100
AcDbCircle
 10
0.0000000000000413
 20
0.0
 30
0.0
 40
78.0
100
AcDbArc
 50
159.0000280364874
 51
164.9999847713179
1001
DBPROPERTIES
1002
{
1000
PbHidd
1002
}
  0
ARC
  5
595
330
1F
100
AcDbEntity
  8
HIDDEN
100
AcDbCircle
 10
0.0000000000000413
 20
0.0
 30
0.0
 40
78.0
100
AcDbArc
 50
146.9999999752674
 51
153.0000140058774
1001
DBPROPERTIES
1002
{
1000
PbHidd
1002
}
  0
ARC
  5
596
330
1F
100
AcDbEntity
  8
HIDDEN
100
AcDbCircle
 10
0.0000000000000413
 20
0.0
 30
0.0
 40
78.0
100
AcDbArc
 50
134.9999719140475
 51
140.9999859446575
1001
DBPROPERTIES
1002
{
1000
PbHidd
1002
}
  0
ARC
  5
597
330
1F
100
AcDbEntity
  8
HIDDEN
100
AcDbCircle
 10
0.0000000000000413
 20
0.0
 30
0.0
 40
78.0
100
AcDbArc
 50
123.000001148607
 51
129.000015179217
1001
DBPROPERTIES
1002
{
1000
PbHidd
1002
}
  0
ARC
  5
598
330
1F
100
AcDbEntity
  8
HIDDEN
100
AcDbCircle
 10
0.0000000000000413
 20
0.0
 30
0.0
 40
78.0
100
AcDbArc
 50
110.9999730873871
 51
116.9999871179971
1001
DBPROPERTIES
1002
{
1000
PbHidd
1002
}
  0
ARC
  5
599
330
1F
100
AcDbEntity
  8
HIDDEN
100
AcDbCircle
 10
0.0000000000000413
 20
0.0
 30
0.0
 40
78.0
100
AcDbArc
 50
99.00000232194662
 51
105.0000163525566
1001
DBPROPERTIES
1002
{
1000
PbHidd
1002
}
  0
ARC
  5
59A
330
1F
100
AcDbEntity
  8
HIDDEN
100
AcDbCircle
 10
0.0000000000000413
 20
0.0
 30
0.0
 40
78.0
100
AcDbArc
 50
86.99997426072667
 51
89.99998127603165
1001
DBPROPERTIES
1002
{
1000
PbHidd
1002
}
  0
ARC
  5
59B
330
1F
100
AcDbEntity
  8
HIDDEN
100
AcDbCircle
 10
0.0000000000000413
 20
0.0
 30
0.0
 40
78.0
100
AcDbArc
 50
75.00000349528622
 51
81.0000175258962
1001
DBPROPERTIES
1002
{
1000
PbHidd
1002
}
  0
ARC
  5
59C
330
1F
100
AcDbEntity
  8
HIDDEN
100
AcDbCircle
 10
0.0000000000000413
 20
0.0
 30
0.0
 40
78.0
100
AcDbArc
 50
62.99997543406626
 51
68.99998946467625
1001
DBPROPERTIES
1002
{
1000
PbHidd
1002
}
  0
ARC
  5
59D
330
1F
100
AcDbEntity
  8
HIDDEN
100
AcDbCircle
 10
0.0000000000000413
 20
0.0
 30
0.0
 40
78.0
100
AcDbArc
 50
51.00000466862581
 51
57.0000186992358
1001
DBPROPERTIES
1002
{
1000
PbHidd
1002
}
  0
ARC
  5
59E
330
1F
100
AcDbEntity
  8
HIDDEN
100
AcDbCircle
 10
0.0000000000000413
 20
0.0
 30
0.0
 40
78.0
100
AcDbArc
 50
38.99997660740585
 51
44.99999063801582
1001
DBPROPERTIES
1002
{
1000
PbHidd
1002
}
  0
ARC
  5
59F
330
1F
100
AcDbEntity
  8
HIDDEN
100
AcDbCircle
 10
0.0000000000000413
 20
0.0
 30
0.0
 40
78.0
100
AcDbArc
 50
27.0000058419654
 51
33.00001987257539
1001
DBPROPERTIES
1002
{
1000
PbHidd
1002
}
  0
ARC
  5
5A0
330
1F
100
AcDbEntity
  8
HIDDEN
100
AcDbCircle
 10
0.0000000000000413
 20
0.0
 30
0.0
 40
78.0
100
AcDbArc
 50
14.99997778074544
 51
20.99999181135542
1001
DBPROPERTIES
1002
{
1000
PbHidd
1002
}
  0
ARC
  5
5A1
330
1F
100
AcDbEntity
  8
HIDDEN
100
AcDbCircle
 10
0.0
 20
0.0
 30
0.0
 40
15.0
100
AcDbArc
 50
179.9999801521572
 51
0.0
1001
DBPROPERTIES
1002
{
1000
PbHidd
1002
}
  0
LINE
  5
5A2
330
1F
100
AcDbEntity
  8
THICK
100
AcDbLine
 10
37.1914078159822
 20
65.12909629854613
 30
0.0
 11
141.1374566230409
 21
148.023304101647
 31
0.0
1001
DBPROPERTIES
1002
{
1000
PbThick
1002
}
  0
LINE
  5
5A3
330
1F
100
AcDbEntity
  8
THICK
100
AcDbLine
 10
176.8503232729653
 20
103.2407857784049
 30
0.0
 11
72.31760676837072
 21
19.87872609840228
 31
0.0
1001
DBPROPERTIES
1002
{
1000
PbThick
1002
}
  0
ELLIPSE
  5
5A4
330
1F
100
AcDbEntity
  8
THICK
100
AcDbEllipse
 10
85.78574848247199
 20
67.2505002717264
 30
0.0
 11
77.40131676433495
 21
61.7254903840146
 31
0.0
210
0.0
220
0.0
230
1.0
 40
0.8910065241883678
 41
0.0
 42
0.3306684359576054
1001
DBPROPERTIES
1002
{
1000
PbThick
1002
}
  0
ELLIPSE
  5
5A5
330
1F
100
AcDbEntity
  8
THICK
100
AcDbEllipse
 10
85.78574848247199
 20
67.2505002717264
 30
0.0
 11
77.40131676433495
 21
61.7254903840146
 31
0.0
210
0.0
220
0.0
230
1.0
 40
0.8910065241883678
 41
-0.3306684359576053
 42
0.0
1001
DBPROPERTIES
1002
{
1000
PbThick
1002
}
  0
LINE
  5
5A6
330
1F
100
AcDbEntity
  8
HIDDEN
100
AcDbLine
 10
72.05026729073037
 20
20.82688126759042
 30
0.0
 11
176.2842063795085
 21
103.9506739092804
 31
0.0
1001
DBPROPERTIES
1002
{
1000
PbHidd
1002
}
  0
LINE
  5
5A7
330
1F
100
AcDbEntity
  8
HIDDEN
100
AcDbLine
 10
176.2842063795085
 20
103.9506739092804
 30
0.0
 11
176.8503232729653
 21
103.2407857784048
 31
0.0
1001
DBPROPERTIES
1002
{
1000
PbHidd
1002
}
  0
LINE
  5
5A8
330
1F
100
AcDbEntity
  8
THICK
100
AcDbLine
 10
36.33740064080609
 20
65.6093995908326
 30
0.0
 11
140.5713397295843
 21
148.7331922325226
 31
0.0
1001
DBPROPERTIES
1002
{
1000
PbThick
1002
}
  0
LINE
  5
5A9
330
1F
100
AcDbEntity
  8
THICK
100
AcDbLine
 10
140.5713397295843
 20
148.7331922325226
 30
0.0
 11
141.137456623041
 21
148.023304101647
 31
0.0
1001
DBPROPERTIES
1002
{
1000
PbThick
1002
}
  0
ELLIPSE
  5
5AA
330
1F
100
AcDbEntity
  8
HIDDEN
100
AcDbEllipse
 10
85.21963158901526
 20
67.96038840260194
 30
0.0
 11
-77.40131676433495
 21
-61.7254903840146
 31
0.0
210
0.0
220
0.0
230
1.0
 40
0.8910065241883678
 41
2.810924217632187
 42
3.141592653589793
1001
DBPROPERTIES
1002
{
1000
PbHidd
1002
}
  0
ELLIPSE
  5
5AB
330
1F
100
AcDbEntity
  8
THICK
100
AcDbEllipse
 10
85.21963158901526
 20
67.96038840260194
 30
0.0
 11
-77.40131676433495
 21
-61.7254903840146
 31
0.0
210
0.0
220
0.0
230
1.0
 40
0.8910065241883678
 41
3.141592653589793
 42
3.472261089547398
1001
DBPROPERTIES
1002
{
1000
PbThick
1002
}
  0
LINE
  5
5AC
330
1F
100
AcDbEntity
  8
THICK
100
AcDbLine
 10
190.9812696124086
 20
-73.89757335073513
 30
0.0
 11
60.63110420999902
 21
-44.14599871195843
 31
0.0
1001
DBPROPERTIES
1002
{
1000
PbThick
1002
}
  0
ELLIPSE
  5
5AD
330
1F
100
AcDbEntity
  8
THICK
100
AcDbEllipse
 10
106.0650976478001
 20
-25.13999782136121
 30
0.0
 11
96.51786330600052
 21
-22.02957246167514
 31
0.0
210
0.0
220
0.0
230
1.0
 40
0.891006524188368
 41
0.0
 42
0.3306684359576053
1001
DBPROPERTIES
1002
{
1000
PbThick
1002
}
  0
ELLIPSE
  5
5AE
330
1F
100
AcDbEntity
  8
THICK
100
AcDbEllipse
 10
106.0650976478001
 20
-25.13999782136121
 30
0.0
 11
96.51786330600052
 21
-22.02957246167514
 31
0.0
210
0.0
220
0.0
230
1.0
 40
0.891006524188368
 41
-0.3306684359576054
 42
0.0
1001
DBPROPERTIES
1002
{
1000
PbThick
1002
}
  0
LINE
  5
5AF
330
1F
100
AcDbEntity
  8
THICK
100
AcDbLine
 10
74.10844140092948
 20
11.52991383857646
 30
0.0
 11
203.727044150352
 21
-18.05468639854839
 31
0.0
1001
DBPROPERTIES
1002
{
1000
PbThick
1002
}
  0
LINE
  5
5B0
330
1F
100
AcDbEntity
  8
HIDDEN
100
AcDbLine
 10
61.20571833359212
 20
-43.3458192132642
 30
0.0
 11
191.1833143924272
 21
-73.01235733061222
 31
0.0
1001
DBPROPERTIES
1002
{
1000
PbHidd
1002
}
  0
LINE
  5
5B1
330
1F
100
AcDbEntity
  8
HIDDEN
100
AcDbLine
 10
191.1833143924273
 20
-73.01235733061223
 30
0.0
 11
190.9812696124087
 21
-73.89757335073514
 31
0.0
1001
DBPROPERTIES
1002
{
1000
PbHidd
1002
}
  0
LINE
  5
5B2
330
1F
100
AcDbEntity
  8
THICK
100
AcDbLine
 10
73.95149287153559
 20
12.49706773892252
 30
0.0
 11
203.9290889303707
 21
-17.16947037842548
 31
0.0
1001
DBPROPERTIES
1002
{
1000
PbThick
1002
}
  0
LINE
  5
5B3
330
1F
100
AcDbEntity
  8
THICK
100
AcDbLine
 10
203.9290889303708
 20
-17.1694703784255
 30
0.0
 11
203.7270441503521
 21
-18.05468639854842
 31
0.0
1001
DBPROPERTIES
1002
{
1000
PbThick
1002
}
  0
ELLIPSE
  5
5B4
330
1F
100
AcDbEntity
  8
HIDDEN
100
AcDbEllipse
 10
106.2671424278188
 20
-24.25478180123829
 30
0.0
 11
-96.51786330600052
 21
22.02957246167514
 31
0.0
210
0.0
220
0.0
230
1.0
 40
0.891006524188368
 41
2.810924217632188
 42
3.141592653589793
1001
DBPROPERTIES
1002
{
1000
PbHidd
1002
}
  0
ELLIPSE
  5
5B5
330
1F
100
AcDbEntity
  8
THICK
100
AcDbEllipse
 10
106.2671424278188
 20
-24.25478180123829
 30
0.0
 11
-96.51786330600052
 21
22.02957246167514
 31
0.0
210
0.0
220
0.0
230
1.0
 40
0.891006524188368
 41
3.141592653589793
 42
3.472261089547398
1001
DBPROPERTIES
1002
{
1000
PbThick
1002
}
  0
LINE
  5
5B6
330
1F
100
AcDbEntity
  8
THICK
100
AcDbLine
 10
55.22030707426796
 20
-50.75152890922148
 30
0.0
 11
112.906012158096
 21
-170.5371297921519
 31
0.0
1001
DBPROPERTIES
1002
{
1000
PbThick
1002
}
  0
LINE
  5
5B7
330
1F
100
AcDbEntity
  8
THICK
100
AcDbLine
 10
61.29942462577473
 20
-195.3895525109869
 30
0.0
 11
3.288143532366309
 21
-74.92788607795198
 31
0.0
1001
DBPROPERTIES
1002
{
1000
PbThick
1002
}
  0
ELLIPSE
  5
5B8
330
1F
100
AcDbEntity
  8
THICK
100
AcDbEllipse
 10
46.47526495063623
 20
-98.59956479246536
 30
0.0
 11
42.95449017263824
 21
-89.19591792233949
 31
0.0
210
0.0
220
0.0
230
1.0
 40
0.891006524188368
 41
0.0
 42
0.3306684359576053
1001
DBPROPERTIES
1002
{
1000
PbThick
1002
}
  0
ELLIPSE
  5
5B9
330
1F
100
AcDbEntity
  8
THICK
100
AcDbEllipse
 10
46.47526495063623
 20
-98.59956479246536
 30
0.0
 11
42.95449017263824
 21
-89.19591792233949
 31
0.0
210
0.0
220
0.0
230
1.0
 40
0.891006524188368
 41
-0.3306684359576053
 42
0.0
1001
DBPROPERTIES
1002
{
1000
PbThick
1002
}
  0
LINE
  5
5BA
330
1F
100
AcDbEntity
  8
HIDDEN
100
AcDbLine
 10
4.272015102135246
 20
-74.87823373295556
 30
0.0
 11
62.11748723895232
 21
-194.9955943198852
 31
0.0
1001
DBPROPERTIES
1002
{
1000
PbHidd
1002
}
  0
LINE
  5
5BB
330
1F
100
AcDbEntity
  8
HIDDEN
100
AcDbLine
 10
62.11748723895238
 20
-194.9955943198853
 30
0.0
 11
61.29942462577479
 21
-195.389552510987
 31
0.0
1001
DBPROPERTIES
1002
{
1000
PbHidd
1002
}
  0
LINE
  5
5BC
330
1F
100
AcDbEntity
  8
THICK
100
AcDbLine
 10
55.87860263445646
 20
-50.02581101412063
 30
0.0
 11
113.7240747712735
 21
-170.1431716010503
 31
0.0
1001
DBPROPERTIES
1002
{
1000
PbThick
1002
}
  0
LINE
  5
5BD
330
1F
100
AcDbEntity
  8
THICK
100
AcDbLine
 10
113.7240747712736
 20
-170.1431716010503
 30
0.0
 11
112.906012158096
 21
-170.537129792152
 31
0.0
1001
DBPROPERTIES
1002
{
1000
PbThick
1002
}
  0
ELLIPSE
  5
5BE
330
1F
100
AcDbEntity
  8
HIDDEN
100
AcDbEllipse
 10
47.29332756381381
 20
-98.20560660136367
 30
0.0
 11
-42.95449017263824
 21
89.19591792233949
 31
0.0
210
0.0
220
0.0
230
1.0
 40
0.891006524188368
 41
2.810924217632188
 42
3.141592653589793
1001
DBPROPERTIES
1002
{
1000
PbHidd
1002
}
  0
ELLIPSE
  5
5BF
330
1F
100
AcDbEntity
  8
THICK
100
AcDbEllipse
 10
47.29332756381381
 20
-98.20560660136367
 30
0.0
 11
-42.95449017263824
 21
89.19591792233949
 31
0.0
210
0.0
220
0.0
230
1.0
 40
0.891006524188368
 41
3.141592653589793
 42
3.472261089547398
1001
DBPROPERTIES
1002
{
1000
PbThick
1002
}
  0
LINE
  5
5C0
330
1F
100
AcDbEntity
  8
THICK
100
AcDbLine
 10
-5.249844768301951
 20
-74.81603524585306
 30
0.0
 11
-62.93554985212997
 21
-194.6016361287835
 31
0.0
1001
DBPROPERTIES
1002
{
1000
PbThick
1002
}
  0
LINE
  5
5C1
330
1F
100
AcDbEntity
  8
THICK
100
AcDbLine
 10
-114.5421373844512
 20
-169.7492134099486
 30
0.0
 11
-56.53085629104272
 21
-49.28754697691369
 31
0.0
1001
DBPROPERTIES
1002
{
1000
PbThick
1002
}
  0
ELLIPSE
  5
5C2
330
1F
100
AcDbEntity
  8
THICK
100
AcDbEllipse
 10
-48.11139017699143
 20
-97.81164841026198
 30
0.0
 11
-42.95449017263827
 21
-89.19591792233948
 31
0.0
210
0.0
220
0.0
230
1.0
 40
0.8910065241883678
 41
0.0
 42
0.3306684359576052
1001
DBPROPERTIES
1002
{
1000
PbThick
1002
}
  0
ELLIPSE
  5
5C3
330
1F
100
AcDbEntity
  8
THICK
100
AcDbEllipse
 10
-48.11139017699143
 20
-97.81164841026198
 30
0.0
 11
-42.95449017263827
 21
-89.19591792233948
 31
0.0
210
0.0
220
0.0
230
1.0
 40
0.8910065241883678
 41
-0.3306684359576055
 42
0.0
1001
DBPROPERTIES
1002
{
1000
PbThick
1002
}
  0
LINE
  5
5C4
330
1F
100
AcDbEntity
  8
HIDDEN
100
AcDbLine
 10
-55.87860263445647
 20
-50.02581101412063
 30
0.0
 11
-113.7240747712736
 21
-170.1431716010503
 31
0.0
1001
DBPROPERTIES
1002
{
1000
PbHidd
1002
}
  0
LINE
  5
5C5
330
1F
100
AcDbEntity
  8
HIDDEN
100
AcDbLine
 10
-113.7240747712736
 20
-170.1431716010504
 30
0.0
 11
-114.5421373844512
 21
-169.7492134099487
 31
0.0
1001
DBPROPERTIES
1002
{
1000
PbHidd
1002
}
  0
LINE
  5
5C6
330
1F
100
AcDbEntity
  8
THICK
100
AcDbLine
 10
-4.272015102135253
 20
-74.87823373295555
 30
0.0
 11
-62.11748723895238
 21
-194.9955943198852
 31
0.0
1001
DBPROPERTIES
1002
{
1000
PbThick
1002
}
  0
LINE
  5
5C7
330
1F
100
AcDbEntity
  8
THICK
100
AcDbLine
 10
-62.11748723895243
 20
-194.9955943198853
 30
0.0
 11
-62.93554985213002
 21
-194.6016361287836
 31
0.0
1001
DBPROPERTIES
1002
{
1000
PbThick
1002
}
  0
ELLIPSE
  5
5C8
330
1F
100
AcDbEntity
  8
HIDDEN
100
AcDbEllipse
 10
-47.29332756381385
 20
-98.20560660136367
 30
0.0
 11
42.95449017263827
 21
89.19591792233948
 31
0.0
210
0.0
220
0.0
230
1.0
 40
0.8910065241883678
 41
2.810924217632187
 42
3.141592653589793
1001
DBPROPERTIES
1002
{
1000
PbHidd
1002
}
  0
ELLIPSE
  5
5C9
330
1F
100
AcDbEntity
  8
THICK
100
AcDbEllipse
 10
-47.29332756381385
 20
-98.20560660136367
 30
0.0
 11
42.95449017263827
 21
89.19591792233948
 31
0.0
210
0.0
220
0.0
230
1.0
 40
0.8910065241883678
 41
3.141592653589793
 42
3.472261089547398
1001
DBPROPERTIES
1002
{
1000
PbThick
1002
}
  0
LINE
  5
5CA
330
1F
100
AcDbEntity
  8
THICK
100
AcDbLine
 10
-204.1311337103894
 20
-16.28425435830252
 30
0.0
 11
-73.78096830797985
 21
13.46732028047414
 31
0.0
1001
DBPROPERTIES
1002
{
1000
PbThick
1002
}
  0
ELLIPSE
  5
5CB
330
1F
100
AcDbEntity
  8
THICK
100
AcDbEllipse
 10
-106.4691872078375
 20
-23.36956578111534
 30
0.0
 11
-96.51786330600052
 21
-22.02957246167512
 31
0.0
210
0.0
220
0.0
230
1.0
 40
0.891006524188368
 41
0.0
 42
0.3306684359576053
1001
DBPROPERTIES
1002
{
1000
PbThick
1002
}
  0
ELLIPSE
  5
5CC
330
1F
100
AcDbEntity
  8
THICK
100
AcDbEllipse
 10
-106.4691872078375
 20
-23.36956578111534
 30
0.0
 11
-96.51786330600052
 21
-22.02957246167512
 31
0.0
210
0.0
220
0.0
230
1.0
 40
0.891006524188368
 41
-0.3306684359576053
 42
0.0
1001
DBPROPERTIES
1002
{
1000
PbThick
1002
}
  0
LINE
  5
5CD
330
1F
100
AcDbEntity
  8
THICK
100
AcDbLine
 10
-61.76675642302337
 20
-42.5425410733644
 30
0.0
 11
-191.3853591724459
 21
-72.12714131048924
 31
0.0
1001
DBPROPERTIES
1002
{
1000
PbThick
1002
}
  0
LINE
  5
5CE
330
1F
100
AcDbEntity
  8
HIDDEN
100
AcDbLine
 10
-73.9514928715356
 20
12.49706773892253
 30
0.0
 11
-203.9290889303707
 21
-17.16947037842544
 31
0.0
1001
DBPROPERTIES
1002
{
1000
PbHidd
1002
}
  0
LINE
  5
5CF
330
1F
100
AcDbEntity
  8
HIDDEN
100
AcDbLine
 10
-203.9290889303708
 20
-17.16947037842546
 30
0.0
 11
-204.1311337103895
 21
-16.28425435830254
 31
0.0
1001
DBPROPERTIES
1002
{
1000
PbHidd
1002
}
  0
LINE
  5
5D0
330
1F
100
AcDbEntity
  8
THICK
100
AcDbLine
 10
-61.20571833359212
 20
-43.34581921326419
 30
0.0
 11
-191.1833143924272
 21
-73.01235733061216
 31
0.0
1001
DBPROPERTIES
1002
{
1000
PbThick
1002
}
  0
LINE
  5
5D1
330
1F
100
AcDbEntity
  8
THICK
100
AcDbLine
 10
-191.1833143924273
 20
-73.01235733061218
 30
0.0
 11
-191.385359172446
 21
-72.12714131048926
 31
0.0
1001
DBPROPERTIES
1002
{
1000
PbThick
1002
}
  0
ELLIPSE
  5
5D2
330
1F
100
AcDbEntity
  8
HIDDEN
100
AcDbEllipse
 10
-106.2671424278188
 20
-24.25478180123826
 30
0.0
 11
96.51786330600052
 21
22.02957246167512
 31
0.0
210
0.0
220
0.0
230
1.0
 40
0.891006524188368
 41
2.810924217632188
 42
3.141592653589793
1001
DBPROPERTIES
1002
{
1000
PbHidd
1002
}
  0
ELLIPSE
  5
5D3
330
1F
100
AcDbEntity
  8
THICK
100
AcDbEllipse
 10
-106.2671424278188
 20
-24.25478180123826
 30
0.0
 11
96.51786330600052
 21
22.02957246167512
 31
0.0
210
0.0
220
0.0
230
1.0
 40
0.891006524188368
 41
3.141592653589793
 42
3.472261089547398
1001
DBPROPERTIES
1002
{
1000
PbThick
1002
}
  0
LINE
  5
5D4
330
1F
100
AcDbEntity
  8
THICK
100
AcDbLine
 10
-71.77204067899305
 20
21.76635423705507
 30
0.0
 11
-175.7180894860518
 21
104.660562040156
 31
0.0
1001
DBPROPERTIES
1002
{
1000
PbThick
1002
}
  0
LINE
  5
5D5
330
1F
100
AcDbEntity
  8
THICK
100
AcDbLine
 10
-140.0052228361275
 20
149.4430803633981
 30
0.0
 11
-35.472506331533
 21
66.08102068339554
 31
0.0
1001
DBPROPERTIES
1002
{
1000
PbThick
1002
}
  0
ELLIPSE
  5
5D6
330
1F
100
AcDbEntity
  8
THICK
100
AcDbEllipse
 10
-84.65351469555851
 20
68.6702765334775
 30
0.0
 11
-77.40131676433492
 21
61.72549038401464
 31
0.0
210
0.0
220
0.0
230
1.0
 40
0.891006524188368
 41
0.0
 42
0.3306684359576053
1001
DBPROPERTIES
1002
{
1000
PbThick
1002
}
  0
ELLIPSE
  5
5D7
330
1F
100
AcDbEntity
  8
THICK
100
AcDbEllipse
 10
-84.65351469555851
 20
68.6702765334775
 30
0.0
 11
-77.40131676433492
 21
61.72549038401464
 31
0.0
210
0.0
220
0.0
230
1.0
 40
0.891006524188368
 41
-0.3306684359576053
 42
0.0
1001
DBPROPERTIES
1002
{
1000
PbThick
1002
}
  0
LINE
  5
5D8
330
1F
100
AcDbEntity
  8
HIDDEN
100
AcDbLine
 10
-36.33740064080608
 20
65.6093995908326
 30
0.0
 11
-140.5713397295842
 21
148.7331922325226
 31
0.0
1001
DBPROPERTIES
1002
{
1000
PbHidd
1002
}
  0
LINE
  5
5D9
330
1F
100
AcDbEntity
  8
HIDDEN
100
AcDbLine
 10
-140.5713397295842
 20
148.7331922325226
 30
0.0
 11
-140.0052228361275
 21
149.4430803633982
 31
0.0
1001
DBPROPERTIES
1002
{
1000
PbHidd
1002
}
  0
LINE
  5
5DA
330
1F
100
AcDbEntity
  8
THICK
100
AcDbLine
 10
-72.05026729073036
 20
20.82688126759044
 30
0.0
 11
-176.2842063795085
 21
103.9506739092804
 31
0.0
1001
DBPROPERTIES
1002
{
1000
PbThick
1002
}
  0
LINE
  5
5DB
330
1F
100
AcDbEntity
  8
THICK
100
AcDbLine
 10
-176.2842063795085
 20
103.9506739092804
 30
0.0
 11
-175.7180894860518
 21
104.660562040156
 31
0.0
1001
DBPROPERTIES
1002
{
1000
PbThick
1002
}
  0
ELLIPSE
  5
5DC
330
1F
100
AcDbEntity
  8
HIDDEN
100
AcDbEllipse
 10
-85.21963158901524
 20
67.96038840260196
 30
0.0
 11
77.40131676433492
 21
-61.72549038401464
 31
0.0
210
0.0
220
0.0
230
1.0
 40
0.891006524188368
 41
2.810924217632188
 42
3.141592653589793
1001
DBPROPERTIES
1002
{
1000
PbHidd
1002
}
  0
ELLIPSE
  5
5DD
330
1F
100
AcDbEntity
  8
THICK
100
AcDbEllipse
 10
-85.21963158901524
 20
67.96038840260196
 30
0.0
 11
77.40131676433492
 21
-61.72549038401464
 31
0.0
210
0.0
220
0.0
230
1.0
 40
0.891006524188368
 41
-3.141592653589793
 42
-2.810924217632188
1001
DBPROPERTIES
1002
{
1000
PbThick
1002
}
  0
LINE
  5
5DE
330
1F
100
AcDbEntity
  8
THICK
100
AcDbLine
 10
-27.73151442086131
 20
69.68474085426135
 30
0.0
 11
-27.73151442086131
 21
202.6367274881703
 31
0.0
1001
DBPROPERTIES
1002
{
1000
PbThick
1002
}
  0
LINE
  5
5DF
330
1F
100
AcDbEntity
  8
THICK
100
AcDbLine
 10
29.5474764198195
 20
202.6367274881704
 30
0.0
 11
29.54747641981949
 21
68.9343647045522
 31
0.0
1001
DBPROPERTIES
1002
{
1000
PbThick
1002
}
  0
ELLIPSE
  5
5E0
330
1F
100
AcDbEntity
  8
THICK
100
AcDbEllipse
 10
0.9079809994790989
 20
109.0
 30
0.0
 11
0.0
 21
99.0
 31
0.0
210
0.0
220
0.0
230
1.0
 40
0.8910065241883679
 41
0.0
 42
0.3306684359576054
1001
DBPROPERTIES
1002
{
1000
PbThick
1002
}
  0
ELLIPSE
  5
5E1
330
1F
100
AcDbEntity
  8
THICK
100
AcDbEllipse
 10
0.9079809994790989
 20
109.0
 30
0.0
 11
0.0
 21
99.0
 31
0.0
210
0.0
220
0.0
230
1.0
 40
0.8910065241883679
 41
-0.3306684359576054
 42
0.0
1001
DBPROPERTIES
1002
{
1000
PbThick
1002
}
  0
LINE
  5
5E2
330
1F
100
AcDbEntity
  8
HIDDEN
100
AcDbLine
 10
28.6394954203404
 20
69.31651536299485
 30
0.0
 11
28.6394954203404
 21
202.6367274881704
 31
0.0
1001
DBPROPERTIES
1002
{
1000
PbHidd
1002
}
  0
LINE
  5
5E3
330
1F
100
AcDbEntity
  8
HIDDEN
100
AcDbLine
 10
28.6394954203404
 20
202.6367274881704
 30
0.0
 11
29.5474764198195
 21
202.6367274881704
 31
0.0
1001
DBPROPERTIES
1002
{
1000
PbHidd
1002
}
  0
LINE
  5
5E4
330
1F
100
AcDbEntity
  8
THICK
100
AcDbLine
 10
-28.6394954203404
 20
69.31651536299485
 30
0.0
 11
-28.6394954203404
 21
202.6367274881703
 31
0.0
1001
DBPROPERTIES
1002
{
1000
PbThick
1002
}
  0
LINE
  5
5E5
330
1F
100
AcDbEntity
  8
THICK
100
AcDbLine
 10
-28.6394954203404
 20
202.6367274881703
 30
0.0
 11
-27.7315144208613
 21
202.6367274881703
 31
0.0
1001
DBPROPERTIES
1002
{
1000
PbThick
1002
}
  0
ELLIPSE
  5
5E6
330
1F
100
AcDbEntity
  8
HIDDEN
100
AcDbEllipse
 10
0.0000000000000054
 20
109.0
 30
0.0
 11
0.0
 21
-99.0
 31
0.0
210
0.0
220
0.0
230
1.0
 40
0.8910065241883679
 41
2.810924217632188
 42
3.141592653589793
1001
DBPROPERTIES
1002
{
1000
PbHidd
1002
}
  0
ELLIPSE
  5
5E7
330
1F
100
AcDbEntity
  8
THICK
100
AcDbEllipse
 10
0.0000000000000054
 20
109.0
 30
0.0
 11
0.0
 21
-99.0
 31
0.0
210
0.0
220
0.0
230
1.0
 40
0.8910065241883679
 41
3.141592653589793
 42
3.472261089547398
1001
DBPROPERTIES
1002
{
1000
PbThick
1002
}
  0
ARC
  5
5E8
330
1F
100
AcDbEntity
  8
THICK
100
AcDbCircle
 10
0.0
 20
-0.0000000000000007
 30
0.0
 40
75.0
100
AcDbArc
 50
89.99998127603165
 51
180.0000198478428
1001
DBPROPERTIES
1002
{
1000
PbThick
1002
}
  0
LINE
  5
5E9
330
1F
100
AcDbEntity
  8
THICK
100
AcDbLine
 10
163.1870727539062
 20
-128.9759979248047
 30
0.0
 11
162.6209411621094
 21
-129.6858825683594
 31
0.0
1001
DBPROPERTIES
1002
{
1000
PbThick
1002
}
  0
LINE
  5
5EA
330
1F
100
AcDbEntity
  8
THICK
100
AcDbLine
 10
202.5829620361328
 20
47.16957092285156
 30
0.0
 11
202.7850036621094
 21
46.28435516357422
 31
0.0
1001
DBPROPERTIES
1002
{
1000
PbThick
1002
}
  0
LINE
  5
5EB
330
1F
100
AcDbEntity
  8
THICK
100
AcDbLine
 10
89.42975616455078
 20
187.7954864501953
 30
0.0
 11
90.24781799316406
 21
187.4015197753906
 31
0.0
1001
DBPROPERTIES
1002
{
1000
PbThick
1002
}
  0
LINE
  5
5EC
330
1F
100
AcDbEntity
  8
THICK
100
AcDbLine
 10
-91.06587982177734
 20
187.007568359375
 30
0.0
 11
-90.24781799316406
 21
187.4015197753906
 31
0.0
1001
DBPROPERTIES
1002
{
1000
PbThick
1002
}
  0
LINE
  5
5ED
330
1F
100
AcDbEntity
  8
THICK
100
AcDbLine
 10
-202.9870452880859
 20
45.39913940429688
 30
0.0
 11
-202.7850036621094
 21
46.28435516357422
 31
0.0
1001
DBPROPERTIES
1002
{
1000
PbThick
1002
}
  0
LINE
  5
5EE
330
1F
100
AcDbEntity
  8
THICK
100
AcDbLine
 10
-162.0548248291016
 20
-130.3957672119141
 30
0.0
 11
-162.6209411621094
 21
-129.6858825683594
 31
0.0
1001
DBPROPERTIES
1002
{
1000
PbThick
1002
}
  0
LINE
  5
5EF
330
1F
100
AcDbEntity
  8
THICK
100
AcDbLine
 10
0.9079809784889221
 20
-208.0
 30
0.0
 11
0.0000000000000108
 21
-208.0
 31
0.0
1001
DBPROPERTIES
1002
{
1000
PbThick
1002
}
  0
LINE
  5
5F0
330
1F
100
AcDbEntity
  8
THICK
100
AcDbLine
 10
163.1870650904979
 20
128.9759908517463
 30
0.0
 11
162.6209473972216
 21
129.6858799855638
 31
0.0
1001
DBPROPERTIES
1002
{
1000
PbThick
1002
}
  0
LINE
  5
5F1
330
1F
100
AcDbEntity
  8
THICK
100
AcDbLine
 10
202.5829609460425
 20
-47.16957031702682
 30
0.0
 11
202.7850056724048
 21
-46.28435453198757
 31
0.0
1001
DBPROPERTIES
1002
{
1000
PbThick
1002
}
  0
LINE
  5
5F2
330
1F
100
AcDbEntity
  8
THICK
100
AcDbLine
 10
89.42975503622132
 20
-187.7954827567274
 30
0.0
 11
90.24781816197613
 21
-187.4015243187815
 31
0.0
1001
DBPROPERTIES
1002
{
1000
PbThick
1002
}
  0
LINE
  5
5F3
330
1F
100
AcDbEntity
  8
THICK
100
AcDbLine
 10
-91.06588005832094
 20
-187.0075664728883
 30
0.0
 11
-90.24781816197618
 21
-187.4015243187815
 31
0.0
1001
DBPROPERTIES
1002
{
1000
PbThick
1002
}
  0
LINE
  5
5F4
330
1F
100
AcDbEntity
  8
THICK
100
AcDbLine
 10
-202.9870503987672
 20
-45.39913874694827
 30
0.0
 11
-202.7850056724048
 21
-46.28435453198752
 31
0.0
1001
DBPROPERTIES
1002
{
1000
PbThick
1002
}
  0
LINE
  5
5F5
330
1F
100
AcDbEntity
  8
THICK
100
AcDbLine
 10
-162.0548309265113
 20
130.3957675863321
 30
0.0
 11
-162.6209473972216
 21
129.6858799855639
 31
0.0
1001
DBPROPERTIES
1002
{
1000
PbThick
1002
}
  0
LINE
  5
5F6
330
1F
100
AcDbEntity
  8
THICK
100
AcDbLine
 10
0.9079809510923426
 20
208.0
 30
0.0
 11
0.0000000000000054
 21
208.0
 31
0.0
1001
DBPROPERTIES
1002
{
1000
PbThick
1002
}
  0
ENDSEC
  0
SECTION
  2
OBJECTS
  0
DICTIONARY
  5
C
330
0
100
AcDbDictionary
  3
ACAD_GROUP
350
D
  3
ACAD_LAYOUT
350
1A
  3
ACAD_MATERIAL
350
43
  3
ACAD_MLEADERSTYLE
350
6B
  3
ACAD_MLINESTYLE
350
17
  3
ACAD_PLOTSETTINGS
350
19
  3
ACAD_SCALELIST
350
47
  3
ACAD_VISUALSTYLE
350
2A
  3
ACDBVARIABLEDICTIONARY
350
5F7
1001
ACAD
1000
TREAT_AS_HARD
1070
     0
  0
DICTIONARY
  5
D
102
{ACAD_REACTORS
330
C
102
}
330
C
100
AcDbDictionary
1001
ACAD
1000
TREAT_AS_HARD
1070
     0
  0
DICTIONARY
  5
1A
102
{ACAD_REACTORS
330
C
102
}
330
C
100
AcDbDictionary
1001
ACAD
1000
TREAT_AS_HARD
1070
     0
  0
DICTIONARY
  5
43
102
{ACAD_REACTORS
330
C
102
}
330
C
100
AcDbDictionary
  3
BYBLOCK
350
45
  3
BYLAYER
350
44
  3
GLOBAL
350
46
1001
ACAD
1000
TREAT_AS_HARD
1070
     0
  0
DICTIONARY
  5
6B
102
{ACAD_REACTORS
330
C
102
}
330
C
100
AcDbDictionary
  3
STANDARD
350
6C
1001
ACAD
1000
TREAT_AS_HARD
1070
     0
  0
DICTIONARY
  5
17
102
{ACAD_REACTORS
330
C
102
}
330
C
100
AcDbDictionary
  3
STANDARD
350
18
1001
ACAD
1000
TREAT_AS_HARD
1070
     0
  0
DICTIONARY
  5
19
102
{ACAD_REACTORS
330
C
102
}
330
C
100
AcDbDictionary
1001
ACAD
1000
TREAT_AS_HARD
1070
     0
  0
DICTIONARY
  5
47
102
{ACAD_REACTORS
330
C
102
}
330
C
100
AcDbDictionary
  3
A0
350
48
  3
A1
350
49
  3
A2
350
4A
  3
A3
350
4B
  3
A4
350
4C
  3
A5
350
4D
  3
A6
350
4E
  3
A7
350
4F
  3
A8
350
50
  3
A9
350
51
  3
B0
350
52
  3
B1
350
53
  3
B2
350
54
  3
B3
350
55
  3
B4
350
56
  3
B5
350
57
  3
B6
350
58
  3
B7
350
59
  3
B8
350
5A
  3
B9
350
5B
  3
C0
350
5C
  3
C1
350
5D
  3
C2
350
5E
  3
C3
350
5F
  3
C4
350
60
  3
C5
350
61
  3
C6
350
62
  3
C7
350
63
  3
C8
350
64
  3
C9
350
65
  3
D0
350
66
  3
D1
350
67
  3
D2
350
68
1001
ACAD
1000
TREAT_AS_HARD
1070
     0
  0
DICTIONARY
  5
2A
102
{ACAD_REACTORS
330
C
102
}
330
C
100
AcDbDictionary
  3
2DWIREFRAME
350
2F
  3
BASIC
350
32
  3
BRIGHTEN
350
36
  3
COLORCHANGE
350
3A
  3
CONCEPTUAL
350
34
  3
DIM
350
35
  3
EDGECOLOROFF
350
3D
  3
FACEPATTERN
350
39
  3
FLAT
350
2B
  3
FLATWITHEDGES
350
2C
  3
GOURAUD
350
2D
  3
GOURAUDWITHEDGES
350
2E
  3
HIDDEN
350
31
  3
JITTEROFF
350
3B
  3
LINEPATTERN
350
38
  3
OVERHANGOFF
350
3C
  3
REALISTIC
350
33
  3
SHADED
350
42
  3
SHADED_WITH_EDGES
350
41
  3
SHADES_OF_GRAY
350
3E
  3
SKETCHY
350
3F
  3
THICKEN
350
37
  3
WIREFRAME
350
30
  3
X-RAY
350
40
1001
ACAD
1000
TREAT_AS_HARD
1070
     0
  0
DICTIONARY
  5
5F7
102
{ACAD_REACTORS
330
C
102
}
330
C
100
AcDbDictionary
  3
CANNOSCALE
350
602
  3
CENTEREXE
350
5FE
  3
CENTERLTYPEFILE
350
5FF
  3
CMLEADERSTYLE
350
5F9
  3
CTABLESTYLE
350
5F8
  3
DIMASSOC
350
600
  3
HIDETEXT
350
601
  3
MSLTSCALE
350
603
  3
PSOLHEIGHT
350
5FB
  3
PSOLWIDTH
350
5FA
1001
ACAD
1000
TREAT_AS_HARD
1070
     0
  0
MATERIAL
  5
45
102
{ACAD_REACTORS
330
43
102
}
102
{ACAD_XDICTIONARY
360
606
102
}
330
43
100
AcDbMaterial
  1
BYBLOCK
  0
MATERIAL
  5
44
102
{ACAD_REACTORS
330
43
102
}
102
{ACAD_XDICTIONARY
360
604
102
}
330
43
100
AcDbMaterial
  1
BYLAYER
  0
MATERIAL
  5
46
102
{ACAD_REACTORS
330
43
102
}
102
{ACAD_XDICTIONARY
360
608
102
}
330
43
100
AcDbMaterial
  1
GLOBAL
  0
ACAD_PROXY_OBJECT
  5
6C
102
{ACAD_REACTORS
330
6B
102
}
330
6B
100
AcDbZombieObject
 90
      499
 91
      505
 93
      610
310
40901902A4063FBFFFFFE0000000000000020400000000000020404214DD185B99185C990000000000000104090141901A00000000000004100000000000000041025764000000000000039000
340
14
340
0
340
11
340
0
 94
        0
1001
ACAD_MLEADERVER
1070
     2
  0
MLINESTYLE
  5
18
102
{ACAD_REACTORS
330
17
102
}
330
17
100
AcDbMlineStyle
  2
Standard
 70
     0
  3

 62
   256
 51
90.0
 52
90.0
 71
     2
 49
0.5
 62
   256
  6
BYLAYER
 49
-0.5
 62
   256
  6
BYLAYER
  0
ACAD_PROXY_OBJECT
  5
48
102
{ACAD_REACTORS
330
47
102
}
330
47
100
AcDbZombieObject
 90
      499
 91
      503
 93
       41
310
903313A31580
  0
ACAD_PROXY_OBJECT
  5
49
102
{ACAD_REACTORS
330
47
102
}
330
47
100
AcDbZombieObject
 90
      499
 91
      503
 93
      105
310
903313A324000000000000004000
  0
ACAD_PROXY_OBJECT
  5
4A
102
{ACAD_REACTORS
330
47
102
}
330
47
100
AcDbZombieObject
 90
      499
 91
      503
 93
      105
310
903313A344000000000000104000
  0
ACAD_PROXY_OBJECT
  5
4B
102
{ACAD_REACTORS
330
47
102
}
330
47
100
AcDbZombieObject
 90
      499
 91
      503
 93
      105
310
903313A354000000000000144000
  0
ACAD_PROXY_OBJECT
  5
4C
102
{ACAD_REACTORS
330
47
102
}
330
47
100
AcDbZombieObject
 90
      499
 91
      503
 93
      105
310
903313A384000000000000204000
  0
ACAD_PROXY_OBJECT
  5
4D
102
{ACAD_REACTORS
330
47
102
}
330
47
100
AcDbZombieObject
 90
      499
 91
      503
 93
      113
310
904313A31304000000000000244000
  0
ACAD_PROXY_OBJECT
  5
4E
102
{ACAD_REACTORS
330
47
102
}
330
47
100
AcDbZombieObject
 90
      499
 91
      503
 93
      113
310
904313A31364000000000000304000
  0
ACAD_PROXY_OBJECT
  5
4F
102
{ACAD_REACTORS
330
47
102
}
330
47
100
AcDbZombieObject
 90
      499
 91
      503
 93
      113
310
904313A32304000000000000344000
  0
ACAD_PROXY_OBJECT
  5
50
102
{ACAD_REACTORS
330
47
102
}
330
47
100
AcDbZombieObject
 90
      499
 91
      503
 93
      113
310
904313A333040000000000003E4000
  0
ACAD_PROXY_OBJECT
  5
51
102
{ACAD_REACTORS
330
47
102
}
330
47
100
AcDbZombieObject
 90
      499
 91
      503
 93
      113
310
904313A34304000000000000444000
  0
ACAD_PROXY_OBJECT
  5
52
102
{ACAD_REACTORS
330
47
102
}
330
47
100
AcDbZombieObject
 90
      499
 91
      503
 93
      113
310
904313A35304000000000000494000
  0
ACAD_PROXY_OBJECT
  5
53
102
{ACAD_REACTORS
330
47
102
}
330
47
100
AcDbZombieObject
 90
      499
 91
      503
 93
      121
310
905313A3130304000000000000594000
  0
ACAD_PROXY_OBJECT
  5
54
102
{ACAD_REACTORS
330
47
102
}
330
47
100
AcDbZombieObject
 90
      499
 91
      503
 93
      105
310
903323A310000000000000010100
  0
ACAD_PROXY_OBJECT
  5
55
102
{ACAD_REACTORS
330
47
102
}
330
47
100
AcDbZombieObject
 90
      499
 91
      503
 93
      105
310
903343A310000000000000410100
  0
ACAD_PROXY_OBJECT
  5
56
102
{ACAD_REACTORS
330
47
102
}
330
47
100
AcDbZombieObject
 90
      499
 91
      503
 93
      105
310
903383A310000000000000810100
  0
ACAD_PROXY_OBJECT
  5
57
102
{ACAD_REACTORS
330
47
102
}
330
47
100
AcDbZombieObject
 90
      499
 91
      503
 93
      113
310
90431303A310000000000000910100
  0
ACAD_PROXY_OBJECT
  5
58
102
{ACAD_REACTORS
330
47
102
}
330
47
100
AcDbZombieObject
 90
      499
 91
      503
 93
      121
310
9053130303A310000000000001650100
  0
ACAD_PROXY_OBJECT
  5
59
102
{ACAD_REACTORS
330
47
102
}
330
47
100
AcDbZombieObject
 90
      499
 91
      503
 93
      257
310
90E312F31323822203D2031272D3022000000000000200FC000000000000284000
  0
ACAD_PROXY_OBJECT
  5
5A
102
{ACAD_REACTORS
330
47
102
}
330
47
100
AcDbZombieObject
 90
      499
 91
      503
 93
      249
310
90D312F363422203D2031272D3022000000000000240FC000000000000284000
  0
ACAD_PROXY_OBJECT
  5
5B
102
{ACAD_REACTORS
330
47
102
}
330
47
100
AcDbZombieObject
 90
      499
 91
      503
 93
      249
310
90D312F333222203D2031272D3022000000000000280FC000000000000284000
  0
ACAD_PROXY_OBJECT
  5
5C
102
{ACAD_REACTORS
330
47
102
}
330
47
100
AcDbZombieObject
 90
      499
 91
      503
 93
      249
310
90D312F313622203D2031272D30220000000000002C0FC000000000000284000
  0
ACAD_PROXY_OBJECT
  5
5D
102
{ACAD_REACTORS
330
47
102
}
330
47
100
AcDbZombieObject
 90
      499
 91
      503
 93
      249
310
90D332F333222203D2031272D30220000000000002E0FC000000000000284000
  0
ACAD_PROXY_OBJECT
  5
5E
102
{ACAD_REACTORS
330
47
102
}
330
47
100
AcDbZombieObject
 90
      499
 91
      503
 93
      241
310
90C312F3822203D2031272D3022000000000000300FC000000000000284000
  0
ACAD_PROXY_OBJECT
  5
5F
102
{ACAD_REACTORS
330
47
102
}
330
47
100
AcDbZombieObject
 90
      499
 91
      503
 93
      249
310
90D332F313622203D2031272D3022000000000000320FC000000000000284000
  0
ACAD_PROXY_OBJECT
  5
60
102
{ACAD_REACTORS
330
47
102
}
330
47
100
AcDbZombieObject
 90
      499
 91
      503
 93
      241
310
90C312F3422203D2031272D3022000000000000340FC000000000000284000
  0
ACAD_PROXY_OBJECT
  5
61
102
{ACAD_REACTORS
330
47
102
}
330
47
100
AcDbZombieObject
 90
      499
 91
      503
 93
      241
310
90C332F3822203D2031272D3022000000000000360FC000000000000284000
  0
ACAD_PROXY_OBJECT
  5
62
102
{ACAD_REACTORS
330
47
102
}
330
47
100
AcDbZombieObject
 90
      499
 91
      503
 93
      241
310
90C312F3222203D2031272D3022000000000000380FC000000000000284000
  0
ACAD_PROXY_OBJECT
  5
63
102
{ACAD_REACTORS
330
47
102
}
330
47
100
AcDbZombieObject
 90
      499
 91
      503
 93
      241
310
90C332F3422203D2031272D30220000000000003A0FC000000000000284000
  0
ACAD_PROXY_OBJECT
  5
64
102
{ACAD_REACTORS
330
47
102
}
330
47
100
AcDbZombieObject
 90
      499
 91
      503
 93
      161
310
90A3122203D2031272D30224000000000000284000
  0
ACAD_PROXY_OBJECT
  5
65
102
{ACAD_REACTORS
330
47
102
}
330
47
100
AcDbZombieObject
 90
      499
 91
      503
 93
      257
310
90E312D312F3222203D2031272D30220000000000003E0FC000000000000284000
  0
ACAD_PROXY_OBJECT
  5
66
102
{ACAD_REACTORS
330
47
102
}
330
47
100
AcDbZombieObject
 90
      499
 91
      503
 93
      225
310
90A3322203D2031272D302200000000000002100000000000000284000
  0
ACAD_PROXY_OBJECT
  5
67
102
{ACAD_REACTORS
330
47
102
}
330
47
100
AcDbZombieObject
 90
      499
 91
      503
 93
      225
310
90A3622203D2031272D302200000000000006100000000000000284000
  0
ACAD_PROXY_OBJECT
  5
68
102
{ACAD_REACTORS
330
47
102
}
330
47
100
AcDbZombieObject
 90
      499
 91
      503
 93
      249
310
90D31272D3022203D2031272D30220000000000000A100000000000000284000
  0
ACAD_PROXY_OBJECT
  5
2F
102
{ACAD_REACTORS
330
2A
102
}
330
2A
100
AcDbZombieObject
 90
      499
 91
      501
 93
      436
310
42CC9915DA5C99599C985B595049028333333333333E33F0000000000000F90107901411070040501600405405064090741402480A0340
1001
ACAD
1000
AcDbSavedByObjectVersion
1070
     0
  0
ACAD_PROXY_OBJECT
  5
32
102
{ACAD_REACTORS
330
2A
102
}
330
2A
100
AcDbZombieObject
 90
      499
 91
      501
 93
      388
310
4150985CDA58D07406404333333333333E33F0000000000000F90107A41107004050150841D405064090741402480A0350
1001
ACAD
1000
AcDbSavedByObjectVersion
1070
     0
  0
ACAD_PROXY_OBJECT
  5
36
102
{ACAD_REACTORS
330
2A
102
}
330
2A
100
AcDbZombieObject
 90
      499
 91
      501
 93
      428
310
42109C9A59DA1D195B90C409028333333333333E33F0000000000000F9010790141107004050150841D405064090741402480A029950
1001
ACAD
1000
AcDbSavedByObjectVersion
1070
     0
  0
ACAD_PROXY_OBJECT
  5
3A
102
{ACAD_REACTORS
330
2A
102
}
330
2A
100
AcDbZombieObject
 90
      499
 91
      501
 93
      452
310
42D0DBDB1BDC90DA185B99D95104090240C333333333333E33F0000000000000F90108901411070040501508421405064090741402480A0350
1001
ACAD
1000
AcDbSavedByObjectVersion
1070
     0
  0
ACAD_PROXY_OBJECT
  5
34
102
{ACAD_REACTORS
330
2A
102
}
330
2A
100
AcDbZombieObject
 90
      499
 91
      501
 93
      500
310
4290DBDB98D95C1D1D585B10940D028333333333333E33F0000000000000F90107902409070040501000000000018199010841D405064090740C02480A0340
1001
ACAD
1000
AcDbSavedByObjectVersion
1070
     0
  0
ACAD_PROXY_OBJECT
  5
35
102
{ACAD_REACTORS
330
2A
102
}
330
2A
100
AcDbZombieObject
 90
      499
 91
      501
 93
      412
310
40D11A5B50B409028333333333333E33F0000000000000F9010790141107004050150841D405064090741402480A02677FFFFFD0
1001
ACAD
1000
AcDbSavedByObjectVersion
1070
     0
  0
ACAD_PROXY_OBJECT
  5
3D
102
{ACAD_REACTORS
330
2A
102
}
330
2A
100
AcDbZombieObject
 90
      499
 91
      501
 93
      452
310
43115919D950DBDB1BDC93D999916409028333333333333E33F0000000000000F9010790141107004050150841D405064090741402480A0350
1001
ACAD
1000
AcDbSavedByObjectVersion
1070
     0
  0
ACAD_PROXY_OBJECT
  5
39
102
{ACAD_REACTORS
330
2A
102
}
330
2A
100
AcDbZombieObject
 90
      499
 91
      501
 93
      444
310
42D19858D95C185D1D195C9B90F409028333333333333E33F0000000000000F9010790141107004050150841D405064090741402480A0350
1001
ACAD
1000
AcDbSavedByObjectVersion
1070
     0
  0
ACAD_PROXY_OBJECT
  5
2B
102
{ACAD_REACTORS
330
2A
102
}
330
2A
100
AcDbZombieObject
 90
      499
 91
      501
 93
      380
310
41119B185D240901404333333333333E33F0000000000000F9010740A907004050150841D405064090741402480A1B50
1001
ACAD
1000
AcDbSavedByObjectVersion
1070
     0
  0
ACAD_PROXY_OBJECT
  5
2C
102
{ACAD_REACTORS
330
2A
102
}
330
2A
100
AcDbZombieObject
 90
      499
 91
      501
 93
      468
310
43519B185D15DA5D1A115919D95CD0140901404333333333333E33F0000000000000F90107409019070040501600405405064090741402480A1B50
1001
ACAD
1000
AcDbSavedByObjectVersion
1070
     0
  0
ACAD_PROXY_OBJECT
  5
2D
102
{ACAD_REACTORS
330
2A
102
}
330
2A
100
AcDbZombieObject
 90
      499
 91
      501
 93
      404
310
41D1DBDD5C985D5910240902404333333333333E33F0000000000000F9010740A9070040501641D405064090741402480A1B50
1001
ACAD
1000
AcDbSavedByObjectVersion
1070
     0
  0
ACAD_PROXY_OBJECT
  5
2E
102
{ACAD_REACTORS
330
2A
102
}
330
2A
100
AcDbZombieObject
 90
      499
 91
      501
 93
      492
310
4411DBDD5C985D5915DA5D1A115919D95CD0340902404333333333333E33F0000000000000F90107409019070040501600405405064090741402480A1B50
1001
ACAD
1000
AcDbSavedByObjectVersion
1070
     0
  0
ACAD_PROXY_OBJECT
  5
31
102
{ACAD_REACTORS
330
2A
102
}
330
2A
100
AcDbZombieObject
 90
      499
 91
      501
 93
      476
310
41921A5919195B90640502408333333333333E33F0000000000000F901079024090700405020000000000001110200405405064090740C02480A0340
1001
ACAD
1000
AcDbSavedByObjectVersion
1070
     0
  0
ACAD_PROXY_OBJECT
  5
3B
102
{ACAD_REACTORS
330
2A
102
}
330
2A
100
AcDbZombieObject
 90
      499
 91
      501
 93
      428
310
42529A5D1D195C93D999914409028333333333333E33F0000000000000F9010790141107004050150A41D405064090741402480A0350
1001
ACAD
1000
AcDbSavedByObjectVersion
1070
     0
  0
ACAD_PROXY_OBJECT
  5
38
102
{ACAD_REACTORS
330
2A
102
}
330
2A
100
AcDbZombieObject
 90
      499
 91
      501
 93
      444
310
42D31A5B995C185D1D195C9B90E409028333333333333E33F0000000000000F9010790141107004050750841D405064090741402483A0350
1001
ACAD
1000
AcDbSavedByObjectVersion
1070
     0
  0
ACAD_PROXY_OBJECT
  5
3C
102
{ACAD_REACTORS
330
2A
102
}
330
2A
100
AcDbZombieObject
 90
      499
 91
      501
 93
      444
310
42D3DD995C9A185B99D3D999915409028333333333333E33F0000000000000F9010790141107004050150941D405064090741402480A0350
1001
ACAD
1000
AcDbSavedByObjectVersion
1070
     0
  0
ACAD_PROXY_OBJECT
  5
33
102
{ACAD_REACTORS
330
2A
102
}
330
2A
100
AcDbZombieObject
 90
      499
 91
      501
 93
      428
310
425499585B1A5CDD1A58D08409038333333333333E33F0000000000000F9010740A907004050150800405405064090740C02480A1B40
1001
ACAD
1000
AcDbSavedByObjectVersion
1070
     0
  0
ACAD_PROXY_OBJECT
  5
42
102
{ACAD_REACTORS
330
2A
102
}
330
2A
100
AcDbZombieObject
 90
      499
 91
      501
 93
      420
310
4194DA1859195911B40902404333333333333E33F0000000000000F9010740A41107004050150800405405064090840C02480A0B40
1001
ACAD
1000
AcDbSavedByObjectVersion
1070
     0
  0
ACAD_PROXY_OBJECT
  5
41
102
{ACAD_REACTORS
330
2A
102
}
330
2A
100
AcDbZombieObject
 90
      499
 91
      501
 93
      516
310
4454DA18591959081DDA5D1A08195919D95CD1A40902404333333333333E33F0000000000000F901074090142907004050250800405405064090740C02480A0B40
1001
ACAD
1000
AcDbSavedByObjectVersion
1070
     0
  0
ACAD_PROXY_OBJECT
  5
3E
102
{ACAD_REACTORS
330
2A
102
}
330
2A
100
AcDbZombieObject
 90
      499
 91
      501
 93
      532
310
4394DA1859195CC81BD98811DC985E5174090240C333333333333E33F0000000000000F901079024090741D01000000000000111010841D405064090740C02480A0340
1001
ACAD
1000
AcDbSavedByObjectVersion
1070
     0
  0
ACAD_PROXY_OBJECT
  5
3F
102
{ACAD_REACTORS
330
2A
102
}
330
2A
100
AcDbZombieObject
 90
      499
 91
      501
 93
      476
310
41D4DAD95D18DA1E51840502408333333333333E33F0000000000000F901079024090741D01000000000000111010B41D405064090741802480A0340
1001
ACAD
1000
AcDbSavedByObjectVersion
1070
     0
  0
ACAD_PROXY_OBJECT
  5
37
102
{ACAD_REACTORS
330
2A
102
}
330
2A
100
AcDbZombieObject
 90
      499
 91
      501
 93
      412
310
41D51A1A58DAD95B90D409028333333333333E33F0000000000000F9010790141107004050150C41D405064090741402480A0350
1001
ACAD
1000
AcDbSavedByObjectVersion
1070
     0
  0
ACAD_PROXY_OBJECT
  5
30
102
{ACAD_REACTORS
330
2A
102
}
330
2A
100
AcDbZombieObject
 90
      499
 91
      501
 93
      420
310
4255DA5C99599C985B595059028333333333333E33F0000000000000F90107901411070040501600405405064090740C02480A0340
1001
ACAD
1000
AcDbSavedByObjectVersion
1070
     0
  0
ACAD_PROXY_OBJECT
  5
40
102
{ACAD_REACTORS
330
2A
102
}
330
2A
100
AcDbZombieObject
 90
      499
 91
      501
 93
      404
310
41560B54985E51940902404000000000000E03F0000000000000F9010740501907004050150841D405064090740C02480A1B40
1001
ACAD
1000
AcDbSavedByObjectVersion
1070
     0
  0
DICTIONARYVAR
  5
602
102
{ACAD_REACTORS
330
5F7
102
}
330
5F7
100
DictionaryVariables
280
     0
  1
1:1
  0
DICTIONARYVAR
  5
5FE
102
{ACAD_REACTORS
330
5F7
102
}
330
5F7
100
DictionaryVariables
280
     0
  1
3.500000
  0
DICTIONARYVAR
  5
5FF
102
{ACAD_REACTORS
330
5F7
102
}
330
5F7
100
DictionaryVariables
280
     0
  1
acadiso.lin
  0
DICTIONARYVAR
  5
5F9
102
{ACAD_REACTORS
330
5F7
102
}
330
5F7
100
DictionaryVariables
280
     0
  1
Standard
  0
DICTIONARYVAR
  5
5F8
102
{ACAD_REACTORS
330
5F7
102
}
330
5F7
100
DictionaryVariables
280
     0
  1
Standard
  0
DICTIONARYVAR
  5
600
102
{ACAD_REACTORS
330
5F7
102
}
330
5F7
100
DictionaryVariables
280
     0
  1
2
  0
DICTIONARYVAR
  5
601
102
{ACAD_REACTORS
330
5F7
102
}
330
5F7
100
DictionaryVariables
280
     0
  1
1
  0
DICTIONARYVAR
  5
603
102
{ACAD_REACTORS
330
5F7
102
}
330
5F7
100
DictionaryVariables
280
     0
  1
1
  0
DICTIONARYVAR
  5
5FB
102
{ACAD_REACTORS
330
5F7
102
}
330
5F7
100
DictionaryVariables
280
     0
  1
80.000000
  0
DICTIONARYVAR
  5
5FA
102
{ACAD_REACTORS
330
5F7
102
}
330
5F7
100
DictionaryVariables
280
     0
  1
5.000000
  0
DICTIONARY
  5
606
330
45
100
AcDbDictionary
  3
ACAD_XREC_ROUNDTRIP
360
607
1001
ACAD
1000
TREAT_AS_HARD
1070
     1
  0
DICTIONARY
  5
604
330
44
100
AcDbDictionary
  3
ACAD_XREC_ROUNDTRIP
360
605
1001
ACAD
1000
TREAT_AS_HARD
1070
     1
  0
DICTIONARY
  5
608
330
46
100
AcDbDictionary
  3
ACAD_XREC_ROUNDTRIP
360
609
1001
ACAD
1000
TREAT_AS_HARD
1070
     1
  0
XRECORD
  5
607
102
{ACAD_REACTORS
330
606
102
}
330
606
100
AcDbXrecord
102
MATERIAL
148
0.0
149
0.0
149
0.0
 93
        0
 94
      127
282
     0
 72
     1
 77
     1
171
     1
175
     1
179
     1
273
     0
  0
XRECORD
  5
605
102
{ACAD_REACTORS
330
604
102
}
330
604
100
AcDbXrecord
102
MATERIAL
148
0.0
149
0.0
149
0.0
 93
        0
 94
      127
282
     0
 72
     1
 77
     1
171
     1
175
     1
179
     1
273
     0
  0
XRECORD
  5
609
102
{ACAD_REACTORS
330
608
102
}
330
608
100
AcDbXrecord
102
MATERIAL
148
0.0
149
0.0
149
0.0
 93
        0
 94
      127
282
     0
 72
     1
 77
     1
171
     1
175
     1
179
     1
273
     0
  0
ENDSEC
  0
EOF
