  0
SECTION
  2
HEADER
  9
$ACADVER
  1
AC1012
  9
$DWGCODEPAGE
  3
ansi_1252
  9
$INSBASE
 10
0.0
 20
0.0
 30
0.0
  9
$EXTMIN
 10
1.000000000000000E+20
 20
1.000000000000000E+20
 30
1.000000000000000E+20
  9
$EXTMAX
 10
-1.000000000000000E+20
 20
-1.000000000000000E+20
 30
-1.000000000000000E+20
  9
$LIMMIN
 10
0.0
 20
0.0
  9
$LIMMAX
 10
420.0
 20
297.0
  9
$ORTHOMODE
 70
     0
  9
$REGENMODE
 70
     1
  9
$FILLMODE
 70
     1
  9
$QTEXTMODE
 70
     0
  9
$MIRRTEXT
 70
     1
  9
$DRAGMODE
 70
     2
  9
$LTSCALE
 40
1.0
  9
$OSMODE
 70
    37
  9
$ATTMODE
 70
     1
  9
$TEXTSIZE
 40
2.5
  9
$TRACEWID
 40
1.0
  9
$TEXTSTYLE
  7
STANDARD
  9
$CLAYER
  8
0
  9
$CELTYPE
  6
BYLAYER
  9
$CECOLOR
 62
   256
  9
$CELTSCALE
 40
1.0
  9
$DELOBJ
 70
     1
  9
$DISPSILH
 70
     0
  9
$DIMSCALE
 40
1.0
  9
$DIMASZ
 40
2.5
  9
$DIMEXO
 40
0.625
  9
$DIMDLI
 40
3.75
  9
$DIMRND
 40
0.0
  9
$DIMDLE
 40
0.0
  9
$DIMEXE
 40
1.25
  9
$DIMTP
 40
0.0
  9
$DIMTM
 40
0.0
  9
$DIMTXT
 40
2.5
  9
$DIMCEN
 40
2.5
  9
$DIMTSZ
 40
0.0
  9
$DIMTOL
 70
     0
  9
$DIMLIM
 70
     0
  9
$DIMTIH
 70
     0
  9
$DIMTOH
 70
     0
  9
$DIMSE1
 70
     0
  9
$DIMSE2
 70
     0
  9
$DIMTAD
 70
     1
  9
$DIMZIN
 70
     8
  9
$DIMBLK
  1

  9
$DIMASO
 70
     1
  9
$DIMSHO
 70
     1
  9
$DIMPOST
  1

  9
$DIMAPOST
  1

  9
$DIMALT
 70
     0
  9
$DIMALTD
 70
     3
  9
$DIMALTF
 40
0.03937007874016
  9
$DIMLFAC
 40
1.0
  9
$DIMTOFL
 70
     1
  9
$DIMTVP
 40
0.0
  9
$DIMTIX
 70
     0
  9
$DIMSOXD
 70
     0
  9
$DIMSAH
 70
     0
  9
$DIMBLK1
  1

  9
$DIMBLK2
  1

  9
$DIMSTYLE
  2
ISO-25
  9
$DIMCLRD
 70
     0
  9
$DIMCLRE
 70
     0
  9
$DIMCLRT
 70
     0
  9
$DIMTFAC
 40
1.0
  9
$DIMGAP
 40
0.625
  9
$DIMJUST
 70
     0
  9
$DIMSD1
 70
     0
  9
$DIMSD2
 70
     0
  9
$DIMTOLJ
 70
     0
  9
$DIMTZIN
 70
     8
  9
$DIMALTZ
 70
     0
  9
$DIMALTTZ
 70
     0
  9
$DIMFIT
 70
     3
  9
$DIMUPT
 70
     0
  9
$DIMUNIT
 70
     2
  9
$DIMDEC
 70
     2
  9
$DIMTDEC
 70
     2
  9
$DIMALTU
 70
     2
  9
$DIMALTTD
 70
     3
  9
$DIMTXSTY
  7
STANDARD
  9
$DIMAUNIT
 70
     0
  9
$LUNITS
 70
     2
  9
$LUPREC
 70
     4
  9
$SKETCHINC
 40
1.0
  9
$FILLETRAD
 40
10.0
  9
$AUNITS
 70
     0
  9
$AUPREC
 70
     0
  9
$MENU
  1
.
  9
$ELEVATION
 40
0.0
  9
$PELEVATION
 40
0.0
  9
$THICKNESS
 40
0.0
  9
$LIMCHECK
 70
     0
  9
$CHAMFERA
 40
0.0
  9
$CHAMFERB
 40
0.0
  9
$CHAMFERC
 40
0.0
  9
$CHAMFERD
 40
0.0
  9
$SKPOLY
 70
     0
  9
$TDCREATE
 40
2457980.616257326
  9
$TDUPDATE
 40
2457980.616261296
  9
$TDINDWG
 40
0.0000000116
  9
$TDUSRTIMER
 40
0.0000000116
  9
$USRTIMER
 70
     1
  9
$ANGBASE
 50
0.0
  9
$ANGDIR
 70
     0
  9
$PDMODE
 70
     0
  9
$PDSIZE
 40
0.0
  9
$PLINEWID
 40
0.0
  9
$COORDS
 70
     1
  9
$SPLFRAME
 70
     0
  9
$SPLINETYPE
 70
     6
  9
$SPLINESEGS
 70
     8
  9
$ATTDIA
 70
     0
  9
$ATTREQ
 70
     1
  9
$HANDLING
 70
     1
  9
$HANDSEED
  5
3A8
  9
$SURFTAB1
 70
     6
  9
$SURFTAB2
 70
     6
  9
$SURFTYPE
 70
     6
  9
$SURFU
 70
     6
  9
$SURFV
 70
     6
  9
$UCSNAME
  2

  9
$UCSORG
 10
0.0
 20
0.0
 30
0.0
  9
$UCSXDIR
 10
1.0
 20
0.0
 30
0.0
  9
$UCSYDIR
 10
0.0
 20
1.0
 30
0.0
  9
$PUCSNAME
  2

  9
$PUCSORG
 10
0.0
 20
0.0
 30
0.0
  9
$PUCSXDIR
 10
1.0
 20
0.0
 30
0.0
  9
$PUCSYDIR
 10
0.0
 20
1.0
 30
0.0
  9
$USERI1
 70
     0
  9
$USERI2
 70
     0
  9
$USERI3
 70
     0
  9
$USERI4
 70
     0
  9
$USERI5
 70
     0
  9
$USERR1
 40
0.0
  9
$USERR2
 40
0.0
  9
$USERR3
 40
0.0
  9
$USERR4
 40
0.0
  9
$USERR5
 40
0.0
  9
$WORLDVIEW
 70
     1
  9
$SHADEDGE
 70
     3
  9
$SHADEDIF
 70
    70
  9
$TILEMODE
 70
     1
  9
$MAXACTVP
 70
    64
  9
$PINSBASE
 10
0.0
 20
0.0
 30
0.0
  9
$PLIMCHECK
 70
     0
  9
$PEXTMIN
 10
1.000000000000000E+20
 20
1.000000000000000E+20
 30
1.000000000000000E+20
  9
$PEXTMAX
 10
-1.000000000000000E+20
 20
-1.000000000000000E+20
 30
-1.000000000000000E+20
  9
$PLIMMIN
 10
0.0
 20
0.0
  9
$PLIMMAX
 10
420.0
 20
297.0
  9
$UNITMODE
 70
     0
  9
$VISRETAIN
 70
     1
  9
$PLINEGEN
 70
     0
  9
$PSLTSCALE
 70
     1
  9
$TREEDEPTH
 70
  3020
  9
$PICKSTYLE
 70
     1
  9
$CMLSTYLE
  2
STANDARD
  9
$CMLJUST
 70
     0
  9
$CMLSCALE
 40
20.0
  9
$SAVEIMAGES
 70
     1
  0
ENDSEC
  0
SECTION
  2
CLASSES
  0
CLASS
  1
ACDBDICTIONARYWDFLT
  2
AcDbDictionaryWithDefault
  3
ObjectDBX Classes
 90
    32768
280
     0
281
     0
  0
CLASS
  1
VISUALSTYLE
  2
AcDbVisualStyle
  3
ObjectDBX Classes
 90
     4095
280
     0
281
     0
  0
CLASS
  1
MATERIAL
  2
AcDbMaterial
  3
ObjectDBX Classes
 90
     1153
280
     0
281
     0
  0
CLASS
  1
SCALE
  2
AcDbScale
  3
ObjectDBX Classes
 90
     1153
280
     0
281
     0
  0
CLASS
  1
TABLESTYLE
  2
AcDbTableStyle
  3
ObjectDBX Classes
 90
     4095
280
     0
281
     0
  0
CLASS
  1
MLEADERSTYLE
  2
AcDbMLeaderStyle
  3
ACDB_MLEADERSTYLE_CLASS
 90
     4095
280
     0
281
     0
  0
CLASS
  1
SUN
  2
AcDbSun
  3
SCENEOE
 90
     1153
280
     0
281
     0
  0
CLASS
  1
DICTIONARYVAR
  2
AcDbDictionaryVar
  3
ObjectDBX Classes
 90
        0
280
     0
281
     0
  0
CLASS
  1
XRECORD
  2
AcDbXrecord
  3
ObjectDBX Classes
 90
    32768
280
     0
281
     0
  0
CLASS
  1
LWPOLYLINE
  2
AcDbPolyline
  3
ObjectDBX Classes
 90
    32768
280
     0
281
     1
  0
CLASS
  1
HATCH
  2
AcDbHatch
  3
ObjectDBX Classes
 90
    32768
280
     0
281
     1
  0
CLASS
  1
ACDBPLACEHOLDER
  2
AcDbPlaceHolder
  3
ObjectDBX Classes
 90
        0
280
     0
281
     0
  0
CLASS
  1
LAYOUT
  2
AcDbLayout
  3
ObjectDBX Classes
 90
        0
280
     0
281
     0
  0
ENDSEC
  0
SECTION
  2
TABLES
  0
TABLE
  2
VPORT
  5
8
330
0
100
AcDbSymbolTable
 70
     1
  0
VPORT
  5
29
330
8
100
AcDbSymbolTableRecord
100
AcDbViewportTableRecord
  2
*ACTIVE
 70
     0
 10
0.0
 20
0.0
 11
1.0
 21
1.0
 12
0.0
 22
0.0
 13
0.0
 23
0.0
 14
10.0
 24
10.0
 15
10.0
 25
10.0
 16
0.0
 26
0.0
 36
1.0
 17
0.0
 27
0.0
 37
0.0
 40
913.9200000000003
 41
0.9999999999999999
 42
50.0
 43
0.0
 44
0.0
 50
0.0
 51
0.0
 71
     0
 72
   100
 73
     1
 74
     3
 75
     0
 76
     0
 77
     0
 78
     0
  0
ENDTAB
  0
TABLE
  2
LTYPE
  5
5
330
0
100
AcDbSymbolTable
 70
     1
  0
LTYPE
  5
14
330
5
100
AcDbSymbolTableRecord
100
AcDbLinetypeTableRecord
  2
BYBLOCK
 70
     0
  3

 72
    65
 73
     0
 40
0.0
  0
LTYPE
  5
15
330
5
100
AcDbSymbolTableRecord
100
AcDbLinetypeTableRecord
  2
BYLAYER
 70
     0
  3

 72
    65
 73
     0
 40
0.0
  0
LTYPE
  5
16
330
5
100
AcDbSymbolTableRecord
100
AcDbLinetypeTableRecord
  2
CONTINUOUS
 70
     0
  3
Solid line
 72
    65
 73
     0
 40
0.0
  0
ENDTAB
  0
TABLE
  2
LAYER
  5
2
330
0
100
AcDbSymbolTable
 70
     4
  0
LAYER
  5
10
330
2
100
AcDbSymbolTableRecord
100
AcDbLayerTableRecord
  2
0
 70
     0
 62
     7
  6
CONTINUOUS
  0
LAYER
  5
6E
330
2
100
AcDbSymbolTableRecord
100
AcDbLayerTableRecord
  2
THICK
 70
     0
 62
     7
  6
CONTINUOUS
  0
LAYER
  5
6F
330
2
100
AcDbSymbolTableRecord
100
AcDbLayerTableRecord
  2
HIDDEN
 70
     0
 62
     7
  6
CONTINUOUS
  0
LAYER
  5
70
330
2
100
AcDbSymbolTableRecord
100
AcDbLayerTableRecord
  2
HASHLINES
 70
     0
 62
     7
  6
CONTINUOUS
  0
ENDTAB
  0
TABLE
  2
STYLE
  5
3
330
0
100
AcDbSymbolTable
 70
     1
  0
STYLE
  5
11
330
3
100
AcDbSymbolTableRecord
100
AcDbTextStyleTableRecord
  2
STANDARD
 70
     0
 40
0.0
 41
1.0
 50
0.0
 71
     0
 42
2.5
  3
txt
  4

  0
ENDTAB
  0
TABLE
  2
VIEW
  5
6
330
0
100
AcDbSymbolTable
 70
     0
  0
ENDTAB
  0
TABLE
  2
UCS
  5
7
330
0
100
AcDbSymbolTable
 70
     0
  0
ENDTAB
  0
TABLE
  2
APPID
  5
9
330
0
100
AcDbSymbolTable
 70
     3
  0
APPID
  5
12
330
9
100
AcDbSymbolTableRecord
100
AcDbRegAppTableRecord
  2
ACAD
 70
     0
  0
APPID
  5
71
330
9
100
AcDbSymbolTableRecord
100
AcDbRegAppTableRecord
  2
DBPROPERTIES
 70
     0
  0
APPID
  5
3A7
330
9
100
AcDbSymbolTableRecord
100
AcDbRegAppTableRecord
  2
ACAD_MLEADERVER
 70
     0
  0
ENDTAB
  0
TABLE
  2
DIMSTYLE
  5
A
330
0
100
AcDbSymbolTable
 70
     1
  0
DIMSTYLE
105
27
330
A
100
AcDbSymbolTableRecord
100
AcDbDimStyleTableRecord
  2
ISO-25
 70
     0
  3

  4

  5

  6

  7

 40
1.0
 41
2.5
 42
0.625
 43
3.75
 44
1.25
 45
0.0
 46
0.0
 47
0.0
 48
0.0
140
2.5
141
2.5
142
0.0
143
0.03937007874016
144
1.0
145
0.0
146
1.0
147
0.625
 71
     0
 72
     0
 73
     0
 74
     0
 75
     0
 76
     0
 77
     1
 78
     8
170
     0
171
     3
172
     1
173
     0
174
     0
175
     0
176
     0
177
     0
178
     0
270
     2
271
     2
272
     2
273
     2
274
     3
340
11
275
     0
280
     0
281
     0
282
     0
283
     0
284
     8
285
     0
286
     0
287
     3
288
     0
  0
ENDTAB
  0
TABLE
  2
BLOCK_RECORD
  5
1
330
0
100
AcDbSymbolTable
 70
     0
  0
BLOCK_RECORD
  5
1F
330
1
100
AcDbSymbolTableRecord
100
AcDbBlockTableRecord
  2
*MODEL_SPACE
  0
BLOCK_RECORD
  5
1B
330
1
100
AcDbSymbolTableRecord
100
AcDbBlockTableRecord
  2
*PAPER_SPACE
  0
ENDTAB
  0
ENDSEC
  0
SECTION
  2
BLOCKS
  0
BLOCK
  5
20
330
1F
100
AcDbEntity
  8
0
100
AcDbBlockBegin
  2
*MODEL_SPACE
 70
     0
 10
0.0
 20
0.0
 30
0.0
  3
*MODEL_SPACE
  1

  0
ENDBLK
  5
21
330
1F
100
AcDbEntity
  8
0
100
AcDbBlockEnd
  0
BLOCK
  5
1C
330
1B
100
AcDbEntity
 67
     1
  8
0
100
AcDbBlockBegin
  2
*PAPER_SPACE
 70
     0
 10
0.0
 20
0.0
 30
0.0
  3
*PAPER_SPACE
  1

  0
ENDBLK
  5
1D
330
1B
100
AcDbEntity
 67
     1
  8
0
100
AcDbBlockEnd
  0
ENDSEC
  0
SECTION
  2
ENTITIES
  0
ARC
  5
72
330
1F
100
AcDbEntity
  8
THICK
100
AcDbCircle
 10
0.0
 20
0.0
 30
0.0
 40
437.0
100
AcDbArc
 50
180.0000198478428
 51
270.0000187239684
1001
DBPROPERTIES
1002
{
1000
PbThick
1002
}
  0
ARC
  5
73
330
1F
100
AcDbEntity
  8
THICK
100
AcDbCircle
 10
0.0
 20
0.0
 30
0.0
 40
437.0
100
AcDbArc
 50
270.0000187239684
 51
0.0
1001
DBPROPERTIES
1002
{
1000
PbThick
1002
}
  0
ARC
  5
74
330
1F
100
AcDbEntity
  8
THICK
100
AcDbCircle
 10
0.0
 20
0.0
 30
0.0
 40
437.0
100
AcDbArc
 50
0.0
 51
180.0000198478428
1001
DBPROPERTIES
1002
{
1000
PbThick
1002
}
  0
ARC
  5
75
330
1F
100
AcDbEntity
  8
THICK
100
AcDbCircle
 10
164.5538759169889
 20
397.2681989798532
 30
0.0
 40
6.0
100
AcDbArc
 50
247.5000234049604
 51
67.49998595702374
1001
DBPROPERTIES
1002
{
1000
PbThick
1002
}
  0
ARC
  5
76
330
1F
100
AcDbEntity
  8
THICK
100
AcDbCircle
 10
164.5538759169889
 20
397.2681989798532
 30
0.0
 40
6.0
100
AcDbArc
 50
67.49998595702374
 51
247.5000234049604
1001
DBPROPERTIES
1002
{
1000
PbThick
1002
}
  0
ARC
  5
77
330
1F
100
AcDbEntity
  8
THICK
100
AcDbCircle
 10
304.0559159102155
 20
304.0559159102153
 30
0.0
 40
5.999999999999999
100
AcDbArc
 50
225.0000280859525
 51
44.99999063801582
1001
DBPROPERTIES
1002
{
1000
PbThick
1002
}
  0
ARC
  5
78
330
1F
100
AcDbEntity
  8
THICK
100
AcDbCircle
 10
304.0559159102155
 20
304.0559159102153
 30
0.0
 40
5.999999999999999
100
AcDbArc
 50
44.99999063801582
 51
225.0000280859525
1001
DBPROPERTIES
1002
{
1000
PbThick
1002
}
  0
ARC
  5
79
330
1F
100
AcDbEntity
  8
THICK
100
AcDbCircle
 10
397.2681989798532
 20
164.5538759169887
 30
0.0
 40
5.999999999999999
100
AcDbArc
 50
202.5000327669446
 51
22.49999531900791
1001
DBPROPERTIES
1002
{
1000
PbThick
1002
}
  0
ARC
  5
7A
330
1F
100
AcDbEntity
  8
THICK
100
AcDbCircle
 10
397.2681989798532
 20
164.5538759169887
 30
0.0
 40
5.999999999999999
100
AcDbArc
 50
22.49999531900791
 51
202.5000327669446
1001
DBPROPERTIES
1002
{
1000
PbThick
1002
}
  0
ARC
  5
7B
330
1F
100
AcDbEntity
  8
THICK
100
AcDbCircle
 10
430.0
 20
-0.0000000000001053
 30
0.0
 40
6.0
100
AcDbArc
 50
180.0000198478428
 51
0.0
1001
DBPROPERTIES
1002
{
1000
PbThick
1002
}
  0
ARC
  5
7C
330
1F
100
AcDbEntity
  8
THICK
100
AcDbCircle
 10
430.0
 20
-0.0000000000001053
 30
0.0
 40
6.0
100
AcDbArc
 50
0.0
 51
180.0000198478428
1001
DBPROPERTIES
1002
{
1000
PbThick
1002
}
  0
ARC
  5
7D
330
1F
100
AcDbEntity
  8
THICK
100
AcDbCircle
 10
397.2681989798532
 20
-164.5538759169889
 30
0.0
 40
6.0
100
AcDbArc
 50
157.4999672330554
 51
337.500004680992
1001
DBPROPERTIES
1002
{
1000
PbThick
1002
}
  0
ARC
  5
7E
330
1F
100
AcDbEntity
  8
THICK
100
AcDbCircle
 10
397.2681989798532
 20
-164.5538759169889
 30
0.0
 40
6.0
100
AcDbArc
 50
337.500004680992
 51
157.4999672330554
1001
DBPROPERTIES
1002
{
1000
PbThick
1002
}
  0
ARC
  5
7F
330
1F
100
AcDbEntity
  8
THICK
100
AcDbCircle
 10
304.0559159102154
 20
-304.0559159102155
 30
0.0
 40
6.0
100
AcDbArc
 50
134.9999719140475
 51
315.0000093619842
1001
DBPROPERTIES
1002
{
1000
PbThick
1002
}
  0
ARC
  5
80
330
1F
100
AcDbEntity
  8
THICK
100
AcDbCircle
 10
304.0559159102154
 20
-304.0559159102155
 30
0.0
 40
6.0
100
AcDbArc
 50
315.0000093619842
 51
134.9999719140475
1001
DBPROPERTIES
1002
{
1000
PbThick
1002
}
  0
ARC
  5
81
330
1F
100
AcDbEntity
  8
THICK
100
AcDbCircle
 10
164.5538759169885
 20
-397.2681989798533
 30
0.0
 40
5.999999999999999
100
AcDbArc
 50
112.4999765950396
 51
292.5000140429763
1001
DBPROPERTIES
1002
{
1000
PbThick
1002
}
  0
ARC
  5
82
330
1F
100
AcDbEntity
  8
THICK
100
AcDbCircle
 10
164.5538759169885
 20
-397.2681989798533
 30
0.0
 40
5.999999999999999
100
AcDbArc
 50
292.5000140429763
 51
112.4999765950396
1001
DBPROPERTIES
1002
{
1000
PbThick
1002
}
  0
ARC
  5
83
330
1F
100
AcDbEntity
  8
THICK
100
AcDbCircle
 10
-0.000000000000079
 20
-430.0
 30
0.0
 40
6.0
100
AcDbArc
 50
89.99998127603165
 51
270.0000187239684
1001
DBPROPERTIES
1002
{
1000
PbThick
1002
}
  0
ARC
  5
84
330
1F
100
AcDbEntity
  8
THICK
100
AcDbCircle
 10
-0.000000000000079
 20
-430.0
 30
0.0
 40
6.0
100
AcDbArc
 50
270.0000187239684
 51
89.99998127603165
1001
DBPROPERTIES
1002
{
1000
PbThick
1002
}
  0
ARC
  5
85
330
1F
100
AcDbEntity
  8
THICK
100
AcDbCircle
 10
-164.5538759169887
 20
-397.2681989798533
 30
0.0
 40
6.0
100
AcDbArc
 50
67.49998595702374
 51
247.5000234049604
1001
DBPROPERTIES
1002
{
1000
PbThick
1002
}
  0
ARC
  5
86
330
1F
100
AcDbEntity
  8
THICK
100
AcDbCircle
 10
-164.5538759169887
 20
-397.2681989798533
 30
0.0
 40
6.0
100
AcDbArc
 50
247.5000234049604
 51
67.49998595702374
1001
DBPROPERTIES
1002
{
1000
PbThick
1002
}
  0
ARC
  5
87
330
1F
100
AcDbEntity
  8
THICK
100
AcDbCircle
 10
-304.0559159102154
 20
-304.0559159102154
 30
0.0
 40
5.999999999999999
100
AcDbArc
 50
44.99999063801582
 51
225.0000280859525
1001
DBPROPERTIES
1002
{
1000
PbThick
1002
}
  0
ARC
  5
88
330
1F
100
AcDbEntity
  8
THICK
100
AcDbCircle
 10
-304.0559159102154
 20
-304.0559159102154
 30
0.0
 40
5.999999999999999
100
AcDbArc
 50
225.0000280859525
 51
44.99999063801582
1001
DBPROPERTIES
1002
{
1000
PbThick
1002
}
  0
ARC
  5
89
330
1F
100
AcDbEntity
  8
THICK
100
AcDbCircle
 10
-397.2681989798533
 20
-164.5538759169885
 30
0.0
 40
5.999999999999999
100
AcDbArc
 50
22.49999531900791
 51
202.5000327669446
1001
DBPROPERTIES
1002
{
1000
PbThick
1002
}
  0
ARC
  5
8A
330
1F
100
AcDbEntity
  8
THICK
100
AcDbCircle
 10
-397.2681989798533
 20
-164.5538759169885
 30
0.0
 40
5.999999999999999
100
AcDbArc
 50
202.5000327669446
 51
22.49999531900791
1001
DBPROPERTIES
1002
{
1000
PbThick
1002
}
  0
ARC
  5
8B
330
1F
100
AcDbEntity
  8
THICK
100
AcDbCircle
 10
-430.0
 20
0.0000000000000527
 30
0.0
 40
6.0
100
AcDbArc
 50
0.0
 51
180.0000198478428
1001
DBPROPERTIES
1002
{
1000
PbThick
1002
}
  0
ARC
  5
8C
330
1F
100
AcDbEntity
  8
THICK
100
AcDbCircle
 10
-430.0
 20
0.0000000000000527
 30
0.0
 40
6.0
100
AcDbArc
 50
180.0000198478428
 51
0.0
1001
DBPROPERTIES
1002
{
1000
PbThick
1002
}
  0
ARC
  5
8D
330
1F
100
AcDbEntity
  8
THICK
100
AcDbCircle
 10
-397.2681989798533
 20
164.5538759169887
 30
0.0
 40
6.0
100
AcDbArc
 50
337.500004680992
 51
157.4999672330554
1001
DBPROPERTIES
1002
{
1000
PbThick
1002
}
  0
ARC
  5
8E
330
1F
100
AcDbEntity
  8
THICK
100
AcDbCircle
 10
-397.2681989798533
 20
164.5538759169887
 30
0.0
 40
6.0
100
AcDbArc
 50
157.4999672330554
 51
337.500004680992
1001
DBPROPERTIES
1002
{
1000
PbThick
1002
}
  0
ARC
  5
8F
330
1F
100
AcDbEntity
  8
THICK
100
AcDbCircle
 10
-304.0559159102154
 20
304.0559159102154
 30
0.0
 40
5.999999999999999
100
AcDbArc
 50
315.0000093619842
 51
134.9999719140475
1001
DBPROPERTIES
1002
{
1000
PbThick
1002
}
  0
ARC
  5
90
330
1F
100
AcDbEntity
  8
THICK
100
AcDbCircle
 10
-304.0559159102154
 20
304.0559159102154
 30
0.0
 40
5.999999999999999
100
AcDbArc
 50
134.9999719140475
 51
315.0000093619842
1001
DBPROPERTIES
1002
{
1000
PbThick
1002
}
  0
ARC
  5
91
330
1F
100
AcDbEntity
  8
THICK
100
AcDbCircle
 10
-164.5538759169885
 20
397.2681989798533
 30
0.0
 40
5.999999999999999
100
AcDbArc
 50
292.5000140429763
 51
112.4999765950396
1001
DBPROPERTIES
1002
{
1000
PbThick
1002
}
  0
ARC
  5
92
330
1F
100
AcDbEntity
  8
THICK
100
AcDbCircle
 10
-164.5538759169885
 20
397.2681989798533
 30
0.0
 40
5.999999999999999
100
AcDbArc
 50
112.4999765950396
 51
292.5000140429763
1001
DBPROPERTIES
1002
{
1000
PbThick
1002
}
  0
ARC
  5
93
330
1F
100
AcDbEntity
  8
THICK
100
AcDbCircle
 10
0.0000000000000263
 20
430.0
 30
0.0
 40
6.0
100
AcDbArc
 50
270.0000187239684
 51
89.99998127603165
1001
DBPROPERTIES
1002
{
1000
PbThick
1002
}
  0
ARC
  5
94
330
1F
100
AcDbEntity
  8
THICK
100
AcDbCircle
 10
0.0000000000000263
 20
430.0
 30
0.0
 40
6.0
100
AcDbArc
 50
89.99998127603165
 51
270.0000187239684
1001
DBPROPERTIES
1002
{
1000
PbThick
1002
}
  0
ARC
  5
95
330
1F
100
AcDbEntity
  8
THICK
100
AcDbCircle
 10
0.0
 20
0.0
 30
0.0
 40
400.0
100
AcDbArc
 50
270.0000187239684
 51
89.99998127603165
1001
DBPROPERTIES
1002
{
1000
PbThick
1002
}
  0
ARC
  5
96
330
1F
100
AcDbEntity
  8
THICK
100
AcDbCircle
 10
0.0
 20
0.0
 30
0.0
 40
400.0
100
AcDbArc
 50
89.99998127603165
 51
270.0000187239684
1001
DBPROPERTIES
1002
{
1000
PbThick
1002
}
  0
ARC
  5
97
330
1F
100
AcDbEntity
  8
HIDDEN
100
AcDbCircle
 10
0.0
 20
0.0
 30
0.0
 40
437.0
100
AcDbArc
 50
89.99998127603165
 51
179.9999801521572
1001
DBPROPERTIES
1002
{
1000
PbHidd
1002
}
  0
ARC
  5
98
330
1F
100
AcDbEntity
  8
HIDDEN
100
AcDbCircle
 10
0.0
 20
0.0
 30
0.0
 40
437.0
100
AcDbArc
 50
0.0
 51
89.99998127603165
1001
DBPROPERTIES
1002
{
1000
PbHidd
1002
}
  0
ARC
  5
99
330
1F
100
AcDbEntity
  8
THICK
100
AcDbCircle
 10
0.0000000000000007
 20
0.0000000000000013
 30
0.0
 40
448.0
100
AcDbArc
 50
180.0000198478428
 51
270.0000187239684
1001
DBPROPERTIES
1002
{
1000
PbThick
1002
}
  0
ARC
  5
9A
330
1F
100
AcDbEntity
  8
THICK
100
AcDbCircle
 10
0.0000000000000007
 20
0.0000000000000013
 30
0.0
 40
448.0
100
AcDbArc
 50
270.0000187239684
 51
0.0
1001
DBPROPERTIES
1002
{
1000
PbThick
1002
}
  0
ARC
  5
9B
330
1F
100
AcDbEntity
  8
THICK
100
AcDbCircle
 10
0.0000000000000007
 20
0.0000000000000013
 30
0.0
 40
448.0
100
AcDbArc
 50
0.0
 51
89.99998127603165
1001
DBPROPERTIES
1002
{
1000
PbThick
1002
}
  0
ARC
  5
9C
330
1F
100
AcDbEntity
  8
HIDDEN
100
AcDbCircle
 10
0.0
 20
0.0
 30
0.0
 40
402.0
100
AcDbArc
 50
270.0000187239684
 51
89.99998127603165
1001
DBPROPERTIES
1002
{
1000
PbHidd
1002
}
  0
LINE
  5
9D
330
1F
100
AcDbEntity
  8
HIDDEN
100
AcDbLine
 10
364.6666666666667
 20
-164.3722063556434
 30
0.0
 11
364.6666666666667
 21
-164.3722063556434
 31
0.0
1001
DBPROPERTIES
1002
{
1000
PbHidd
1002
}
  0
LINE
  5
9E
330
1F
100
AcDbEntity
  8
HIDDEN
100
AcDbLine
 10
364.2319163512292
 20
-165.3333333333334
 30
0.0
 11
364.2319163512292
 21
-165.3333333333334
 31
0.0
1001
DBPROPERTIES
1002
{
1000
PbHidd
1002
}
  0
LINE
  5
9F
330
1F
100
AcDbEntity
  8
HIDDEN
100
AcDbLine
 10
133.3333333333333
 20
-377.1236166328254
 30
0.0
 11
133.3333333333333
 21
-377.1236166328254
 31
0.0
1001
DBPROPERTIES
1002
{
1000
PbHidd
1002
}
  0
LINE
  5
A0
330
1F
100
AcDbEntity
  8
HIDDEN
100
AcDbLine
 10
129.3333333333333
 20
-378.5140537534754
 30
0.0
 11
129.3333333333333
 21
-378.5140537534754
 31
0.0
1001
DBPROPERTIES
1002
{
1000
PbHidd
1002
}
  0
ARC
  5
A1
330
1F
100
AcDbEntity
  8
THICK
100
AcDbCircle
 10
0.0000000000000007
 20
0.0
 30
0.0
 40
133.3333333333333
100
AcDbArc
 50
0.0
 51
89.99998127603165
1001
DBPROPERTIES
1002
{
1000
PbThick
1002
}
  0
ARC
  5
A2
330
1F
100
AcDbEntity
  8
THICK
100
AcDbCircle
 10
0.0000000000000007
 20
0.0
 30
0.0
 40
133.3333333333333
100
AcDbArc
 50
270.0000187239684
 51
0.0
1001
DBPROPERTIES
1002
{
1000
PbThick
1002
}
  0
ARC
  5
A3
330
1F
100
AcDbEntity
  8
THICK
100
AcDbCircle
 10
0.0
 20
0.0
 30
0.0
 40
122.3333333333333
100
AcDbArc
 50
0.0
 51
89.99998127603165
1001
DBPROPERTIES
1002
{
1000
PbThick
1002
}
  0
ARC
  5
A4
330
1F
100
AcDbEntity
  8
THICK
100
AcDbCircle
 10
0.0000000000000007
 20
0.0
 30
0.0
 40
133.3333333333333
100
AcDbArc
 50
89.99998127603165
 51
180.0000198478428
1001
DBPROPERTIES
1002
{
1000
PbThick
1002
}
  0
ARC
  5
A5
330
1F
100
AcDbEntity
  8
THICK
100
AcDbCircle
 10
0.0
 20
0.0
 30
0.0
 40
122.3333333333333
100
AcDbArc
 50
89.99998127603165
 51
180.0000198478428
1001
DBPROPERTIES
1002
{
1000
PbThick
1002
}
  0
ARC
  5
A6
330
1F
100
AcDbEntity
  8
HIDDEN
100
AcDbCircle
 10
0.0
 20
0.0
 30
0.0
 40
131.1475409836066
100
AcDbArc
 50
89.99998127603165
 51
270.0000187239684
1001
DBPROPERTIES
1002
{
1000
PbHidd
1002
}
  0
ARC
  5
A7
330
1F
100
AcDbEntity
  8
HIDDEN
100
AcDbCircle
 10
0.0
 20
0.0
 30
0.0
 40
106.6666666666667
100
AcDbArc
 50
270.0000187239684
 51
89.99998127603165
1001
DBPROPERTIES
1002
{
1000
PbHidd
1002
}
  0
ARC
  5
A8
330
1F
100
AcDbEntity
  8
HIDDEN
100
AcDbCircle
 10
0.0
 20
0.0
 30
0.0
 40
94.11764705882354
100
AcDbArc
 50
270.0000187239684
 51
89.99998127603165
1001
DBPROPERTIES
1002
{
1000
PbHidd
1002
}
  0
ARC
  5
A9
330
1F
100
AcDbEntity
  8
HIDDEN
100
AcDbCircle
 10
0.0
 20
0.0
 30
0.0
 40
103.6666666666667
100
AcDbArc
 50
89.99998127603165
 51
179.9999801521572
1001
DBPROPERTIES
1002
{
1000
PbHidd
1002
}
  0
ARC
  5
AA
330
1F
100
AcDbEntity
  8
HIDDEN
100
AcDbCircle
 10
0.0
 20
0.0
 30
0.0
 40
103.6666666666667
100
AcDbArc
 50
0.0
 51
89.99998127603165
1001
DBPROPERTIES
1002
{
1000
PbHidd
1002
}
  0
ARC
  5
AB
330
1F
100
AcDbEntity
  8
HIDDEN
100
AcDbCircle
 10
0.0
 20
0.0
 30
0.0
 40
90.11764705882354
100
AcDbArc
 50
89.99998127603165
 51
179.9999801521572
1001
DBPROPERTIES
1002
{
1000
PbHidd
1002
}
  0
ARC
  5
AC
330
1F
100
AcDbEntity
  8
HIDDEN
100
AcDbCircle
 10
0.0
 20
0.0
 30
0.0
 40
90.11764705882354
100
AcDbArc
 50
0.0
 51
89.99998127603165
1001
DBPROPERTIES
1002
{
1000
PbHidd
1002
}
  0
ARC
  5
AD
330
1F
100
AcDbEntity
  8
HIDDEN
100
AcDbCircle
 10
0.0
 20
0.0000000000000502
 30
0.0
 40
112.0769230769231
100
AcDbArc
 50
270.0000187239684
 51
0.0
1001
DBPROPERTIES
1002
{
1000
PbHidd
1002
}
  0
ARC
  5
AE
330
1F
100
AcDbEntity
  8
HIDDEN
100
AcDbCircle
 10
0.0
 20
0.0000000000000502
 30
0.0
 40
112.0769230769231
100
AcDbArc
 50
180.0000198478428
 51
270.0000187239684
1001
DBPROPERTIES
1002
{
1000
PbHidd
1002
}
  0
LINE
  5
AF
330
1F
100
AcDbEntity
  8
HIDDEN
100
AcDbLine
 10
101.1894426691101
 20
-70.06158495493607
 30
0.0
 11
101.1894426691101
 21
-70.06158495493604
 31
0.0
1001
DBPROPERTIES
1002
{
1000
PbHidd
1002
}
  0
LINE
  5
B0
330
1F
100
AcDbEntity
  8
HIDDEN
100
AcDbLine
 10
99.99999999999997
 20
-70.24997416638118
 30
0.0
 11
101.18944266911
 21
-70.06158495493605
 31
0.0
1001
DBPROPERTIES
1002
{
1000
PbHidd
1002
}
  0
LINE
  5
B1
330
1F
100
AcDbEntity
  8
HIDDEN
100
AcDbLine
 10
100.0
 20
-70.24997416638118
 30
0.0
 11
100.0
 21
-70.24997416638118
 31
0.0
1001
DBPROPERTIES
1002
{
1000
PbHidd
1002
}
  0
LINE
  5
B2
330
1F
100
AcDbEntity
  8
HIDDEN
100
AcDbLine
 10
99.99999999999994
 20
-70.24997416638118
 30
0.0
 11
97.28307677333811
 21
-70.68029253104075
 31
0.0
1001
DBPROPERTIES
1002
{
1000
PbHidd
1002
}
  0
LINE
  5
B3
330
1F
100
AcDbEntity
  8
HIDDEN
100
AcDbLine
 10
97.28307677333817
 20
-70.68029253104073
 30
0.0
 11
97.28307677333817
 21
-70.68029253104073
 31
0.0
1001
DBPROPERTIES
1002
{
1000
PbHidd
1002
}
  0
LINE
  5
B4
330
1F
100
AcDbEntity
  8
THICK
100
AcDbLine
 10
100.0
 20
-131.3333333333333
 30
0.0
 11
100.0
 21
-102.0490749777939
 31
0.0
1001
DBPROPERTIES
1002
{
1000
PbThick
1002
}
  0
LINE
  5
B5
330
1F
100
AcDbEntity
  8
HIDDEN
100
AcDbLine
 10
100.0
 20
-102.0490749777939
 30
0.0
 11
100.0
 21
-84.85091340726254
 31
0.0
1001
DBPROPERTIES
1002
{
1000
PbHidd
1002
}
  0
LINE
  5
B6
330
1F
100
AcDbEntity
  8
HIDDEN
100
AcDbLine
 10
-100.0
 20
-84.85091340726254
 30
0.0
 11
-100.0
 21
-131.3333333333333
 31
0.0
1001
DBPROPERTIES
1002
{
1000
PbHidd
1002
}
  0
LINE
  5
B7
330
1F
100
AcDbEntity
  8
HIDDEN
100
AcDbLine
 10
-100.0
 20
-70.24997416638115
 30
0.0
 11
-100.0
 21
-70.24997416638115
 31
0.0
1001
DBPROPERTIES
1002
{
1000
PbHidd
1002
}
  0
LINE
  5
B8
330
1F
100
AcDbEntity
  8
HIDDEN
100
AcDbLine
 10
-101.1894426691101
 20
-70.06158495493601
 30
0.0
 11
-100.0
 21
-70.24997416638114
 31
0.0
1001
DBPROPERTIES
1002
{
1000
PbHidd
1002
}
  0
LINE
  5
B9
330
1F
100
AcDbEntity
  8
HIDDEN
100
AcDbLine
 10
-101.1894426691101
 20
-70.061584954936
 30
0.0
 11
-101.1894426691101
 21
-70.06158495493602
 31
0.0
1001
DBPROPERTIES
1002
{
1000
PbHidd
1002
}
  0
LINE
  5
BA
330
1F
100
AcDbEntity
  8
HIDDEN
100
AcDbLine
 10
-97.28307677333818
 20
-70.6802925310407
 30
0.0
 11
-97.28307677333818
 21
-70.6802925310407
 31
0.0
1001
DBPROPERTIES
1002
{
1000
PbHidd
1002
}
  0
LINE
  5
BB
330
1F
100
AcDbEntity
  8
HIDDEN
100
AcDbLine
 10
-97.28307677333817
 20
-70.68029253104072
 30
0.0
 11
-99.99999999999997
 21
-70.24997416638115
 31
0.0
1001
DBPROPERTIES
1002
{
1000
PbHidd
1002
}
  0
ARC
  5
BC
330
1F
100
AcDbEntity
  8
HIDDEN
100
AcDbCircle
 10
0.0
 20
0.0000000000000237
 30
0.0
 40
123.0769230769231
100
AcDbArc
 50
213.7020452111063
 51
214.6979604506027
1001
DBPROPERTIES
1002
{
1000
PbHidd
1002
}
  0
LINE
  5
BD
330
1F
100
AcDbEntity
  8
HIDDEN
100
AcDbLine
 10
-102.3919325741396
 20
-68.29217479196049
 30
0.0
 11
-102.3919325741396
 21
-68.29217479196046
 31
0.0
1001
DBPROPERTIES
1002
{
1000
PbHidd
1002
}
  0
LINE
  5
BE
330
1F
100
AcDbEntity
  8
HIDDEN
100
AcDbLine
 10
-101.5291631320389
 20
-64.43236618709979
 30
0.0
 11
-102.3919325741396
 21
-68.29217479196046
 31
0.0
1001
DBPROPERTIES
1002
{
1000
PbHidd
1002
}
  0
LINE
  5
BF
330
1F
100
AcDbEntity
  8
HIDDEN
100
AcDbLine
 10
-101.5291631320389
 20
-64.43236618709982
 30
0.0
 11
-101.5291631320389
 21
-64.43236618709982
 31
0.0
1001
DBPROPERTIES
1002
{
1000
PbHidd
1002
}
  0
LINE
  5
C0
330
1F
100
AcDbEntity
  8
HIDDEN
100
AcDbLine
 10
-105.3889717368996
 20
-63.56959674499914
 30
0.0
 11
-101.5291631320389
 21
-64.4323661870998
 31
0.0
1001
DBPROPERTIES
1002
{
1000
PbHidd
1002
}
  0
LINE
  5
C1
330
1F
100
AcDbEntity
  8
HIDDEN
100
AcDbLine
 10
-105.3889717368996
 20
-63.56959674499915
 30
0.0
 11
-105.3889717368996
 21
-63.56959674499918
 31
0.0
1001
DBPROPERTIES
1002
{
1000
PbHidd
1002
}
  0
ARC
  5
C2
330
1F
100
AcDbEntity
  8
HIDDEN
100
AcDbCircle
 10
0.0
 20
0.0000000000000237
 30
0.0
 40
123.0769230769231
100
AcDbArc
 50
210.1020367927404
 51
211.0979520322368
1001
DBPROPERTIES
1002
{
1000
PbHidd
1002
}
  0
LINE
  5
C3
330
1F
100
AcDbEntity
  8
HIDDEN
100
AcDbLine
 10
-106.4779866193906
 20
-61.72817314293135
 30
0.0
 11
-106.4779866193906
 21
-61.72817314293132
 31
0.0
1001
DBPROPERTIES
1002
{
1000
PbHidd
1002
}
  0
LINE
  5
C4
330
1F
100
AcDbEntity
  8
HIDDEN
100
AcDbLine
 10
-105.3745602681201
 20
-57.93015473016646
 30
0.0
 11
-106.4779866193906
 21
-61.72817314293133
 31
0.0
1001
DBPROPERTIES
1002
{
1000
PbHidd
1002
}
  0
LINE
  5
C5
330
1F
100
AcDbEntity
  8
HIDDEN
100
AcDbLine
 10
-105.3745602681201
 20
-57.93015473016647
 30
0.0
 11
-105.3745602681201
 21
-57.93015473016647
 31
0.0
1001
DBPROPERTIES
1002
{
1000
PbHidd
1002
}
  0
LINE
  5
C6
330
1F
100
AcDbEntity
  8
HIDDEN
100
AcDbLine
 10
-109.1725786808849
 20
-56.82672837889595
 30
0.0
 11
-105.3745602681201
 21
-57.93015473016646
 31
0.0
1001
DBPROPERTIES
1002
{
1000
PbHidd
1002
}
  0
LINE
  5
C7
330
1F
100
AcDbEntity
  8
HIDDEN
100
AcDbLine
 10
-109.172578680885
 20
-56.82672837889594
 30
0.0
 11
-109.172578680885
 21
-56.82672837889597
 31
0.0
1001
DBPROPERTIES
1002
{
1000
PbHidd
1002
}
  0
ARC
  5
C8
330
1F
100
AcDbEntity
  8
HIDDEN
100
AcDbCircle
 10
0.0
 20
0.0000000000000237
 30
0.0
 40
123.0769230769231
100
AcDbArc
 50
206.5020283743744
 51
207.4979436138708
1001
DBPROPERTIES
1002
{
1000
PbHidd
1002
}
  0
LINE
  5
C9
330
1F
100
AcDbEntity
  8
HIDDEN
100
AcDbLine
 10
-110.1438206966198
 20
-54.92055859542685
 30
0.0
 11
-110.1438206966198
 21
-54.92055859542683
 31
0.0
1001
DBPROPERTIES
1002
{
1000
PbHidd
1002
}
  0
LINE
  5
CA
330
1F
100
AcDbEntity
  8
HIDDEN
100
AcDbLine
 10
-108.8040921558803
 20
-51.19931941828337
 30
0.0
 11
-110.1438206966197
 21
-54.92055859542684
 31
0.0
1001
DBPROPERTIES
1002
{
1000
PbHidd
1002
}
  0
LINE
  5
CB
330
1F
100
AcDbEntity
  8
HIDDEN
100
AcDbLine
 10
-108.8040921558803
 20
-51.19931941828338
 30
0.0
 11
-108.8040921558803
 21
-51.19931941828338
 31
0.0
1001
DBPROPERTIES
1002
{
1000
PbHidd
1002
}
  0
LINE
  5
CC
330
1F
100
AcDbEntity
  8
HIDDEN
100
AcDbLine
 10
-112.5253313330237
 20
-49.85959087754389
 30
0.0
 11
-108.8040921558803
 21
-51.19931941828337
 31
0.0
1001
DBPROPERTIES
1002
{
1000
PbHidd
1002
}
  0
LINE
  5
CD
330
1F
100
AcDbEntity
  8
HIDDEN
100
AcDbLine
 10
-112.5253313330238
 20
-49.85959087754389
 30
0.0
 11
-112.5253313330238
 21
-49.85959087754392
 31
0.0
1001
DBPROPERTIES
1002
{
1000
PbHidd
1002
}
  0
ARC
  5
CE
330
1F
100
AcDbEntity
  8
HIDDEN
100
AcDbCircle
 10
0.0
 20
0.0000000000000237
 30
0.0
 40
123.0769230769231
100
AcDbArc
 50
202.9020199560084
 51
203.8979924912843
1001
DBPROPERTIES
1002
{
1000
PbHidd
1002
}
  0
LINE
  5
CF
330
1F
100
AcDbEntity
  8
HIDDEN
100
AcDbLine
 10
-113.3749674334845
 20
-47.89619769396275
 30
0.0
 11
-113.3749674334845
 21
-47.89619769396272
 31
0.0
1001
DBPROPERTIES
1002
{
1000
PbHidd
1002
}
  0
LINE
  5
D0
330
1F
100
AcDbEntity
  8
HIDDEN
100
AcDbLine
 10
-111.8042239997626
 20
-44.26642378340041
 30
0.0
 11
-113.3749674334845
 21
-47.89619769396274
 31
0.0
1001
DBPROPERTIES
1002
{
1000
PbHidd
1002
}
  0
LINE
  5
D1
330
1F
100
AcDbEntity
  8
HIDDEN
100
AcDbLine
 10
-111.8042239997627
 20
-44.26642378340041
 30
0.0
 11
-111.8042239997627
 21
-44.26642378340041
 31
0.0
1001
DBPROPERTIES
1002
{
1000
PbHidd
1002
}
  0
LINE
  5
D2
330
1F
100
AcDbEntity
  8
HIDDEN
100
AcDbLine
 10
-115.433997910325
 20
-42.69568034967855
 30
0.0
 11
-111.8042239997626
 21
-44.26642378340041
 31
0.0
1001
DBPROPERTIES
1002
{
1000
PbHidd
1002
}
  0
LINE
  5
D3
330
1F
100
AcDbEntity
  8
HIDDEN
100
AcDbLine
 10
-115.433997910325
 20
-42.69568034967853
 30
0.0
 11
-115.433997910325
 21
-42.69568034967856
 31
0.0
1001
DBPROPERTIES
1002
{
1000
PbHidd
1002
}
  0
ARC
  5
D4
330
1F
100
AcDbEntity
  8
HIDDEN
100
AcDbCircle
 10
0.0
 20
0.0000000000000237
 30
0.0
 40
123.0769230769231
100
AcDbArc
 50
199.3020115376424
 51
200.2979840729183
1001
DBPROPERTIES
1002
{
1000
PbHidd
1002
}
  0
LINE
  5
D5
330
1F
100
AcDbEntity
  8
HIDDEN
100
AcDbLine
 10
-116.158674969985
 20
-40.68281238189193
 30
0.0
 11
-116.158674969985
 21
-40.6828123818919
 31
0.0
1001
DBPROPERTIES
1002
{
1000
PbHidd
1002
}
  0
LINE
  5
D6
330
1F
100
AcDbEntity
  8
HIDDEN
100
AcDbLine
 10
-114.3631156500092
 20
-37.15882879724974
 30
0.0
 11
-116.158674969985
 21
-40.68281238189191
 31
0.0
1001
DBPROPERTIES
1002
{
1000
PbHidd
1002
}
  0
LINE
  5
D7
330
1F
100
AcDbEntity
  8
HIDDEN
100
AcDbLine
 10
-114.3631156500092
 20
-37.15882879724975
 30
0.0
 11
-114.3631156500092
 21
-37.15882879724975
 31
0.0
1001
DBPROPERTIES
1002
{
1000
PbHidd
1002
}
  0
LINE
  5
D8
330
1F
100
AcDbEntity
  8
HIDDEN
100
AcDbLine
 10
-117.8870992346513
 20
-35.36326947727395
 30
0.0
 11
-114.3631156500092
 21
-37.15882879724973
 31
0.0
1001
DBPROPERTIES
1002
{
1000
PbHidd
1002
}
  0
LINE
  5
D9
330
1F
100
AcDbEntity
  8
HIDDEN
100
AcDbLine
 10
-117.8870992346514
 20
-35.36326947727394
 30
0.0
 11
-117.8870992346514
 21
-35.36326947727397
 31
0.0
1001
DBPROPERTIES
1002
{
1000
PbHidd
1002
}
  0
ARC
  5
DA
330
1F
100
AcDbEntity
  8
HIDDEN
100
AcDbCircle
 10
0.0
 20
0.0000000000000237
 30
0.0
 40
123.0769230769231
100
AcDbArc
 50
195.7020031192764
 51
196.6979756545523
1001
DBPROPERTIES
1002
{
1000
PbHidd
1002
}
  0
LINE
  5
DB
330
1F
100
AcDbEntity
  8
HIDDEN
100
AcDbLine
 10
-118.4839572842297
 20
-33.30887059555875
 30
0.0
 11
-118.4839572842297
 21
-33.30887059555872
 31
0.0
1001
DBPROPERTIES
1002
{
1000
PbHidd
1002
}
  0
LINE
  5
DC
330
1F
100
AcDbEntity
  8
HIDDEN
100
AcDbLine
 10
-116.4706683303229
 20
-29.90458489009036
 30
0.0
 11
-118.4839572842297
 21
-33.30887059555874
 31
0.0
1001
DBPROPERTIES
1002
{
1000
PbHidd
1002
}
  0
LINE
  5
DD
330
1F
100
AcDbEntity
  8
HIDDEN
100
AcDbLine
 10
-116.4706683303229
 20
-29.90458489009037
 30
0.0
 11
-116.4706683303229
 21
-29.90458489009037
 31
0.0
1001
DBPROPERTIES
1002
{
1000
PbHidd
1002
}
  0
LINE
  5
DE
330
1F
100
AcDbEntity
  8
HIDDEN
100
AcDbLine
 10
-119.8749540357912
 20
-27.89129593618361
 30
0.0
 11
-116.4706683303229
 21
-29.90458489009037
 31
0.0
1001
DBPROPERTIES
1002
{
1000
PbHidd
1002
}
  0
LINE
  5
DF
330
1F
100
AcDbEntity
  8
HIDDEN
100
AcDbLine
 10
-119.8749540357912
 20
-27.89129593618358
 30
0.0
 11
-119.8749540357912
 21
-27.89129593618361
 31
0.0
1001
DBPROPERTIES
1002
{
1000
PbHidd
1002
}
  0
ARC
  5
E0
330
1F
100
AcDbEntity
  8
HIDDEN
100
AcDbCircle
 10
0.0
 20
0.0000000000000237
 30
0.0
 40
123.0769230769231
100
AcDbArc
 50
192.1020519966899
 51
193.0979672361863
1001
DBPROPERTIES
1002
{
1000
PbHidd
1002
}
  0
LINE
  5
E1
330
1F
100
AcDbEntity
  8
HIDDEN
100
AcDbLine
 10
-120.3416375492446
 20
-25.8034739143604
 30
0.0
 11
-120.3416375492446
 21
-25.80347391436037
 31
0.0
1001
DBPROPERTIES
1002
{
1000
PbHidd
1002
}
  0
LINE
  5
E2
330
1F
100
AcDbEntity
  8
HIDDEN
100
AcDbLine
 10
-118.1185644931237
 20
-22.53232124847511
 30
0.0
 11
-120.3416375492446
 21
-25.8034739143604
 31
0.0
1001
DBPROPERTIES
1002
{
1000
PbHidd
1002
}
  0
LINE
  5
E3
330
1F
100
AcDbEntity
  8
HIDDEN
100
AcDbLine
 10
-118.1185644931237
 20
-22.53232124847511
 30
0.0
 11
-118.1185644931237
 21
-22.53232124847511
 31
0.0
1001
DBPROPERTIES
1002
{
1000
PbHidd
1002
}
  0
LINE
  5
E4
330
1F
100
AcDbEntity
  8
HIDDEN
100
AcDbLine
 10
-121.389717159009
 20
-20.30924819235418
 30
0.0
 11
-118.1185644931237
 21
-22.53232124847511
 31
0.0
1001
DBPROPERTIES
1002
{
1000
PbHidd
1002
}
  0
LINE
  5
E5
330
1F
100
AcDbEntity
  8
HIDDEN
100
AcDbLine
 10
-121.389717159009
 20
-20.30924819235415
 30
0.0
 11
-121.389717159009
 21
-20.30924819235417
 31
0.0
1001
DBPROPERTIES
1002
{
1000
PbHidd
1002
}
  0
ARC
  5
E6
330
1F
100
AcDbEntity
  8
HIDDEN
100
AcDbCircle
 10
0.0
 20
0.0000000000000237
 30
0.0
 40
123.0769230769231
100
AcDbArc
 50
188.5020435783239
 51
189.4979588178203
1001
DBPROPERTIES
1002
{
1000
PbHidd
1002
}
  0
LINE
  5
E7
330
1F
100
AcDbEntity
  8
HIDDEN
100
AcDbLine
 10
-121.7243843497172
 20
-18.19624271010798
 30
0.0
 11
-121.7243843497172
 21
-18.19624271010795
 31
0.0
1001
DBPROPERTIES
1002
{
1000
PbHidd
1002
}
  0
LINE
  5
E8
330
1F
100
AcDbEntity
  8
HIDDEN
100
AcDbLine
 10
-119.3003006451091
 20
-15.07113282893048
 30
0.0
 11
-121.7243843497172
 21
-18.19624271010795
 31
0.0
1001
DBPROPERTIES
1002
{
1000
PbHidd
1002
}
  0
LINE
  5
E9
330
1F
100
AcDbEntity
  8
HIDDEN
100
AcDbLine
 10
-119.3003006451092
 20
-15.07113282893049
 30
0.0
 11
-119.3003006451092
 21
-15.07113282893049
 31
0.0
1001
DBPROPERTIES
1002
{
1000
PbHidd
1002
}
  0
LINE
  5
EA
330
1F
100
AcDbEntity
  8
HIDDEN
100
AcDbLine
 10
-122.4254105262866
 20
-12.64704912432245
 30
0.0
 11
-119.3003006451091
 21
-15.07113282893048
 31
0.0
1001
DBPROPERTIES
1002
{
1000
PbHidd
1002
}
  0
LINE
  5
EB
330
1F
100
AcDbEntity
  8
HIDDEN
100
AcDbLine
 10
-122.4254105262866
 20
-12.64704912432244
 30
0.0
 11
-122.4254105262866
 21
-12.64704912432246
 31
0.0
1001
DBPROPERTIES
1002
{
1000
PbHidd
1002
}
  0
ARC
  5
EC
330
1F
100
AcDbEntity
  8
HIDDEN
100
AcDbCircle
 10
0.0
 20
0.0000000000000237
 30
0.0
 40
123.0769230769231
100
AcDbArc
 50
184.902035159958
 51
185.8979503994544
1001
DBPROPERTIES
1002
{
1000
PbHidd
1002
}
  0
LINE
  5
ED
330
1F
100
AcDbEntity
  8
HIDDEN
100
AcDbLine
 10
-122.6267406157429
 20
-10.51719924895124
 30
0.0
 11
-122.6267406157429
 21
-10.51719924895121
 31
0.0
1001
DBPROPERTIES
1002
{
1000
PbHidd
1002
}
  0
LINE
  5
EE
330
1F
100
AcDbEntity
  8
HIDDEN
100
AcDbLine
 10
-120.0112130135713
 20
-7.550465533455714
 30
0.0
 11
-122.6267406157429
 21
-10.51719924895123
 31
0.0
1001
DBPROPERTIES
1002
{
1000
PbHidd
1002
}
  0
LINE
  5
EF
330
1F
100
AcDbEntity
  8
HIDDEN
100
AcDbLine
 10
-120.0112130135714
 20
-7.550465533455718
 30
0.0
 11
-120.0112130135714
 21
-7.550465533455718
 31
0.0
1001
DBPROPERTIES
1002
{
1000
PbHidd
1002
}
  0
LINE
  5
F0
330
1F
100
AcDbEntity
  8
HIDDEN
100
AcDbLine
 10
-122.9779467290668
 20
-4.934937931284139
 30
0.0
 11
-120.0112130135713
 21
-7.550465533455711
 31
0.0
1001
DBPROPERTIES
1002
{
1000
PbHidd
1002
}
  0
LINE
  5
F1
330
1F
100
AcDbEntity
  8
HIDDEN
100
AcDbLine
 10
-122.9779467290669
 20
-4.934937931284126
 30
0.0
 11
-122.9779467290669
 21
-4.934937931284151
 31
0.0
1001
DBPROPERTIES
1002
{
1000
PbHidd
1002
}
  0
ARC
  5
F2
330
1F
100
AcDbEntity
  8
HIDDEN
100
AcDbCircle
 10
0.0
 20
0.0000000000000237
 30
0.0
 40
123.0769230769231
100
AcDbArc
 50
181.302026741592
 51
182.2979419810883
1001
DBPROPERTIES
1002
{
1000
PbHidd
1002
}
  0
LINE
  5
F3
330
1F
100
AcDbEntity
  8
HIDDEN
100
AcDbLine
 10
-123.0451451593871
 20
-2.796649207210262
 30
0.0
 11
-123.0451451593871
 21
-2.796649207210237
 31
0.0
1001
DBPROPERTIES
1002
{
1000
PbHidd
1002
}
  0
LINE
  5
F4
330
1F
100
AcDbEntity
  8
HIDDEN
100
AcDbLine
 10
-120.2484959521769
 20
-0.0000000000000071
 30
0.0
 11
-123.0451451593871
 21
-2.796649207210265
 31
0.0
1001
DBPROPERTIES
1002
{
1000
PbHidd
1002
}
  0
LINE
  5
F5
330
1F
100
AcDbEntity
  8
HIDDEN
100
AcDbLine
 10
-120.2484959521769
 20
-0.000000000000012
 30
0.0
 11
-120.2484959521769
 21
-0.000000000000012
 31
0.0
1001
DBPROPERTIES
1002
{
1000
PbHidd
1002
}
  0
LINE
  5
F6
330
1F
100
AcDbEntity
  8
HIDDEN
100
AcDbLine
 10
-123.0451451593871
 20
2.796649207210205
 30
0.0
 11
-120.2484959521769
 21
-0.0000000000000178
 31
0.0
1001
DBPROPERTIES
1002
{
1000
PbHidd
1002
}
  0
LINE
  5
F7
330
1F
100
AcDbEntity
  8
HIDDEN
100
AcDbLine
 10
-123.0451451593871
 20
2.796649207210237
 30
0.0
 11
-123.0451451593871
 21
2.796649207210212
 31
0.0
1001
DBPROPERTIES
1002
{
1000
PbHidd
1002
}
  0
ARC
  5
F8
330
1F
100
AcDbEntity
  8
HIDDEN
100
AcDbCircle
 10
0.0
 20
0.0000000000000237
 30
0.0
 40
123.0769230769231
100
AcDbArc
 50
177.7020580189117
 51
178.697973258408
1001
DBPROPERTIES
1002
{
1000
PbHidd
1002
}
  0
LINE
  5
F9
330
1F
100
AcDbEntity
  8
HIDDEN
100
AcDbLine
 10
-122.9779467290669
 20
4.934937931284128
 30
0.0
 11
-122.9779467290669
 21
4.934937931284153
 31
0.0
1001
DBPROPERTIES
1002
{
1000
PbHidd
1002
}
  0
LINE
  5
FA
330
1F
100
AcDbEntity
  8
HIDDEN
100
AcDbLine
 10
-120.0112130135713
 20
7.550465533455721
 30
0.0
 11
-122.9779467290669
 21
4.934937931284143
 31
0.0
1001
DBPROPERTIES
1002
{
1000
PbHidd
1002
}
  0
LINE
  5
FB
330
1F
100
AcDbEntity
  8
HIDDEN
100
AcDbLine
 10
-120.0112130135714
 20
7.550465533455722
 30
0.0
 11
-120.0112130135714
 21
7.550465533455722
 31
0.0
1001
DBPROPERTIES
1002
{
1000
PbHidd
1002
}
  0
LINE
  5
FC
330
1F
100
AcDbEntity
  8
HIDDEN
100
AcDbLine
 10
-122.6267406157429
 20
10.51719924895125
 30
0.0
 11
-120.0112130135713
 21
7.550465533455721
 31
0.0
1001
DBPROPERTIES
1002
{
1000
PbHidd
1002
}
  0
LINE
  5
FD
330
1F
100
AcDbEntity
  8
HIDDEN
100
AcDbLine
 10
-122.6267406157429
 20
10.51719924895128
 30
0.0
 11
-122.6267406157429
 21
10.51719924895125
 31
0.0
1001
DBPROPERTIES
1002
{
1000
PbHidd
1002
}
  0
ARC
  5
FE
330
1F
100
AcDbEntity
  8
HIDDEN
100
AcDbCircle
 10
0.0
 20
0.0000000000000237
 30
0.0
 40
123.0769230769231
100
AcDbArc
 50
174.1020496005456
 51
175.097964840042
1001
DBPROPERTIES
1002
{
1000
PbHidd
1002
}
  0
LINE
  5
FF
330
1F
100
AcDbEntity
  8
HIDDEN
100
AcDbLine
 10
-122.4254105262866
 20
12.6470491243224
 30
0.0
 11
-122.4254105262866
 21
12.64704912432243
 31
0.0
1001
DBPROPERTIES
1002
{
1000
PbHidd
1002
}
  0
LINE
  5
100
330
1F
100
AcDbEntity
  8
HIDDEN
100
AcDbLine
 10
-119.3003006451091
 20
15.07113282893048
 30
0.0
 11
-122.4254105262866
 21
12.64704912432242
 31
0.0
1001
DBPROPERTIES
1002
{
1000
PbHidd
1002
}
  0
LINE
  5
101
330
1F
100
AcDbEntity
  8
HIDDEN
100
AcDbLine
 10
-119.3003006451092
 20
15.07113282893049
 30
0.0
 11
-119.3003006451092
 21
15.07113282893049
 31
0.0
1001
DBPROPERTIES
1002
{
1000
PbHidd
1002
}
  0
LINE
  5
102
330
1F
100
AcDbEntity
  8
HIDDEN
100
AcDbLine
 10
-121.7243843497172
 20
18.19624271010797
 30
0.0
 11
-119.3003006451091
 21
15.07113282893048
 31
0.0
1001
DBPROPERTIES
1002
{
1000
PbHidd
1002
}
  0
LINE
  5
103
330
1F
100
AcDbEntity
  8
HIDDEN
100
AcDbLine
 10
-121.7243843497172
 20
18.196242710108
 30
0.0
 11
-121.7243843497172
 21
18.19624271010797
 31
0.0
1001
DBPROPERTIES
1002
{
1000
PbHidd
1002
}
  0
ARC
  5
104
330
1F
100
AcDbEntity
  8
HIDDEN
100
AcDbCircle
 10
0.0
 20
0.0000000000000237
 30
0.0
 40
123.0769230769231
100
AcDbArc
 50
170.5020411821797
 51
171.4979564216761
1001
DBPROPERTIES
1002
{
1000
PbHidd
1002
}
  0
LINE
  5
105
330
1F
100
AcDbEntity
  8
HIDDEN
100
AcDbLine
 10
-121.389717159009
 20
20.30924819235412
 30
0.0
 11
-121.389717159009
 21
20.30924819235415
 31
0.0
1001
DBPROPERTIES
1002
{
1000
PbHidd
1002
}
  0
LINE
  5
106
330
1F
100
AcDbEntity
  8
HIDDEN
100
AcDbLine
 10
-118.1185644931237
 20
22.53232124847508
 30
0.0
 11
-121.389717159009
 21
20.30924819235414
 31
0.0
1001
DBPROPERTIES
1002
{
1000
PbHidd
1002
}
  0
LINE
  5
107
330
1F
100
AcDbEntity
  8
HIDDEN
100
AcDbLine
 10
-118.1185644931237
 20
22.53232124847509
 30
0.0
 11
-118.1185644931237
 21
22.53232124847509
 31
0.0
1001
DBPROPERTIES
1002
{
1000
PbHidd
1002
}
  0
LINE
  5
108
330
1F
100
AcDbEntity
  8
HIDDEN
100
AcDbLine
 10
-120.3416375492446
 20
25.80347391436037
 30
0.0
 11
-118.1185644931237
 21
22.53232124847509
 31
0.0
1001
DBPROPERTIES
1002
{
1000
PbHidd
1002
}
  0
LINE
  5
109
330
1F
100
AcDbEntity
  8
HIDDEN
100
AcDbLine
 10
-120.3416375492446
 20
25.80347391436039
 30
0.0
 11
-120.3416375492446
 21
25.80347391436036
 31
0.0
1001
DBPROPERTIES
1002
{
1000
PbHidd
1002
}
  0
ARC
  5
10A
330
1F
100
AcDbEntity
  8
HIDDEN
100
AcDbCircle
 10
0.0
 20
0.0000000000000237
 30
0.0
 40
123.0769230769231
100
AcDbArc
 50
166.9020327638137
 51
167.8979480033101
1001
DBPROPERTIES
1002
{
1000
PbHidd
1002
}
  0
LINE
  5
10B
330
1F
100
AcDbEntity
  8
HIDDEN
100
AcDbLine
 10
-119.8749540357913
 20
27.89129593618356
 30
0.0
 11
-119.8749540357913
 21
27.89129593618358
 31
0.0
1001
DBPROPERTIES
1002
{
1000
PbHidd
1002
}
  0
LINE
  5
10C
330
1F
100
AcDbEntity
  8
HIDDEN
100
AcDbLine
 10
-116.4706683303229
 20
29.90458489009037
 30
0.0
 11
-119.8749540357913
 21
27.89129593618357
 31
0.0
1001
DBPROPERTIES
1002
{
1000
PbHidd
1002
}
  0
LINE
  5
10D
330
1F
100
AcDbEntity
  8
HIDDEN
100
AcDbLine
 10
-116.4706683303229
 20
29.90458489009037
 30
0.0
 11
-116.4706683303229
 21
29.90458489009037
 31
0.0
1001
DBPROPERTIES
1002
{
1000
PbHidd
1002
}
  0
LINE
  5
10E
330
1F
100
AcDbEntity
  8
HIDDEN
100
AcDbLine
 10
-118.4839572842296
 20
33.30887059555874
 30
0.0
 11
-116.4706683303229
 21
29.90458489009037
 31
0.0
1001
DBPROPERTIES
1002
{
1000
PbHidd
1002
}
  0
LINE
  5
10F
330
1F
100
AcDbEntity
  8
HIDDEN
100
AcDbLine
 10
-118.4839572842297
 20
33.30887059555877
 30
0.0
 11
-118.4839572842297
 21
33.30887059555874
 31
0.0
1001
DBPROPERTIES
1002
{
1000
PbHidd
1002
}
  0
ARC
  5
110
330
1F
100
AcDbEntity
  8
HIDDEN
100
AcDbCircle
 10
0.0
 20
0.0000000000000237
 30
0.0
 40
123.0769230769231
100
AcDbArc
 50
163.3020243454477
 51
164.2979968807236
1001
DBPROPERTIES
1002
{
1000
PbHidd
1002
}
  0
LINE
  5
111
330
1F
100
AcDbEntity
  8
HIDDEN
100
AcDbLine
 10
-117.8870992346514
 20
35.3632694772739
 30
0.0
 11
-117.8870992346514
 21
35.36326947727393
 31
0.0
1001
DBPROPERTIES
1002
{
1000
PbHidd
1002
}
  0
LINE
  5
112
330
1F
100
AcDbEntity
  8
HIDDEN
100
AcDbLine
 10
-114.3631156500092
 20
37.15882879724973
 30
0.0
 11
-117.8870992346514
 21
35.36326947727392
 31
0.0
1001
DBPROPERTIES
1002
{
1000
PbHidd
1002
}
  0
LINE
  5
113
330
1F
100
AcDbEntity
  8
HIDDEN
100
AcDbLine
 10
-114.3631156500092
 20
37.15882879724975
 30
0.0
 11
-114.3631156500092
 21
37.15882879724975
 31
0.0
1001
DBPROPERTIES
1002
{
1000
PbHidd
1002
}
  0
LINE
  5
114
330
1F
100
AcDbEntity
  8
HIDDEN
100
AcDbLine
 10
-116.158674969985
 20
40.68281238189191
 30
0.0
 11
-114.3631156500092
 21
37.15882879724973
 31
0.0
1001
DBPROPERTIES
1002
{
1000
PbHidd
1002
}
  0
LINE
  5
115
330
1F
100
AcDbEntity
  8
HIDDEN
100
AcDbLine
 10
-116.158674969985
 20
40.68281238189197
 30
0.0
 11
-116.158674969985
 21
40.68281238189194
 31
0.0
1001
DBPROPERTIES
1002
{
1000
PbHidd
1002
}
  0
ARC
  5
116
330
1F
100
AcDbEntity
  8
HIDDEN
100
AcDbCircle
 10
0.0
 20
0.0000000000000237
 30
0.0
 40
123.0769230769231
100
AcDbArc
 50
159.7020159270817
 51
160.6979884623576
1001
DBPROPERTIES
1002
{
1000
PbHidd
1002
}
  0
LINE
  5
117
330
1F
100
AcDbEntity
  8
HIDDEN
100
AcDbLine
 10
-115.433997910325
 20
42.69568034967853
 30
0.0
 11
-115.433997910325
 21
42.69568034967855
 31
0.0
1001
DBPROPERTIES
1002
{
1000
PbHidd
1002
}
  0
LINE
  5
118
330
1F
100
AcDbEntity
  8
HIDDEN
100
AcDbLine
 10
-111.8042239997626
 20
44.26642378340041
 30
0.0
 11
-115.433997910325
 21
42.69568034967854
 31
0.0
1001
DBPROPERTIES
1002
{
1000
PbHidd
1002
}
  0
LINE
  5
119
330
1F
100
AcDbEntity
  8
HIDDEN
100
AcDbLine
 10
-111.8042239997627
 20
44.26642378340042
 30
0.0
 11
-111.8042239997627
 21
44.26642378340042
 31
0.0
1001
DBPROPERTIES
1002
{
1000
PbHidd
1002
}
  0
LINE
  5
11A
330
1F
100
AcDbEntity
  8
HIDDEN
100
AcDbLine
 10
-113.3749674334845
 20
47.89619769396275
 30
0.0
 11
-111.8042239997626
 21
44.26642378340041
 31
0.0
1001
DBPROPERTIES
1002
{
1000
PbHidd
1002
}
  0
LINE
  5
11B
330
1F
100
AcDbEntity
  8
HIDDEN
100
AcDbLine
 10
-113.3749674334845
 20
47.89619769396278
 30
0.0
 11
-113.3749674334845
 21
47.89619769396275
 31
0.0
1001
DBPROPERTIES
1002
{
1000
PbHidd
1002
}
  0
ARC
  5
11C
330
1F
100
AcDbEntity
  8
HIDDEN
100
AcDbCircle
 10
0.0
 20
0.0000000000000237
 30
0.0
 40
123.0769230769231
100
AcDbArc
 50
156.1020075087157
 51
157.0979800439916
1001
DBPROPERTIES
1002
{
1000
PbHidd
1002
}
  0
LINE
  5
11D
330
1F
100
AcDbEntity
  8
HIDDEN
100
AcDbLine
 10
-112.5253313330238
 20
49.85959087754392
 30
0.0
 11
-112.5253313330238
 21
49.85959087754394
 31
0.0
1001
DBPROPERTIES
1002
{
1000
PbHidd
1002
}
  0
LINE
  5
11E
330
1F
100
AcDbEntity
  8
HIDDEN
100
AcDbLine
 10
-108.8040921558803
 20
51.19931941828337
 30
0.0
 11
-112.5253313330237
 21
49.85959087754391
 31
0.0
1001
DBPROPERTIES
1002
{
1000
PbHidd
1002
}
  0
LINE
  5
11F
330
1F
100
AcDbEntity
  8
HIDDEN
100
AcDbLine
 10
-108.8040921558803
 20
51.19931941828339
 30
0.0
 11
-108.8040921558803
 21
51.19931941828339
 31
0.0
1001
DBPROPERTIES
1002
{
1000
PbHidd
1002
}
  0
LINE
  5
120
330
1F
100
AcDbEntity
  8
HIDDEN
100
AcDbLine
 10
-110.1438206966198
 20
54.92055859542685
 30
0.0
 11
-108.8040921558803
 21
51.19931941828338
 31
0.0
1001
DBPROPERTIES
1002
{
1000
PbHidd
1002
}
  0
LINE
  5
121
330
1F
100
AcDbEntity
  8
HIDDEN
100
AcDbLine
 10
-110.1438206966198
 20
54.9205585954269
 30
0.0
 11
-110.1438206966198
 21
54.92055859542688
 31
0.0
1001
DBPROPERTIES
1002
{
1000
PbHidd
1002
}
  0
ARC
  5
122
330
1F
100
AcDbEntity
  8
HIDDEN
100
AcDbCircle
 10
0.0
 20
0.0000000000000237
 30
0.0
 40
123.0769230769231
100
AcDbArc
 50
152.5020563861292
 51
153.4979716256256
1001
DBPROPERTIES
1002
{
1000
PbHidd
1002
}
  0
LINE
  5
123
330
1F
100
AcDbEntity
  8
HIDDEN
100
AcDbLine
 10
-109.172578680885
 20
56.8267283788959
 30
0.0
 11
-109.172578680885
 21
56.82672837889593
 31
0.0
1001
DBPROPERTIES
1002
{
1000
PbHidd
1002
}
  0
LINE
  5
124
330
1F
100
AcDbEntity
  8
HIDDEN
100
AcDbLine
 10
-105.3745602681201
 20
57.93015473016644
 30
0.0
 11
-109.172578680885
 21
56.82672837889591
 31
0.0
1001
DBPROPERTIES
1002
{
1000
PbHidd
1002
}
  0
LINE
  5
125
330
1F
100
AcDbEntity
  8
HIDDEN
100
AcDbLine
 10
-105.3745602681201
 20
57.93015473016644
 30
0.0
 11
-105.3745602681201
 21
57.93015473016644
 31
0.0
1001
DBPROPERTIES
1002
{
1000
PbHidd
1002
}
  0
LINE
  5
126
330
1F
100
AcDbEntity
  8
HIDDEN
100
AcDbLine
 10
-106.4779866193906
 20
61.72817314293135
 30
0.0
 11
-105.3745602681201
 21
57.93015473016645
 31
0.0
1001
DBPROPERTIES
1002
{
1000
PbHidd
1002
}
  0
LINE
  5
127
330
1F
100
AcDbEntity
  8
HIDDEN
100
AcDbLine
 10
-106.4779866193906
 20
61.72817314293138
 30
0.0
 11
-106.4779866193906
 21
61.72817314293135
 31
0.0
1001
DBPROPERTIES
1002
{
1000
PbHidd
1002
}
  0
ARC
  5
128
330
1F
100
AcDbEntity
  8
HIDDEN
100
AcDbCircle
 10
0.0
 20
0.0000000000000237
 30
0.0
 40
123.0769230769231
100
AcDbArc
 50
148.9020479677632
 51
149.8979632072596
1001
DBPROPERTIES
1002
{
1000
PbHidd
1002
}
  0
LINE
  5
129
330
1F
100
AcDbEntity
  8
HIDDEN
100
AcDbLine
 10
-105.3889717368997
 20
63.56959674499912
 30
0.0
 11
-105.3889717368997
 21
63.56959674499915
 31
0.0
1001
DBPROPERTIES
1002
{
1000
PbHidd
1002
}
  0
LINE
  5
12A
330
1F
100
AcDbEntity
  8
HIDDEN
100
AcDbLine
 10
-101.5291631320389
 20
64.43236618709979
 30
0.0
 11
-105.3889717368997
 21
63.56959674499912
 31
0.0
1001
DBPROPERTIES
1002
{
1000
PbHidd
1002
}
  0
LINE
  5
12B
330
1F
100
AcDbEntity
  8
HIDDEN
100
AcDbLine
 10
-101.529163132039
 20
64.43236618709979
 30
0.0
 11
-101.529163132039
 21
64.43236618709979
 31
0.0
1001
DBPROPERTIES
1002
{
1000
PbHidd
1002
}
  0
LINE
  5
12C
330
1F
100
AcDbEntity
  8
HIDDEN
100
AcDbLine
 10
-102.3919325741396
 20
68.29217479196048
 30
0.0
 11
-101.529163132039
 21
64.43236618709977
 31
0.0
1001
DBPROPERTIES
1002
{
1000
PbHidd
1002
}
  0
LINE
  5
12D
330
1F
100
AcDbEntity
  8
HIDDEN
100
AcDbLine
 10
-102.3919325741396
 20
68.2921747919605
 30
0.0
 11
-102.3919325741396
 21
68.29217479196048
 31
0.0
1001
DBPROPERTIES
1002
{
1000
PbHidd
1002
}
  0
ARC
  5
12E
330
1F
100
AcDbEntity
  8
HIDDEN
100
AcDbCircle
 10
0.0
 20
0.0000000000000237
 30
0.0
 40
123.0769230769231
100
AcDbArc
 50
145.3020395493973
 51
146.2979547888937
1001
DBPROPERTIES
1002
{
1000
PbHidd
1002
}
  0
LINE
  5
12F
330
1F
100
AcDbEntity
  8
HIDDEN
100
AcDbLine
 10
-101.1894426691101
 20
70.061584954936
 30
0.0
 11
-101.1894426691101
 21
70.06158495493602
 31
0.0
1001
DBPROPERTIES
1002
{
1000
PbHidd
1002
}
  0
LINE
  5
130
330
1F
100
AcDbEntity
  8
HIDDEN
100
AcDbLine
 10
-97.28307677333815
 20
70.6802925310407
 30
0.0
 11
-101.1894426691101
 21
70.06158495493601
 31
0.0
1001
DBPROPERTIES
1002
{
1000
PbHidd
1002
}
  0
LINE
  5
131
330
1F
100
AcDbEntity
  8
HIDDEN
100
AcDbLine
 10
-97.28307677333818
 20
70.6802925310407
 30
0.0
 11
-97.28307677333818
 21
70.6802925310407
 31
0.0
1001
DBPROPERTIES
1002
{
1000
PbHidd
1002
}
  0
LINE
  5
132
330
1F
100
AcDbEntity
  8
HIDDEN
100
AcDbLine
 10
-97.90178434944288
 20
74.58665842681265
 30
0.0
 11
-97.28307677333817
 21
70.68029253104069
 31
0.0
1001
DBPROPERTIES
1002
{
1000
PbHidd
1002
}
  0
LINE
  5
133
330
1F
100
AcDbEntity
  8
HIDDEN
100
AcDbLine
 10
-97.90178434944289
 20
74.58665842681269
 30
0.0
 11
-97.90178434944289
 21
74.58665842681266
 31
0.0
1001
DBPROPERTIES
1002
{
1000
PbHidd
1002
}
  0
ARC
  5
134
330
1F
100
AcDbEntity
  8
HIDDEN
100
AcDbCircle
 10
0.0
 20
0.0000000000000237
 30
0.0
 40
123.0769230769231
100
AcDbArc
 50
141.7020311310312
 51
142.6979463705277
1001
DBPROPERTIES
1002
{
1000
PbHidd
1002
}
  0
LINE
  5
135
330
1F
100
AcDbEntity
  8
HIDDEN
100
AcDbLine
 10
-96.59056510016458
 20
76.27707209714929
 30
0.0
 11
-96.59056510016458
 21
76.27707209714931
 31
0.0
1001
DBPROPERTIES
1002
{
1000
PbHidd
1002
}
  0
LINE
  5
136
330
1F
100
AcDbEntity
  8
HIDDEN
100
AcDbLine
 10
-92.65305855502316
 20
76.64927605111573
 30
0.0
 11
-96.59056510016455
 21
76.27707209714929
 31
0.0
1001
DBPROPERTIES
1002
{
1000
PbHidd
1002
}
  0
LINE
  5
137
330
1F
100
AcDbEntity
  8
HIDDEN
100
AcDbLine
 10
-92.6530585550232
 20
76.64927605111573
 30
0.0
 11
-92.6530585550232
 21
76.64927605111573
 31
0.0
1001
DBPROPERTIES
1002
{
1000
PbHidd
1002
}
  0
LINE
  5
138
330
1F
100
AcDbEntity
  8
HIDDEN
100
AcDbLine
 10
-93.0252625089896
 20
80.58678259625711
 30
0.0
 11
-92.65305855502315
 21
76.64927605111572
 31
0.0
1001
DBPROPERTIES
1002
{
1000
PbHidd
1002
}
  0
LINE
  5
139
330
1F
100
AcDbEntity
  8
HIDDEN
100
AcDbLine
 10
-93.02526250898964
 20
80.58678259625715
 30
0.0
 11
-93.02526250898964
 21
80.58678259625712
 31
0.0
1001
DBPROPERTIES
1002
{
1000
PbHidd
1002
}
  0
ARC
  5
13A
330
1F
100
AcDbEntity
  8
HIDDEN
100
AcDbCircle
 10
0.0
 20
0.0000000000000237
 30
0.0
 40
123.0769230769231
100
AcDbArc
 50
138.1020227126653
 51
139.0979952479412
1001
DBPROPERTIES
1002
{
1000
PbHidd
1002
}
  0
LINE
  5
13B
330
1F
100
AcDbEntity
  8
HIDDEN
100
AcDbLine
 10
-91.61048869880034
 20
82.19152848347461
 30
0.0
 11
-91.61048869880034
 21
82.19152848347464
 31
0.0
1001
DBPROPERTIES
1002
{
1000
PbHidd
1002
}
  0
LINE
  5
13C
330
1F
100
AcDbEntity
  8
HIDDEN
100
AcDbLine
 10
-87.6573810437475
 20
82.3157598963403
 30
0.0
 11
-91.61048869880031
 21
82.1915284834746
 31
0.0
1001
DBPROPERTIES
1002
{
1000
PbHidd
1002
}
  0
LINE
  5
13D
330
1F
100
AcDbEntity
  8
HIDDEN
100
AcDbLine
 10
-87.65738104374755
 20
82.31575989634031
 30
0.0
 11
-87.65738104374755
 21
82.31575989634031
 31
0.0
1001
DBPROPERTIES
1002
{
1000
PbHidd
1002
}
  0
LINE
  5
13E
330
1F
100
AcDbEntity
  8
HIDDEN
100
AcDbLine
 10
-87.78161245661323
 20
86.26886755139307
 30
0.0
 11
-87.65738104374753
 21
82.3157598963403
 31
0.0
1001
DBPROPERTIES
1002
{
1000
PbHidd
1002
}
  0
LINE
  5
13F
330
1F
100
AcDbEntity
  8
HIDDEN
100
AcDbLine
 10
-87.78161245661325
 20
86.26886755139313
 30
0.0
 11
-87.78161245661325
 21
86.2688675513931
 31
0.0
1001
DBPROPERTIES
1002
{
1000
PbHidd
1002
}
  0
ARC
  5
140
330
1F
100
AcDbEntity
  8
HIDDEN
100
AcDbCircle
 10
0.0
 20
0.0000000000000237
 30
0.0
 40
123.0769230769231
100
AcDbArc
 50
134.5020142942993
 51
135.4979868295752
1001
DBPROPERTIES
1002
{
1000
PbHidd
1002
}
  0
LINE
  5
141
330
1F
100
AcDbEntity
  8
HIDDEN
100
AcDbLine
 10
-86.2688675513931
 20
87.78161245661323
 30
0.0
 11
-86.2688675513931
 21
87.78161245661326
 31
0.0
1001
DBPROPERTIES
1002
{
1000
PbHidd
1002
}
  0
LINE
  5
142
330
1F
100
AcDbEntity
  8
HIDDEN
100
AcDbLine
 10
-82.31575989634034
 20
87.65738104374756
 30
0.0
 11
-86.2688675513931
 21
87.78161245661326
 31
0.0
1001
DBPROPERTIES
1002
{
1000
PbHidd
1002
}
  0
LINE
  5
143
330
1F
100
AcDbEntity
  8
HIDDEN
100
AcDbLine
 10
-82.31575989634034
 20
87.65738104374755
 30
0.0
 11
-82.31575989634034
 21
87.65738104374755
 31
0.0
1001
DBPROPERTIES
1002
{
1000
PbHidd
1002
}
  0
LINE
  5
144
330
1F
100
AcDbEntity
  8
HIDDEN
100
AcDbLine
 10
-82.19152848347464
 20
91.61048869880032
 30
0.0
 11
-82.31575989634034
 21
87.65738104374756
 31
0.0
1001
DBPROPERTIES
1002
{
1000
PbHidd
1002
}
  0
LINE
  5
145
330
1F
100
AcDbEntity
  8
HIDDEN
100
AcDbLine
 10
-82.19152848347463
 20
91.61048869880034
 30
0.0
 11
-82.19152848347463
 21
91.61048869880031
 31
0.0
1001
DBPROPERTIES
1002
{
1000
PbHidd
1002
}
  0
ARC
  5
146
330
1F
100
AcDbEntity
  8
HIDDEN
100
AcDbCircle
 10
0.0
 20
0.0000000000000237
 30
0.0
 40
123.0769230769231
100
AcDbArc
 50
130.9020058759333
 51
131.8979784112092
1001
DBPROPERTIES
1002
{
1000
PbHidd
1002
}
  0
LINE
  5
147
330
1F
100
AcDbEntity
  8
HIDDEN
100
AcDbLine
 10
-80.58678259625717
 20
93.0252625089896
 30
0.0
 11
-80.58678259625717
 21
93.02526250898963
 31
0.0
1001
DBPROPERTIES
1002
{
1000
PbHidd
1002
}
  0
LINE
  5
148
330
1F
100
AcDbEntity
  8
HIDDEN
100
AcDbLine
 10
-76.64927605111572
 20
92.65305855502312
 30
0.0
 11
-80.58678259625712
 21
93.02526250898957
 31
0.0
1001
DBPROPERTIES
1002
{
1000
PbHidd
1002
}
  0
LINE
  5
149
330
1F
100
AcDbEntity
  8
HIDDEN
100
AcDbLine
 10
-76.64927605111576
 20
92.65305855502316
 30
0.0
 11
-76.64927605111576
 21
92.65305855502316
 31
0.0
1001
DBPROPERTIES
1002
{
1000
PbHidd
1002
}
  0
LINE
  5
14A
330
1F
100
AcDbEntity
  8
HIDDEN
100
AcDbLine
 10
-76.2770720971493
 20
96.59056510016453
 30
0.0
 11
-76.64927605111575
 21
92.65305855502314
 31
0.0
1001
DBPROPERTIES
1002
{
1000
PbHidd
1002
}
  0
LINE
  5
14B
330
1F
100
AcDbEntity
  8
HIDDEN
100
AcDbLine
 10
-76.27707209714933
 20
96.5905651001646
 30
0.0
 11
-76.27707209714933
 21
96.59056510016457
 31
0.0
1001
DBPROPERTIES
1002
{
1000
PbHidd
1002
}
  0
ARC
  5
14C
330
1F
100
AcDbEntity
  8
HIDDEN
100
AcDbCircle
 10
0.0
 20
0.0000000000000237
 30
0.0
 40
123.0769230769231
100
AcDbArc
 50
127.3020547533468
 51
128.2979699928432
1001
DBPROPERTIES
1002
{
1000
PbHidd
1002
}
  0
LINE
  5
14D
330
1F
100
AcDbEntity
  8
HIDDEN
100
AcDbLine
 10
-74.58665842681268
 20
97.90178434944286
 30
0.0
 11
-74.58665842681268
 21
97.90178434944289
 31
0.0
1001
DBPROPERTIES
1002
{
1000
PbHidd
1002
}
  0
LINE
  5
14E
330
1F
100
AcDbEntity
  8
HIDDEN
100
AcDbLine
 10
-70.68029253104072
 20
97.2830767733382
 30
0.0
 11
-74.58665842681265
 21
97.90178434944288
 31
0.0
1001
DBPROPERTIES
1002
{
1000
PbHidd
1002
}
  0
LINE
  5
14F
330
1F
100
AcDbEntity
  8
HIDDEN
100
AcDbLine
 10
-70.68029253104073
 20
97.28307677333818
 30
0.0
 11
-70.68029253104073
 21
97.28307677333818
 31
0.0
1001
DBPROPERTIES
1002
{
1000
PbHidd
1002
}
  0
LINE
  5
150
330
1F
100
AcDbEntity
  8
HIDDEN
100
AcDbLine
 10
-70.06158495493604
 20
101.1894426691101
 30
0.0
 11
-70.68029253104073
 21
97.28307677333818
 31
0.0
1001
DBPROPERTIES
1002
{
1000
PbHidd
1002
}
  0
LINE
  5
151
330
1F
100
AcDbEntity
  8
HIDDEN
100
AcDbLine
 10
-70.06158495493602
 20
101.1894426691102
 30
0.0
 11
-70.06158495493602
 21
101.1894426691101
 31
0.0
1001
DBPROPERTIES
1002
{
1000
PbHidd
1002
}
  0
ARC
  5
152
330
1F
100
AcDbEntity
  8
HIDDEN
100
AcDbCircle
 10
0.0
 20
0.0000000000000237
 30
0.0
 40
123.0769230769231
100
AcDbArc
 50
123.7020463349808
 51
124.6979615744772
1001
DBPROPERTIES
1002
{
1000
PbHidd
1002
}
  0
LINE
  5
153
330
1F
100
AcDbEntity
  8
HIDDEN
100
AcDbLine
 10
-68.2921747919605
 20
102.3919325741396
 30
0.0
 11
-68.2921747919605
 21
102.3919325741397
 31
0.0
1001
DBPROPERTIES
1002
{
1000
PbHidd
1002
}
  0
LINE
  5
154
330
1F
100
AcDbEntity
  8
HIDDEN
100
AcDbLine
 10
-64.43236618709977
 20
101.529163132039
 30
0.0
 11
-68.29217479196048
 21
102.3919325741396
 31
0.0
1001
DBPROPERTIES
1002
{
1000
PbHidd
1002
}
  0
LINE
  5
155
330
1F
100
AcDbEntity
  8
HIDDEN
100
AcDbLine
 10
-64.43236618709979
 20
101.529163132039
 30
0.0
 11
-64.43236618709979
 21
101.529163132039
 31
0.0
1001
DBPROPERTIES
1002
{
1000
PbHidd
1002
}
  0
LINE
  5
156
330
1F
100
AcDbEntity
  8
HIDDEN
100
AcDbLine
 10
-63.56959674499911
 20
105.3889717368997
 30
0.0
 11
-64.43236618709977
 21
101.529163132039
 31
0.0
1001
DBPROPERTIES
1002
{
1000
PbHidd
1002
}
  0
LINE
  5
157
330
1F
100
AcDbEntity
  8
HIDDEN
100
AcDbLine
 10
-63.56959674499911
 20
105.3889717368997
 30
0.0
 11
-63.56959674499911
 21
105.3889717368997
 31
0.0
1001
DBPROPERTIES
1002
{
1000
PbHidd
1002
}
  0
ARC
  5
158
330
1F
100
AcDbEntity
  8
HIDDEN
100
AcDbCircle
 10
0.0
 20
0.0000000000000237
 30
0.0
 40
123.0769230769231
100
AcDbArc
 50
120.1020379166148
 51
121.0979531561112
1001
DBPROPERTIES
1002
{
1000
PbHidd
1002
}
  0
LINE
  5
159
330
1F
100
AcDbEntity
  8
HIDDEN
100
AcDbLine
 10
-61.72817314293136
 20
106.4779866193906
 30
0.0
 11
-61.72817314293136
 21
106.4779866193907
 31
0.0
1001
DBPROPERTIES
1002
{
1000
PbHidd
1002
}
  0
LINE
  5
15A
330
1F
100
AcDbEntity
  8
HIDDEN
100
AcDbLine
 10
-57.93015473016644
 20
105.3745602681201
 30
0.0
 11
-61.72817314293134
 21
106.4779866193906
 31
0.0
1001
DBPROPERTIES
1002
{
1000
PbHidd
1002
}
  0
LINE
  5
15B
330
1F
100
AcDbEntity
  8
HIDDEN
100
AcDbLine
 10
-57.93015473016646
 20
105.3745602681201
 30
0.0
 11
-57.93015473016646
 21
105.3745602681201
 31
0.0
1001
DBPROPERTIES
1002
{
1000
PbHidd
1002
}
  0
LINE
  5
15C
330
1F
100
AcDbEntity
  8
HIDDEN
100
AcDbLine
 10
-56.82672837889591
 20
109.172578680885
 30
0.0
 11
-57.93015473016644
 21
105.3745602681201
 31
0.0
1001
DBPROPERTIES
1002
{
1000
PbHidd
1002
}
  0
LINE
  5
15D
330
1F
100
AcDbEntity
  8
HIDDEN
100
AcDbLine
 10
-56.82672837889594
 20
109.172578680885
 30
0.0
 11
-56.82672837889594
 21
109.172578680885
 31
0.0
1001
DBPROPERTIES
1002
{
1000
PbHidd
1002
}
  0
ARC
  5
15E
330
1F
100
AcDbEntity
  8
HIDDEN
100
AcDbCircle
 10
0.0
 20
0.0000000000000237
 30
0.0
 40
123.0769230769231
100
AcDbArc
 50
116.5020294982489
 51
117.4979447377453
1001
DBPROPERTIES
1002
{
1000
PbHidd
1002
}
  0
LINE
  5
15F
330
1F
100
AcDbEntity
  8
HIDDEN
100
AcDbLine
 10
-54.92055859542689
 20
110.1438206966198
 30
0.0
 11
-54.92055859542689
 21
110.1438206966198
 31
0.0
1001
DBPROPERTIES
1002
{
1000
PbHidd
1002
}
  0
LINE
  5
160
330
1F
100
AcDbEntity
  8
HIDDEN
100
AcDbLine
 10
-51.19931941828337
 20
108.8040921558803
 30
0.0
 11
-54.92055859542687
 21
110.1438206966197
 31
0.0
1001
DBPROPERTIES
1002
{
1000
PbHidd
1002
}
  0
LINE
  5
161
330
1F
100
AcDbEntity
  8
HIDDEN
100
AcDbLine
 10
-51.19931941828338
 20
108.8040921558803
 30
0.0
 11
-51.19931941828338
 21
108.8040921558803
 31
0.0
1001
DBPROPERTIES
1002
{
1000
PbHidd
1002
}
  0
LINE
  5
162
330
1F
100
AcDbEntity
  8
HIDDEN
100
AcDbLine
 10
-49.85959087754387
 20
112.5253313330238
 30
0.0
 11
-51.19931941828337
 21
108.8040921558803
 31
0.0
1001
DBPROPERTIES
1002
{
1000
PbHidd
1002
}
  0
LINE
  5
163
330
1F
100
AcDbEntity
  8
HIDDEN
100
AcDbLine
 10
-49.85959087754389
 20
112.5253313330238
 30
0.0
 11
-49.85959087754389
 21
112.5253313330238
 31
0.0
1001
DBPROPERTIES
1002
{
1000
PbHidd
1002
}
  0
ARC
  5
164
330
1F
100
AcDbEntity
  8
HIDDEN
100
AcDbCircle
 10
0.0
 20
0.0000000000000237
 30
0.0
 40
123.0769230769231
100
AcDbArc
 50
112.9020210798829
 51
113.8979936151588
1001
DBPROPERTIES
1002
{
1000
PbHidd
1002
}
  0
LINE
  5
165
330
1F
100
AcDbEntity
  8
HIDDEN
100
AcDbLine
 10
-47.8961976939628
 20
113.3749674334845
 30
0.0
 11
-47.8961976939628
 21
113.3749674334845
 31
0.0
1001
DBPROPERTIES
1002
{
1000
PbHidd
1002
}
  0
LINE
  5
166
330
1F
100
AcDbEntity
  8
HIDDEN
100
AcDbLine
 10
-44.26642378340041
 20
111.8042239997626
 30
0.0
 11
-47.89619769396278
 21
113.3749674334845
 31
0.0
1001
DBPROPERTIES
1002
{
1000
PbHidd
1002
}
  0
LINE
  5
167
330
1F
100
AcDbEntity
  8
HIDDEN
100
AcDbLine
 10
-44.26642378340041
 20
111.8042239997627
 30
0.0
 11
-44.26642378340041
 21
111.8042239997627
 31
0.0
1001
DBPROPERTIES
1002
{
1000
PbHidd
1002
}
  0
LINE
  5
168
330
1F
100
AcDbEntity
  8
HIDDEN
100
AcDbLine
 10
-42.69568034967853
 20
115.433997910325
 30
0.0
 11
-44.26642378340041
 21
111.8042239997626
 31
0.0
1001
DBPROPERTIES
1002
{
1000
PbHidd
1002
}
  0
LINE
  5
169
330
1F
100
AcDbEntity
  8
HIDDEN
100
AcDbLine
 10
-42.69568034967853
 20
115.433997910325
 30
0.0
 11
-42.69568034967853
 21
115.433997910325
 31
0.0
1001
DBPROPERTIES
1002
{
1000
PbHidd
1002
}
  0
ARC
  5
16A
330
1F
100
AcDbEntity
  8
HIDDEN
100
AcDbCircle
 10
0.0
 20
0.0000000000000237
 30
0.0
 40
123.0769230769231
100
AcDbArc
 50
109.3020126615169
 51
110.2979851967928
1001
DBPROPERTIES
1002
{
1000
PbHidd
1002
}
  0
LINE
  5
16B
330
1F
100
AcDbEntity
  8
HIDDEN
100
AcDbLine
 10
-40.68281238189193
 20
116.158674969985
 30
0.0
 11
-40.68281238189193
 21
116.158674969985
 31
0.0
1001
DBPROPERTIES
1002
{
1000
PbHidd
1002
}
  0
LINE
  5
16C
330
1F
100
AcDbEntity
  8
HIDDEN
100
AcDbLine
 10
-37.1588287972497
 20
114.3631156500092
 30
0.0
 11
-40.68281238189191
 21
116.158674969985
 31
0.0
1001
DBPROPERTIES
1002
{
1000
PbHidd
1002
}
  0
LINE
  5
16D
330
1F
100
AcDbEntity
  8
HIDDEN
100
AcDbLine
 10
-37.15882879724972
 20
114.3631156500092
 30
0.0
 11
-37.15882879724972
 21
114.3631156500092
 31
0.0
1001
DBPROPERTIES
1002
{
1000
PbHidd
1002
}
  0
LINE
  5
16E
330
1F
100
AcDbEntity
  8
HIDDEN
100
AcDbLine
 10
-35.3632694772739
 20
117.8870992346514
 30
0.0
 11
-37.1588287972497
 21
114.3631156500092
 31
0.0
1001
DBPROPERTIES
1002
{
1000
PbHidd
1002
}
  0
LINE
  5
16F
330
1F
100
AcDbEntity
  8
HIDDEN
100
AcDbLine
 10
-35.36326947727391
 20
117.8870992346515
 30
0.0
 11
-35.36326947727391
 21
117.8870992346514
 31
0.0
1001
DBPROPERTIES
1002
{
1000
PbHidd
1002
}
  0
ARC
  5
170
330
1F
100
AcDbEntity
  8
HIDDEN
100
AcDbCircle
 10
0.0
 20
0.0000000000000237
 30
0.0
 40
123.0769230769231
100
AcDbArc
 50
105.7020042431509
 51
106.6979767784268
1001
DBPROPERTIES
1002
{
1000
PbHidd
1002
}
  0
LINE
  5
171
330
1F
100
AcDbEntity
  8
HIDDEN
100
AcDbLine
 10
-33.30887059555879
 20
118.4839572842297
 30
0.0
 11
-33.30887059555879
 21
118.4839572842297
 31
0.0
1001
DBPROPERTIES
1002
{
1000
PbHidd
1002
}
  0
LINE
  5
172
330
1F
100
AcDbEntity
  8
HIDDEN
100
AcDbLine
 10
-29.90458489009036
 20
116.4706683303229
 30
0.0
 11
-33.30887059555877
 21
118.4839572842297
 31
0.0
1001
DBPROPERTIES
1002
{
1000
PbHidd
1002
}
  0
LINE
  5
173
330
1F
100
AcDbEntity
  8
HIDDEN
100
AcDbLine
 10
-29.90458489009036
 20
116.4706683303229
 30
0.0
 11
-29.90458489009036
 21
116.4706683303229
 31
0.0
1001
DBPROPERTIES
1002
{
1000
PbHidd
1002
}
  0
LINE
  5
174
330
1F
100
AcDbEntity
  8
HIDDEN
100
AcDbLine
 10
-27.89129593618357
 20
119.8749540357913
 30
0.0
 11
-29.90458489009036
 21
116.4706683303229
 31
0.0
1001
DBPROPERTIES
1002
{
1000
PbHidd
1002
}
  0
LINE
  5
175
330
1F
100
AcDbEntity
  8
HIDDEN
100
AcDbLine
 10
-27.89129593618357
 20
119.8749540357913
 30
0.0
 11
-27.89129593618357
 21
119.8749540357913
 31
0.0
1001
DBPROPERTIES
1002
{
1000
PbHidd
1002
}
  0
ARC
  5
176
330
1F
100
AcDbEntity
  8
HIDDEN
100
AcDbCircle
 10
0.0
 20
0.0000000000000237
 30
0.0
 40
123.0769230769231
100
AcDbArc
 50
102.1020531205644
 51
103.0979683600608
1001
DBPROPERTIES
1002
{
1000
PbHidd
1002
}
  0
LINE
  5
177
330
1F
100
AcDbEntity
  8
HIDDEN
100
AcDbLine
 10
-25.8034739143604
 20
120.3416375492446
 30
0.0
 11
-25.8034739143604
 21
120.3416375492447
 31
0.0
1001
DBPROPERTIES
1002
{
1000
PbHidd
1002
}
  0
LINE
  5
178
330
1F
100
AcDbEntity
  8
HIDDEN
100
AcDbLine
 10
-22.53232124847508
 20
118.1185644931237
 30
0.0
 11
-25.80347391436038
 21
120.3416375492446
 31
0.0
1001
DBPROPERTIES
1002
{
1000
PbHidd
1002
}
  0
LINE
  5
179
330
1F
100
AcDbEntity
  8
HIDDEN
100
AcDbLine
 10
-22.53232124847508
 20
118.1185644931237
 30
0.0
 11
-22.53232124847508
 21
118.1185644931237
 31
0.0
1001
DBPROPERTIES
1002
{
1000
PbHidd
1002
}
  0
LINE
  5
17A
330
1F
100
AcDbEntity
  8
HIDDEN
100
AcDbLine
 10
-20.30924819235412
 20
121.389717159009
 30
0.0
 11
-22.53232124847508
 21
118.1185644931237
 31
0.0
1001
DBPROPERTIES
1002
{
1000
PbHidd
1002
}
  0
LINE
  5
17B
330
1F
100
AcDbEntity
  8
HIDDEN
100
AcDbLine
 10
-20.30924819235411
 20
121.389717159009
 30
0.0
 11
-20.30924819235411
 21
121.389717159009
 31
0.0
1001
DBPROPERTIES
1002
{
1000
PbHidd
1002
}
  0
ARC
  5
17C
330
1F
100
AcDbEntity
  8
HIDDEN
100
AcDbCircle
 10
0.0
 20
0.0000000000000237
 30
0.0
 40
123.0769230769231
100
AcDbArc
 50
98.50204470219843
 51
99.49795994169482
1001
DBPROPERTIES
1002
{
1000
PbHidd
1002
}
  0
LINE
  5
17D
330
1F
100
AcDbEntity
  8
HIDDEN
100
AcDbLine
 10
-18.196242710108
 20
121.7243843497172
 30
0.0
 11
-18.196242710108
 21
121.7243843497173
 31
0.0
1001
DBPROPERTIES
1002
{
1000
PbHidd
1002
}
  0
LINE
  5
17E
330
1F
100
AcDbEntity
  8
HIDDEN
100
AcDbLine
 10
-15.07113282893047
 20
119.3003006451091
 30
0.0
 11
-18.19624271010797
 21
121.7243843497172
 31
0.0
1001
DBPROPERTIES
1002
{
1000
PbHidd
1002
}
  0
LINE
  5
17F
330
1F
100
AcDbEntity
  8
HIDDEN
100
AcDbLine
 10
-15.07113282893047
 20
119.3003006451092
 30
0.0
 11
-15.07113282893047
 21
119.3003006451092
 31
0.0
1001
DBPROPERTIES
1002
{
1000
PbHidd
1002
}
  0
LINE
  5
180
330
1F
100
AcDbEntity
  8
HIDDEN
100
AcDbLine
 10
-12.64704912432238
 20
122.4254105262866
 30
0.0
 11
-15.07113282893047
 21
119.3003006451091
 31
0.0
1001
DBPROPERTIES
1002
{
1000
PbHidd
1002
}
  0
LINE
  5
181
330
1F
100
AcDbEntity
  8
HIDDEN
100
AcDbLine
 10
-12.64704912432238
 20
122.4254105262867
 30
0.0
 11
-12.64704912432238
 21
122.4254105262867
 31
0.0
1001
DBPROPERTIES
1002
{
1000
PbHidd
1002
}
  0
ARC
  5
182
330
1F
100
AcDbEntity
  8
HIDDEN
100
AcDbCircle
 10
0.0
 20
0.0000000000000237
 30
0.0
 40
123.0769230769231
100
AcDbArc
 50
94.90203628383244
 51
95.89795152332883
1001
DBPROPERTIES
1002
{
1000
PbHidd
1002
}
  0
LINE
  5
183
330
1F
100
AcDbEntity
  8
HIDDEN
100
AcDbLine
 10
-10.51719924895129
 20
122.626740615743
 30
0.0
 11
-10.51719924895129
 21
122.626740615743
 31
0.0
1001
DBPROPERTIES
1002
{
1000
PbHidd
1002
}
  0
LINE
  5
184
330
1F
100
AcDbEntity
  8
HIDDEN
100
AcDbLine
 10
-7.550465533455718
 20
120.0112130135713
 30
0.0
 11
-10.51719924895129
 21
122.6267406157429
 31
0.0
1001
DBPROPERTIES
1002
{
1000
PbHidd
1002
}
  0
LINE
  5
185
330
1F
100
AcDbEntity
  8
HIDDEN
100
AcDbLine
 10
-7.550465533455715
 20
120.0112130135714
 30
0.0
 11
-7.550465533455715
 21
120.0112130135714
 31
0.0
1001
DBPROPERTIES
1002
{
1000
PbHidd
1002
}
  0
LINE
  5
186
330
1F
100
AcDbEntity
  8
HIDDEN
100
AcDbLine
 10
-4.934937931284104
 20
122.9779467290669
 30
0.0
 11
-7.550465533455714
 21
120.0112130135713
 31
0.0
1001
DBPROPERTIES
1002
{
1000
PbHidd
1002
}
  0
LINE
  5
187
330
1F
100
AcDbEntity
  8
HIDDEN
100
AcDbLine
 10
-4.93493793128409
 20
122.9779467290669
 30
0.0
 11
-4.93493793128409
 21
122.9779467290669
 31
0.0
1001
DBPROPERTIES
1002
{
1000
PbHidd
1002
}
  0
ARC
  5
188
330
1F
100
AcDbEntity
  8
HIDDEN
100
AcDbCircle
 10
0.0
 20
0.0000000000000502
 30
0.0
 40
112.0769230769231
100
AcDbArc
 50
0.0
 51
180.0000198478428
1001
DBPROPERTIES
1002
{
1000
PbHidd
1002
}
  0
ARC
  5
189
330
1F
100
AcDbEntity
  8
HIDDEN
100
AcDbCircle
 10
0.0
 20
0.0
 30
0.0
 40
106.6666666666667
100
AcDbArc
 50
89.99998127603165
 51
270.0000187239684
1001
DBPROPERTIES
1002
{
1000
PbHidd
1002
}
  0
LINE
  5
18A
330
1F
100
AcDbEntity
  8
HIDDEN
100
AcDbLine
 10
-100.0
 20
-70.24997416638115
 30
0.0
 11
-100.0
 21
-84.85091340726254
 31
0.0
1001
DBPROPERTIES
1002
{
1000
PbHidd
1002
}
  0
LINE
  5
18B
330
1F
100
AcDbEntity
  8
HIDDEN
100
AcDbLine
 10
-100.0
 20
-131.3333333333333
 30
0.0
 11
-100.0
 21
-131.3333333333333
 31
0.0
1001
DBPROPERTIES
1002
{
1000
PbHidd
1002
}
  0
LINE
  5
18C
330
1F
100
AcDbEntity
  8
HIDDEN
100
AcDbLine
 10
97.28307677333815
 20
-70.68029253104073
 30
0.0
 11
97.90178434944285
 21
-74.58665842681263
 31
0.0
1001
DBPROPERTIES
1002
{
1000
PbHidd
1002
}
  0
LINE
  5
18D
330
1F
100
AcDbEntity
  8
HIDDEN
100
AcDbLine
 10
-97.90178434944288
 20
-74.58665842681262
 30
0.0
 11
-97.28307677333818
 21
-70.6802925310407
 31
0.0
1001
DBPROPERTIES
1002
{
1000
PbHidd
1002
}
  0
ARC
  5
18E
330
1F
100
AcDbEntity
  8
HIDDEN
100
AcDbCircle
 10
0.0
 20
0.0000000000000384
 30
0.0
 40
123.0769230769231
100
AcDbArc
 50
217.3020536294723
 51
218.2979688689688
1001
DBPROPERTIES
1002
{
1000
PbHidd
1002
}
  0
LINE
  5
18F
330
1F
100
AcDbEntity
  8
HIDDEN
100
AcDbLine
 10
-92.6530585550232
 20
-76.64927605111576
 30
0.0
 11
-96.59056510016453
 21
-76.27707209714931
 31
0.0
1001
DBPROPERTIES
1002
{
1000
PbHidd
1002
}
  0
LINE
  5
190
330
1F
100
AcDbEntity
  8
HIDDEN
100
AcDbLine
 10
-93.02526250898961
 20
-80.58678259625708
 30
0.0
 11
-92.65305855502318
 21
-76.64927605111576
 31
0.0
1001
DBPROPERTIES
1002
{
1000
PbHidd
1002
}
  0
ARC
  5
191
330
1F
100
AcDbEntity
  8
HIDDEN
100
AcDbCircle
 10
0.0
 20
0.0000000000000384
 30
0.0
 40
123.0769230769231
100
AcDbArc
 50
220.9020047520588
 51
221.8979772873347
1001
DBPROPERTIES
1002
{
1000
PbHidd
1002
}
  0
LINE
  5
192
330
1F
100
AcDbEntity
  8
HIDDEN
100
AcDbLine
 10
-87.65738104374749
 20
-82.31575989634034
 30
0.0
 11
-91.61048869880021
 21
-82.19152848347464
 31
0.0
1001
DBPROPERTIES
1002
{
1000
PbHidd
1002
}
  0
LINE
  5
193
330
1F
100
AcDbEntity
  8
HIDDEN
100
AcDbLine
 10
-87.78161245661322
 20
-86.26886755139307
 30
0.0
 11
-87.65738104374752
 21
-82.31575989634034
 31
0.0
1001
DBPROPERTIES
1002
{
1000
PbHidd
1002
}
  0
ARC
  5
194
330
1F
100
AcDbEntity
  8
HIDDEN
100
AcDbCircle
 10
0.0
 20
0.0000000000000384
 30
0.0
 40
123.0769230769231
100
AcDbArc
 50
224.5020131704248
 51
225.4979857057007
1001
DBPROPERTIES
1002
{
1000
PbHidd
1002
}
  0
LINE
  5
195
330
1F
100
AcDbEntity
  8
HIDDEN
100
AcDbLine
 10
-82.31575989634027
 20
-87.65738104374755
 30
0.0
 11
-86.268867551393
 21
-87.78161245661325
 31
0.0
1001
DBPROPERTIES
1002
{
1000
PbHidd
1002
}
  0
LINE
  5
196
330
1F
100
AcDbEntity
  8
HIDDEN
100
AcDbLine
 10
-82.19152848347463
 20
-91.61048869880027
 30
0.0
 11
-82.31575989634032
 21
-87.65738104374755
 31
0.0
1001
DBPROPERTIES
1002
{
1000
PbHidd
1002
}
  0
ARC
  5
197
330
1F
100
AcDbEntity
  8
HIDDEN
100
AcDbCircle
 10
0.0
 20
0.0000000000000384
 30
0.0
 40
123.0769230769231
100
AcDbArc
 50
228.1020215887908
 51
229.0979941240667
1001
DBPROPERTIES
1002
{
1000
PbHidd
1002
}
  0
LINE
  5
198
330
1F
100
AcDbEntity
  8
HIDDEN
100
AcDbLine
 10
-76.6492760511157
 20
-92.65305855502316
 30
0.0
 11
-80.58678259625705
 21
-93.02526250898961
 31
0.0
1001
DBPROPERTIES
1002
{
1000
PbHidd
1002
}
  0
LINE
  5
199
330
1F
100
AcDbEntity
  8
HIDDEN
100
AcDbLine
 10
-76.27707209714929
 20
-96.59056510016453
 30
0.0
 11
-76.64927605111572
 21
-92.6530585550232
 31
0.0
1001
DBPROPERTIES
1002
{
1000
PbHidd
1002
}
  0
ARC
  5
19A
330
1F
100
AcDbEntity
  8
HIDDEN
100
AcDbCircle
 10
0.0
 20
0.0000000000000384
 30
0.0
 40
123.0769230769231
100
AcDbArc
 50
231.7020300071568
 51
232.6979452466532
1001
DBPROPERTIES
1002
{
1000
PbHidd
1002
}
  0
LINE
  5
19B
330
1F
100
AcDbEntity
  8
HIDDEN
100
AcDbLine
 10
-70.6802925310407
 20
-97.28307677333815
 30
0.0
 11
-74.58665842681259
 21
-97.90178434944283
 31
0.0
1001
DBPROPERTIES
1002
{
1000
PbHidd
1002
}
  0
LINE
  5
19C
330
1F
100
AcDbEntity
  8
HIDDEN
100
AcDbLine
 10
-70.06158495493605
 20
-101.18944266911
 30
0.0
 11
-70.68029253104073
 21
-97.28307677333817
 31
0.0
1001
DBPROPERTIES
1002
{
1000
PbHidd
1002
}
  0
ARC
  5
19D
330
1F
100
AcDbEntity
  8
HIDDEN
100
AcDbCircle
 10
0.0
 20
0.0000000000000384
 30
0.0
 40
123.0769230769231
100
AcDbArc
 50
235.3020384255228
 51
236.2979536650192
1001
DBPROPERTIES
1002
{
1000
PbHidd
1002
}
  0
LINE
  5
19E
330
1F
100
AcDbEntity
  8
HIDDEN
100
AcDbLine
 10
-64.43236618709977
 20
-101.529163132039
 30
0.0
 11
-68.29217479196043
 21
-102.3919325741396
 31
0.0
1001
DBPROPERTIES
1002
{
1000
PbHidd
1002
}
  0
LINE
  5
19F
330
1F
100
AcDbEntity
  8
HIDDEN
100
AcDbLine
 10
-63.56959674499913
 20
-105.3889717368996
 30
0.0
 11
-64.43236618709979
 21
-101.529163132039
 31
0.0
1001
DBPROPERTIES
1002
{
1000
PbHidd
1002
}
  0
ARC
  5
1A0
330
1F
100
AcDbEntity
  8
HIDDEN
100
AcDbCircle
 10
0.0
 20
0.0000000000000384
 30
0.0
 40
123.0769230769231
100
AcDbArc
 50
238.9020468438888
 51
239.8979620833852
1001
DBPROPERTIES
1002
{
1000
PbHidd
1002
}
  0
LINE
  5
1A1
330
1F
100
AcDbEntity
  8
HIDDEN
100
AcDbLine
 10
-57.93015473016642
 20
-105.3745602681201
 30
0.0
 11
-61.72817314293129
 21
-106.4779866193906
 31
0.0
1001
DBPROPERTIES
1002
{
1000
PbHidd
1002
}
  0
LINE
  5
1A2
330
1F
100
AcDbEntity
  8
HIDDEN
100
AcDbLine
 10
-56.82672837889594
 20
-109.172578680885
 30
0.0
 11
-57.93015473016645
 21
-105.3745602681201
 31
0.0
1001
DBPROPERTIES
1002
{
1000
PbHidd
1002
}
  0
ARC
  5
1A3
330
1F
100
AcDbEntity
  8
HIDDEN
100
AcDbCircle
 10
0.0
 20
0.0000000000000384
 30
0.0
 40
123.0769230769231
100
AcDbArc
 50
242.5020552622547
 51
243.4979705017512
1001
DBPROPERTIES
1002
{
1000
PbHidd
1002
}
  0
LINE
  5
1A4
330
1F
100
AcDbEntity
  8
HIDDEN
100
AcDbLine
 10
-51.19931941828335
 20
-108.8040921558803
 30
0.0
 11
-54.92055859542678
 21
-110.1438206966197
 31
0.0
1001
DBPROPERTIES
1002
{
1000
PbHidd
1002
}
  0
LINE
  5
1A5
330
1F
100
AcDbEntity
  8
HIDDEN
100
AcDbLine
 10
-49.8595908775439
 20
-112.5253313330237
 30
0.0
 11
-51.19931941828336
 21
-108.8040921558803
 31
0.0
1001
DBPROPERTIES
1002
{
1000
PbHidd
1002
}
  0
ARC
  5
1A6
330
1F
100
AcDbEntity
  8
HIDDEN
100
AcDbCircle
 10
0.0
 20
0.0000000000000384
 30
0.0
 40
123.0769230769231
100
AcDbArc
 50
246.1020063848412
 51
247.0979789201172
1001
DBPROPERTIES
1002
{
1000
PbHidd
1002
}
  0
LINE
  5
1A7
330
1F
100
AcDbEntity
  8
HIDDEN
100
AcDbLine
 10
-44.26642378340038
 20
-111.8042239997626
 30
0.0
 11
-47.89619769396268
 21
-113.3749674334845
 31
0.0
1001
DBPROPERTIES
1002
{
1000
PbHidd
1002
}
  0
LINE
  5
1A8
330
1F
100
AcDbEntity
  8
HIDDEN
100
AcDbLine
 10
-42.69568034967856
 20
-115.4339979103249
 30
0.0
 11
-44.26642378340041
 21
-111.8042239997627
 31
0.0
1001
DBPROPERTIES
1002
{
1000
PbHidd
1002
}
  0
ARC
  5
1A9
330
1F
100
AcDbEntity
  8
HIDDEN
100
AcDbCircle
 10
0.0
 20
0.0000000000000384
 30
0.0
 40
123.0769230769231
100
AcDbArc
 50
249.7020148032072
 51
250.6979873384831
1001
DBPROPERTIES
1002
{
1000
PbHidd
1002
}
  0
LINE
  5
1AA
330
1F
100
AcDbEntity
  8
HIDDEN
100
AcDbLine
 10
-37.15882879724969
 20
-114.3631156500092
 30
0.0
 11
-40.68281238189182
 21
-116.158674969985
 31
0.0
1001
DBPROPERTIES
1002
{
1000
PbHidd
1002
}
  0
LINE
  5
1AB
330
1F
100
AcDbEntity
  8
HIDDEN
100
AcDbLine
 10
-35.36326947727394
 20
-117.8870992346514
 30
0.0
 11
-37.1588287972497
 21
-114.3631156500092
 31
0.0
1001
DBPROPERTIES
1002
{
1000
PbHidd
1002
}
  0
ARC
  5
1AC
330
1F
100
AcDbEntity
  8
HIDDEN
100
AcDbCircle
 10
0.0
 20
0.0000000000000384
 30
0.0
 40
123.0769230769231
100
AcDbArc
 50
253.3020232215732
 51
254.2979957568491
1001
DBPROPERTIES
1002
{
1000
PbHidd
1002
}
  0
LINE
  5
1AD
330
1F
100
AcDbEntity
  8
HIDDEN
100
AcDbLine
 10
-29.90458489009036
 20
-116.4706683303229
 30
0.0
 11
-33.30887059555869
 21
-118.4839572842296
 31
0.0
1001
DBPROPERTIES
1002
{
1000
PbHidd
1002
}
  0
LINE
  5
1AE
330
1F
100
AcDbEntity
  8
HIDDEN
100
AcDbLine
 10
-27.89129593618361
 20
-119.8749540357912
 30
0.0
 11
-29.90458489009038
 21
-116.4706683303229
 31
0.0
1001
DBPROPERTIES
1002
{
1000
PbHidd
1002
}
  0
ARC
  5
1AF
330
1F
100
AcDbEntity
  8
HIDDEN
100
AcDbCircle
 10
0.0
 20
0.0000000000000384
 30
0.0
 40
123.0769230769231
100
AcDbArc
 50
256.9020316399391
 51
257.8979468794356
1001
DBPROPERTIES
1002
{
1000
PbHidd
1002
}
  0
LINE
  5
1B0
330
1F
100
AcDbEntity
  8
HIDDEN
100
AcDbLine
 10
-22.53232124847508
 20
-118.1185644931237
 30
0.0
 11
-25.80347391436035
 21
-120.3416375492446
 31
0.0
1001
DBPROPERTIES
1002
{
1000
PbHidd
1002
}
  0
LINE
  5
1B1
330
1F
100
AcDbEntity
  8
HIDDEN
100
AcDbLine
 10
-20.30924819235418
 20
-121.3897171590089
 30
0.0
 11
-22.53232124847509
 21
-118.1185644931237
 31
0.0
1001
DBPROPERTIES
1002
{
1000
PbHidd
1002
}
  0
ARC
  5
1B2
330
1F
100
AcDbEntity
  8
HIDDEN
100
AcDbCircle
 10
0.0
 20
0.0000000000000384
 30
0.0
 40
123.0769230769231
100
AcDbArc
 50
260.5020400583052
 51
261.4979552978016
1001
DBPROPERTIES
1002
{
1000
PbHidd
1002
}
  0
LINE
  5
1B3
330
1F
100
AcDbEntity
  8
HIDDEN
100
AcDbLine
 10
-15.07113282893046
 20
-119.3003006451092
 30
0.0
 11
-18.19624271010791
 21
-121.7243843497172
 31
0.0
1001
DBPROPERTIES
1002
{
1000
PbHidd
1002
}
  0
LINE
  5
1B4
330
1F
100
AcDbEntity
  8
HIDDEN
100
AcDbLine
 10
-12.64704912432246
 20
-122.4254105262866
 30
0.0
 11
-15.07113282893047
 21
-119.3003006451092
 31
0.0
1001
DBPROPERTIES
1002
{
1000
PbHidd
1002
}
  0
ARC
  5
1B5
330
1F
100
AcDbEntity
  8
HIDDEN
100
AcDbCircle
 10
0.0
 20
0.0000000000000384
 30
0.0
 40
123.0769230769231
100
AcDbArc
 50
264.1020484766711
 51
265.0979637161676
1001
DBPROPERTIES
1002
{
1000
PbHidd
1002
}
  0
LINE
  5
1B6
330
1F
100
AcDbEntity
  8
HIDDEN
100
AcDbLine
 10
-7.550465533455695
 20
-120.0112130135713
 30
0.0
 11
-10.51719924895118
 21
-122.6267406157429
 31
0.0
1001
DBPROPERTIES
1002
{
1000
PbHidd
1002
}
  0
LINE
  5
1B7
330
1F
100
AcDbEntity
  8
HIDDEN
100
AcDbLine
 10
-4.934937931284169
 20
-122.9779467290668
 30
0.0
 11
-7.550465533455708
 21
-120.0112130135713
 31
0.0
1001
DBPROPERTIES
1002
{
1000
PbHidd
1002
}
  0
ARC
  5
1B8
330
1F
100
AcDbEntity
  8
HIDDEN
100
AcDbCircle
 10
0.0
 20
0.0000000000000384
 30
0.0
 40
123.0769230769231
100
AcDbArc
 50
267.7020568950371
 51
268.6979721345335
1001
DBPROPERTIES
1002
{
1000
PbHidd
1002
}
  0
LINE
  5
1B9
330
1F
100
AcDbEntity
  8
HIDDEN
100
AcDbLine
 10
0.0000000000000355
 20
-120.2484959521769
 30
0.0
 11
-2.796649207210168
 21
-123.0451451593871
 31
0.0
1001
DBPROPERTIES
1002
{
1000
PbHidd
1002
}
  0
LINE
  5
1BA
330
1F
100
AcDbEntity
  8
HIDDEN
100
AcDbLine
 10
2.796649207210233
 20
-123.0451451593871
 30
0.0
 11
0.000000000000032
 21
-120.2484959521769
 31
0.0
1001
DBPROPERTIES
1002
{
1000
PbHidd
1002
}
  0
ARC
  5
1BB
330
1F
100
AcDbEntity
  8
HIDDEN
100
AcDbCircle
 10
0.0
 20
0.0000000000000384
 30
0.0
 40
123.0769230769231
100
AcDbArc
 50
271.3020080176237
 51
272.2979805528996
1001
DBPROPERTIES
1002
{
1000
PbHidd
1002
}
  0
LINE
  5
1BC
330
1F
100
AcDbEntity
  8
HIDDEN
100
AcDbLine
 10
7.550465533455711
 20
-120.0112130135713
 30
0.0
 11
4.934937931284155
 21
-122.9779467290668
 31
0.0
1001
DBPROPERTIES
1002
{
1000
PbHidd
1002
}
  0
LINE
  5
1BD
330
1F
100
AcDbEntity
  8
HIDDEN
100
AcDbLine
 10
10.5171992489512
 20
-122.6267406157429
 30
0.0
 11
7.550465533455705
 21
-120.0112130135713
 31
0.0
1001
DBPROPERTIES
1002
{
1000
PbHidd
1002
}
  0
ARC
  5
1BE
330
1F
100
AcDbEntity
  8
HIDDEN
100
AcDbCircle
 10
0.0
 20
0.0000000000000384
 30
0.0
 40
123.0769230769231
100
AcDbArc
 50
274.9020164359896
 51
275.8979889712655
1001
DBPROPERTIES
1002
{
1000
PbHidd
1002
}
  0
LINE
  5
1BF
330
1F
100
AcDbEntity
  8
HIDDEN
100
AcDbLine
 10
15.07113282893047
 20
-119.3003006451092
 30
0.0
 11
12.64704912432245
 21
-122.4254105262866
 31
0.0
1001
DBPROPERTIES
1002
{
1000
PbHidd
1002
}
  0
LINE
  5
1C0
330
1F
100
AcDbEntity
  8
HIDDEN
100
AcDbLine
 10
18.1962427101079
 20
-121.7243843497172
 30
0.0
 11
15.07113282893047
 21
-119.3003006451092
 31
0.0
1001
DBPROPERTIES
1002
{
1000
PbHidd
1002
}
  0
ARC
  5
1C1
330
1F
100
AcDbEntity
  8
HIDDEN
100
AcDbCircle
 10
0.0
 20
0.0000000000000384
 30
0.0
 40
123.0769230769231
100
AcDbArc
 50
278.5020248543556
 51
279.4979973896315
1001
DBPROPERTIES
1002
{
1000
PbHidd
1002
}
  0
LINE
  5
1C2
330
1F
100
AcDbEntity
  8
HIDDEN
100
AcDbLine
 10
22.53232124847511
 20
-118.1185644931237
 30
0.0
 11
20.3092481923542
 21
-121.3897171590089
 31
0.0
1001
DBPROPERTIES
1002
{
1000
PbHidd
1002
}
  0
LINE
  5
1C3
330
1F
100
AcDbEntity
  8
HIDDEN
100
AcDbLine
 10
25.80347391436034
 20
-120.3416375492446
 30
0.0
 11
22.53232124847509
 21
-118.1185644931237
 31
0.0
1001
DBPROPERTIES
1002
{
1000
PbHidd
1002
}
  0
ARC
  5
1C4
330
1F
100
AcDbEntity
  8
HIDDEN
100
AcDbCircle
 10
0.0
 20
0.0000000000000384
 30
0.0
 40
123.0769230769231
100
AcDbArc
 50
282.1020332727216
 51
283.097948512218
1001
DBPROPERTIES
1002
{
1000
PbHidd
1002
}
  0
LINE
  5
1C5
330
1F
100
AcDbEntity
  8
HIDDEN
100
AcDbLine
 10
29.90458489009039
 20
-116.4706683303229
 30
0.0
 11
27.89129593618363
 21
-119.8749540357912
 31
0.0
1001
DBPROPERTIES
1002
{
1000
PbHidd
1002
}
  0
LINE
  5
1C6
330
1F
100
AcDbEntity
  8
HIDDEN
100
AcDbLine
 10
33.30887059555872
 20
-118.4839572842296
 30
0.0
 11
29.90458489009038
 21
-116.4706683303229
 31
0.0
1001
DBPROPERTIES
1002
{
1000
PbHidd
1002
}
  0
ARC
  5
1C7
330
1F
100
AcDbEntity
  8
HIDDEN
100
AcDbCircle
 10
0.0
 20
0.0000000000000384
 30
0.0
 40
123.0769230769231
100
AcDbArc
 50
285.7020416910876
 51
286.697956930584
1001
DBPROPERTIES
1002
{
1000
PbHidd
1002
}
  0
LINE
  5
1C8
330
1F
100
AcDbEntity
  8
HIDDEN
100
AcDbLine
 10
37.15882879724976
 20
-114.3631156500092
 30
0.0
 11
35.36326947727399
 21
-117.8870992346513
 31
0.0
1001
DBPROPERTIES
1002
{
1000
PbHidd
1002
}
  0
LINE
  5
1C9
330
1F
100
AcDbEntity
  8
HIDDEN
100
AcDbLine
 10
40.68281238189188
 20
-116.158674969985
 30
0.0
 11
37.15882879724974
 21
-114.3631156500092
 31
0.0
1001
DBPROPERTIES
1002
{
1000
PbHidd
1002
}
  0
ARC
  5
1CA
330
1F
100
AcDbEntity
  8
HIDDEN
100
AcDbCircle
 10
0.0
 20
0.0000000000000384
 30
0.0
 40
123.0769230769231
100
AcDbArc
 50
289.3020501094535
 51
290.29796534895
1001
DBPROPERTIES
1002
{
1000
PbHidd
1002
}
  0
LINE
  5
1CB
330
1F
100
AcDbEntity
  8
HIDDEN
100
AcDbLine
 10
44.26642378340045
 20
-111.8042239997626
 30
0.0
 11
42.69568034967859
 21
-115.4339979103249
 31
0.0
1001
DBPROPERTIES
1002
{
1000
PbHidd
1002
}
  0
LINE
  5
1CC
330
1F
100
AcDbEntity
  8
HIDDEN
100
AcDbLine
 10
47.89619769396276
 20
-113.3749674334845
 30
0.0
 11
44.26642378340043
 21
-111.8042239997626
 31
0.0
1001
DBPROPERTIES
1002
{
1000
PbHidd
1002
}
  0
ARC
  5
1CD
330
1F
100
AcDbEntity
  8
HIDDEN
100
AcDbCircle
 10
0.0
 20
0.0000000000000384
 30
0.0
 40
123.0769230769231
100
AcDbArc
 50
292.9020585278195
 51
293.8979737673159
1001
DBPROPERTIES
1002
{
1000
PbHidd
1002
}
  0
LINE
  5
1CE
330
1F
100
AcDbEntity
  8
HIDDEN
100
AcDbLine
 10
51.19931941828337
 20
-108.8040921558803
 30
0.0
 11
49.85959087754392
 21
-112.5253313330237
 31
0.0
1001
DBPROPERTIES
1002
{
1000
PbHidd
1002
}
  0
LINE
  5
1CF
330
1F
100
AcDbEntity
  8
HIDDEN
100
AcDbLine
 10
54.92055859542679
 20
-110.1438206966197
 30
0.0
 11
51.19931941828335
 21
-108.8040921558803
 31
0.0
1001
DBPROPERTIES
1002
{
1000
PbHidd
1002
}
  0
ARC
  5
1D0
330
1F
100
AcDbEntity
  8
HIDDEN
100
AcDbCircle
 10
0.0
 20
0.0000000000000384
 30
0.0
 40
123.0769230769231
100
AcDbArc
 50
296.502009650406
 51
297.497982185682
1001
DBPROPERTIES
1002
{
1000
PbHidd
1002
}
  0
LINE
  5
1D1
330
1F
100
AcDbEntity
  8
HIDDEN
100
AcDbLine
 10
57.93015473016646
 20
-105.3745602681201
 30
0.0
 11
56.82672837889594
 21
-109.1725786808849
 31
0.0
1001
DBPROPERTIES
1002
{
1000
PbHidd
1002
}
  0
LINE
  5
1D2
330
1F
100
AcDbEntity
  8
HIDDEN
100
AcDbLine
 10
61.7281731429313
 20
-106.4779866193906
 30
0.0
 11
57.93015473016644
 21
-105.3745602681201
 31
0.0
1001
DBPROPERTIES
1002
{
1000
PbHidd
1002
}
  0
ARC
  5
1D3
330
1F
100
AcDbEntity
  8
HIDDEN
100
AcDbCircle
 10
0.0
 20
0.0000000000000384
 30
0.0
 40
123.0769230769231
100
AcDbArc
 50
300.102018068772
 51
301.0979906040479
1001
DBPROPERTIES
1002
{
1000
PbHidd
1002
}
  0
LINE
  5
1D4
330
1F
100
AcDbEntity
  8
HIDDEN
100
AcDbLine
 10
64.43236618709982
 20
-101.5291631320389
 30
0.0
 11
63.56959674499917
 21
-105.3889717368996
 31
0.0
1001
DBPROPERTIES
1002
{
1000
PbHidd
1002
}
  0
LINE
  5
1D5
330
1F
100
AcDbEntity
  8
HIDDEN
100
AcDbLine
 10
68.29217479196045
 20
-102.3919325741396
 30
0.0
 11
64.43236618709977
 21
-101.5291631320389
 31
0.0
1001
DBPROPERTIES
1002
{
1000
PbHidd
1002
}
  0
ARC
  5
1D6
330
1F
100
AcDbEntity
  8
HIDDEN
100
AcDbCircle
 10
0.0
 20
0.0000000000000384
 30
0.0
 40
123.0769230769231
100
AcDbArc
 50
303.702026487138
 51
304.6979417266344
1001
DBPROPERTIES
1002
{
1000
PbHidd
1002
}
  0
LINE
  5
1D7
330
1F
100
AcDbEntity
  8
HIDDEN
100
AcDbLine
 10
70.68029253104078
 20
-97.28307677333817
 30
0.0
 11
70.0615849549361
 21
-101.18944266911
 31
0.0
1001
DBPROPERTIES
1002
{
1000
PbHidd
1002
}
  0
LINE
  5
1D8
330
1F
100
AcDbEntity
  8
HIDDEN
100
AcDbLine
 10
74.58665842681262
 20
-97.90178434944283
 30
0.0
 11
70.68029253104075
 21
-97.28307677333815
 31
0.0
1001
DBPROPERTIES
1002
{
1000
PbHidd
1002
}
  0
ARC
  5
1D9
330
1F
100
AcDbEntity
  8
HIDDEN
100
AcDbCircle
 10
0.0
 20
0.0000000000000384
 30
0.0
 40
123.0769230769231
100
AcDbArc
 50
307.302034905504
 51
308.2979501450004
1001
DBPROPERTIES
1002
{
1000
PbHidd
1002
}
  0
LINE
  5
1DA
330
1F
100
AcDbEntity
  8
HIDDEN
100
AcDbLine
 10
76.64927605111579
 20
-92.65305855502316
 30
0.0
 11
76.27707209714936
 21
-96.59056510016447
 31
0.0
1001
DBPROPERTIES
1002
{
1000
PbHidd
1002
}
  0
LINE
  5
1DB
330
1F
100
AcDbEntity
  8
HIDDEN
100
AcDbLine
 10
80.58678259625708
 20
-93.02526250898958
 30
0.0
 11
76.64927605111578
 21
-92.65305855502315
 31
0.0
1001
DBPROPERTIES
1002
{
1000
PbHidd
1002
}
  0
ARC
  5
1DC
330
1F
100
AcDbEntity
  8
HIDDEN
100
AcDbCircle
 10
0.0
 20
0.0000000000000384
 30
0.0
 40
123.0769230769231
100
AcDbArc
 50
310.90204332387
 51
311.8979585633664
1001
DBPROPERTIES
1002
{
1000
PbHidd
1002
}
  0
LINE
  5
1DD
330
1F
100
AcDbEntity
  8
HIDDEN
100
AcDbLine
 10
82.31575989634034
 20
-87.65738104374755
 30
0.0
 11
82.19152848347464
 21
-91.61048869880025
 31
0.0
1001
DBPROPERTIES
1002
{
1000
PbHidd
1002
}
  0
LINE
  5
1DE
330
1F
100
AcDbEntity
  8
HIDDEN
100
AcDbLine
 10
86.26886755139306
 20
-87.78161245661325
 30
0.0
 11
82.31575989634034
 21
-87.65738104374755
 31
0.0
1001
DBPROPERTIES
1002
{
1000
PbHidd
1002
}
  0
ARC
  5
1DF
330
1F
100
AcDbEntity
  8
HIDDEN
100
AcDbCircle
 10
0.0
 20
0.0000000000000384
 30
0.0
 40
123.0769230769231
100
AcDbArc
 50
314.502051742236
 51
315.4979669817324
1001
DBPROPERTIES
1002
{
1000
PbHidd
1002
}
  0
LINE
  5
1E0
330
1F
100
AcDbEntity
  8
HIDDEN
100
AcDbLine
 10
87.65738104374755
 20
-82.31575989634031
 30
0.0
 11
87.78161245661325
 21
-86.26886755139304
 31
0.0
1001
DBPROPERTIES
1002
{
1000
PbHidd
1002
}
  0
LINE
  5
1E1
330
1F
100
AcDbEntity
  8
HIDDEN
100
AcDbLine
 10
91.61048869880022
 20
-82.19152848347461
 30
0.0
 11
87.65738104374749
 21
-82.31575989634031
 31
0.0
1001
DBPROPERTIES
1002
{
1000
PbHidd
1002
}
  0
ARC
  5
1E2
330
1F
100
AcDbEntity
  8
HIDDEN
100
AcDbCircle
 10
0.0
 20
0.0000000000000384
 30
0.0
 40
123.0769230769231
100
AcDbArc
 50
318.1020028648225
 51
319.0979754000983
1001
DBPROPERTIES
1002
{
1000
PbHidd
1002
}
  0
LINE
  5
1E3
330
1F
100
AcDbEntity
  8
HIDDEN
100
AcDbLine
 10
92.65305855502318
 20
-76.64927605111573
 30
0.0
 11
93.02526250898961
 21
-80.58678259625708
 31
0.0
1001
DBPROPERTIES
1002
{
1000
PbHidd
1002
}
  0
LINE
  5
1E4
330
1F
100
AcDbEntity
  8
HIDDEN
100
AcDbLine
 10
96.5905651001645
 20
-76.2770720971493
 30
0.0
 11
92.65305855502314
 21
-76.64927605111575
 31
0.0
1001
DBPROPERTIES
1002
{
1000
PbHidd
1002
}
  0
ARC
  5
1E5
330
1F
100
AcDbEntity
  8
HIDDEN
100
AcDbCircle
 10
0.0
 20
0.0000000000000384
 30
0.0
 40
123.0769230769231
100
AcDbArc
 50
321.7020112831884
 51
322.6979838184644
1001
DBPROPERTIES
1002
{
1000
PbHidd
1002
}
  0
LINE
  5
1E6
330
1F
100
AcDbEntity
  8
HIDDEN
100
AcDbLine
 10
100.0
 20
-84.85091340726254
 30
0.0
 11
100.0
 21
-70.24997416638118
 31
0.0
1001
DBPROPERTIES
1002
{
1000
PbHidd
1002
}
  0
LINE
  5
1E7
330
1F
100
AcDbEntity
  8
HIDDEN
100
AcDbLine
 10
100.0
 20
-131.3333333333333
 30
0.0
 11
100.0
 21
-131.3333333333333
 31
0.0
1001
DBPROPERTIES
1002
{
1000
PbHidd
1002
}
  0
LINE
  5
1E8
330
1F
100
AcDbEntity
  8
HIDDEN
100
AcDbLine
 10
97.90178434944285
 20
-74.58665842681262
 30
0.0
 11
97.90178434944285
 21
-74.58665842681263
 31
0.0
1001
DBPROPERTIES
1002
{
1000
PbHidd
1002
}
  0
LINE
  5
1E9
330
1F
100
AcDbEntity
  8
HIDDEN
100
AcDbLine
 10
96.59056510016455
 20
-76.27707209714929
 30
0.0
 11
96.59056510016455
 21
-76.27707209714927
 31
0.0
1001
DBPROPERTIES
1002
{
1000
PbHidd
1002
}
  0
LINE
  5
1EA
330
1F
100
AcDbEntity
  8
HIDDEN
100
AcDbLine
 10
92.6530585550232
 20
-76.64927605111573
 30
0.0
 11
92.6530585550232
 21
-76.64927605111573
 31
0.0
1001
DBPROPERTIES
1002
{
1000
PbHidd
1002
}
  0
LINE
  5
1EB
330
1F
100
AcDbEntity
  8
HIDDEN
100
AcDbLine
 10
93.02526250898963
 20
-80.58678259625707
 30
0.0
 11
93.02526250898963
 21
-80.58678259625708
 31
0.0
1001
DBPROPERTIES
1002
{
1000
PbHidd
1002
}
  0
LINE
  5
1EC
330
1F
100
AcDbEntity
  8
HIDDEN
100
AcDbLine
 10
91.61048869880028
 20
-82.19152848347463
 30
0.0
 11
91.61048869880028
 21
-82.19152848347461
 31
0.0
1001
DBPROPERTIES
1002
{
1000
PbHidd
1002
}
  0
LINE
  5
1ED
330
1F
100
AcDbEntity
  8
HIDDEN
100
AcDbLine
 10
87.65738104374755
 20
-82.31575989634031
 30
0.0
 11
87.65738104374755
 21
-82.31575989634031
 31
0.0
1001
DBPROPERTIES
1002
{
1000
PbHidd
1002
}
  0
LINE
  5
1EE
330
1F
100
AcDbEntity
  8
HIDDEN
100
AcDbLine
 10
87.78161245661325
 20
-86.26886755139303
 30
0.0
 11
87.78161245661325
 21
-86.26886755139304
 31
0.0
1001
DBPROPERTIES
1002
{
1000
PbHidd
1002
}
  0
LINE
  5
1EF
330
1F
100
AcDbEntity
  8
HIDDEN
100
AcDbLine
 10
86.26886755139306
 20
-87.78161245661325
 30
0.0
 11
86.26886755139306
 21
-87.78161245661323
 31
0.0
1001
DBPROPERTIES
1002
{
1000
PbHidd
1002
}
  0
LINE
  5
1F0
330
1F
100
AcDbEntity
  8
HIDDEN
100
AcDbLine
 10
82.31575989634034
 20
-87.65738104374755
 30
0.0
 11
82.31575989634034
 21
-87.65738104374755
 31
0.0
1001
DBPROPERTIES
1002
{
1000
PbHidd
1002
}
  0
LINE
  5
1F1
330
1F
100
AcDbEntity
  8
HIDDEN
100
AcDbLine
 10
82.19152848347463
 20
-91.61048869880024
 30
0.0
 11
82.19152848347463
 21
-91.61048869880025
 31
0.0
1001
DBPROPERTIES
1002
{
1000
PbHidd
1002
}
  0
LINE
  5
1F2
330
1F
100
AcDbEntity
  8
HIDDEN
100
AcDbLine
 10
80.58678259625711
 20
-93.0252625089896
 30
0.0
 11
80.58678259625711
 21
-93.02526250898958
 31
0.0
1001
DBPROPERTIES
1002
{
1000
PbHidd
1002
}
  0
LINE
  5
1F3
330
1F
100
AcDbEntity
  8
HIDDEN
100
AcDbLine
 10
76.64927605111579
 20
-92.65305855502316
 30
0.0
 11
76.64927605111579
 21
-92.65305855502316
 31
0.0
1001
DBPROPERTIES
1002
{
1000
PbHidd
1002
}
  0
LINE
  5
1F4
330
1F
100
AcDbEntity
  8
HIDDEN
100
AcDbLine
 10
76.27707209714936
 20
-96.59056510016445
 30
0.0
 11
76.27707209714936
 21
-96.59056510016447
 31
0.0
1001
DBPROPERTIES
1002
{
1000
PbHidd
1002
}
  0
LINE
  5
1F5
330
1F
100
AcDbEntity
  8
HIDDEN
100
AcDbLine
 10
74.58665842681263
 20
-97.90178434944286
 30
0.0
 11
74.58665842681263
 21
-97.90178434944285
 31
0.0
1001
DBPROPERTIES
1002
{
1000
PbHidd
1002
}
  0
LINE
  5
1F6
330
1F
100
AcDbEntity
  8
HIDDEN
100
AcDbLine
 10
70.68029253104076
 20
-97.28307677333817
 30
0.0
 11
70.68029253104076
 21
-97.28307677333817
 31
0.0
1001
DBPROPERTIES
1002
{
1000
PbHidd
1002
}
  0
LINE
  5
1F7
330
1F
100
AcDbEntity
  8
HIDDEN
100
AcDbLine
 10
70.06158495493608
 20
-101.18944266911
 30
0.0
 11
70.06158495493608
 21
-101.18944266911
 31
0.0
1001
DBPROPERTIES
1002
{
1000
PbHidd
1002
}
  0
LINE
  5
1F8
330
1F
100
AcDbEntity
  8
HIDDEN
100
AcDbLine
 10
68.29217479196049
 20
-102.3919325741396
 30
0.0
 11
68.29217479196049
 21
-102.3919325741396
 31
0.0
1001
DBPROPERTIES
1002
{
1000
PbHidd
1002
}
  0
LINE
  5
1F9
330
1F
100
AcDbEntity
  8
HIDDEN
100
AcDbLine
 10
64.43236618709982
 20
-101.5291631320389
 30
0.0
 11
64.43236618709982
 21
-101.5291631320389
 31
0.0
1001
DBPROPERTIES
1002
{
1000
PbHidd
1002
}
  0
LINE
  5
1FA
330
1F
100
AcDbEntity
  8
HIDDEN
100
AcDbLine
 10
63.56959674499916
 20
-105.3889717368996
 30
0.0
 11
63.56959674499916
 21
-105.3889717368996
 31
0.0
1001
DBPROPERTIES
1002
{
1000
PbHidd
1002
}
  0
LINE
  5
1FB
330
1F
100
AcDbEntity
  8
HIDDEN
100
AcDbLine
 10
61.72817314293133
 20
-106.4779866193906
 30
0.0
 11
61.72817314293133
 21
-106.4779866193906
 31
0.0
1001
DBPROPERTIES
1002
{
1000
PbHidd
1002
}
  0
LINE
  5
1FC
330
1F
100
AcDbEntity
  8
HIDDEN
100
AcDbLine
 10
57.93015473016646
 20
-105.3745602681201
 30
0.0
 11
57.93015473016646
 21
-105.3745602681201
 31
0.0
1001
DBPROPERTIES
1002
{
1000
PbHidd
1002
}
  0
LINE
  5
1FD
330
1F
100
AcDbEntity
  8
HIDDEN
100
AcDbLine
 10
56.82672837889596
 20
-109.1725786808849
 30
0.0
 11
56.82672837889596
 21
-109.172578680885
 31
0.0
1001
DBPROPERTIES
1002
{
1000
PbHidd
1002
}
  0
LINE
  5
1FE
330
1F
100
AcDbEntity
  8
HIDDEN
100
AcDbLine
 10
54.92055859542682
 20
-110.1438206966198
 30
0.0
 11
54.92055859542682
 21
-110.1438206966197
 31
0.0
1001
DBPROPERTIES
1002
{
1000
PbHidd
1002
}
  0
LINE
  5
1FF
330
1F
100
AcDbEntity
  8
HIDDEN
100
AcDbLine
 10
51.19931941828338
 20
-108.8040921558803
 30
0.0
 11
51.19931941828338
 21
-108.8040921558803
 31
0.0
1001
DBPROPERTIES
1002
{
1000
PbHidd
1002
}
  0
LINE
  5
200
330
1F
100
AcDbEntity
  8
HIDDEN
100
AcDbLine
 10
49.85959087754393
 20
-112.5253313330237
 30
0.0
 11
49.85959087754393
 21
-112.5253313330237
 31
0.0
1001
DBPROPERTIES
1002
{
1000
PbHidd
1002
}
  0
LINE
  5
201
330
1F
100
AcDbEntity
  8
HIDDEN
100
AcDbLine
 10
47.8961976939628
 20
-113.3749674334845
 30
0.0
 11
47.8961976939628
 21
-113.3749674334845
 31
0.0
1001
DBPROPERTIES
1002
{
1000
PbHidd
1002
}
  0
LINE
  5
202
330
1F
100
AcDbEntity
  8
HIDDEN
100
AcDbLine
 10
44.26642378340046
 20
-111.8042239997626
 30
0.0
 11
44.26642378340046
 21
-111.8042239997626
 31
0.0
1001
DBPROPERTIES
1002
{
1000
PbHidd
1002
}
  0
LINE
  5
203
330
1F
100
AcDbEntity
  8
HIDDEN
100
AcDbLine
 10
42.69568034967858
 20
-115.4339979103249
 30
0.0
 11
42.69568034967858
 21
-115.4339979103249
 31
0.0
1001
DBPROPERTIES
1002
{
1000
PbHidd
1002
}
  0
LINE
  5
204
330
1F
100
AcDbEntity
  8
HIDDEN
100
AcDbLine
 10
40.6828123818919
 20
-116.158674969985
 30
0.0
 11
40.6828123818919
 21
-116.158674969985
 31
0.0
1001
DBPROPERTIES
1002
{
1000
PbHidd
1002
}
  0
LINE
  5
205
330
1F
100
AcDbEntity
  8
HIDDEN
100
AcDbLine
 10
37.15882879724976
 20
-114.3631156500092
 30
0.0
 11
37.15882879724976
 21
-114.3631156500092
 31
0.0
1001
DBPROPERTIES
1002
{
1000
PbHidd
1002
}
  0
LINE
  5
206
330
1F
100
AcDbEntity
  8
HIDDEN
100
AcDbLine
 10
35.36326947727396
 20
-117.8870992346513
 30
0.0
 11
35.36326947727396
 21
-117.8870992346513
 31
0.0
1001
DBPROPERTIES
1002
{
1000
PbHidd
1002
}
  0
LINE
  5
207
330
1F
100
AcDbEntity
  8
HIDDEN
100
AcDbLine
 10
33.30887059555873
 20
-118.4839572842297
 30
0.0
 11
33.30887059555873
 21
-118.4839572842296
 31
0.0
1001
DBPROPERTIES
1002
{
1000
PbHidd
1002
}
  0
LINE
  5
208
330
1F
100
AcDbEntity
  8
HIDDEN
100
AcDbLine
 10
29.90458489009039
 20
-116.4706683303229
 30
0.0
 11
29.90458489009039
 21
-116.4706683303229
 31
0.0
1001
DBPROPERTIES
1002
{
1000
PbHidd
1002
}
  0
LINE
  5
209
330
1F
100
AcDbEntity
  8
HIDDEN
100
AcDbLine
 10
27.89129593618362
 20
-119.8749540357912
 30
0.0
 11
27.89129593618362
 21
-119.8749540357912
 31
0.0
1001
DBPROPERTIES
1002
{
1000
PbHidd
1002
}
  0
LINE
  5
20A
330
1F
100
AcDbEntity
  8
HIDDEN
100
AcDbLine
 10
25.80347391436035
 20
-120.3416375492446
 30
0.0
 11
25.80347391436035
 21
-120.3416375492446
 31
0.0
1001
DBPROPERTIES
1002
{
1000
PbHidd
1002
}
  0
LINE
  5
20B
330
1F
100
AcDbEntity
  8
HIDDEN
100
AcDbLine
 10
22.5323212484751
 20
-118.1185644931237
 30
0.0
 11
22.5323212484751
 21
-118.1185644931237
 31
0.0
1001
DBPROPERTIES
1002
{
1000
PbHidd
1002
}
  0
LINE
  5
20C
330
1F
100
AcDbEntity
  8
HIDDEN
100
AcDbLine
 10
20.30924819235419
 20
-121.3897171590089
 30
0.0
 11
20.30924819235419
 21
-121.3897171590089
 31
0.0
1001
DBPROPERTIES
1002
{
1000
PbHidd
1002
}
  0
LINE
  5
20D
330
1F
100
AcDbEntity
  8
HIDDEN
100
AcDbLine
 10
18.19624271010792
 20
-121.7243843497172
 30
0.0
 11
18.19624271010792
 21
-121.7243843497172
 31
0.0
1001
DBPROPERTIES
1002
{
1000
PbHidd
1002
}
  0
LINE
  5
20E
330
1F
100
AcDbEntity
  8
HIDDEN
100
AcDbLine
 10
15.07113282893047
 20
-119.3003006451092
 30
0.0
 11
15.07113282893047
 21
-119.3003006451092
 31
0.0
1001
DBPROPERTIES
1002
{
1000
PbHidd
1002
}
  0
LINE
  5
20F
330
1F
100
AcDbEntity
  8
HIDDEN
100
AcDbLine
 10
12.64704912432242
 20
-122.4254105262866
 30
0.0
 11
12.64704912432242
 21
-122.4254105262866
 31
0.0
1001
DBPROPERTIES
1002
{
1000
PbHidd
1002
}
  0
LINE
  5
210
330
1F
100
AcDbEntity
  8
HIDDEN
100
AcDbLine
 10
10.51719924895121
 20
-122.6267406157429
 30
0.0
 11
10.51719924895121
 21
-122.6267406157429
 31
0.0
1001
DBPROPERTIES
1002
{
1000
PbHidd
1002
}
  0
LINE
  5
211
330
1F
100
AcDbEntity
  8
HIDDEN
100
AcDbLine
 10
7.550465533455712
 20
-120.0112130135714
 30
0.0
 11
7.550465533455712
 21
-120.0112130135714
 31
0.0
1001
DBPROPERTIES
1002
{
1000
PbHidd
1002
}
  0
LINE
  5
212
330
1F
100
AcDbEntity
  8
HIDDEN
100
AcDbLine
 10
4.934937931284146
 20
-122.9779467290668
 30
0.0
 11
4.934937931284146
 21
-122.9779467290669
 31
0.0
1001
DBPROPERTIES
1002
{
1000
PbHidd
1002
}
  0
LINE
  5
213
330
1F
100
AcDbEntity
  8
HIDDEN
100
AcDbLine
 10
2.796649207210244
 20
-123.0451451593871
 30
0.0
 11
2.796649207210244
 21
-123.0451451593871
 31
0.0
1001
DBPROPERTIES
1002
{
1000
PbHidd
1002
}
  0
LINE
  5
214
330
1F
100
AcDbEntity
  8
HIDDEN
100
AcDbLine
 10
0.0000000000000313
 20
-120.2484959521769
 30
0.0
 11
0.0000000000000313
 21
-120.2484959521769
 31
0.0
1001
DBPROPERTIES
1002
{
1000
PbHidd
1002
}
  0
LINE
  5
215
330
1F
100
AcDbEntity
  8
HIDDEN
100
AcDbLine
 10
-2.796649207210181
 20
-123.0451451593871
 30
0.0
 11
-2.796649207210181
 21
-123.0451451593871
 31
0.0
1001
DBPROPERTIES
1002
{
1000
PbHidd
1002
}
  0
LINE
  5
216
330
1F
100
AcDbEntity
  8
HIDDEN
100
AcDbLine
 10
-4.934937931284161
 20
-122.9779467290668
 30
0.0
 11
-4.934937931284161
 21
-122.9779467290668
 31
0.0
1001
DBPROPERTIES
1002
{
1000
PbHidd
1002
}
  0
LINE
  5
217
330
1F
100
AcDbEntity
  8
HIDDEN
100
AcDbLine
 10
-7.550465533455703
 20
-120.0112130135714
 30
0.0
 11
-7.550465533455703
 21
-120.0112130135714
 31
0.0
1001
DBPROPERTIES
1002
{
1000
PbHidd
1002
}
  0
LINE
  5
218
330
1F
100
AcDbEntity
  8
HIDDEN
100
AcDbLine
 10
-10.51719924895121
 20
-122.6267406157429
 30
0.0
 11
-10.51719924895121
 21
-122.6267406157429
 31
0.0
1001
DBPROPERTIES
1002
{
1000
PbHidd
1002
}
  0
LINE
  5
219
330
1F
100
AcDbEntity
  8
HIDDEN
100
AcDbLine
 10
-12.64704912432244
 20
-122.4254105262866
 30
0.0
 11
-12.64704912432244
 21
-122.4254105262866
 31
0.0
1001
DBPROPERTIES
1002
{
1000
PbHidd
1002
}
  0
LINE
  5
21A
330
1F
100
AcDbEntity
  8
HIDDEN
100
AcDbLine
 10
-15.07113282893047
 20
-119.3003006451092
 30
0.0
 11
-15.07113282893047
 21
-119.3003006451092
 31
0.0
1001
DBPROPERTIES
1002
{
1000
PbHidd
1002
}
  0
LINE
  5
21B
330
1F
100
AcDbEntity
  8
HIDDEN
100
AcDbLine
 10
-18.19624271010793
 20
-121.7243843497172
 30
0.0
 11
-18.19624271010793
 21
-121.7243843497172
 31
0.0
1001
DBPROPERTIES
1002
{
1000
PbHidd
1002
}
  0
LINE
  5
21C
330
1F
100
AcDbEntity
  8
HIDDEN
100
AcDbLine
 10
-20.30924819235418
 20
-121.3897171590089
 30
0.0
 11
-20.30924819235418
 21
-121.3897171590089
 31
0.0
1001
DBPROPERTIES
1002
{
1000
PbHidd
1002
}
  0
LINE
  5
21D
330
1F
100
AcDbEntity
  8
HIDDEN
100
AcDbLine
 10
-22.53232124847509
 20
-118.1185644931237
 30
0.0
 11
-22.53232124847509
 21
-118.1185644931237
 31
0.0
1001
DBPROPERTIES
1002
{
1000
PbHidd
1002
}
  0
LINE
  5
21E
330
1F
100
AcDbEntity
  8
HIDDEN
100
AcDbLine
 10
-25.80347391436036
 20
-120.3416375492446
 30
0.0
 11
-25.80347391436036
 21
-120.3416375492446
 31
0.0
1001
DBPROPERTIES
1002
{
1000
PbHidd
1002
}
  0
LINE
  5
21F
330
1F
100
AcDbEntity
  8
HIDDEN
100
AcDbLine
 10
-27.89129593618361
 20
-119.8749540357912
 30
0.0
 11
-27.89129593618361
 21
-119.8749540357912
 31
0.0
1001
DBPROPERTIES
1002
{
1000
PbHidd
1002
}
  0
LINE
  5
220
330
1F
100
AcDbEntity
  8
HIDDEN
100
AcDbLine
 10
-29.90458489009038
 20
-116.4706683303229
 30
0.0
 11
-29.90458489009038
 21
-116.4706683303229
 31
0.0
1001
DBPROPERTIES
1002
{
1000
PbHidd
1002
}
  0
LINE
  5
221
330
1F
100
AcDbEntity
  8
HIDDEN
100
AcDbLine
 10
-33.30887059555871
 20
-118.4839572842296
 30
0.0
 11
-33.30887059555871
 21
-118.4839572842297
 31
0.0
1001
DBPROPERTIES
1002
{
1000
PbHidd
1002
}
  0
LINE
  5
222
330
1F
100
AcDbEntity
  8
HIDDEN
100
AcDbLine
 10
-35.36326947727393
 20
-117.8870992346514
 30
0.0
 11
-35.36326947727393
 21
-117.8870992346514
 31
0.0
1001
DBPROPERTIES
1002
{
1000
PbHidd
1002
}
  0
LINE
  5
223
330
1F
100
AcDbEntity
  8
HIDDEN
100
AcDbLine
 10
-37.1588287972497
 20
-114.3631156500092
 30
0.0
 11
-37.1588287972497
 21
-114.3631156500092
 31
0.0
1001
DBPROPERTIES
1002
{
1000
PbHidd
1002
}
  0
LINE
  5
224
330
1F
100
AcDbEntity
  8
HIDDEN
100
AcDbLine
 10
-40.68281238189184
 20
-116.158674969985
 30
0.0
 11
-40.68281238189184
 21
-116.158674969985
 31
0.0
1001
DBPROPERTIES
1002
{
1000
PbHidd
1002
}
  0
LINE
  5
225
330
1F
100
AcDbEntity
  8
HIDDEN
100
AcDbLine
 10
-42.69568034967855
 20
-115.4339979103249
 30
0.0
 11
-42.69568034967855
 21
-115.4339979103249
 31
0.0
1001
DBPROPERTIES
1002
{
1000
PbHidd
1002
}
  0
LINE
  5
226
330
1F
100
AcDbEntity
  8
HIDDEN
100
AcDbLine
 10
-44.26642378340041
 20
-111.8042239997627
 30
0.0
 11
-44.26642378340041
 21
-111.8042239997627
 31
0.0
1001
DBPROPERTIES
1002
{
1000
PbHidd
1002
}
  0
LINE
  5
227
330
1F
100
AcDbEntity
  8
HIDDEN
100
AcDbLine
 10
-47.8961976939627
 20
-113.3749674334845
 30
0.0
 11
-47.8961976939627
 21
-113.3749674334845
 31
0.0
1001
DBPROPERTIES
1002
{
1000
PbHidd
1002
}
  0
LINE
  5
228
330
1F
100
AcDbEntity
  8
HIDDEN
100
AcDbLine
 10
-49.8595908775439
 20
-112.5253313330237
 30
0.0
 11
-49.8595908775439
 21
-112.5253313330237
 31
0.0
1001
DBPROPERTIES
1002
{
1000
PbHidd
1002
}
  0
LINE
  5
229
330
1F
100
AcDbEntity
  8
HIDDEN
100
AcDbLine
 10
-51.19931941828337
 20
-108.8040921558803
 30
0.0
 11
-51.19931941828337
 21
-108.8040921558803
 31
0.0
1001
DBPROPERTIES
1002
{
1000
PbHidd
1002
}
  0
LINE
  5
22A
330
1F
100
AcDbEntity
  8
HIDDEN
100
AcDbLine
 10
-54.9205585954268
 20
-110.1438206966198
 30
0.0
 11
-54.9205585954268
 21
-110.1438206966198
 31
0.0
1001
DBPROPERTIES
1002
{
1000
PbHidd
1002
}
  0
LINE
  5
22B
330
1F
100
AcDbEntity
  8
HIDDEN
100
AcDbLine
 10
-56.82672837889593
 20
-109.172578680885
 30
0.0
 11
-56.82672837889593
 21
-109.1725786808849
 31
0.0
1001
DBPROPERTIES
1002
{
1000
PbHidd
1002
}
  0
LINE
  5
22C
330
1F
100
AcDbEntity
  8
HIDDEN
100
AcDbLine
 10
-57.93015473016646
 20
-105.3745602681201
 30
0.0
 11
-57.93015473016646
 21
-105.3745602681201
 31
0.0
1001
DBPROPERTIES
1002
{
1000
PbHidd
1002
}
  0
LINE
  5
22D
330
1F
100
AcDbEntity
  8
HIDDEN
100
AcDbLine
 10
-61.72817314293134
 20
-106.4779866193906
 30
0.0
 11
-61.72817314293134
 21
-106.4779866193906
 31
0.0
1001
DBPROPERTIES
1002
{
1000
PbHidd
1002
}
  0
LINE
  5
22E
330
1F
100
AcDbEntity
  8
HIDDEN
100
AcDbLine
 10
-63.56959674499914
 20
-105.3889717368996
 30
0.0
 11
-63.56959674499914
 21
-105.3889717368996
 31
0.0
1001
DBPROPERTIES
1002
{
1000
PbHidd
1002
}
  0
LINE
  5
22F
330
1F
100
AcDbEntity
  8
HIDDEN
100
AcDbLine
 10
-64.43236618709979
 20
-101.529163132039
 30
0.0
 11
-64.43236618709979
 21
-101.529163132039
 31
0.0
1001
DBPROPERTIES
1002
{
1000
PbHidd
1002
}
  0
LINE
  5
230
330
1F
100
AcDbEntity
  8
HIDDEN
100
AcDbLine
 10
-68.29217479196043
 20
-102.3919325741396
 30
0.0
 11
-68.29217479196043
 21
-102.3919325741396
 31
0.0
1001
DBPROPERTIES
1002
{
1000
PbHidd
1002
}
  0
LINE
  5
231
330
1F
100
AcDbEntity
  8
HIDDEN
100
AcDbLine
 10
-70.06158495493607
 20
-101.18944266911
 30
0.0
 11
-70.06158495493607
 21
-101.18944266911
 31
0.0
1001
DBPROPERTIES
1002
{
1000
PbHidd
1002
}
  0
LINE
  5
232
330
1F
100
AcDbEntity
  8
HIDDEN
100
AcDbLine
 10
-70.68029253104073
 20
-97.28307677333817
 30
0.0
 11
-70.68029253104073
 21
-97.28307677333817
 31
0.0
1001
DBPROPERTIES
1002
{
1000
PbHidd
1002
}
  0
LINE
  5
233
330
1F
100
AcDbEntity
  8
HIDDEN
100
AcDbLine
 10
-74.58665842681262
 20
-97.90178434944285
 30
0.0
 11
-74.58665842681262
 21
-97.90178434944286
 31
0.0
1001
DBPROPERTIES
1002
{
1000
PbHidd
1002
}
  0
LINE
  5
234
330
1F
100
AcDbEntity
  8
HIDDEN
100
AcDbLine
 10
-76.2770720971493
 20
-96.59056510016453
 30
0.0
 11
-76.2770720971493
 21
-96.59056510016451
 31
0.0
1001
DBPROPERTIES
1002
{
1000
PbHidd
1002
}
  0
LINE
  5
235
330
1F
100
AcDbEntity
  8
HIDDEN
100
AcDbLine
 10
-76.64927605111573
 20
-92.6530585550232
 30
0.0
 11
-76.64927605111573
 21
-92.6530585550232
 31
0.0
1001
DBPROPERTIES
1002
{
1000
PbHidd
1002
}
  0
LINE
  5
236
330
1F
100
AcDbEntity
  8
HIDDEN
100
AcDbLine
 10
-80.5867825962571
 20
-93.02526250898961
 30
0.0
 11
-80.5867825962571
 21
-93.02526250898963
 31
0.0
1001
DBPROPERTIES
1002
{
1000
PbHidd
1002
}
  0
LINE
  5
237
330
1F
100
AcDbEntity
  8
HIDDEN
100
AcDbLine
 10
-82.19152848347463
 20
-91.61048869880027
 30
0.0
 11
-82.19152848347463
 21
-91.61048869880025
 31
0.0
1001
DBPROPERTIES
1002
{
1000
PbHidd
1002
}
  0
LINE
  5
238
330
1F
100
AcDbEntity
  8
HIDDEN
100
AcDbLine
 10
-82.31575989634031
 20
-87.65738104374755
 30
0.0
 11
-82.31575989634031
 21
-87.65738104374755
 31
0.0
1001
DBPROPERTIES
1002
{
1000
PbHidd
1002
}
  0
LINE
  5
239
330
1F
100
AcDbEntity
  8
HIDDEN
100
AcDbLine
 10
-86.26886755139304
 20
-87.78161245661323
 30
0.0
 11
-86.26886755139304
 21
-87.78161245661325
 31
0.0
1001
DBPROPERTIES
1002
{
1000
PbHidd
1002
}
  0
LINE
  5
23A
330
1F
100
AcDbEntity
  8
HIDDEN
100
AcDbLine
 10
-87.78161245661322
 20
-86.26886755139307
 30
0.0
 11
-87.78161245661322
 21
-86.26886755139306
 31
0.0
1001
DBPROPERTIES
1002
{
1000
PbHidd
1002
}
  0
LINE
  5
23B
330
1F
100
AcDbEntity
  8
HIDDEN
100
AcDbLine
 10
-87.65738104374753
 20
-82.31575989634034
 30
0.0
 11
-87.65738104374753
 21
-82.31575989634034
 31
0.0
1001
DBPROPERTIES
1002
{
1000
PbHidd
1002
}
  0
LINE
  5
23C
330
1F
100
AcDbEntity
  8
HIDDEN
100
AcDbLine
 10
-91.61048869880025
 20
-82.19152848347464
 30
0.0
 11
-91.61048869880025
 21
-82.19152848347466
 31
0.0
1001
DBPROPERTIES
1002
{
1000
PbHidd
1002
}
  0
LINE
  5
23D
330
1F
100
AcDbEntity
  8
HIDDEN
100
AcDbLine
 10
-93.02526250898963
 20
-80.58678259625708
 30
0.0
 11
-93.02526250898963
 21
-80.58678259625707
 31
0.0
1001
DBPROPERTIES
1002
{
1000
PbHidd
1002
}
  0
LINE
  5
23E
330
1F
100
AcDbEntity
  8
HIDDEN
100
AcDbLine
 10
-92.6530585550232
 20
-76.64927605111576
 30
0.0
 11
-92.6530585550232
 21
-76.64927605111576
 31
0.0
1001
DBPROPERTIES
1002
{
1000
PbHidd
1002
}
  0
LINE
  5
23F
330
1F
100
AcDbEntity
  8
HIDDEN
100
AcDbLine
 10
-96.59056510016453
 20
-76.2770720971493
 30
0.0
 11
-96.59056510016453
 21
-76.27707209714931
 31
0.0
1001
DBPROPERTIES
1002
{
1000
PbHidd
1002
}
  0
LINE
  5
240
330
1F
100
AcDbEntity
  8
HIDDEN
100
AcDbLine
 10
-97.90178434944288
 20
-74.58665842681262
 30
0.0
 11
-97.90178434944288
 21
-74.5866584268126
 31
0.0
1001
DBPROPERTIES
1002
{
1000
PbHidd
1002
}
  0
LINE
  5
241
330
1F
100
AcDbEntity
  8
HIDDEN
100
AcDbLine
 10
7.550465533455716
 20
120.0112130135714
 30
0.0
 11
7.550465533455716
 21
120.0112130135714
 31
0.0
1001
DBPROPERTIES
1002
{
1000
PbHidd
1002
}
  0
LINE
  5
242
330
1F
100
AcDbEntity
  8
HIDDEN
100
AcDbLine
 10
10.51719924895126
 20
122.6267406157429
 30
0.0
 11
7.550465533455718
 21
120.0112130135713
 31
0.0
1001
DBPROPERTIES
1002
{
1000
PbHidd
1002
}
  0
LINE
  5
243
330
1F
100
AcDbEntity
  8
HIDDEN
100
AcDbLine
 10
10.51719924895126
 20
122.626740615743
 30
0.0
 11
10.51719924895126
 21
122.626740615743
 31
0.0
1001
DBPROPERTIES
1002
{
1000
PbHidd
1002
}
  0
LINE
  5
244
330
1F
100
AcDbEntity
  8
HIDDEN
100
AcDbLine
 10
4.934937931284104
 20
122.9779467290669
 30
0.0
 11
4.934937931284104
 21
122.9779467290669
 31
0.0
1001
DBPROPERTIES
1002
{
1000
PbHidd
1002
}
  0
LINE
  5
245
330
1F
100
AcDbEntity
  8
HIDDEN
100
AcDbLine
 10
7.550465533455714
 20
120.0112130135713
 30
0.0
 11
4.934937931284107
 21
122.9779467290669
 31
0.0
1001
DBPROPERTIES
1002
{
1000
PbHidd
1002
}
  0
ARC
  5
246
330
1F
100
AcDbEntity
  8
HIDDEN
100
AcDbCircle
 10
0.0
 20
0.0000000000000237
 30
0.0
 40
123.0769230769231
100
AcDbArc
 50
84.10201102873448
 51
85.09798356401038
1001
DBPROPERTIES
1002
{
1000
PbHidd
1002
}
  0
LINE
  5
247
330
1F
100
AcDbEntity
  8
HIDDEN
100
AcDbLine
 10
12.64704912432234
 20
122.4254105262867
 30
0.0
 11
12.64704912432234
 21
122.4254105262867
 31
0.0
1001
DBPROPERTIES
1002
{
1000
PbHidd
1002
}
  0
LINE
  5
248
330
1F
100
AcDbEntity
  8
HIDDEN
100
AcDbLine
 10
15.07113282893043
 20
119.3003006451092
 30
0.0
 11
15.07113282893043
 21
119.3003006451092
 31
0.0
1001
DBPROPERTIES
1002
{
1000
PbHidd
1002
}
  0
LINE
  5
249
330
1F
100
AcDbEntity
  8
HIDDEN
100
AcDbLine
 10
18.19624271010793
 20
121.7243843497172
 30
0.0
 11
15.07113282893043
 21
119.3003006451091
 31
0.0
1001
DBPROPERTIES
1002
{
1000
PbHidd
1002
}
  0
LINE
  5
24A
330
1F
100
AcDbEntity
  8
HIDDEN
100
AcDbLine
 10
18.19624271010797
 20
121.7243843497173
 30
0.0
 11
18.19624271010797
 21
121.7243843497172
 31
0.0
1001
DBPROPERTIES
1002
{
1000
PbHidd
1002
}
  0
LINE
  5
24B
330
1F
100
AcDbEntity
  8
HIDDEN
100
AcDbLine
 10
15.07113282893042
 20
119.3003006451091
 30
0.0
 11
12.64704912432235
 21
122.4254105262866
 31
0.0
1001
DBPROPERTIES
1002
{
1000
PbHidd
1002
}
  0
ARC
  5
24C
330
1F
100
AcDbEntity
  8
HIDDEN
100
AcDbCircle
 10
0.0
 20
0.0000000000000237
 30
0.0
 40
123.0769230769231
100
AcDbArc
 50
80.50200261036849
 51
81.49797514564439
1001
DBPROPERTIES
1002
{
1000
PbHidd
1002
}
  0
LINE
  5
24D
330
1F
100
AcDbEntity
  8
HIDDEN
100
AcDbLine
 10
20.30924819235415
 20
121.389717159009
 30
0.0
 11
20.30924819235415
 21
121.389717159009
 31
0.0
1001
DBPROPERTIES
1002
{
1000
PbHidd
1002
}
  0
LINE
  5
24E
330
1F
100
AcDbEntity
  8
HIDDEN
100
AcDbLine
 10
22.5323212484751
 20
118.1185644931237
 30
0.0
 11
22.5323212484751
 21
118.1185644931237
 31
0.0
1001
DBPROPERTIES
1002
{
1000
PbHidd
1002
}
  0
LINE
  5
24F
330
1F
100
AcDbEntity
  8
HIDDEN
100
AcDbLine
 10
25.80347391436042
 20
120.3416375492446
 30
0.0
 11
22.53232124847509
 21
118.1185644931237
 31
0.0
1001
DBPROPERTIES
1002
{
1000
PbHidd
1002
}
  0
LINE
  5
250
330
1F
100
AcDbEntity
  8
HIDDEN
100
AcDbLine
 10
25.80347391436043
 20
120.3416375492447
 30
0.0
 11
25.80347391436043
 21
120.3416375492446
 31
0.0
1001
DBPROPERTIES
1002
{
1000
PbHidd
1002
}
  0
LINE
  5
251
330
1F
100
AcDbEntity
  8
HIDDEN
100
AcDbLine
 10
22.5323212484751
 20
118.1185644931237
 30
0.0
 11
20.30924819235414
 21
121.389717159009
 31
0.0
1001
DBPROPERTIES
1002
{
1000
PbHidd
1002
}
  0
ARC
  5
252
330
1F
100
AcDbEntity
  8
HIDDEN
100
AcDbCircle
 10
0.0
 20
0.0000000000000237
 30
0.0
 40
123.0769230769231
100
AcDbArc
 50
76.90205148778202
 51
77.8979667272784
1001
DBPROPERTIES
1002
{
1000
PbHidd
1002
}
  0
LINE
  5
253
330
1F
100
AcDbEntity
  8
HIDDEN
100
AcDbLine
 10
27.89129593618353
 20
119.8749540357913
 30
0.0
 11
27.89129593618353
 21
119.8749540357913
 31
0.0
1001
DBPROPERTIES
1002
{
1000
PbHidd
1002
}
  0
LINE
  5
254
330
1F
100
AcDbEntity
  8
HIDDEN
100
AcDbLine
 10
29.90458489009034
 20
116.4706683303229
 30
0.0
 11
29.90458489009034
 21
116.4706683303229
 31
0.0
1001
DBPROPERTIES
1002
{
1000
PbHidd
1002
}
  0
LINE
  5
255
330
1F
100
AcDbEntity
  8
HIDDEN
100
AcDbLine
 10
33.30887059555872
 20
118.4839572842297
 30
0.0
 11
29.90458489009032
 21
116.4706683303229
 31
0.0
1001
DBPROPERTIES
1002
{
1000
PbHidd
1002
}
  0
LINE
  5
256
330
1F
100
AcDbEntity
  8
HIDDEN
100
AcDbLine
 10
33.30887059555874
 20
118.4839572842297
 30
0.0
 11
33.30887059555874
 21
118.4839572842297
 31
0.0
1001
DBPROPERTIES
1002
{
1000
PbHidd
1002
}
  0
LINE
  5
257
330
1F
100
AcDbEntity
  8
HIDDEN
100
AcDbLine
 10
29.90458489009033
 20
116.4706683303229
 30
0.0
 11
27.89129593618353
 21
119.8749540357913
 31
0.0
1001
DBPROPERTIES
1002
{
1000
PbHidd
1002
}
  0
ARC
  5
258
330
1F
100
AcDbEntity
  8
HIDDEN
100
AcDbCircle
 10
0.0
 20
0.0000000000000237
 30
0.0
 40
123.0769230769231
100
AcDbArc
 50
73.30204306941603
 51
74.29795830891241
1001
DBPROPERTIES
1002
{
1000
PbHidd
1002
}
  0
LINE
  5
259
330
1F
100
AcDbEntity
  8
HIDDEN
100
AcDbLine
 10
35.36326947727387
 20
117.8870992346514
 30
0.0
 11
35.36326947727387
 21
117.8870992346515
 31
0.0
1001
DBPROPERTIES
1002
{
1000
PbHidd
1002
}
  0
LINE
  5
25A
330
1F
100
AcDbEntity
  8
HIDDEN
100
AcDbLine
 10
37.15882879724967
 20
114.3631156500092
 30
0.0
 11
37.15882879724967
 21
114.3631156500092
 31
0.0
1001
DBPROPERTIES
1002
{
1000
PbHidd
1002
}
  0
LINE
  5
25B
330
1F
100
AcDbEntity
  8
HIDDEN
100
AcDbLine
 10
40.68281238189184
 20
116.158674969985
 30
0.0
 11
37.15882879724965
 21
114.3631156500092
 31
0.0
1001
DBPROPERTIES
1002
{
1000
PbHidd
1002
}
  0
LINE
  5
25C
330
1F
100
AcDbEntity
  8
HIDDEN
100
AcDbLine
 10
40.68281238189186
 20
116.1586749699851
 30
0.0
 11
40.68281238189186
 21
116.158674969985
 31
0.0
1001
DBPROPERTIES
1002
{
1000
PbHidd
1002
}
  0
LINE
  5
25D
330
1F
100
AcDbEntity
  8
HIDDEN
100
AcDbLine
 10
37.15882879724965
 20
114.3631156500092
 30
0.0
 11
35.36326947727385
 21
117.8870992346514
 31
0.0
1001
DBPROPERTIES
1002
{
1000
PbHidd
1002
}
  0
ARC
  5
25E
330
1F
100
AcDbEntity
  8
HIDDEN
100
AcDbCircle
 10
0.0
 20
0.0000000000000237
 30
0.0
 40
123.0769230769231
100
AcDbArc
 50
69.70203465105004
 51
70.69794989054643
1001
DBPROPERTIES
1002
{
1000
PbHidd
1002
}
  0
LINE
  5
25F
330
1F
100
AcDbEntity
  8
HIDDEN
100
AcDbLine
 10
42.69568034967851
 20
115.433997910325
 30
0.0
 11
42.69568034967851
 21
115.4339979103251
 31
0.0
1001
DBPROPERTIES
1002
{
1000
PbHidd
1002
}
  0
LINE
  5
260
330
1F
100
AcDbEntity
  8
HIDDEN
100
AcDbLine
 10
44.26642378340042
 20
111.8042239997627
 30
0.0
 11
44.26642378340042
 21
111.8042239997627
 31
0.0
1001
DBPROPERTIES
1002
{
1000
PbHidd
1002
}
  0
LINE
  5
261
330
1F
100
AcDbEntity
  8
HIDDEN
100
AcDbLine
 10
47.89619769396276
 20
113.3749674334845
 30
0.0
 11
44.26642378340041
 21
111.8042239997626
 31
0.0
1001
DBPROPERTIES
1002
{
1000
PbHidd
1002
}
  0
LINE
  5
262
330
1F
100
AcDbEntity
  8
HIDDEN
100
AcDbLine
 10
47.89619769396279
 20
113.3749674334845
 30
0.0
 11
47.89619769396279
 21
113.3749674334845
 31
0.0
1001
DBPROPERTIES
1002
{
1000
PbHidd
1002
}
  0
LINE
  5
263
330
1F
100
AcDbEntity
  8
HIDDEN
100
AcDbLine
 10
44.26642378340041
 20
111.8042239997626
 30
0.0
 11
42.69568034967853
 21
115.433997910325
 31
0.0
1001
DBPROPERTIES
1002
{
1000
PbHidd
1002
}
  0
ARC
  5
264
330
1F
100
AcDbEntity
  8
HIDDEN
100
AcDbCircle
 10
0.0
 20
0.0000000000000237
 30
0.0
 40
123.0769230769231
100
AcDbArc
 50
66.10202623268404
 51
67.09794147218044
1001
DBPROPERTIES
1002
{
1000
PbHidd
1002
}
  0
LINE
  5
265
330
1F
100
AcDbEntity
  8
HIDDEN
100
AcDbLine
 10
49.85959087754385
 20
112.5253313330238
 30
0.0
 11
49.85959087754385
 21
112.5253313330238
 31
0.0
1001
DBPROPERTIES
1002
{
1000
PbHidd
1002
}
  0
LINE
  5
266
330
1F
100
AcDbEntity
  8
HIDDEN
100
AcDbLine
 10
51.19931941828334
 20
108.8040921558803
 30
0.0
 11
51.19931941828334
 21
108.8040921558803
 31
0.0
1001
DBPROPERTIES
1002
{
1000
PbHidd
1002
}
  0
LINE
  5
267
330
1F
100
AcDbEntity
  8
HIDDEN
100
AcDbLine
 10
54.92055859542683
 20
110.1438206966198
 30
0.0
 11
51.19931941828331
 21
108.8040921558803
 31
0.0
1001
DBPROPERTIES
1002
{
1000
PbHidd
1002
}
  0
LINE
  5
268
330
1F
100
AcDbEntity
  8
HIDDEN
100
AcDbLine
 10
54.92055859542685
 20
110.1438206966198
 30
0.0
 11
54.92055859542685
 21
110.1438206966198
 31
0.0
1001
DBPROPERTIES
1002
{
1000
PbHidd
1002
}
  0
LINE
  5
269
330
1F
100
AcDbEntity
  8
HIDDEN
100
AcDbLine
 10
51.19931941828334
 20
108.8040921558803
 30
0.0
 11
49.85959087754385
 21
112.5253313330238
 31
0.0
1001
DBPROPERTIES
1002
{
1000
PbHidd
1002
}
  0
ARC
  5
26A
330
1F
100
AcDbEntity
  8
HIDDEN
100
AcDbCircle
 10
0.0
 20
0.0000000000000237
 30
0.0
 40
123.0769230769231
100
AcDbArc
 50
62.50201781431805
 51
63.49799034959398
1001
DBPROPERTIES
1002
{
1000
PbHidd
1002
}
  0
LINE
  5
26B
330
1F
100
AcDbEntity
  8
HIDDEN
100
AcDbLine
 10
56.82672837889595
 20
109.172578680885
 30
0.0
 11
56.82672837889595
 21
109.172578680885
 31
0.0
1001
DBPROPERTIES
1002
{
1000
PbHidd
1002
}
  0
LINE
  5
26C
330
1F
100
AcDbEntity
  8
HIDDEN
100
AcDbLine
 10
57.93015473016647
 20
105.3745602681201
 30
0.0
 11
57.93015473016647
 21
105.3745602681201
 31
0.0
1001
DBPROPERTIES
1002
{
1000
PbHidd
1002
}
  0
LINE
  5
26D
330
1F
100
AcDbEntity
  8
HIDDEN
100
AcDbLine
 10
61.72817314293135
 20
106.4779866193906
 30
0.0
 11
57.93015473016645
 21
105.37456026812
 31
0.0
1001
DBPROPERTIES
1002
{
1000
PbHidd
1002
}
  0
LINE
  5
26E
330
1F
100
AcDbEntity
  8
HIDDEN
100
AcDbLine
 10
61.72817314293138
 20
106.4779866193907
 30
0.0
 11
61.72817314293138
 21
106.4779866193906
 31
0.0
1001
DBPROPERTIES
1002
{
1000
PbHidd
1002
}
  0
LINE
  5
26F
330
1F
100
AcDbEntity
  8
HIDDEN
100
AcDbLine
 10
57.93015473016645
 20
105.37456026812
 30
0.0
 11
56.82672837889592
 21
109.172578680885
 31
0.0
1001
DBPROPERTIES
1002
{
1000
PbHidd
1002
}
  0
ARC
  5
270
330
1F
100
AcDbEntity
  8
HIDDEN
100
AcDbCircle
 10
0.0
 20
0.0000000000000237
 30
0.0
 40
123.0769230769231
100
AcDbArc
 50
58.90200939595206
 51
59.89798193122799
1001
DBPROPERTIES
1002
{
1000
PbHidd
1002
}
  0
LINE
  5
271
330
1F
100
AcDbEntity
  8
HIDDEN
100
AcDbLine
 10
63.5695967449991
 20
105.3889717368997
 30
0.0
 11
63.5695967449991
 21
105.3889717368997
 31
0.0
1001
DBPROPERTIES
1002
{
1000
PbHidd
1002
}
  0
LINE
  5
272
330
1F
100
AcDbEntity
  8
HIDDEN
100
AcDbLine
 10
64.43236618709976
 20
101.529163132039
 30
0.0
 11
64.43236618709976
 21
101.529163132039
 31
0.0
1001
DBPROPERTIES
1002
{
1000
PbHidd
1002
}
  0
LINE
  5
273
330
1F
100
AcDbEntity
  8
HIDDEN
100
AcDbLine
 10
68.29217479196046
 20
102.3919325741396
 30
0.0
 11
64.43236618709976
 21
101.529163132039
 31
0.0
1001
DBPROPERTIES
1002
{
1000
PbHidd
1002
}
  0
LINE
  5
274
330
1F
100
AcDbEntity
  8
HIDDEN
100
AcDbLine
 10
68.29217479196048
 20
102.3919325741397
 30
0.0
 11
68.29217479196048
 21
102.3919325741396
 31
0.0
1001
DBPROPERTIES
1002
{
1000
PbHidd
1002
}
  0
LINE
  5
275
330
1F
100
AcDbEntity
  8
HIDDEN
100
AcDbLine
 10
64.43236618709976
 20
101.529163132039
 30
0.0
 11
63.56959674499909
 21
105.3889717368997
 31
0.0
1001
DBPROPERTIES
1002
{
1000
PbHidd
1002
}
  0
ARC
  5
276
330
1F
100
AcDbEntity
  8
HIDDEN
100
AcDbCircle
 10
0.0
 20
0.0000000000000237
 30
0.0
 40
123.0769230769231
100
AcDbArc
 50
55.3020582733656
 51
56.29797351286199
1001
DBPROPERTIES
1002
{
1000
PbHidd
1002
}
  0
LINE
  5
277
330
1F
100
AcDbEntity
  8
HIDDEN
100
AcDbLine
 10
70.06158495493597
 20
101.1894426691102
 30
0.0
 11
70.06158495493597
 21
101.1894426691102
 31
0.0
1001
DBPROPERTIES
1002
{
1000
PbHidd
1002
}
  0
LINE
  5
278
330
1F
100
AcDbEntity
  8
HIDDEN
100
AcDbLine
 10
70.68029253104065
 20
97.28307677333821
 30
0.0
 11
70.68029253104065
 21
97.28307677333821
 31
0.0
1001
DBPROPERTIES
1002
{
1000
PbHidd
1002
}
  0
LINE
  5
279
330
1F
100
AcDbEntity
  8
HIDDEN
100
AcDbLine
 10
74.58665842681262
 20
97.90178434944289
 30
0.0
 11
70.68029253104062
 21
97.28307677333818
 31
0.0
1001
DBPROPERTIES
1002
{
1000
PbHidd
1002
}
  0
LINE
  5
27A
330
1F
100
AcDbEntity
  8
HIDDEN
100
AcDbLine
 10
74.58665842681265
 20
97.90178434944293
 30
0.0
 11
74.58665842681265
 21
97.9017843494429
 31
0.0
1001
DBPROPERTIES
1002
{
1000
PbHidd
1002
}
  0
LINE
  5
27B
330
1F
100
AcDbEntity
  8
HIDDEN
100
AcDbLine
 10
70.68029253104065
 20
97.28307677333817
 30
0.0
 11
70.06158495493595
 21
101.1894426691101
 31
0.0
1001
DBPROPERTIES
1002
{
1000
PbHidd
1002
}
  0
ARC
  5
27C
330
1F
100
AcDbEntity
  8
HIDDEN
100
AcDbCircle
 10
0.0
 20
0.0000000000000237
 30
0.0
 40
123.0769230769231
100
AcDbArc
 50
51.7020498549996
 51
52.69796509449601
1001
DBPROPERTIES
1002
{
1000
PbHidd
1002
}
  0
LINE
  5
27D
330
1F
100
AcDbEntity
  8
HIDDEN
100
AcDbLine
 10
76.27707209714929
 20
96.5905651001646
 30
0.0
 11
76.27707209714929
 21
96.59056510016462
 31
0.0
1001
DBPROPERTIES
1002
{
1000
PbHidd
1002
}
  0
LINE
  5
27E
330
1F
100
AcDbEntity
  8
HIDDEN
100
AcDbLine
 10
76.64927605111573
 20
92.6530585550232
 30
0.0
 11
76.64927605111573
 21
92.6530585550232
 31
0.0
1001
DBPROPERTIES
1002
{
1000
PbHidd
1002
}
  0
LINE
  5
27F
330
1F
100
AcDbEntity
  8
HIDDEN
100
AcDbLine
 10
80.58678259625711
 20
93.0252625089896
 30
0.0
 11
76.64927605111572
 21
92.65305855502315
 31
0.0
1001
DBPROPERTIES
1002
{
1000
PbHidd
1002
}
  0
LINE
  5
280
330
1F
100
AcDbEntity
  8
HIDDEN
100
AcDbLine
 10
80.58678259625714
 20
93.02526250898964
 30
0.0
 11
80.58678259625714
 21
93.02526250898961
 31
0.0
1001
DBPROPERTIES
1002
{
1000
PbHidd
1002
}
  0
LINE
  5
281
330
1F
100
AcDbEntity
  8
HIDDEN
100
AcDbLine
 10
76.64927605111573
 20
92.65305855502316
 30
0.0
 11
76.27707209714929
 21
96.59056510016455
 31
0.0
1001
DBPROPERTIES
1002
{
1000
PbHidd
1002
}
  0
ARC
  5
282
330
1F
100
AcDbEntity
  8
HIDDEN
100
AcDbCircle
 10
0.0
 20
0.0000000000000237
 30
0.0
 40
123.0769230769231
100
AcDbArc
 50
48.10204143663361
 51
49.09795667613002
1001
DBPROPERTIES
1002
{
1000
PbHidd
1002
}
  0
LINE
  5
283
330
1F
100
AcDbEntity
  8
HIDDEN
100
AcDbLine
 10
82.1915284834746
 20
91.61048869880034
 30
0.0
 11
82.1915284834746
 21
91.61048869880037
 31
0.0
1001
DBPROPERTIES
1002
{
1000
PbHidd
1002
}
  0
LINE
  5
284
330
1F
100
AcDbEntity
  8
HIDDEN
100
AcDbLine
 10
82.31575989634028
 20
87.65738104374758
 30
0.0
 11
82.31575989634028
 21
87.65738104374758
 31
0.0
1001
DBPROPERTIES
1002
{
1000
PbHidd
1002
}
  0
LINE
  5
285
330
1F
100
AcDbEntity
  8
HIDDEN
100
AcDbLine
 10
86.26886755139304
 20
87.78161245661326
 30
0.0
 11
82.31575989634027
 21
87.65738104374756
 31
0.0
1001
DBPROPERTIES
1002
{
1000
PbHidd
1002
}
  0
LINE
  5
286
330
1F
100
AcDbEntity
  8
HIDDEN
100
AcDbLine
 10
86.26886755139307
 20
87.78161245661329
 30
0.0
 11
86.26886755139307
 21
87.78161245661326
 31
0.0
1001
DBPROPERTIES
1002
{
1000
PbHidd
1002
}
  0
LINE
  5
287
330
1F
100
AcDbEntity
  8
HIDDEN
100
AcDbLine
 10
82.31575989634028
 20
87.65738104374753
 30
0.0
 11
82.19152848347458
 21
91.61048869880031
 31
0.0
1001
DBPROPERTIES
1002
{
1000
PbHidd
1002
}
  0
ARC
  5
288
330
1F
100
AcDbEntity
  8
HIDDEN
100
AcDbCircle
 10
0.0
 20
0.0000000000000237
 30
0.0
 40
123.0769230769231
100
AcDbArc
 50
44.50203301826763
 51
45.49794825776403
1001
DBPROPERTIES
1002
{
1000
PbHidd
1002
}
  0
LINE
  5
289
330
1F
100
AcDbEntity
  8
HIDDEN
100
AcDbLine
 10
87.78161245661325
 20
86.2688675513931
 30
0.0
 11
87.78161245661325
 21
86.26886755139313
 31
0.0
1001
DBPROPERTIES
1002
{
1000
PbHidd
1002
}
  0
LINE
  5
28A
330
1F
100
AcDbEntity
  8
HIDDEN
100
AcDbLine
 10
87.65738104374755
 20
82.31575989634031
 30
0.0
 11
87.65738104374755
 21
82.31575989634031
 31
0.0
1001
DBPROPERTIES
1002
{
1000
PbHidd
1002
}
  0
LINE
  5
28B
330
1F
100
AcDbEntity
  8
HIDDEN
100
AcDbLine
 10
91.61048869880031
 20
82.1915284834746
 30
0.0
 11
87.65738104374753
 21
82.3157598963403
 31
0.0
1001
DBPROPERTIES
1002
{
1000
PbHidd
1002
}
  0
LINE
  5
28C
330
1F
100
AcDbEntity
  8
HIDDEN
100
AcDbLine
 10
91.61048869880034
 20
82.19152848347464
 30
0.0
 11
91.61048869880034
 21
82.19152848347461
 31
0.0
1001
DBPROPERTIES
1002
{
1000
PbHidd
1002
}
  0
LINE
  5
28D
330
1F
100
AcDbEntity
  8
HIDDEN
100
AcDbLine
 10
87.65738104374753
 20
82.31575989634027
 30
0.0
 11
87.78161245661323
 21
86.26886755139307
 31
0.0
1001
DBPROPERTIES
1002
{
1000
PbHidd
1002
}
  0
ARC
  5
28E
330
1F
100
AcDbEntity
  8
HIDDEN
100
AcDbCircle
 10
0.0
 20
0.0000000000000237
 30
0.0
 40
123.0769230769231
100
AcDbArc
 50
40.90202459990164
 51
41.89799713517755
1001
DBPROPERTIES
1002
{
1000
PbHidd
1002
}
  0
LINE
  5
28F
330
1F
100
AcDbEntity
  8
HIDDEN
100
AcDbLine
 10
93.0252625089896
 20
80.58678259625717
 30
0.0
 11
93.0252625089896
 21
80.5867825962572
 31
0.0
1001
DBPROPERTIES
1002
{
1000
PbHidd
1002
}
  0
LINE
  5
290
330
1F
100
AcDbEntity
  8
HIDDEN
100
AcDbLine
 10
92.65305855502316
 20
76.64927605111579
 30
0.0
 11
92.65305855502316
 21
76.64927605111579
 31
0.0
1001
DBPROPERTIES
1002
{
1000
PbHidd
1002
}
  0
LINE
  5
291
330
1F
100
AcDbEntity
  8
HIDDEN
100
AcDbLine
 10
96.59056510016453
 20
76.27707209714933
 30
0.0
 11
92.65305855502316
 21
76.64927605111578
 31
0.0
1001
DBPROPERTIES
1002
{
1000
PbHidd
1002
}
  0
LINE
  5
292
330
1F
100
AcDbEntity
  8
HIDDEN
100
AcDbLine
 10
96.59056510016454
 20
76.27707209714937
 30
0.0
 11
96.59056510016454
 21
76.27707209714934
 31
0.0
1001
DBPROPERTIES
1002
{
1000
PbHidd
1002
}
  0
LINE
  5
293
330
1F
100
AcDbEntity
  8
HIDDEN
100
AcDbLine
 10
92.65305855502315
 20
76.64927605111578
 30
0.0
 11
93.0252625089896
 21
80.58678259625714
 31
0.0
1001
DBPROPERTIES
1002
{
1000
PbHidd
1002
}
  0
ARC
  5
294
330
1F
100
AcDbEntity
  8
HIDDEN
100
AcDbCircle
 10
0.0
 20
0.0000000000000237
 30
0.0
 40
123.0769230769231
100
AcDbArc
 50
37.30201618153565
 51
38.29798871681157
1001
DBPROPERTIES
1002
{
1000
PbHidd
1002
}
  0
LINE
  5
295
330
1F
100
AcDbEntity
  8
HIDDEN
100
AcDbLine
 10
97.90178434944283
 20
74.58665842681272
 30
0.0
 11
97.90178434944283
 21
74.58665842681275
 31
0.0
1001
DBPROPERTIES
1002
{
1000
PbHidd
1002
}
  0
LINE
  5
296
330
1F
100
AcDbEntity
  8
HIDDEN
100
AcDbLine
 10
97.28307677333814
 20
70.68029253104079
 30
0.0
 11
97.28307677333814
 21
70.68029253104079
 31
0.0
1001
DBPROPERTIES
1002
{
1000
PbHidd
1002
}
  0
LINE
  5
297
330
1F
100
AcDbEntity
  8
HIDDEN
100
AcDbLine
 10
101.1894426691101
 20
70.06158495493607
 30
0.0
 11
97.28307677333811
 21
70.68029253104075
 31
0.0
1001
DBPROPERTIES
1002
{
1000
PbHidd
1002
}
  0
LINE
  5
298
330
1F
100
AcDbEntity
  8
HIDDEN
100
AcDbLine
 10
101.1894426691101
 20
70.06158495493611
 30
0.0
 11
101.1894426691101
 21
70.06158495493608
 31
0.0
1001
DBPROPERTIES
1002
{
1000
PbHidd
1002
}
  0
LINE
  5
299
330
1F
100
AcDbEntity
  8
HIDDEN
100
AcDbLine
 10
97.28307677333811
 20
70.68029253104075
 30
0.0
 11
97.90178434944279
 21
74.58665842681268
 31
0.0
1001
DBPROPERTIES
1002
{
1000
PbHidd
1002
}
  0
ARC
  5
29A
330
1F
100
AcDbEntity
  8
HIDDEN
100
AcDbCircle
 10
0.0
 20
0.0000000000000237
 30
0.0
 40
123.0769230769231
100
AcDbArc
 50
33.70200776316966
 51
34.69798029844557
1001
DBPROPERTIES
1002
{
1000
PbHidd
1002
}
  0
LINE
  5
29B
330
1F
100
AcDbEntity
  8
HIDDEN
100
AcDbLine
 10
102.3919325741396
 20
68.2921747919605
 30
0.0
 11
102.3919325741396
 21
68.29217479196053
 31
0.0
1001
DBPROPERTIES
1002
{
1000
PbHidd
1002
}
  0
LINE
  5
29C
330
1F
100
AcDbEntity
  8
HIDDEN
100
AcDbLine
 10
101.5291631320389
 20
64.43236618709982
 30
0.0
 11
101.5291631320389
 21
64.43236618709982
 31
0.0
1001
DBPROPERTIES
1002
{
1000
PbHidd
1002
}
  0
LINE
  5
29D
330
1F
100
AcDbEntity
  8
HIDDEN
100
AcDbLine
 10
105.3889717368996
 20
63.56959674499913
 30
0.0
 11
101.5291631320389
 21
64.4323661870998
 31
0.0
1001
DBPROPERTIES
1002
{
1000
PbHidd
1002
}
  0
LINE
  5
29E
330
1F
100
AcDbEntity
  8
HIDDEN
100
AcDbLine
 10
105.3889717368997
 20
63.56959674499917
 30
0.0
 11
105.3889717368997
 21
63.56959674499914
 31
0.0
1001
DBPROPERTIES
1002
{
1000
PbHidd
1002
}
  0
LINE
  5
29F
330
1F
100
AcDbEntity
  8
HIDDEN
100
AcDbLine
 10
101.5291631320389
 20
64.43236618709979
 30
0.0
 11
102.3919325741396
 21
68.29217479196048
 31
0.0
1001
DBPROPERTIES
1002
{
1000
PbHidd
1002
}
  0
ARC
  5
2A0
330
1F
100
AcDbEntity
  8
HIDDEN
100
AcDbCircle
 10
0.0
 20
0.0000000000000237
 30
0.0
 40
123.0769230769231
100
AcDbArc
 50
30.10205664058319
 51
31.09797188007958
1001
DBPROPERTIES
1002
{
1000
PbHidd
1002
}
  0
LINE
  5
2A1
330
1F
100
AcDbEntity
  8
HIDDEN
100
AcDbLine
 10
106.4779866193906
 20
61.7281731429314
 30
0.0
 11
106.4779866193906
 21
61.72817314293143
 31
0.0
1001
DBPROPERTIES
1002
{
1000
PbHidd
1002
}
  0
LINE
  5
2A2
330
1F
100
AcDbEntity
  8
HIDDEN
100
AcDbLine
 10
105.3745602681201
 20
57.93015473016649
 30
0.0
 11
105.3745602681201
 21
57.93015473016649
 31
0.0
1001
DBPROPERTIES
1002
{
1000
PbHidd
1002
}
  0
LINE
  5
2A3
330
1F
100
AcDbEntity
  8
HIDDEN
100
AcDbLine
 10
109.172578680885
 20
56.82672837889596
 30
0.0
 11
105.37456026812
 21
57.9301547301665
 31
0.0
1001
DBPROPERTIES
1002
{
1000
PbHidd
1002
}
  0
LINE
  5
2A4
330
1F
100
AcDbEntity
  8
HIDDEN
100
AcDbLine
 10
109.172578680885
 20
56.82672837889599
 30
0.0
 11
109.172578680885
 21
56.82672837889596
 31
0.0
1001
DBPROPERTIES
1002
{
1000
PbHidd
1002
}
  0
LINE
  5
2A5
330
1F
100
AcDbEntity
  8
HIDDEN
100
AcDbLine
 10
105.37456026812
 20
57.93015473016648
 30
0.0
 11
106.4779866193906
 21
61.7281731429314
 31
0.0
1001
DBPROPERTIES
1002
{
1000
PbHidd
1002
}
  0
ARC
  5
2A6
330
1F
100
AcDbEntity
  8
HIDDEN
100
AcDbCircle
 10
0.0
 20
0.0000000000000237
 30
0.0
 40
123.0769230769231
100
AcDbArc
 50
26.5020482222172
 51
27.4979634617136
1001
DBPROPERTIES
1002
{
1000
PbHidd
1002
}
  0
LINE
  5
2A7
330
1F
100
AcDbEntity
  8
HIDDEN
100
AcDbLine
 10
110.1438206966198
 20
54.92055859542685
 30
0.0
 11
110.1438206966198
 21
54.92055859542688
 31
0.0
1001
DBPROPERTIES
1002
{
1000
PbHidd
1002
}
  0
LINE
  5
2A8
330
1F
100
AcDbEntity
  8
HIDDEN
100
AcDbLine
 10
108.8040921558803
 20
51.19931941828337
 30
0.0
 11
108.8040921558803
 21
51.19931941828337
 31
0.0
1001
DBPROPERTIES
1002
{
1000
PbHidd
1002
}
  0
LINE
  5
2A9
330
1F
100
AcDbEntity
  8
HIDDEN
100
AcDbLine
 10
112.5253313330238
 20
49.85959087754389
 30
0.0
 11
108.8040921558803
 21
51.19931941828337
 31
0.0
1001
DBPROPERTIES
1002
{
1000
PbHidd
1002
}
  0
LINE
  5
2AA
330
1F
100
AcDbEntity
  8
HIDDEN
100
AcDbLine
 10
112.5253313330238
 20
49.85959087754389
 30
0.0
 11
112.5253313330238
 21
49.85959087754387
 31
0.0
1001
DBPROPERTIES
1002
{
1000
PbHidd
1002
}
  0
LINE
  5
2AB
330
1F
100
AcDbEntity
  8
HIDDEN
100
AcDbLine
 10
108.8040921558803
 20
51.19931941828335
 30
0.0
 11
110.1438206966198
 21
54.92055859542684
 31
0.0
1001
DBPROPERTIES
1002
{
1000
PbHidd
1002
}
  0
ARC
  5
2AC
330
1F
100
AcDbEntity
  8
HIDDEN
100
AcDbCircle
 10
0.0
 20
0.0000000000000237
 30
0.0
 40
123.0769230769231
100
AcDbArc
 50
22.90203980385121
 51
23.89795504334761
1001
DBPROPERTIES
1002
{
1000
PbHidd
1002
}
  0
LINE
  5
2AD
330
1F
100
AcDbEntity
  8
HIDDEN
100
AcDbLine
 10
113.3749674334845
 20
47.89619769396283
 30
0.0
 11
113.3749674334845
 21
47.89619769396285
 31
0.0
1001
DBPROPERTIES
1002
{
1000
PbHidd
1002
}
  0
LINE
  5
2AE
330
1F
100
AcDbEntity
  8
HIDDEN
100
AcDbLine
 10
111.8042239997626
 20
44.26642378340046
 30
0.0
 11
111.8042239997626
 21
44.26642378340046
 31
0.0
1001
DBPROPERTIES
1002
{
1000
PbHidd
1002
}
  0
LINE
  5
2AF
330
1F
100
AcDbEntity
  8
HIDDEN
100
AcDbLine
 10
115.433997910325
 20
42.69568034967855
 30
0.0
 11
111.8042239997626
 21
44.26642378340043
 31
0.0
1001
DBPROPERTIES
1002
{
1000
PbHidd
1002
}
  0
LINE
  5
2B0
330
1F
100
AcDbEntity
  8
HIDDEN
100
AcDbLine
 10
115.433997910325
 20
42.69568034967857
 30
0.0
 11
115.433997910325
 21
42.69568034967854
 31
0.0
1001
DBPROPERTIES
1002
{
1000
PbHidd
1002
}
  0
LINE
  5
2B1
330
1F
100
AcDbEntity
  8
HIDDEN
100
AcDbLine
 10
111.8042239997626
 20
44.26642378340044
 30
0.0
 11
113.3749674334845
 21
47.8961976939628
 31
0.0
1001
DBPROPERTIES
1002
{
1000
PbHidd
1002
}
  0
ARC
  5
2B2
330
1F
100
AcDbEntity
  8
HIDDEN
100
AcDbCircle
 10
0.0
 20
0.0000000000000237
 30
0.0
 40
123.0769230769231
100
AcDbArc
 50
19.30203138548522
 51
20.29794662498162
1001
DBPROPERTIES
1002
{
1000
PbHidd
1002
}
  0
LINE
  5
2B3
330
1F
100
AcDbEntity
  8
HIDDEN
100
AcDbLine
 10
116.158674969985
 20
40.68281238189189
 30
0.0
 11
116.158674969985
 21
40.68281238189191
 31
0.0
1001
DBPROPERTIES
1002
{
1000
PbHidd
1002
}
  0
LINE
  5
2B4
330
1F
100
AcDbEntity
  8
HIDDEN
100
AcDbLine
 10
114.3631156500092
 20
37.1588287972497
 30
0.0
 11
114.3631156500092
 21
37.1588287972497
 31
0.0
1001
DBPROPERTIES
1002
{
1000
PbHidd
1002
}
  0
LINE
  5
2B5
330
1F
100
AcDbEntity
  8
HIDDEN
100
AcDbLine
 10
117.8870992346514
 20
35.3632694772739
 30
0.0
 11
114.3631156500092
 21
37.1588287972497
 31
0.0
1001
DBPROPERTIES
1002
{
1000
PbHidd
1002
}
  0
LINE
  5
2B6
330
1F
100
AcDbEntity
  8
HIDDEN
100
AcDbLine
 10
117.8870992346514
 20
35.36326947727392
 30
0.0
 11
117.8870992346514
 21
35.36326947727389
 31
0.0
1001
DBPROPERTIES
1002
{
1000
PbHidd
1002
}
  0
LINE
  5
2B7
330
1F
100
AcDbEntity
  8
HIDDEN
100
AcDbLine
 10
114.3631156500092
 20
37.15882879724971
 30
0.0
 11
116.158674969985
 21
40.68281238189188
 31
0.0
1001
DBPROPERTIES
1002
{
1000
PbHidd
1002
}
  0
ARC
  5
2B8
330
1F
100
AcDbEntity
  8
HIDDEN
100
AcDbCircle
 10
0.0
 20
0.0000000000000237
 30
0.0
 40
123.0769230769231
100
AcDbArc
 50
15.70202296711924
 51
16.69799550239514
1001
DBPROPERTIES
1002
{
1000
PbHidd
1002
}
  0
LINE
  5
2B9
330
1F
100
AcDbEntity
  8
HIDDEN
100
AcDbLine
 10
118.4839572842297
 20
33.30887059555876
 30
0.0
 11
118.4839572842297
 21
33.30887059555879
 31
0.0
1001
DBPROPERTIES
1002
{
1000
PbHidd
1002
}
  0
LINE
  5
2BA
330
1F
100
AcDbEntity
  8
HIDDEN
100
AcDbLine
 10
116.4706683303229
 20
29.90458489009038
 30
0.0
 11
116.4706683303229
 21
29.90458489009038
 31
0.0
1001
DBPROPERTIES
1002
{
1000
PbHidd
1002
}
  0
LINE
  5
2BB
330
1F
100
AcDbEntity
  8
HIDDEN
100
AcDbLine
 10
119.8749540357913
 20
27.89129593618357
 30
0.0
 11
116.4706683303229
 21
29.90458489009038
 31
0.0
1001
DBPROPERTIES
1002
{
1000
PbHidd
1002
}
  0
LINE
  5
2BC
330
1F
100
AcDbEntity
  8
HIDDEN
100
AcDbLine
 10
119.8749540357913
 20
27.89129593618357
 30
0.0
 11
119.8749540357913
 21
27.89129593618355
 31
0.0
1001
DBPROPERTIES
1002
{
1000
PbHidd
1002
}
  0
LINE
  5
2BD
330
1F
100
AcDbEntity
  8
HIDDEN
100
AcDbLine
 10
116.4706683303229
 20
29.90458489009037
 30
0.0
 11
118.4839572842297
 21
33.30887059555875
 31
0.0
1001
DBPROPERTIES
1002
{
1000
PbHidd
1002
}
  0
ARC
  5
2BE
330
1F
100
AcDbEntity
  8
HIDDEN
100
AcDbCircle
 10
0.0
 20
0.0000000000000237
 30
0.0
 40
123.0769230769231
100
AcDbArc
 50
12.10201454875325
 51
13.09798708402916
1001
DBPROPERTIES
1002
{
1000
PbHidd
1002
}
  0
LINE
  5
2BF
330
1F
100
AcDbEntity
  8
HIDDEN
100
AcDbLine
 10
120.3416375492446
 20
25.80347391436041
 30
0.0
 11
120.3416375492446
 21
25.80347391436044
 31
0.0
1001
DBPROPERTIES
1002
{
1000
PbHidd
1002
}
  0
LINE
  5
2C0
330
1F
100
AcDbEntity
  8
HIDDEN
100
AcDbLine
 10
118.1185644931237
 20
22.53232124847514
 30
0.0
 11
118.1185644931237
 21
22.53232124847514
 31
0.0
1001
DBPROPERTIES
1002
{
1000
PbHidd
1002
}
  0
LINE
  5
2C1
330
1F
100
AcDbEntity
  8
HIDDEN
100
AcDbLine
 10
121.389717159009
 20
20.30924819235421
 30
0.0
 11
118.1185644931237
 21
22.53232124847514
 31
0.0
1001
DBPROPERTIES
1002
{
1000
PbHidd
1002
}
  0
LINE
  5
2C2
330
1F
100
AcDbEntity
  8
HIDDEN
100
AcDbLine
 10
121.389717159009
 20
20.30924819235422
 30
0.0
 11
121.389717159009
 21
20.30924819235419
 31
0.0
1001
DBPROPERTIES
1002
{
1000
PbHidd
1002
}
  0
LINE
  5
2C3
330
1F
100
AcDbEntity
  8
HIDDEN
100
AcDbLine
 10
118.1185644931237
 20
22.53232124847514
 30
0.0
 11
120.3416375492446
 21
25.80347391436041
 31
0.0
1001
DBPROPERTIES
1002
{
1000
PbHidd
1002
}
  0
ARC
  5
2C4
330
1F
100
AcDbEntity
  8
HIDDEN
100
AcDbCircle
 10
0.0
 20
0.0000000000000237
 30
0.0
 40
123.0769230769231
100
AcDbArc
 50
8.50200613038726
 51
9.497978665663169
1001
DBPROPERTIES
1002
{
1000
PbHidd
1002
}
  0
LINE
  5
2C5
330
1F
100
AcDbEntity
  8
HIDDEN
100
AcDbLine
 10
121.7243843497172
 20
18.19624271010794
 30
0.0
 11
121.7243843497172
 21
18.19624271010797
 31
0.0
1001
DBPROPERTIES
1002
{
1000
PbHidd
1002
}
  0
LINE
  5
2C6
330
1F
100
AcDbEntity
  8
HIDDEN
100
AcDbLine
 10
119.3003006451092
 20
15.07113282893047
 30
0.0
 11
119.3003006451092
 21
15.07113282893047
 31
0.0
1001
DBPROPERTIES
1002
{
1000
PbHidd
1002
}
  0
LINE
  5
2C7
330
1F
100
AcDbEntity
  8
HIDDEN
100
AcDbLine
 10
122.4254105262866
 20
12.6470491243224
 30
0.0
 11
119.3003006451091
 21
15.07113282893046
 31
0.0
1001
DBPROPERTIES
1002
{
1000
PbHidd
1002
}
  0
LINE
  5
2C8
330
1F
100
AcDbEntity
  8
HIDDEN
100
AcDbLine
 10
122.4254105262866
 20
12.64704912432241
 30
0.0
 11
122.4254105262866
 21
12.64704912432239
 31
0.0
1001
DBPROPERTIES
1002
{
1000
PbHidd
1002
}
  0
LINE
  5
2C9
330
1F
100
AcDbEntity
  8
HIDDEN
100
AcDbLine
 10
119.3003006451091
 20
15.07113282893046
 30
0.0
 11
121.7243843497172
 21
18.19624271010792
 31
0.0
1001
DBPROPERTIES
1002
{
1000
PbHidd
1002
}
  0
ARC
  5
2CA
330
1F
100
AcDbEntity
  8
HIDDEN
100
AcDbCircle
 10
0.0
 20
0.0000000000000237
 30
0.0
 40
123.0769230769231
100
AcDbArc
 50
4.902055007800784
 51
5.897970247297181
1001
DBPROPERTIES
1002
{
1000
PbHidd
1002
}
  0
LINE
  5
2CB
330
1F
100
AcDbEntity
  8
HIDDEN
100
AcDbLine
 10
122.6267406157429
 20
10.51719924895128
 30
0.0
 11
122.6267406157429
 21
10.51719924895131
 31
0.0
1001
DBPROPERTIES
1002
{
1000
PbHidd
1002
}
  0
LINE
  5
2CC
330
1F
100
AcDbEntity
  8
HIDDEN
100
AcDbLine
 10
120.0112130135714
 20
7.550465533455758
 30
0.0
 11
120.0112130135714
 21
7.550465533455758
 31
0.0
1001
DBPROPERTIES
1002
{
1000
PbHidd
1002
}
  0
LINE
  5
2CD
330
1F
100
AcDbEntity
  8
HIDDEN
100
AcDbLine
 10
122.9779467290669
 20
4.934937931284185
 30
0.0
 11
120.0112130135713
 21
7.550465533455753
 31
0.0
1001
DBPROPERTIES
1002
{
1000
PbHidd
1002
}
  0
LINE
  5
2CE
330
1F
100
AcDbEntity
  8
HIDDEN
100
AcDbLine
 10
122.9779467290669
 20
4.934937931284195
 30
0.0
 11
122.9779467290669
 21
4.93493793128417
 31
0.0
1001
DBPROPERTIES
1002
{
1000
PbHidd
1002
}
  0
LINE
  5
2CF
330
1F
100
AcDbEntity
  8
HIDDEN
100
AcDbLine
 10
120.0112130135713
 20
7.550465533455757
 30
0.0
 11
122.6267406157429
 21
10.51719924895128
 31
0.0
1001
DBPROPERTIES
1002
{
1000
PbHidd
1002
}
  0
ARC
  5
2D0
330
1F
100
AcDbEntity
  8
HIDDEN
100
AcDbCircle
 10
0.0
 20
0.0000000000000237
 30
0.0
 40
123.0769230769231
100
AcDbArc
 50
1.302046589434796
 51
2.297961828931192
1001
DBPROPERTIES
1002
{
1000
PbHidd
1002
}
  0
LINE
  5
2D1
330
1F
100
AcDbEntity
  8
HIDDEN
100
AcDbLine
 10
123.0451451593871
 20
2.796649207210168
 30
0.0
 11
123.0451451593871
 21
2.796649207210193
 31
0.0
1001
DBPROPERTIES
1002
{
1000
PbHidd
1002
}
  0
LINE
  5
2D2
330
1F
100
AcDbEntity
  8
HIDDEN
100
AcDbLine
 10
120.2484959521769
 20
-0.0000000000000295
 30
0.0
 11
120.2484959521769
 21
-0.0000000000000295
 31
0.0
1001
DBPROPERTIES
1002
{
1000
PbHidd
1002
}
  0
LINE
  5
2D3
330
1F
100
AcDbEntity
  8
HIDDEN
100
AcDbLine
 10
123.0451451593871
 20
-2.796649207210283
 30
0.0
 11
120.2484959521769
 21
-0.0000000000000249
 31
0.0
1001
DBPROPERTIES
1002
{
1000
PbHidd
1002
}
  0
LINE
  5
2D4
330
1F
100
AcDbEntity
  8
HIDDEN
100
AcDbLine
 10
123.0451451593871
 20
-2.796649207210259
 30
0.0
 11
123.0451451593871
 21
-2.796649207210284
 31
0.0
1001
DBPROPERTIES
1002
{
1000
PbHidd
1002
}
  0
LINE
  5
2D5
330
1F
100
AcDbEntity
  8
HIDDEN
100
AcDbLine
 10
120.2484959521769
 20
-0.0000000000000355
 30
0.0
 11
123.0451451593871
 21
2.796649207210173
 31
0.0
1001
DBPROPERTIES
1002
{
1000
PbHidd
1002
}
  0
ARC
  5
2D6
330
1F
100
AcDbEntity
  8
HIDDEN
100
AcDbCircle
 10
0.0
 20
0.0000000000000237
 30
0.0
 40
123.0769230769231
100
AcDbArc
 50
357.7020381710688
 51
358.6979534105652
1001
DBPROPERTIES
1002
{
1000
PbHidd
1002
}
  0
LINE
  5
2D7
330
1F
100
AcDbEntity
  8
HIDDEN
100
AcDbLine
 10
122.9779467290669
 20
-4.934937931284151
 30
0.0
 11
122.9779467290669
 21
-4.934937931284126
 31
0.0
1001
DBPROPERTIES
1002
{
1000
PbHidd
1002
}
  0
LINE
  5
2D8
330
1F
100
AcDbEntity
  8
HIDDEN
100
AcDbLine
 10
120.0112130135714
 20
-7.550465533455709
 30
0.0
 11
120.0112130135714
 21
-7.550465533455709
 31
0.0
1001
DBPROPERTIES
1002
{
1000
PbHidd
1002
}
  0
LINE
  5
2D9
330
1F
100
AcDbEntity
  8
HIDDEN
100
AcDbLine
 10
122.6267406157429
 20
-10.51719924895123
 30
0.0
 11
120.0112130135713
 21
-7.550465533455704
 31
0.0
1001
DBPROPERTIES
1002
{
1000
PbHidd
1002
}
  0
LINE
  5
2DA
330
1F
100
AcDbEntity
  8
HIDDEN
100
AcDbLine
 10
122.6267406157429
 20
-10.51719924895121
 30
0.0
 11
122.6267406157429
 21
-10.51719924895124
 31
0.0
1001
DBPROPERTIES
1002
{
1000
PbHidd
1002
}
  0
LINE
  5
2DB
330
1F
100
AcDbEntity
  8
HIDDEN
100
AcDbLine
 10
120.0112130135713
 20
-7.550465533455711
 30
0.0
 11
122.9779467290668
 21
-4.93493793128415
 31
0.0
1001
DBPROPERTIES
1002
{
1000
PbHidd
1002
}
  0
ARC
  5
2DC
330
1F
100
AcDbEntity
  8
HIDDEN
100
AcDbCircle
 10
0.0
 20
0.0000000000000237
 30
0.0
 40
123.0769230769231
100
AcDbArc
 50
354.1020297527028
 51
355.0979449921992
1001
DBPROPERTIES
1002
{
1000
PbHidd
1002
}
  0
LINE
  5
2DD
330
1F
100
AcDbEntity
  8
HIDDEN
100
AcDbLine
 10
122.4254105262866
 20
-12.64704912432235
 30
0.0
 11
122.4254105262866
 21
-12.64704912432233
 31
0.0
1001
DBPROPERTIES
1002
{
1000
PbHidd
1002
}
  0
LINE
  5
2DE
330
1F
100
AcDbEntity
  8
HIDDEN
100
AcDbLine
 10
119.3003006451092
 20
-15.07113282893042
 30
0.0
 11
119.3003006451092
 21
-15.07113282893042
 31
0.0
1001
DBPROPERTIES
1002
{
1000
PbHidd
1002
}
  0
LINE
  5
2DF
330
1F
100
AcDbEntity
  8
HIDDEN
100
AcDbLine
 10
121.7243843497172
 20
-18.19624271010792
 30
0.0
 11
119.3003006451091
 21
-15.07113282893042
 31
0.0
1001
DBPROPERTIES
1002
{
1000
PbHidd
1002
}
  0
LINE
  5
2E0
330
1F
100
AcDbEntity
  8
HIDDEN
100
AcDbLine
 10
121.7243843497172
 20
-18.1962427101079
 30
0.0
 11
121.7243843497172
 21
-18.19624271010793
 31
0.0
1001
DBPROPERTIES
1002
{
1000
PbHidd
1002
}
  0
LINE
  5
2E1
330
1F
100
AcDbEntity
  8
HIDDEN
100
AcDbLine
 10
119.3003006451091
 20
-15.07113282893042
 30
0.0
 11
122.4254105262866
 21
-12.64704912432236
 31
0.0
1001
DBPROPERTIES
1002
{
1000
PbHidd
1002
}
  0
ARC
  5
2E2
330
1F
100
AcDbEntity
  8
HIDDEN
100
AcDbCircle
 10
0.0
 20
0.0000000000000237
 30
0.0
 40
123.0769230769231
100
AcDbArc
 50
350.5020213343368
 51
351.4979938696127
1001
DBPROPERTIES
1002
{
1000
PbHidd
1002
}
  0
LINE
  5
2E3
330
1F
100
AcDbEntity
  8
HIDDEN
100
AcDbLine
 10
121.389717159009
 20
-20.30924819235419
 30
0.0
 11
121.389717159009
 21
-20.30924819235416
 31
0.0
1001
DBPROPERTIES
1002
{
1000
PbHidd
1002
}
  0
LINE
  5
2E4
330
1F
100
AcDbEntity
  8
HIDDEN
100
AcDbLine
 10
118.1185644931237
 20
-22.5323212484751
 30
0.0
 11
118.1185644931237
 21
-22.5323212484751
 31
0.0
1001
DBPROPERTIES
1002
{
1000
PbHidd
1002
}
  0
LINE
  5
2E5
330
1F
100
AcDbEntity
  8
HIDDEN
100
AcDbLine
 10
120.3416375492446
 20
-25.8034739143604
 30
0.0
 11
118.1185644931237
 21
-22.53232124847509
 31
0.0
1001
DBPROPERTIES
1002
{
1000
PbHidd
1002
}
  0
LINE
  5
2E6
330
1F
100
AcDbEntity
  8
HIDDEN
100
AcDbLine
 10
120.3416375492446
 20
-25.80347391436038
 30
0.0
 11
120.3416375492446
 21
-25.80347391436041
 31
0.0
1001
DBPROPERTIES
1002
{
1000
PbHidd
1002
}
  0
LINE
  5
2E7
330
1F
100
AcDbEntity
  8
HIDDEN
100
AcDbLine
 10
118.1185644931237
 20
-22.53232124847509
 30
0.0
 11
121.3897171590089
 21
-20.30924819235417
 31
0.0
1001
DBPROPERTIES
1002
{
1000
PbHidd
1002
}
  0
ARC
  5
2E8
330
1F
100
AcDbEntity
  8
HIDDEN
100
AcDbCircle
 10
0.0
 20
0.0000000000000237
 30
0.0
 40
123.0769230769231
100
AcDbArc
 50
346.9020129159708
 51
347.8979854512468
1001
DBPROPERTIES
1002
{
1000
PbHidd
1002
}
  0
LINE
  5
2E9
330
1F
100
AcDbEntity
  8
HIDDEN
100
AcDbLine
 10
119.8749540357913
 20
-27.89129593618358
 30
0.0
 11
119.8749540357913
 21
-27.89129593618355
 31
0.0
1001
DBPROPERTIES
1002
{
1000
PbHidd
1002
}
  0
LINE
  5
2EA
330
1F
100
AcDbEntity
  8
HIDDEN
100
AcDbLine
 10
116.4706683303229
 20
-29.90458489009033
 30
0.0
 11
116.4706683303229
 21
-29.90458489009033
 31
0.0
1001
DBPROPERTIES
1002
{
1000
PbHidd
1002
}
  0
LINE
  5
2EB
330
1F
100
AcDbEntity
  8
HIDDEN
100
AcDbLine
 10
118.4839572842297
 20
-33.30887059555871
 30
0.0
 11
116.4706683303229
 21
-29.90458489009031
 31
0.0
1001
DBPROPERTIES
1002
{
1000
PbHidd
1002
}
  0
LINE
  5
2EC
330
1F
100
AcDbEntity
  8
HIDDEN
100
AcDbLine
 10
118.4839572842297
 20
-33.30887059555871
 30
0.0
 11
118.4839572842297
 21
-33.30887059555874
 31
0.0
1001
DBPROPERTIES
1002
{
1000
PbHidd
1002
}
  0
LINE
  5
2ED
330
1F
100
AcDbEntity
  8
HIDDEN
100
AcDbLine
 10
116.4706683303229
 20
-29.90458489009033
 30
0.0
 11
119.8749540357912
 21
-27.89129593618356
 31
0.0
1001
DBPROPERTIES
1002
{
1000
PbHidd
1002
}
  0
ARC
  5
2EE
330
1F
100
AcDbEntity
  8
HIDDEN
100
AcDbCircle
 10
0.0
 20
0.0000000000000237
 30
0.0
 40
123.0769230769231
100
AcDbArc
 50
343.3020044976049
 51
344.2979770328807
1001
DBPROPERTIES
1002
{
1000
PbHidd
1002
}
  0
LINE
  5
2EF
330
1F
100
AcDbEntity
  8
HIDDEN
100
AcDbLine
 10
117.8870992346514
 20
-35.36326947727398
 30
0.0
 11
117.8870992346514
 21
-35.36326947727395
 31
0.0
1001
DBPROPERTIES
1002
{
1000
PbHidd
1002
}
  0
LINE
  5
2F0
330
1F
100
AcDbEntity
  8
HIDDEN
100
AcDbLine
 10
114.3631156500092
 20
-37.15882879724976
 30
0.0
 11
114.3631156500092
 21
-37.15882879724976
 31
0.0
1001
DBPROPERTIES
1002
{
1000
PbHidd
1002
}
  0
LINE
  5
2F1
330
1F
100
AcDbEntity
  8
HIDDEN
100
AcDbLine
 10
116.158674969985
 20
-40.68281238189191
 30
0.0
 11
114.3631156500092
 21
-37.15882879724975
 31
0.0
1001
DBPROPERTIES
1002
{
1000
PbHidd
1002
}
  0
LINE
  5
2F2
330
1F
100
AcDbEntity
  8
HIDDEN
100
AcDbLine
 10
116.158674969985
 20
-40.68281238189191
 30
0.0
 11
116.158674969985
 21
-40.68281238189194
 31
0.0
1001
DBPROPERTIES
1002
{
1000
PbHidd
1002
}
  0
LINE
  5
2F3
330
1F
100
AcDbEntity
  8
HIDDEN
100
AcDbLine
 10
114.3631156500092
 20
-37.15882879724975
 30
0.0
 11
117.8870992346513
 21
-35.36326947727397
 31
0.0
1001
DBPROPERTIES
1002
{
1000
PbHidd
1002
}
  0
ARC
  5
2F4
330
1F
100
AcDbEntity
  8
HIDDEN
100
AcDbCircle
 10
0.0
 20
0.0000000000000237
 30
0.0
 40
123.0769230769231
100
AcDbArc
 50
339.7020533750184
 51
340.6979686145148
1001
DBPROPERTIES
1002
{
1000
PbHidd
1002
}
  0
LINE
  5
2F5
330
1F
100
AcDbEntity
  8
HIDDEN
100
AcDbLine
 10
115.433997910325
 20
-42.69568034967858
 30
0.0
 11
115.433997910325
 21
-42.69568034967855
 31
0.0
1001
DBPROPERTIES
1002
{
1000
PbHidd
1002
}
  0
LINE
  5
2F6
330
1F
100
AcDbEntity
  8
HIDDEN
100
AcDbLine
 10
111.8042239997627
 20
-44.26642378340042
 30
0.0
 11
111.8042239997627
 21
-44.26642378340042
 31
0.0
1001
DBPROPERTIES
1002
{
1000
PbHidd
1002
}
  0
LINE
  5
2F7
330
1F
100
AcDbEntity
  8
HIDDEN
100
AcDbLine
 10
113.3749674334845
 20
-47.89619769396275
 30
0.0
 11
111.8042239997626
 21
-44.26642378340041
 31
0.0
1001
DBPROPERTIES
1002
{
1000
PbHidd
1002
}
  0
LINE
  5
2F8
330
1F
100
AcDbEntity
  8
HIDDEN
100
AcDbLine
 10
113.3749674334845
 20
-47.89619769396273
 30
0.0
 11
113.3749674334845
 21
-47.89619769396276
 31
0.0
1001
DBPROPERTIES
1002
{
1000
PbHidd
1002
}
  0
LINE
  5
2F9
330
1F
100
AcDbEntity
  8
HIDDEN
100
AcDbLine
 10
111.8042239997626
 20
-44.26642378340041
 30
0.0
 11
115.4339979103249
 21
-42.69568034967855
 31
0.0
1001
DBPROPERTIES
1002
{
1000
PbHidd
1002
}
  0
ARC
  5
2FA
330
1F
100
AcDbEntity
  8
HIDDEN
100
AcDbCircle
 10
0.0
 20
0.0000000000000237
 30
0.0
 40
123.0769230769231
100
AcDbArc
 50
336.1020449566524
 51
337.0979601961488
1001
DBPROPERTIES
1002
{
1000
PbHidd
1002
}
  0
LINE
  5
2FB
330
1F
100
AcDbEntity
  8
HIDDEN
100
AcDbLine
 10
112.5253313330238
 20
-49.85959087754387
 30
0.0
 11
112.5253313330238
 21
-49.85959087754384
 31
0.0
1001
DBPROPERTIES
1002
{
1000
PbHidd
1002
}
  0
LINE
  5
2FC
330
1F
100
AcDbEntity
  8
HIDDEN
100
AcDbLine
 10
108.8040921558803
 20
-51.19931941828332
 30
0.0
 11
108.8040921558803
 21
-51.19931941828332
 31
0.0
1001
DBPROPERTIES
1002
{
1000
PbHidd
1002
}
  0
LINE
  5
2FD
330
1F
100
AcDbEntity
  8
HIDDEN
100
AcDbLine
 10
110.1438206966198
 20
-54.9205585954268
 30
0.0
 11
108.8040921558803
 21
-51.19931941828332
 31
0.0
1001
DBPROPERTIES
1002
{
1000
PbHidd
1002
}
  0
LINE
  5
2FE
330
1F
100
AcDbEntity
  8
HIDDEN
100
AcDbLine
 10
110.1438206966198
 20
-54.92055859542678
 30
0.0
 11
110.1438206966198
 21
-54.92055859542681
 31
0.0
1001
DBPROPERTIES
1002
{
1000
PbHidd
1002
}
  0
LINE
  5
2FF
330
1F
100
AcDbEntity
  8
HIDDEN
100
AcDbLine
 10
108.8040921558803
 20
-51.19931941828332
 30
0.0
 11
112.5253313330238
 21
-49.85959087754386
 31
0.0
1001
DBPROPERTIES
1002
{
1000
PbHidd
1002
}
  0
ARC
  5
300
330
1F
100
AcDbEntity
  8
HIDDEN
100
AcDbCircle
 10
0.0
 20
0.0000000000000237
 30
0.0
 40
123.0769230769231
100
AcDbArc
 50
332.5020365382864
 51
333.4979517777828
1001
DBPROPERTIES
1002
{
1000
PbHidd
1002
}
  0
LINE
  5
301
330
1F
100
AcDbEntity
  8
HIDDEN
100
AcDbLine
 10
109.172578680885
 20
-56.82672837889594
 30
0.0
 11
109.172578680885
 21
-56.82672837889591
 31
0.0
1001
DBPROPERTIES
1002
{
1000
PbHidd
1002
}
  0
LINE
  5
302
330
1F
100
AcDbEntity
  8
HIDDEN
100
AcDbLine
 10
105.3745602681201
 20
-57.93015473016646
 30
0.0
 11
105.3745602681201
 21
-57.93015473016646
 31
0.0
1001
DBPROPERTIES
1002
{
1000
PbHidd
1002
}
  0
LINE
  5
303
330
1F
100
AcDbEntity
  8
HIDDEN
100
AcDbLine
 10
106.4779866193906
 20
-61.72817314293133
 30
0.0
 11
105.37456026812
 21
-57.93015473016643
 31
0.0
1001
DBPROPERTIES
1002
{
1000
PbHidd
1002
}
  0
LINE
  5
304
330
1F
100
AcDbEntity
  8
HIDDEN
100
AcDbLine
 10
106.4779866193906
 20
-61.72817314293133
 30
0.0
 11
106.4779866193906
 21
-61.72817314293136
 31
0.0
1001
DBPROPERTIES
1002
{
1000
PbHidd
1002
}
  0
LINE
  5
305
330
1F
100
AcDbEntity
  8
HIDDEN
100
AcDbLine
 10
105.37456026812
 20
-57.93015473016644
 30
0.0
 11
109.1725786808849
 21
-56.82672837889591
 31
0.0
1001
DBPROPERTIES
1002
{
1000
PbHidd
1002
}
  0
ARC
  5
306
330
1F
100
AcDbEntity
  8
HIDDEN
100
AcDbCircle
 10
0.0
 20
0.0000000000000237
 30
0.0
 40
123.0769230769231
100
AcDbArc
 50
328.9020281199204
 51
329.8979433594168
1001
DBPROPERTIES
1002
{
1000
PbHidd
1002
}
  0
LINE
  5
307
330
1F
100
AcDbEntity
  8
HIDDEN
100
AcDbLine
 10
105.3889717368997
 20
-63.56959674499912
 30
0.0
 11
105.3889717368997
 21
-63.56959674499909
 31
0.0
1001
DBPROPERTIES
1002
{
1000
PbHidd
1002
}
  0
LINE
  5
308
330
1F
100
AcDbEntity
  8
HIDDEN
100
AcDbLine
 10
101.529163132039
 20
-64.43236618709976
 30
0.0
 11
101.529163132039
 21
-64.43236618709976
 31
0.0
1001
DBPROPERTIES
1002
{
1000
PbHidd
1002
}
  0
LINE
  5
309
330
1F
100
AcDbEntity
  8
HIDDEN
100
AcDbLine
 10
102.3919325741396
 20
-68.29217479196043
 30
0.0
 11
101.529163132039
 21
-64.43236618709976
 31
0.0
1001
DBPROPERTIES
1002
{
1000
PbHidd
1002
}
  0
LINE
  5
30A
330
1F
100
AcDbEntity
  8
HIDDEN
100
AcDbLine
 10
102.3919325741396
 20
-68.2921747919604
 30
0.0
 11
102.3919325741396
 21
-68.29217479196043
 31
0.0
1001
DBPROPERTIES
1002
{
1000
PbHidd
1002
}
  0
LINE
  5
30B
330
1F
100
AcDbEntity
  8
HIDDEN
100
AcDbLine
 10
101.529163132039
 20
-64.43236618709976
 30
0.0
 11
105.3889717368997
 21
-63.5695967449991
 31
0.0
1001
DBPROPERTIES
1002
{
1000
PbHidd
1002
}
  0
ARC
  5
30C
330
1F
100
AcDbEntity
  8
HIDDEN
100
AcDbCircle
 10
0.0
 20
0.0000000000000237
 30
0.0
 40
123.0769230769231
100
AcDbArc
 50
325.3020197015544
 51
326.2979922368303
1001
DBPROPERTIES
1002
{
1000
PbHidd
1002
}
  0
LINE
  5
30D
330
1F
100
AcDbEntity
  8
HIDDEN
100
AcDbLine
 10
2.796649207210273
 20
123.0451451593872
 30
0.0
 11
2.796649207210273
 21
123.0451451593872
 31
0.0
1001
DBPROPERTIES
1002
{
1000
PbHidd
1002
}
  0
ARC
  5
30E
330
1F
100
AcDbEntity
  8
HIDDEN
100
AcDbCircle
 10
0.0
 20
0.0000000000000237
 30
0.0
 40
123.0769230769231
100
AcDbArc
 50
87.70201944710047
 51
88.69799198237637
1001
DBPROPERTIES
1002
{
1000
PbHidd
1002
}
  0
ARC
  5
30F
330
1F
100
AcDbEntity
  8
HIDDEN
100
AcDbCircle
 10
0.0
 20
0.0000000000000237
 30
0.0
 40
123.0769230769231
100
AcDbArc
 50
91.30202786546646
 51
92.29794310496284
1001
DBPROPERTIES
1002
{
1000
PbHidd
1002
}
  0
LINE
  5
310
330
1F
100
AcDbEntity
  8
HIDDEN
100
AcDbLine
 10
-2.796649207210258
 20
123.0451451593872
 30
0.0
 11
-2.796649207210258
 21
123.0451451593872
 31
0.0
1001
DBPROPERTIES
1002
{
1000
PbHidd
1002
}
  0
LINE
  5
311
330
1F
100
AcDbEntity
  8
HIDDEN
100
AcDbLine
 10
0.0000000000000142
 20
120.2484959521769
 30
0.0
 11
-2.796649207210255
 21
123.0451451593871
 31
0.0
1001
DBPROPERTIES
1002
{
1000
PbHidd
1002
}
  0
LINE
  5
312
330
1F
100
AcDbEntity
  8
HIDDEN
100
AcDbLine
 10
0.0000000000000074
 20
120.2484959521769
 30
0.0
 11
0.0000000000000074
 21
120.2484959521769
 31
0.0
1001
DBPROPERTIES
1002
{
1000
PbHidd
1002
}
  0
LINE
  5
313
330
1F
100
AcDbEntity
  8
HIDDEN
100
AcDbLine
 10
2.796649207210269
 20
123.0451451593871
 30
0.0
 11
0.0
 21
120.2484959521769
 31
0.0
1001
DBPROPERTIES
1002
{
1000
PbHidd
1002
}
  0
ARC
  5
314
330
1F
100
AcDbEntity
  8
HIDDEN
100
AcDbCircle
 10
0.0
 20
0.0
 30
0.0
 40
90.11764705882354
100
AcDbArc
 50
179.9999801521572
 51
0.0
1001
DBPROPERTIES
1002
{
1000
PbHidd
1002
}
  0
ARC
  5
315
330
1F
100
AcDbEntity
  8
HIDDEN
100
AcDbCircle
 10
0.0
 20
0.0
 30
0.0
 40
103.6666666666667
100
AcDbArc
 50
179.9999801521572
 51
0.0
1001
DBPROPERTIES
1002
{
1000
PbHidd
1002
}
  0
ARC
  5
316
330
1F
100
AcDbEntity
  8
HIDDEN
100
AcDbCircle
 10
0.0
 20
0.0
 30
0.0
 40
94.11764705882354
100
AcDbArc
 50
89.99998127603165
 51
270.0000187239684
1001
DBPROPERTIES
1002
{
1000
PbHidd
1002
}
  0
ARC
  5
317
330
1F
100
AcDbEntity
  8
HIDDEN
100
AcDbCircle
 10
0.0
 20
0.0
 30
0.0
 40
131.1475409836066
100
AcDbArc
 50
270.0000187239684
 51
89.99998127603165
1001
DBPROPERTIES
1002
{
1000
PbHidd
1002
}
  0
LINE
  5
318
330
1F
100
AcDbEntity
  8
THICK
100
AcDbLine
 10
-113.8406339066078
 20
69.41244736730923
 30
0.0
 11
-253.2765142459984
 21
244.2595109599878
 31
0.0
1001
DBPROPERTIES
1002
{
1000
PbThick
1002
}
  0
LINE
  5
319
330
1F
100
AcDbEntity
  8
THICK
100
AcDbLine
 10
-179.5647351795616
 20
303.0426932126501
 30
0.0
 11
-39.46226722863052
 21
127.3597551935223
 31
0.0
1001
DBPROPERTIES
1002
{
1000
PbThick
1002
}
  0
ELLIPSE
  5
31A
330
1F
100
AcDbEntity
  8
THICK
100
AcDbEllipse
 10
-114.8634264597278
 20
146.3024034728435
 30
0.0
 11
-109.7342051271371
 21
137.6023409143733
 31
0.0
210
0.0
220
0.0
230
1.0
 40
0.7071067811865475
 41
0.0
 42
0.3884862281828485
1001
DBPROPERTIES
1002
{
1000
PbThick
1002
}
  0
ELLIPSE
  5
31B
330
1F
100
AcDbEntity
  8
THICK
100
AcDbEllipse
 10
-114.8634264597278
 20
146.3024034728435
 30
0.0
 11
-109.7342051271371
 21
137.6023409143733
 31
0.0
210
0.0
220
0.0
230
1.0
 40
0.7071067811865475
 41
-0.3884862281828484
 42
0.0
1001
DBPROPERTIES
1002
{
1000
PbThick
1002
}
  0
LINE
  5
31C
330
1F
100
AcDbEntity
  8
HIDDEN
100
AcDbLine
 10
-40.90695122354668
 20
126.9031091792953
 30
0.0
 11
-180.6704118655582
 21
302.1609454788602
 31
0.0
1001
DBPROPERTIES
1002
{
1000
PbHidd
1002
}
  0
LINE
  5
31D
330
1F
100
AcDbEntity
  8
HIDDEN
100
AcDbLine
 10
-180.6704118655582
 20
302.1609454788602
 30
0.0
 11
-179.5647351795616
 21
303.0426932126501
 31
0.0
1001
DBPROPERTIES
1002
{
1000
PbHidd
1002
}
  0
LINE
  5
31E
330
1F
100
AcDbEntity
  8
THICK
100
AcDbLine
 10
-114.6187302899834
 20
68.11992692663304
 30
0.0
 11
-254.3821909319949
 21
243.3777632261979
 31
0.0
1001
DBPROPERTIES
1002
{
1000
PbThick
1002
}
  0
LINE
  5
31F
330
1F
100
AcDbEntity
  8
THICK
100
AcDbLine
 10
-254.3821909319949
 20
243.3777632261979
 30
0.0
 11
-253.2765142459983
 21
244.2595109599878
 31
0.0
1001
DBPROPERTIES
1002
{
1000
PbThick
1002
}
  0
ELLIPSE
  5
320
330
1F
100
AcDbEntity
  8
HIDDEN
100
AcDbEllipse
 10
-115.9691031457244
 20
145.4206557390536
 30
0.0
 11
109.7342051271371
 21
-137.6023409143733
 31
0.0
210
0.0
220
0.0
230
1.0
 40
0.7071067811865475
 41
2.753106425406945
 42
3.141592653589793
1001
DBPROPERTIES
1002
{
1000
PbHidd
1002
}
  0
ELLIPSE
  5
321
330
1F
100
AcDbEntity
  8
THICK
100
AcDbEllipse
 10
-115.9691031457244
 20
145.4206557390536
 30
0.0
 11
109.7342051271371
 21
-137.6023409143733
 31
0.0
210
0.0
220
0.0
230
1.0
 40
0.7071067811865475
 41
3.141592653589793
 42
3.530078881772642
1001
DBPROPERTIES
1002
{
1000
PbThick
1002
}
  0
LINE
  5
322
330
1F
100
AcDbEntity
  8
THICK
100
AcDbLine
 10
124.9715369276297
 20
329.3333918503078
 30
0.0
 11
74.96954503444165
 21
110.2603514192957
 31
0.0
1001
DBPROPERTIES
1002
{
1000
PbThick
1002
}
  0
ELLIPSE
  5
323
330
1F
100
AcDbEntity
  8
THICK
100
AcDbEllipse
 10
42.76764999161815
 20
181.0218995431062
 30
0.0
 11
39.16368437631137
 21
171.5873125440009
 31
0.0
210
0.0
220
0.0
230
1.0
 40
0.7071067811865476
 41
0.0
 42
0.3884862281828484
1001
DBPROPERTIES
1002
{
1000
PbThick
1002
}
  0
ELLIPSE
  5
324
330
1F
100
AcDbEntity
  8
THICK
100
AcDbEllipse
 10
42.76764999161815
 20
181.0218995431062
 30
0.0
 11
39.16368437631137
 21
171.5873125440009
 31
0.0
210
0.0
220
0.0
230
1.0
 40
0.7071067811865476
 41
-0.3884862281828487
 42
0.0
1001
DBPROPERTIES
1002
{
1000
PbThick
1002
}
  0
LINE
  5
325
330
1F
100
AcDbEntity
  8
THICK
100
AcDbLine
 10
-16.70963765098609
 20
132.2821446278768
 30
0.0
 11
33.05445187805497
 21
350.3128666978376
 31
0.0
1001
DBPROPERTIES
1002
{
1000
PbThick
1002
}
  0
LINE
  5
326
330
1F
100
AcDbEntity
  8
HIDDEN
100
AcDbLine
 10
73.7117790664367
 20
111.1051367158089
 30
0.0
 11
123.5927806518861
 21
329.6480839730207
 31
0.0
1001
DBPROPERTIES
1002
{
1000
PbHidd
1002
}
  0
LINE
  5
327
330
1F
100
AcDbEntity
  8
HIDDEN
100
AcDbLine
 10
123.5927806518861
 20
329.648083973021
 30
0.0
 11
124.9715369276298
 21
329.333391850308
 31
0.0
1001
DBPROPERTIES
1002
{
1000
PbHidd
1002
}
  0
LINE
  5
328
330
1F
100
AcDbEntity
  8
THICK
100
AcDbLine
 10
-18.20530598313801
 20
132.0846115633387
 30
0.0
 11
31.67569560231135
 21
350.6275588205506
 31
0.0
1001
DBPROPERTIES
1002
{
1000
PbThick
1002
}
  0
LINE
  5
329
330
1F
100
AcDbEntity
  8
THICK
100
AcDbLine
 10
31.67569560231144
 20
350.6275588205509
 30
0.0
 11
33.05445187805505
 21
350.3128666978379
 31
0.0
1001
DBPROPERTIES
1002
{
1000
PbThick
1002
}
  0
ELLIPSE
  5
32A
330
1F
100
AcDbEntity
  8
HIDDEN
100
AcDbEllipse
 10
41.38889371587453
 20
181.3365916658192
 30
0.0
 11
-39.16368437631137
 21
-171.5873125440009
 31
0.0
210
0.0
220
0.0
230
1.0
 40
0.7071067811865476
 41
2.753106425406945
 42
3.141592653589793
1001
DBPROPERTIES
1002
{
1000
PbHidd
1002
}
  0
ELLIPSE
  5
32B
330
1F
100
AcDbEntity
  8
THICK
100
AcDbEllipse
 10
41.38889371587453
 20
181.3365916658192
 30
0.0
 11
-39.16368437631137
 21
-171.5873125440009
 31
0.0
210
0.0
220
0.0
230
1.0
 40
0.7071067811865476
 41
3.141592653589793
 42
3.530078881772642
1001
DBPROPERTIES
1002
{
1000
PbThick
1002
}
  0
LINE
  5
32C
330
1F
100
AcDbEntity
  8
THICK
100
AcDbLine
 10
93.00405657031867
 20
95.54068891965727
 30
0.0
 11
294.4947415499933
 21
192.5734887320119
 31
0.0
1001
DBPROPERTIES
1002
{
1000
PbThick
1002
}
  0
LINE
  5
32D
330
1F
100
AcDbEntity
  8
THICK
100
AcDbLine
 10
335.4016927735399
 20
107.6293292477762
 30
0.0
 11
132.9477607865573
 21
10.13265412505978
 31
0.0
1001
DBPROPERTIES
1002
{
1000
PbThick
1002
}
  0
ELLIPSE
  5
32E
330
1F
100
AcDbEntity
  8
THICK
100
AcDbEllipse
 10
168.1938136982031
 20
79.42821308360222
 30
0.0
 11
158.5705207508258
 21
76.36353808469019
 31
0.0
210
0.0
220
0.0
230
1.0
 40
0.7071067811865476
 41
0.0
 42
0.3884862281828487
1001
DBPROPERTIES
1002
{
1000
PbThick
1002
}
  0
ELLIPSE
  5
32F
330
1F
100
AcDbEntity
  8
THICK
100
AcDbEllipse
 10
168.1938136982031
 20
79.42821308360222
 30
0.0
 11
158.5705207508258
 21
76.36353808469019
 31
0.0
210
0.0
220
0.0
230
1.0
 40
0.7071067811865476
 41
-0.3884862281828486
 42
0.0
1001
DBPROPERTIES
1002
{
1000
PbThick
1002
}
  0
LINE
  5
330
330
1F
100
AcDbEntity
  8
HIDDEN
100
AcDbLine
 10
132.8240362731214
 20
11.6427301735591
 30
0.0
 11
334.7880885051867
 21
108.9034916400397
 31
0.0
1001
DBPROPERTIES
1002
{
1000
PbHidd
1002
}
  0
LINE
  5
331
330
1F
100
AcDbEntity
  8
HIDDEN
100
AcDbLine
 10
334.7880885051869
 20
108.9034916400398
 30
0.0
 11
335.4016927735401
 21
107.6293292477763
 31
0.0
1001
DBPROPERTIES
1002
{
1000
PbHidd
1002
}
  0
LINE
  5
332
330
1F
100
AcDbEntity
  8
THICK
100
AcDbLine
 10
91.91708504957467
 20
96.58688965779474
 30
0.0
 11
293.88113728164
 21
193.8476511242754
 31
0.0
1001
DBPROPERTIES
1002
{
1000
PbThick
1002
}
  0
LINE
  5
333
330
1F
100
AcDbEntity
  8
THICK
100
AcDbLine
 10
293.8811372816402
 20
193.8476511242755
 30
0.0
 11
294.4947415499934
 21
192.573488732012
 31
0.0
1001
DBPROPERTIES
1002
{
1000
PbThick
1002
}
  0
ELLIPSE
  5
334
330
1F
100
AcDbEntity
  8
HIDDEN
100
AcDbEllipse
 10
167.5802094298499
 20
80.70237547586576
 30
0.0
 11
-158.5705207508258
 21
-76.36353808469019
 31
0.0
210
0.0
220
0.0
230
1.0
 40
0.7071067811865476
 41
2.753106425406945
 42
3.141592653589793
1001
DBPROPERTIES
1002
{
1000
PbHidd
1002
}
  0
ELLIPSE
  5
335
330
1F
100
AcDbEntity
  8
THICK
100
AcDbEllipse
 10
167.5802094298499
 20
80.70237547586576
 30
0.0
 11
-158.5705207508258
 21
-76.36353808469019
 31
0.0
210
0.0
220
0.0
230
1.0
 40
0.7071067811865476
 41
-3.141592653589793
 42
-2.753106425406945
1001
DBPROPERTIES
1002
{
1000
PbThick
1002
}
  0
LINE
  5
336
330
1F
100
AcDbEntity
  8
THICK
100
AcDbLine
 10
132.6837992571589
 20
-13.14485421994873
 30
0.0
 11
334.1744842368335
 21
-110.1776540323034
 31
0.0
1001
DBPROPERTIES
1002
{
1000
PbThick
1002
}
  0
LINE
  5
337
330
1F
100
AcDbEntity
  8
THICK
100
AcDbLine
 10
293.2675330132868
 20
-195.121813516539
 30
0.0
 11
90.81360102630421
 21
-97.62513839382251
 31
0.0
1001
DBPROPERTIES
1002
{
1000
PbThick
1002
}
  0
ELLIPSE
  5
338
330
1F
100
AcDbEntity
  8
THICK
100
AcDbEllipse
 10
166.9666051614967
 20
-81.97653786812937
 30
0.0
 11
158.5705207508258
 21
-76.36353808469028
 31
0.0
210
0.0
220
0.0
230
1.0
 40
0.7071067811865476
 41
0.0
 42
0.3884862281828484
1001
DBPROPERTIES
1002
{
1000
PbThick
1002
}
  0
ELLIPSE
  5
339
330
1F
100
AcDbEntity
  8
THICK
100
AcDbEllipse
 10
166.9666051614967
 20
-81.97653786812937
 30
0.0
 11
158.5705207508258
 21
-76.36353808469028
 31
0.0
210
0.0
220
0.0
230
1.0
 40
0.7071067811865476
 41
-0.3884862281828486
 42
0.0
1001
DBPROPERTIES
1002
{
1000
PbThick
1002
}
  0
LINE
  5
33A
330
1F
100
AcDbEntity
  8
HIDDEN
100
AcDbLine
 10
91.91708504957464
 20
-96.58688965779479
 30
0.0
 11
293.88113728164
 21
-193.8476511242755
 31
0.0
1001
DBPROPERTIES
1002
{
1000
PbHidd
1002
}
  0
LINE
  5
33B
330
1F
100
AcDbEntity
  8
HIDDEN
100
AcDbLine
 10
293.8811372816402
 20
-193.8476511242756
 30
0.0
 11
293.267533013287
 21
-195.1218135165392
 31
0.0
1001
DBPROPERTIES
1002
{
1000
PbHidd
1002
}
  0
LINE
  5
33C
330
1F
100
AcDbEntity
  8
THICK
100
AcDbLine
 10
132.8240362731213
 20
-11.64273017355912
 30
0.0
 11
334.7880885051867
 21
-108.9034916400398
 31
0.0
1001
DBPROPERTIES
1002
{
1000
PbThick
1002
}
  0
LINE
  5
33D
330
1F
100
AcDbEntity
  8
THICK
100
AcDbLine
 10
334.7880885051869
 20
-108.90349164004
 30
0.0
 11
334.1744842368337
 21
-110.1776540323035
 31
0.0
1001
DBPROPERTIES
1002
{
1000
PbThick
1002
}
  0
ELLIPSE
  5
33E
330
1F
100
AcDbEntity
  8
HIDDEN
100
AcDbEllipse
 10
167.5802094298499
 20
-80.70237547586584
 30
0.0
 11
-158.5705207508258
 21
76.36353808469028
 31
0.0
210
0.0
220
0.0
230
1.0
 40
0.7071067811865476
 41
2.753106425406945
 42
3.141592653589793
1001
DBPROPERTIES
1002
{
1000
PbHidd
1002
}
  0
ELLIPSE
  5
33F
330
1F
100
AcDbEntity
  8
THICK
100
AcDbEllipse
 10
167.5802094298499
 20
-80.70237547586584
 30
0.0
 11
-158.5705207508258
 21
76.36353808469028
 31
0.0
210
0.0
220
0.0
230
1.0
 40
0.7071067811865476
 41
3.141592653589793
 42
3.530078881772641
1001
DBPROPERTIES
1002
{
1000
PbThick
1002
}
  0
LINE
  5
340
330
1F
100
AcDbEntity
  8
THICK
100
AcDbLine
 10
30.29693932656762
 20
-350.9422509432636
 30
0.0
 11
-19.70505256662035
 21
-131.8692105122514
 31
0.0
1001
DBPROPERTIES
1002
{
1000
PbThick
1002
}
  0
ELLIPSE
  5
341
330
1F
100
AcDbEntity
  8
THICK
100
AcDbEllipse
 10
40.01013744013083
 20
-181.6512837885321
 30
0.0
 11
39.16368437631131
 21
-171.5873125440009
 31
0.0
210
0.0
220
0.0
230
1.0
 40
0.7071067811865476
 41
0.0
 42
0.3884862281828486
1001
DBPROPERTIES
1002
{
1000
PbThick
1002
}
  0
ELLIPSE
  5
342
330
1F
100
AcDbEntity
  8
THICK
100
AcDbEllipse
 10
40.01013744013083
 20
-181.6512837885321
 30
0.0
 11
39.16368437631131
 21
-171.5873125440009
 31
0.0
210
0.0
220
0.0
230
1.0
 40
0.7071067811865476
 41
-0.3884862281828486
 42
0.0
1001
DBPROPERTIES
1002
{
1000
PbThick
1002
}
  0
LINE
  5
343
330
1F
100
AcDbEntity
  8
THICK
100
AcDbLine
 10
72.44993484710135
 20
-111.9320540257728
 30
0.0
 11
122.2140243761424
 21
-329.9627760957337
 31
0.0
1001
DBPROPERTIES
1002
{
1000
PbThick
1002
}
  0
LINE
  5
344
330
1F
100
AcDbEntity
  8
HIDDEN
100
AcDbLine
 10
-18.20530598313806
 20
-132.0846115633387
 30
0.0
 11
31.67569560231124
 21
-350.6275588205506
 31
0.0
1001
DBPROPERTIES
1002
{
1000
PbHidd
1002
}
  0
LINE
  5
345
330
1F
100
AcDbEntity
  8
HIDDEN
100
AcDbLine
 10
31.67569560231129
 20
-350.6275588205508
 30
0.0
 11
30.29693932656767
 21
-350.9422509432637
 31
0.0
1001
DBPROPERTIES
1002
{
1000
PbHidd
1002
}
  0
LINE
  5
346
330
1F
100
AcDbEntity
  8
THICK
100
AcDbLine
 10
73.71177906643666
 20
-111.1051367158089
 30
0.0
 11
123.592780651886
 21
-329.6480839730208
 31
0.0
1001
DBPROPERTIES
1002
{
1000
PbThick
1002
}
  0
LINE
  5
347
330
1F
100
AcDbEntity
  8
THICK
100
AcDbLine
 10
123.592780651886
 20
-329.648083973021
 30
0.0
 11
122.2140243761424
 21
-329.9627760957339
 31
0.0
1001
DBPROPERTIES
1002
{
1000
PbThick
1002
}
  0
ELLIPSE
  5
348
330
1F
100
AcDbEntity
  8
HIDDEN
100
AcDbEllipse
 10
41.38889371587445
 20
-181.3365916658192
 30
0.0
 11
-39.16368437631131
 21
171.5873125440009
 31
0.0
210
0.0
220
0.0
230
1.0
 40
0.7071067811865476
 41
2.753106425406945
 42
3.141592653589793
1001
DBPROPERTIES
1002
{
1000
PbHidd
1002
}
  0
ELLIPSE
  5
349
330
1F
100
AcDbEntity
  8
THICK
100
AcDbEllipse
 10
41.38889371587445
 20
-181.3365916658192
 30
0.0
 11
-39.16368437631131
 21
171.5873125440009
 31
0.0
210
0.0
220
0.0
230
1.0
 40
0.7071067811865476
 41
3.141592653589793
 42
3.530078881772642
1001
DBPROPERTIES
1002
{
1000
PbThick
1002
}
  0
LINE
  5
34A
330
1F
100
AcDbEntity
  8
THICK
100
AcDbLine
 10
-42.34020821216424
 20
-126.4321341523916
 30
0.0
 11
-181.7760885515549
 21
-301.2791977450702
 31
0.0
1001
DBPROPERTIES
1002
{
1000
PbThick
1002
}
  0
LINE
  5
34B
330
1F
100
AcDbEntity
  8
THICK
100
AcDbLine
 10
-255.4878676179915
 20
-242.4960154924078
 30
0.0
 11
-115.3853996670603
 21
-66.81307747328009
 31
0.0
1001
DBPROPERTIES
1002
{
1000
PbThick
1002
}
  0
ELLIPSE
  5
34C
330
1F
100
AcDbEntity
  8
THICK
100
AcDbEllipse
 10
-117.074779831721
 20
-144.5389080052636
 30
0.0
 11
-109.7342051271371
 21
-137.6023409143732
 31
0.0
210
0.0
220
0.0
230
1.0
 40
0.7071067811865476
 41
0.0
 42
0.3884862281828484
1001
DBPROPERTIES
1002
{
1000
PbThick
1002
}
  0
ELLIPSE
  5
34D
330
1F
100
AcDbEntity
  8
THICK
100
AcDbEllipse
 10
-117.074779831721
 20
-144.5389080052636
 30
0.0
 11
-109.7342051271371
 21
-137.6023409143732
 31
0.0
210
0.0
220
0.0
230
1.0
 40
0.7071067811865476
 41
-0.3884862281828484
 42
0.0
1001
DBPROPERTIES
1002
{
1000
PbThick
1002
}
  0
LINE
  5
34E
330
1F
100
AcDbEntity
  8
HIDDEN
100
AcDbLine
 10
-114.6187302899834
 20
-68.119926926633
 30
0.0
 11
-254.382190931995
 21
-243.3777632261978
 31
0.0
1001
DBPROPERTIES
1002
{
1000
PbHidd
1002
}
  0
LINE
  5
34F
330
1F
100
AcDbEntity
  8
HIDDEN
100
AcDbLine
 10
-254.382190931995
 20
-243.3777632261978
 30
0.0
 11
-255.4878676179916
 21
-242.4960154924078
 31
0.0
1001
DBPROPERTIES
1002
{
1000
PbHidd
1002
}
  0
LINE
  5
350
330
1F
100
AcDbEntity
  8
THICK
100
AcDbLine
 10
-40.90695122354671
 20
-126.9031091792953
 30
0.0
 11
-180.6704118655583
 21
-302.1609454788601
 31
0.0
1001
DBPROPERTIES
1002
{
1000
PbThick
1002
}
  0
LINE
  5
351
330
1F
100
AcDbEntity
  8
THICK
100
AcDbLine
 10
-180.6704118655583
 20
-302.1609454788601
 30
0.0
 11
-181.7760885515549
 21
-301.2791977450702
 31
0.0
1001
DBPROPERTIES
1002
{
1000
PbThick
1002
}
  0
ELLIPSE
  5
352
330
1F
100
AcDbEntity
  8
HIDDEN
100
AcDbEllipse
 10
-115.9691031457245
 20
-145.4206557390535
 30
0.0
 11
109.7342051271371
 21
137.6023409143732
 31
0.0
210
0.0
220
0.0
230
1.0
 40
0.7071067811865476
 41
2.753106425406945
 42
3.141592653589793
1001
DBPROPERTIES
1002
{
1000
PbHidd
1002
}
  0
ELLIPSE
  5
353
330
1F
100
AcDbEntity
  8
THICK
100
AcDbEllipse
 10
-115.9691031457245
 20
-145.4206557390535
 30
0.0
 11
109.7342051271371
 21
137.6023409143732
 31
0.0
210
0.0
220
0.0
230
1.0
 40
0.7071067811865476
 41
-3.141592653589793
 42
-2.753106425406945
1001
DBPROPERTIES
1002
{
1000
PbThick
1002
}
  0
LINE
  5
354
330
1F
100
AcDbEntity
  8
THICK
100
AcDbLine
 10
-125.247310904821
 20
-45.72623851673007
 30
0.0
 11
-348.8850992434715
 21
-45.72623851673006
 31
0.0
1001
DBPROPERTIES
1002
{
1000
PbThick
1002
}
  0
LINE
  5
355
330
1F
100
AcDbEntity
  8
THICK
100
AcDbLine
 10
-348.8850992434715
 20
48.5546656414763
 30
0.0
 11
-124.1781873849922
 21
48.55466564147628
 31
0.0
1001
DBPROPERTIES
1002
{
1000
PbThick
1002
}
  0
ELLIPSE
  5
356
330
1F
100
AcDbEntity
  8
THICK
100
AcDbEllipse
 10
-186.0
 20
1.414213562373114
 30
0.0
 11
-176.0
 21
1.077653591363692E-14
 31
0.0
210
0.0
220
0.0
230
1.0
 40
0.7071067811865476
 41
0.0
 42
0.3884862281828484
1001
DBPROPERTIES
1002
{
1000
PbThick
1002
}
  0
ELLIPSE
  5
357
330
1F
100
AcDbEntity
  8
THICK
100
AcDbEllipse
 10
-186.0
 20
1.414213562373114
 30
0.0
 11
-176.0
 21
1.077653591363692E-14
 31
0.0
210
0.0
220
0.0
230
1.0
 40
0.7071067811865476
 41
-0.3884862281828484
 42
0.0
1001
DBPROPERTIES
1002
{
1000
PbThick
1002
}
  0
LINE
  5
358
330
1F
100
AcDbEntity
  8
HIDDEN
100
AcDbLine
 10
-124.7219128924647
 20
47.14045207910318
 30
0.0
 11
-348.8850992434715
 21
47.14045207910321
 31
0.0
1001
DBPROPERTIES
1002
{
1000
PbHidd
1002
}
  0
LINE
  5
359
330
1F
100
AcDbEntity
  8
HIDDEN
100
AcDbLine
 10
-348.8850992434715
 20
47.14045207910321
 30
0.0
 11
-348.8850992434715
 21
48.5546656414763
 31
0.0
1001
DBPROPERTIES
1002
{
1000
PbHidd
1002
}
  0
LINE
  5
35A
330
1F
100
AcDbEntity
  8
THICK
100
AcDbLine
 10
-124.7219128924647
 20
-47.14045207910316
 30
0.0
 11
-348.8850992434715
 21
-47.14045207910316
 31
0.0
1001
DBPROPERTIES
1002
{
1000
PbThick
1002
}
  0
LINE
  5
35B
330
1F
100
AcDbEntity
  8
THICK
100
AcDbLine
 10
-348.8850992434715
 20
-47.14045207910315
 30
0.0
 11
-348.8850992434715
 21
-45.72623851673006
 31
0.0
1001
DBPROPERTIES
1002
{
1000
PbThick
1002
}
  0
ELLIPSE
  5
35C
330
1F
100
AcDbEntity
  8
HIDDEN
100
AcDbEllipse
 10
-186.0
 20
0.000000000000019
 30
0.0
 11
176.0
 21
-1.077653591363692E-14
 31
0.0
210
0.0
220
0.0
230
1.0
 40
0.7071067811865476
 41
2.753106425406945
 42
3.141592653589793
1001
DBPROPERTIES
1002
{
1000
PbHidd
1002
}
  0
ELLIPSE
  5
35D
330
1F
100
AcDbEntity
  8
THICK
100
AcDbEllipse
 10
-186.0
 20
0.000000000000019
 30
0.0
 11
176.0
 21
-1.077653591363692E-14
 31
0.0
210
0.0
220
0.0
230
1.0
 40
0.7071067811865476
 41
3.141592653589793
 42
3.530078881772642
1001
DBPROPERTIES
1002
{
1000
PbThick
1002
}
  0
ARC
  5
35E
330
1F
100
AcDbEntity
  8
THICK
100
AcDbCircle
 10
0.0
 20
0.0
 30
0.0
 40
122.3333333333333
100
AcDbArc
 50
180.0000198478428
 51
0.0
1001
DBPROPERTIES
1002
{
1000
PbThick
1002
}
  0
ARC
  5
35F
330
1F
100
AcDbEntity
  8
THICK
100
AcDbCircle
 10
0.0000000000000007
 20
0.0
 30
0.0
 40
133.3333333333333
100
AcDbArc
 50
180.0000198478428
 51
270.0000187239684
1001
DBPROPERTIES
1002
{
1000
PbThick
1002
}
  0
LINE
  5
360
330
1F
100
AcDbEntity
  8
HIDDEN
100
AcDbLine
 10
-364.6666666666667
 20
-164.3722063556434
 30
0.0
 11
-364.6666666666667
 21
-164.3722063556434
 31
0.0
1001
DBPROPERTIES
1002
{
1000
PbHidd
1002
}
  0
LINE
  5
361
330
1F
100
AcDbEntity
  8
THICK
100
AcDbLine
 10
-364.6666666666667
 20
-161.3333333333333
 30
0.0
 11
-364.6666666666667
 21
-164.3722063556434
 31
0.0
1001
DBPROPERTIES
1002
{
1000
PbThick
1002
}
  0
LINE
  5
362
330
1F
100
AcDbEntity
  8
HIDDEN
100
AcDbLine
 10
-364.6666666666667
 20
-161.3333333333333
 30
0.0
 11
-364.6666666666667
 21
-161.3333333333333
 31
0.0
1001
DBPROPERTIES
1002
{
1000
PbHidd
1002
}
  0
LINE
  5
363
330
1F
100
AcDbEntity
  8
THICK
100
AcDbLine
 10
364.6666666666667
 20
-164.3722063556434
 30
0.0
 11
364.6666666666667
 21
-161.3333333333334
 31
0.0
1001
DBPROPERTIES
1002
{
1000
PbThick
1002
}
  0
LINE
  5
364
330
1F
100
AcDbEntity
  8
HIDDEN
100
AcDbLine
 10
364.6666666666667
 20
-161.3333333333334
 30
0.0
 11
364.6666666666667
 21
-161.3333333333334
 31
0.0
1001
DBPROPERTIES
1002
{
1000
PbHidd
1002
}
  0
LINE
  5
365
330
1F
100
AcDbEntity
  8
HIDDEN
100
AcDbLine
 10
-133.3333333333334
 20
-377.1236166328254
 30
0.0
 11
-133.3333333333334
 21
-377.1236166328254
 31
0.0
1001
DBPROPERTIES
1002
{
1000
PbHidd
1002
}
  0
LINE
  5
366
330
1F
100
AcDbEntity
  8
HIDDEN
100
AcDbLine
 10
-133.3333333333333
 20
-165.3333333333333
 30
0.0
 11
-133.3333333333333
 21
-242.8021264986254
 31
0.0
1001
DBPROPERTIES
1002
{
1000
PbHidd
1002
}
  0
LINE
  5
367
330
1F
100
AcDbEntity
  8
THICK
100
AcDbLine
 10
-133.3333333333333
 20
-242.8021264986254
 30
0.0
 11
-133.3333333333334
 21
-377.1236166328254
 31
0.0
1001
DBPROPERTIES
1002
{
1000
PbThick
1002
}
  0
LINE
  5
368
330
1F
100
AcDbEntity
  8
HIDDEN
100
AcDbLine
 10
-133.3333333333333
 20
-165.3333333333333
 30
0.0
 11
-133.3333333333333
 21
-165.3333333333333
 31
0.0
1001
DBPROPERTIES
1002
{
1000
PbHidd
1002
}
  0
LINE
  5
369
330
1F
100
AcDbEntity
  8
THICK
100
AcDbLine
 10
129.3333333333333
 20
-135.3333333333333
 30
0.0
 11
129.3333333333333
 21
-378.5140537534754
 31
0.0
1001
DBPROPERTIES
1002
{
1000
PbThick
1002
}
  0
LINE
  5
36A
330
1F
100
AcDbEntity
  8
HIDDEN
100
AcDbLine
 10
129.3333333333333
 20
-135.3333333333333
 30
0.0
 11
129.3333333333333
 21
-135.3333333333333
 31
0.0
1001
DBPROPERTIES
1002
{
1000
PbHidd
1002
}
  0
LINE
  5
36B
330
1F
100
AcDbEntity
  8
THICK
100
AcDbLine
 10
-364.2319163512292
 20
-165.3333333333333
 30
0.0
 11
-193.9526819813386
 21
-165.3333333333333
 31
0.0
1001
DBPROPERTIES
1002
{
1000
PbThick
1002
}
  0
LINE
  5
36C
330
1F
100
AcDbEntity
  8
HIDDEN
100
AcDbLine
 10
-193.9526819813386
 20
-165.3333333333333
 30
0.0
 11
-133.3333333333333
 21
-165.3333333333333
 31
0.0
1001
DBPROPERTIES
1002
{
1000
PbHidd
1002
}
  0
LINE
  5
36D
330
1F
100
AcDbEntity
  8
HIDDEN
100
AcDbLine
 10
-364.2319163512292
 20
-165.3333333333333
 30
0.0
 11
-364.2319163512292
 21
-165.3333333333333
 31
0.0
1001
DBPROPERTIES
1002
{
1000
PbHidd
1002
}
  0
LINE
  5
36E
330
1F
100
AcDbEntity
  8
HIDDEN
100
AcDbLine
 10
-133.3333333333333
 20
-161.3333333333333
 30
0.0
 11
-190.762788425809
 21
-161.3333333333333
 31
0.0
1001
DBPROPERTIES
1002
{
1000
PbHidd
1002
}
  0
LINE
  5
36F
330
1F
100
AcDbEntity
  8
THICK
100
AcDbLine
 10
-190.762788425809
 20
-161.3333333333333
 30
0.0
 11
-364.6666666666667
 21
-161.3333333333333
 31
0.0
1001
DBPROPERTIES
1002
{
1000
PbThick
1002
}
  0
LINE
  5
370
330
1F
100
AcDbEntity
  8
HIDDEN
100
AcDbLine
 10
-133.3333333333333
 20
-161.3333333333333
 30
0.0
 11
-133.3333333333333
 21
-161.3333333333333
 31
0.0
1001
DBPROPERTIES
1002
{
1000
PbHidd
1002
}
  0
LINE
  5
371
330
1F
100
AcDbEntity
  8
HIDDEN
100
AcDbLine
 10
-133.3333333333333
 20
-131.3333333333333
 30
0.0
 11
-133.3333333333333
 21
-161.3333333333333
 31
0.0
1001
DBPROPERTIES
1002
{
1000
PbHidd
1002
}
  0
LINE
  5
372
330
1F
100
AcDbEntity
  8
HIDDEN
100
AcDbLine
 10
-133.3333333333333
 20
-131.3333333333333
 30
0.0
 11
-133.3333333333333
 21
-131.3333333333333
 31
0.0
1001
DBPROPERTIES
1002
{
1000
PbHidd
1002
}
  0
LINE
  5
373
330
1F
100
AcDbEntity
  8
THICK
100
AcDbLine
 10
133.3333333333333
 20
-165.3333333333334
 30
0.0
 11
231.4111165414892
 21
-165.3333333333334
 31
0.0
1001
DBPROPERTIES
1002
{
1000
PbThick
1002
}
  0
LINE
  5
374
330
1F
100
AcDbEntity
  8
HIDDEN
100
AcDbLine
 10
231.4111165414892
 20
-165.3333333333334
 30
0.0
 11
321.7719363234108
 21
-165.3333333333334
 31
0.0
1001
DBPROPERTIES
1002
{
1000
PbHidd
1002
}
  0
LINE
  5
375
330
1F
100
AcDbEntity
  8
THICK
100
AcDbLine
 10
321.7719363234108
 20
-165.3333333333334
 30
0.0
 11
364.2319163512292
 21
-165.3333333333334
 31
0.0
1001
DBPROPERTIES
1002
{
1000
PbThick
1002
}
  0
LINE
  5
376
330
1F
100
AcDbEntity
  8
HIDDEN
100
AcDbLine
 10
133.3333333333333
 20
-165.3333333333333
 30
0.0
 11
133.3333333333333
 21
-165.3333333333333
 31
0.0
1001
DBPROPERTIES
1002
{
1000
PbHidd
1002
}
  0
LINE
  5
377
330
1F
100
AcDbEntity
  8
HIDDEN
100
AcDbLine
 10
133.3333333333333
 20
-161.3333333333333
 30
0.0
 11
133.3333333333333
 21
-161.3333333333333
 31
0.0
1001
DBPROPERTIES
1002
{
1000
PbHidd
1002
}
  0
LINE
  5
378
330
1F
100
AcDbEntity
  8
THICK
100
AcDbLine
 10
364.6666666666667
 20
-161.3333333333334
 30
0.0
 11
324.0247351016697
 21
-161.3333333333334
 31
0.0
1001
DBPROPERTIES
1002
{
1000
PbThick
1002
}
  0
LINE
  5
379
330
1F
100
AcDbEntity
  8
HIDDEN
100
AcDbLine
 10
324.0247351016697
 20
-161.3333333333334
 30
0.0
 11
223.1050309551999
 21
-161.3333333333334
 31
0.0
1001
DBPROPERTIES
1002
{
1000
PbHidd
1002
}
  0
LINE
  5
37A
330
1F
100
AcDbEntity
  8
THICK
100
AcDbLine
 10
223.1050309551999
 20
-161.3333333333334
 30
0.0
 11
133.3333333333333
 21
-161.3333333333334
 31
0.0
1001
DBPROPERTIES
1002
{
1000
PbThick
1002
}
  0
LINE
  5
37B
330
1F
100
AcDbEntity
  8
THICK
100
AcDbLine
 10
-129.3333333333334
 20
-378.5140537534754
 30
0.0
 11
-129.3333333333334
 21
-237.7862851479747
 31
0.0
1001
DBPROPERTIES
1002
{
1000
PbThick
1002
}
  0
LINE
  5
37C
330
1F
100
AcDbEntity
  8
HIDDEN
100
AcDbLine
 10
-129.3333333333334
 20
-237.7862851479747
 30
0.0
 11
-129.3333333333334
 21
-135.3333333333333
 31
0.0
1001
DBPROPERTIES
1002
{
1000
PbHidd
1002
}
  0
LINE
  5
37D
330
1F
100
AcDbEntity
  8
HIDDEN
100
AcDbLine
 10
-129.3333333333333
 20
-135.3333333333333
 30
0.0
 11
-47.62983064870573
 21
-135.3333333333333
 31
0.0
1001
DBPROPERTIES
1002
{
1000
PbHidd
1002
}
  0
LINE
  5
37E
330
1F
100
AcDbEntity
  8
THICK
100
AcDbLine
 10
-47.62983064870573
 20
-135.3333333333333
 30
0.0
 11
-18.9143891382224
 21
-135.3333333333333
 31
0.0
1001
DBPROPERTIES
1002
{
1000
PbThick
1002
}
  0
LINE
  5
37F
330
1F
100
AcDbEntity
  8
HIDDEN
100
AcDbLine
 10
-18.9143891382224
 20
-135.3333333333333
 30
0.0
 11
79.24170684062808
 21
-135.3333333333333
 31
0.0
1001
DBPROPERTIES
1002
{
1000
PbHidd
1002
}
  0
LINE
  5
380
330
1F
100
AcDbEntity
  8
THICK
100
AcDbLine
 10
79.24170684062808
 20
-135.3333333333333
 30
0.0
 11
129.3333333333333
 21
-135.3333333333333
 31
0.0
1001
DBPROPERTIES
1002
{
1000
PbThick
1002
}
  0
LINE
  5
381
330
1F
100
AcDbEntity
  8
THICK
100
AcDbLine
 10
133.3333333333333
 20
-377.1236166328254
 30
0.0
 11
133.3333333333333
 21
-165.3333333333333
 31
0.0
1001
DBPROPERTIES
1002
{
1000
PbThick
1002
}
  0
LINE
  5
382
330
1F
100
AcDbEntity
  8
THICK
100
AcDbLine
 10
133.3333333333333
 20
-161.3333333333333
 30
0.0
 11
133.3333333333333
 21
-131.3333333333333
 31
0.0
1001
DBPROPERTIES
1002
{
1000
PbThick
1002
}
  0
LINE
  5
383
330
1F
100
AcDbEntity
  8
THICK
100
AcDbLine
 10
133.3333333333333
 20
-131.3333333333333
 30
0.0
 11
78.3287329430675
 21
-131.3333333333333
 31
0.0
1001
DBPROPERTIES
1002
{
1000
PbThick
1002
}
  0
LINE
  5
384
330
1F
100
AcDbEntity
  8
HIDDEN
100
AcDbLine
 10
78.3287329430675
 20
-131.3333333333333
 30
0.0
 11
-23.00724523564973
 21
-131.3333333333333
 31
0.0
1001
DBPROPERTIES
1002
{
1000
PbHidd
1002
}
  0
LINE
  5
385
330
1F
100
AcDbEntity
  8
THICK
100
AcDbLine
 10
-23.00724523564973
 20
-131.3333333333333
 30
0.0
 11
-44.43993709317611
 21
-131.3333333333333
 31
0.0
1001
DBPROPERTIES
1002
{
1000
PbThick
1002
}
  0
LINE
  5
386
330
1F
100
AcDbEntity
  8
HIDDEN
100
AcDbLine
 10
-44.43993709317611
 20
-131.3333333333333
 30
0.0
 11
-133.3333333333333
 21
-131.3333333333333
 31
0.0
1001
DBPROPERTIES
1002
{
1000
PbHidd
1002
}
  0
LINE
  5
387
330
1F
100
AcDbEntity
  8
HIDDEN
100
AcDbLine
 10
133.3333333333333
 20
-131.3333333333333
 30
0.0
 11
133.3333333333333
 21
-131.3333333333333
 31
0.0
1001
DBPROPERTIES
1002
{
1000
PbHidd
1002
}
  0
LINE
  5
388
330
1F
100
AcDbEntity
  8
HIDDEN
100
AcDbLine
 10
-129.3333333333334
 20
-378.5140537534754
 30
0.0
 11
-129.3333333333334
 21
-378.5140537534754
 31
0.0
1001
DBPROPERTIES
1002
{
1000
PbHidd
1002
}
  0
LINE
  5
389
330
1F
100
AcDbEntity
  8
HIDDEN
100
AcDbLine
 10
-129.3333333333333
 20
-135.3333333333333
 30
0.0
 11
-129.3333333333333
 21
-135.3333333333333
 31
0.0
1001
DBPROPERTIES
1002
{
1000
PbHidd
1002
}
  0
ARC
  5
38A
330
1F
100
AcDbEntity
  8
HIDDEN
100
AcDbCircle
 10
0.0
 20
0.0
 30
0.0
 40
402.0
100
AcDbArc
 50
89.99998127603165
 51
270.0000187239684
1001
DBPROPERTIES
1002
{
1000
PbHidd
1002
}
  0
ARC
  5
38B
330
1F
100
AcDbEntity
  8
THICK
100
AcDbCircle
 10
0.0000000000000007
 20
0.0000000000000013
 30
0.0
 40
448.0
100
AcDbArc
 50
89.99998127603165
 51
180.0000198478428
1001
DBPROPERTIES
1002
{
1000
PbThick
1002
}
  0
ARC
  5
38C
330
1F
100
AcDbEntity
  8
HIDDEN
100
AcDbCircle
 10
0.0
 20
0.0
 30
0.0
 40
437.0
100
AcDbArc
 50
179.9999801521572
 51
0.0
1001
DBPROPERTIES
1002
{
1000
PbHidd
1002
}
  0
LINE
  5
38D
330
1F
100
AcDbEntity
  8
THICK
100
AcDbLine
 10
-224.5976267026138
 20
283.904748282277
 30
0.0
 11
-225.7033049068294
 21
283.0229993377478
 31
0.0
1001
DBPROPERTIES
1002
{
1000
PbThick
1002
}
  0
LINE
  5
38E
330
1F
100
AcDbEntity
  8
THICK
100
AcDbLine
 10
81.93133450547597
 20
352.609212055713
 30
0.0
 11
80.55258148062063
 21
352.9239034364319
 31
0.0
1001
DBPROPERTIES
1002
{
1000
PbThick
1002
}
  0
LINE
  5
38F
330
1F
100
AcDbEntity
  8
THICK
100
AcDbLine
 10
326.7643362196
 20
155.7917474916636
 30
0.0
 11
326.1507289555091
 21
157.0659161046406
 31
0.0
1001
DBPROPERTIES
1002
{
1000
PbThick
1002
}
  0
LINE
  5
390
330
1F
100
AcDbEntity
  8
THICK
100
AcDbLine
 10
325.5371275464134
 20
-158.3400725595947
 30
0.0
 11
326.1507289555091
 21
-157.0659161046406
 31
0.0
1001
DBPROPERTIES
1002
{
1000
PbThick
1002
}
  0
LINE
  5
391
330
1F
100
AcDbEntity
  8
THICK
100
AcDbLine
 10
79.1738215196846
 20
-353.238596400266
 30
0.0
 11
80.55258148062053
 21
-352.9239034364319
 31
0.0
1001
DBPROPERTIES
1002
{
1000
PbThick
1002
}
  0
LINE
  5
392
330
1F
100
AcDbEntity
  8
THICK
100
AcDbLine
 10
-226.8089905491547
 20
-282.141244461524
 30
0.0
 11
-225.7033049068295
 21
-283.0229993377477
 31
0.0
1001
DBPROPERTIES
1002
{
1000
PbThick
1002
}
  0
LINE
  5
393
330
1F
100
AcDbEntity
  8
THICK
100
AcDbLine
 10
-362.0
 20
1.414214313030271
 30
0.0
 11
-362.0
 21
0.0000000000000298
 31
0.0
1001
DBPROPERTIES
1002
{
1000
PbThick
1002
}
  0
ENDSEC
  0
SECTION
  2
OBJECTS
  0
DICTIONARY
  5
C
330
0
100
AcDbDictionary
  3
ACAD_GROUP
350
D
  3
ACAD_LAYOUT
350
1A
  3
ACAD_MATERIAL
350
43
  3
ACAD_MLEADERSTYLE
350
6B
  3
ACAD_MLINESTYLE
350
17
  3
ACAD_PLOTSETTINGS
350
19
  3
ACAD_SCALELIST
350
47
  3
ACAD_VISUALSTYLE
350
2A
  3
ACDBVARIABLEDICTIONARY
350
394
1001
ACAD
1000
TREAT_AS_HARD
1070
     0
  0
DICTIONARY
  5
D
102
{ACAD_REACTORS
330
C
102
}
330
C
100
AcDbDictionary
1001
ACAD
1000
TREAT_AS_HARD
1070
     0
  0
DICTIONARY
  5
1A
102
{ACAD_REACTORS
330
C
102
}
330
C
100
AcDbDictionary
1001
ACAD
1000
TREAT_AS_HARD
1070
     0
  0
DICTIONARY
  5
43
102
{ACAD_REACTORS
330
C
102
}
330
C
100
AcDbDictionary
  3
BYBLOCK
350
45
  3
BYLAYER
350
44
  3
GLOBAL
350
46
1001
ACAD
1000
TREAT_AS_HARD
1070
     0
  0
DICTIONARY
  5
6B
102
{ACAD_REACTORS
330
C
102
}
330
C
100
AcDbDictionary
  3
STANDARD
350
6C
1001
ACAD
1000
TREAT_AS_HARD
1070
     0
  0
DICTIONARY
  5
17
102
{ACAD_REACTORS
330
C
102
}
330
C
100
AcDbDictionary
  3
STANDARD
350
18
1001
ACAD
1000
TREAT_AS_HARD
1070
     0
  0
DICTIONARY
  5
19
102
{ACAD_REACTORS
330
C
102
}
330
C
100
AcDbDictionary
1001
ACAD
1000
TREAT_AS_HARD
1070
     0
  0
DICTIONARY
  5
47
102
{ACAD_REACTORS
330
C
102
}
330
C
100
AcDbDictionary
  3
A0
350
48
  3
A1
350
49
  3
A2
350
4A
  3
A3
350
4B
  3
A4
350
4C
  3
A5
350
4D
  3
A6
350
4E
  3
A7
350
4F
  3
A8
350
50
  3
A9
350
51
  3
B0
350
52
  3
B1
350
53
  3
B2
350
54
  3
B3
350
55
  3
B4
350
56
  3
B5
350
57
  3
B6
350
58
  3
B7
350
59
  3
B8
350
5A
  3
B9
350
5B
  3
C0
350
5C
  3
C1
350
5D
  3
C2
350
5E
  3
C3
350
5F
  3
C4
350
60
  3
C5
350
61
  3
C6
350
62
  3
C7
350
63
  3
C8
350
64
  3
C9
350
65
  3
D0
350
66
  3
D1
350
67
  3
D2
350
68
1001
ACAD
1000
TREAT_AS_HARD
1070
     0
  0
DICTIONARY
  5
2A
102
{ACAD_REACTORS
330
C
102
}
330
C
100
AcDbDictionary
  3
2DWIREFRAME
350
2F
  3
BASIC
350
32
  3
BRIGHTEN
350
36
  3
COLORCHANGE
350
3A
  3
CONCEPTUAL
350
34
  3
DIM
350
35
  3
EDGECOLOROFF
350
3D
  3
FACEPATTERN
350
39
  3
FLAT
350
2B
  3
FLATWITHEDGES
350
2C
  3
GOURAUD
350
2D
  3
GOURAUDWITHEDGES
350
2E
  3
HIDDEN
350
31
  3
JITTEROFF
350
3B
  3
LINEPATTERN
350
38
  3
OVERHANGOFF
350
3C
  3
REALISTIC
350
33
  3
SHADED
350
42
  3
SHADED_WITH_EDGES
350
41
  3
SHADES_OF_GRAY
350
3E
  3
SKETCHY
350
3F
  3
THICKEN
350
37
  3
WIREFRAME
350
30
  3
X-RAY
350
40
1001
ACAD
1000
TREAT_AS_HARD
1070
     0
  0
DICTIONARY
  5
394
102
{ACAD_REACTORS
330
C
102
}
330
C
100
AcDbDictionary
  3
CANNOSCALE
350
39F
  3
CENTEREXE
350
39B
  3
CENTERLTYPEFILE
350
39C
  3
CMLEADERSTYLE
350
396
  3
CTABLESTYLE
350
395
  3
DIMASSOC
350
39D
  3
HIDETEXT
350
39E
  3
MSLTSCALE
350
3A0
  3
PSOLHEIGHT
350
398
  3
PSOLWIDTH
350
397
1001
ACAD
1000
TREAT_AS_HARD
1070
     0
  0
MATERIAL
  5
45
102
{ACAD_REACTORS
330
43
102
}
102
{ACAD_XDICTIONARY
360
3A3
102
}
330
43
100
AcDbMaterial
  1
BYBLOCK
  0
MATERIAL
  5
44
102
{ACAD_REACTORS
330
43
102
}
102
{ACAD_XDICTIONARY
360
3A1
102
}
330
43
100
AcDbMaterial
  1
BYLAYER
  0
MATERIAL
  5
46
102
{ACAD_REACTORS
330
43
102
}
102
{ACAD_XDICTIONARY
360
3A5
102
}
330
43
100
AcDbMaterial
  1
GLOBAL
  0
ACAD_PROXY_OBJECT
  5
6C
102
{ACAD_REACTORS
330
6B
102
}
330
6B
100
AcDbZombieObject
 90
      499
 91
      505
 93
      610
310
40901902A4063FBFFFFFE0000000000000020400000000000020404214DD185B99185C990000000000000104090141901A00000000000004100000000000000041025764000000000000039000
340
14
340
0
340
11
340
0
 94
        0
1001
ACAD_MLEADERVER
1070
     2
  0
MLINESTYLE
  5
18
102
{ACAD_REACTORS
330
17
102
}
330
17
100
AcDbMlineStyle
  2
Standard
 70
     0
  3

 62
   256
 51
90.0
 52
90.0
 71
     2
 49
0.5
 62
   256
  6
BYLAYER
 49
-0.5
 62
   256
  6
BYLAYER
  0
ACAD_PROXY_OBJECT
  5
48
102
{ACAD_REACTORS
330
47
102
}
330
47
100
AcDbZombieObject
 90
      499
 91
      503
 93
       41
310
903313A31580
  0
ACAD_PROXY_OBJECT
  5
49
102
{ACAD_REACTORS
330
47
102
}
330
47
100
AcDbZombieObject
 90
      499
 91
      503
 93
      105
310
903313A324000000000000004000
  0
ACAD_PROXY_OBJECT
  5
4A
102
{ACAD_REACTORS
330
47
102
}
330
47
100
AcDbZombieObject
 90
      499
 91
      503
 93
      105
310
903313A344000000000000104000
  0
ACAD_PROXY_OBJECT
  5
4B
102
{ACAD_REACTORS
330
47
102
}
330
47
100
AcDbZombieObject
 90
      499
 91
      503
 93
      105
310
903313A354000000000000144000
  0
ACAD_PROXY_OBJECT
  5
4C
102
{ACAD_REACTORS
330
47
102
}
330
47
100
AcDbZombieObject
 90
      499
 91
      503
 93
      105
310
903313A384000000000000204000
  0
ACAD_PROXY_OBJECT
  5
4D
102
{ACAD_REACTORS
330
47
102
}
330
47
100
AcDbZombieObject
 90
      499
 91
      503
 93
      113
310
904313A31304000000000000244000
  0
ACAD_PROXY_OBJECT
  5
4E
102
{ACAD_REACTORS
330
47
102
}
330
47
100
AcDbZombieObject
 90
      499
 91
      503
 93
      113
310
904313A31364000000000000304000
  0
ACAD_PROXY_OBJECT
  5
4F
102
{ACAD_REACTORS
330
47
102
}
330
47
100
AcDbZombieObject
 90
      499
 91
      503
 93
      113
310
904313A32304000000000000344000
  0
ACAD_PROXY_OBJECT
  5
50
102
{ACAD_REACTORS
330
47
102
}
330
47
100
AcDbZombieObject
 90
      499
 91
      503
 93
      113
310
904313A333040000000000003E4000
  0
ACAD_PROXY_OBJECT
  5
51
102
{ACAD_REACTORS
330
47
102
}
330
47
100
AcDbZombieObject
 90
      499
 91
      503
 93
      113
310
904313A34304000000000000444000
  0
ACAD_PROXY_OBJECT
  5
52
102
{ACAD_REACTORS
330
47
102
}
330
47
100
AcDbZombieObject
 90
      499
 91
      503
 93
      113
310
904313A35304000000000000494000
  0
ACAD_PROXY_OBJECT
  5
53
102
{ACAD_REACTORS
330
47
102
}
330
47
100
AcDbZombieObject
 90
      499
 91
      503
 93
      121
310
905313A3130304000000000000594000
  0
ACAD_PROXY_OBJECT
  5
54
102
{ACAD_REACTORS
330
47
102
}
330
47
100
AcDbZombieObject
 90
      499
 91
      503
 93
      105
310
903323A310000000000000010100
  0
ACAD_PROXY_OBJECT
  5
55
102
{ACAD_REACTORS
330
47
102
}
330
47
100
AcDbZombieObject
 90
      499
 91
      503
 93
      105
310
903343A310000000000000410100
  0
ACAD_PROXY_OBJECT
  5
56
102
{ACAD_REACTORS
330
47
102
}
330
47
100
AcDbZombieObject
 90
      499
 91
      503
 93
      105
310
903383A310000000000000810100
  0
ACAD_PROXY_OBJECT
  5
57
102
{ACAD_REACTORS
330
47
102
}
330
47
100
AcDbZombieObject
 90
      499
 91
      503
 93
      113
310
90431303A310000000000000910100
  0
ACAD_PROXY_OBJECT
  5
58
102
{ACAD_REACTORS
330
47
102
}
330
47
100
AcDbZombieObject
 90
      499
 91
      503
 93
      121
310
9053130303A310000000000001650100
  0
ACAD_PROXY_OBJECT
  5
59
102
{ACAD_REACTORS
330
47
102
}
330
47
100
AcDbZombieObject
 90
      499
 91
      503
 93
      257
310
90E312F31323822203D2031272D3022000000000000200FC000000000000284000
  0
ACAD_PROXY_OBJECT
  5
5A
102
{ACAD_REACTORS
330
47
102
}
330
47
100
AcDbZombieObject
 90
      499
 91
      503
 93
      249
310
90D312F363422203D2031272D3022000000000000240FC000000000000284000
  0
ACAD_PROXY_OBJECT
  5
5B
102
{ACAD_REACTORS
330
47
102
}
330
47
100
AcDbZombieObject
 90
      499
 91
      503
 93
      249
310
90D312F333222203D2031272D3022000000000000280FC000000000000284000
  0
ACAD_PROXY_OBJECT
  5
5C
102
{ACAD_REACTORS
330
47
102
}
330
47
100
AcDbZombieObject
 90
      499
 91
      503
 93
      249
310
90D312F313622203D2031272D30220000000000002C0FC000000000000284000
  0
ACAD_PROXY_OBJECT
  5
5D
102
{ACAD_REACTORS
330
47
102
}
330
47
100
AcDbZombieObject
 90
      499
 91
      503
 93
      249
310
90D332F333222203D2031272D30220000000000002E0FC000000000000284000
  0
ACAD_PROXY_OBJECT
  5
5E
102
{ACAD_REACTORS
330
47
102
}
330
47
100
AcDbZombieObject
 90
      499
 91
      503
 93
      241
310
90C312F3822203D2031272D3022000000000000300FC000000000000284000
  0
ACAD_PROXY_OBJECT
  5
5F
102
{ACAD_REACTORS
330
47
102
}
330
47
100
AcDbZombieObject
 90
      499
 91
      503
 93
      249
310
90D332F313622203D2031272D3022000000000000320FC000000000000284000
  0
ACAD_PROXY_OBJECT
  5
60
102
{ACAD_REACTORS
330
47
102
}
330
47
100
AcDbZombieObject
 90
      499
 91
      503
 93
      241
310
90C312F3422203D2031272D3022000000000000340FC000000000000284000
  0
ACAD_PROXY_OBJECT
  5
61
102
{ACAD_REACTORS
330
47
102
}
330
47
100
AcDbZombieObject
 90
      499
 91
      503
 93
      241
310
90C332F3822203D2031272D3022000000000000360FC000000000000284000
  0
ACAD_PROXY_OBJECT
  5
62
102
{ACAD_REACTORS
330
47
102
}
330
47
100
AcDbZombieObject
 90
      499
 91
      503
 93
      241
310
90C312F3222203D2031272D3022000000000000380FC000000000000284000
  0
ACAD_PROXY_OBJECT
  5
63
102
{ACAD_REACTORS
330
47
102
}
330
47
100
AcDbZombieObject
 90
      499
 91
      503
 93
      241
310
90C332F3422203D2031272D30220000000000003A0FC000000000000284000
  0
ACAD_PROXY_OBJECT
  5
64
102
{ACAD_REACTORS
330
47
102
}
330
47
100
AcDbZombieObject
 90
      499
 91
      503
 93
      161
310
90A3122203D2031272D30224000000000000284000
  0
ACAD_PROXY_OBJECT
  5
65
102
{ACAD_REACTORS
330
47
102
}
330
47
100
AcDbZombieObject
 90
      499
 91
      503
 93
      257
310
90E312D312F3222203D2031272D30220000000000003E0FC000000000000284000
  0
ACAD_PROXY_OBJECT
  5
66
102
{ACAD_REACTORS
330
47
102
}
330
47
100
AcDbZombieObject
 90
      499
 91
      503
 93
      225
310
90A3322203D2031272D302200000000000002100000000000000284000
  0
ACAD_PROXY_OBJECT
  5
67
102
{ACAD_REACTORS
330
47
102
}
330
47
100
AcDbZombieObject
 90
      499
 91
      503
 93
      225
310
90A3622203D2031272D302200000000000006100000000000000284000
  0
ACAD_PROXY_OBJECT
  5
68
102
{ACAD_REACTORS
330
47
102
}
330
47
100
AcDbZombieObject
 90
      499
 91
      503
 93
      249
310
90D31272D3022203D2031272D30220000000000000A100000000000000284000
  0
ACAD_PROXY_OBJECT
  5
2F
102
{ACAD_REACTORS
330
2A
102
}
330
2A
100
AcDbZombieObject
 90
      499
 91
      501
 93
      436
310
42CC9915DA5C99599C985B595049028333333333333E33F0000000000000F90107901411070040501600405405064090741402480A0340
1001
ACAD
1000
AcDbSavedByObjectVersion
1070
     0
  0
ACAD_PROXY_OBJECT
  5
32
102
{ACAD_REACTORS
330
2A
102
}
330
2A
100
AcDbZombieObject
 90
      499
 91
      501
 93
      388
310
4150985CDA58D07406404333333333333E33F0000000000000F90107A41107004050150841D405064090741402480A0350
1001
ACAD
1000
AcDbSavedByObjectVersion
1070
     0
  0
ACAD_PROXY_OBJECT
  5
36
102
{ACAD_REACTORS
330
2A
102
}
330
2A
100
AcDbZombieObject
 90
      499
 91
      501
 93
      428
310
42109C9A59DA1D195B90C409028333333333333E33F0000000000000F9010790141107004050150841D405064090741402480A029950
1001
ACAD
1000
AcDbSavedByObjectVersion
1070
     0
  0
ACAD_PROXY_OBJECT
  5
3A
102
{ACAD_REACTORS
330
2A
102
}
330
2A
100
AcDbZombieObject
 90
      499
 91
      501
 93
      452
310
42D0DBDB1BDC90DA185B99D95104090240C333333333333E33F0000000000000F90108901411070040501508421405064090741402480A0350
1001
ACAD
1000
AcDbSavedByObjectVersion
1070
     0
  0
ACAD_PROXY_OBJECT
  5
34
102
{ACAD_REACTORS
330
2A
102
}
330
2A
100
AcDbZombieObject
 90
      499
 91
      501
 93
      500
310
4290DBDB98D95C1D1D585B10940D028333333333333E33F0000000000000F90107902409070040501000000000018199010841D405064090740C02480A0340
1001
ACAD
1000
AcDbSavedByObjectVersion
1070
     0
  0
ACAD_PROXY_OBJECT
  5
35
102
{ACAD_REACTORS
330
2A
102
}
330
2A
100
AcDbZombieObject
 90
      499
 91
      501
 93
      412
310
40D11A5B50B409028333333333333E33F0000000000000F9010790141107004050150841D405064090741402480A02677FFFFFD0
1001
ACAD
1000
AcDbSavedByObjectVersion
1070
     0
  0
ACAD_PROXY_OBJECT
  5
3D
102
{ACAD_REACTORS
330
2A
102
}
330
2A
100
AcDbZombieObject
 90
      499
 91
      501
 93
      452
310
43115919D950DBDB1BDC93D999916409028333333333333E33F0000000000000F9010790141107004050150841D405064090741402480A0350
1001
ACAD
1000
AcDbSavedByObjectVersion
1070
     0
  0
ACAD_PROXY_OBJECT
  5
39
102
{ACAD_REACTORS
330
2A
102
}
330
2A
100
AcDbZombieObject
 90
      499
 91
      501
 93
      444
310
42D19858D95C185D1D195C9B90F409028333333333333E33F0000000000000F9010790141107004050150841D405064090741402480A0350
1001
ACAD
1000
AcDbSavedByObjectVersion
1070
     0
  0
ACAD_PROXY_OBJECT
  5
2B
102
{ACAD_REACTORS
330
2A
102
}
330
2A
100
AcDbZombieObject
 90
      499
 91
      501
 93
      380
310
41119B185D240901404333333333333E33F0000000000000F9010740A907004050150841D405064090741402480A1B50
1001
ACAD
1000
AcDbSavedByObjectVersion
1070
     0
  0
ACAD_PROXY_OBJECT
  5
2C
102
{ACAD_REACTORS
330
2A
102
}
330
2A
100
AcDbZombieObject
 90
      499
 91
      501
 93
      468
310
43519B185D15DA5D1A115919D95CD0140901404333333333333E33F0000000000000F90107409019070040501600405405064090741402480A1B50
1001
ACAD
1000
AcDbSavedByObjectVersion
1070
     0
  0
ACAD_PROXY_OBJECT
  5
2D
102
{ACAD_REACTORS
330
2A
102
}
330
2A
100
AcDbZombieObject
 90
      499
 91
      501
 93
      404
310
41D1DBDD5C985D5910240902404333333333333E33F0000000000000F9010740A9070040501641D405064090741402480A1B50
1001
ACAD
1000
AcDbSavedByObjectVersion
1070
     0
  0
ACAD_PROXY_OBJECT
  5
2E
102
{ACAD_REACTORS
330
2A
102
}
330
2A
100
AcDbZombieObject
 90
      499
 91
      501
 93
      492
310
4411DBDD5C985D5915DA5D1A115919D95CD0340902404333333333333E33F0000000000000F90107409019070040501600405405064090741402480A1B50
1001
ACAD
1000
AcDbSavedByObjectVersion
1070
     0
  0
ACAD_PROXY_OBJECT
  5
31
102
{ACAD_REACTORS
330
2A
102
}
330
2A
100
AcDbZombieObject
 90
      499
 91
      501
 93
      476
310
41921A5919195B90640502408333333333333E33F0000000000000F901079024090700405020000000000001110200405405064090740C02480A0340
1001
ACAD
1000
AcDbSavedByObjectVersion
1070
     0
  0
ACAD_PROXY_OBJECT
  5
3B
102
{ACAD_REACTORS
330
2A
102
}
330
2A
100
AcDbZombieObject
 90
      499
 91
      501
 93
      428
310
42529A5D1D195C93D999914409028333333333333E33F0000000000000F9010790141107004050150A41D405064090741402480A0350
1001
ACAD
1000
AcDbSavedByObjectVersion
1070
     0
  0
ACAD_PROXY_OBJECT
  5
38
102
{ACAD_REACTORS
330
2A
102
}
330
2A
100
AcDbZombieObject
 90
      499
 91
      501
 93
      444
310
42D31A5B995C185D1D195C9B90E409028333333333333E33F0000000000000F9010790141107004050750841D405064090741402483A0350
1001
ACAD
1000
AcDbSavedByObjectVersion
1070
     0
  0
ACAD_PROXY_OBJECT
  5
3C
102
{ACAD_REACTORS
330
2A
102
}
330
2A
100
AcDbZombieObject
 90
      499
 91
      501
 93
      444
310
42D3DD995C9A185B99D3D999915409028333333333333E33F0000000000000F9010790141107004050150941D405064090741402480A0350
1001
ACAD
1000
AcDbSavedByObjectVersion
1070
     0
  0
ACAD_PROXY_OBJECT
  5
33
102
{ACAD_REACTORS
330
2A
102
}
330
2A
100
AcDbZombieObject
 90
      499
 91
      501
 93
      428
310
425499585B1A5CDD1A58D08409038333333333333E33F0000000000000F9010740A907004050150800405405064090740C02480A1B40
1001
ACAD
1000
AcDbSavedByObjectVersion
1070
     0
  0
ACAD_PROXY_OBJECT
  5
42
102
{ACAD_REACTORS
330
2A
102
}
330
2A
100
AcDbZombieObject
 90
      499
 91
      501
 93
      420
310
4194DA1859195911B40902404333333333333E33F0000000000000F9010740A41107004050150800405405064090840C02480A0B40
1001
ACAD
1000
AcDbSavedByObjectVersion
1070
     0
  0
ACAD_PROXY_OBJECT
  5
41
102
{ACAD_REACTORS
330
2A
102
}
330
2A
100
AcDbZombieObject
 90
      499
 91
      501
 93
      516
310
4454DA18591959081DDA5D1A08195919D95CD1A40902404333333333333E33F0000000000000F901074090142907004050250800405405064090740C02480A0B40
1001
ACAD
1000
AcDbSavedByObjectVersion
1070
     0
  0
ACAD_PROXY_OBJECT
  5
3E
102
{ACAD_REACTORS
330
2A
102
}
330
2A
100
AcDbZombieObject
 90
      499
 91
      501
 93
      532
310
4394DA1859195CC81BD98811DC985E5174090240C333333333333E33F0000000000000F901079024090741D01000000000000111010841D405064090740C02480A0340
1001
ACAD
1000
AcDbSavedByObjectVersion
1070
     0
  0
ACAD_PROXY_OBJECT
  5
3F
102
{ACAD_REACTORS
330
2A
102
}
330
2A
100
AcDbZombieObject
 90
      499
 91
      501
 93
      476
310
41D4DAD95D18DA1E51840502408333333333333E33F0000000000000F901079024090741D01000000000000111010B41D405064090741802480A0340
1001
ACAD
1000
AcDbSavedByObjectVersion
1070
     0
  0
ACAD_PROXY_OBJECT
  5
37
102
{ACAD_REACTORS
330
2A
102
}
330
2A
100
AcDbZombieObject
 90
      499
 91
      501
 93
      412
310
41D51A1A58DAD95B90D409028333333333333E33F0000000000000F9010790141107004050150C41D405064090741402480A0350
1001
ACAD
1000
AcDbSavedByObjectVersion
1070
     0
  0
ACAD_PROXY_OBJECT
  5
30
102
{ACAD_REACTORS
330
2A
102
}
330
2A
100
AcDbZombieObject
 90
      499
 91
      501
 93
      420
310
4255DA5C99599C985B595059028333333333333E33F0000000000000F90107901411070040501600405405064090740C02480A0340
1001
ACAD
1000
AcDbSavedByObjectVersion
1070
     0
  0
ACAD_PROXY_OBJECT
  5
40
102
{ACAD_REACTORS
330
2A
102
}
330
2A
100
AcDbZombieObject
 90
      499
 91
      501
 93
      404
310
41560B54985E51940902404000000000000E03F0000000000000F9010740501907004050150841D405064090740C02480A1B40
1001
ACAD
1000
AcDbSavedByObjectVersion
1070
     0
  0
DICTIONARYVAR
  5
39F
102
{ACAD_REACTORS
330
394
102
}
330
394
100
DictionaryVariables
280
     0
  1
1:1
  0
DICTIONARYVAR
  5
39B
102
{ACAD_REACTORS
330
394
102
}
330
394
100
DictionaryVariables
280
     0
  1
3.500000
  0
DICTIONARYVAR
  5
39C
102
{ACAD_REACTORS
330
394
102
}
330
394
100
DictionaryVariables
280
     0
  1
acadiso.lin
  0
DICTIONARYVAR
  5
396
102
{ACAD_REACTORS
330
394
102
}
330
394
100
DictionaryVariables
280
     0
  1
Standard
  0
DICTIONARYVAR
  5
395
102
{ACAD_REACTORS
330
394
102
}
330
394
100
DictionaryVariables
280
     0
  1
Standard
  0
DICTIONARYVAR
  5
39D
102
{ACAD_REACTORS
330
394
102
}
330
394
100
DictionaryVariables
280
     0
  1
2
  0
DICTIONARYVAR
  5
39E
102
{ACAD_REACTORS
330
394
102
}
330
394
100
DictionaryVariables
280
     0
  1
1
  0
DICTIONARYVAR
  5
3A0
102
{ACAD_REACTORS
330
394
102
}
330
394
100
DictionaryVariables
280
     0
  1
1
  0
DICTIONARYVAR
  5
398
102
{ACAD_REACTORS
330
394
102
}
330
394
100
DictionaryVariables
280
     0
  1
80.000000
  0
DICTIONARYVAR
  5
397
102
{ACAD_REACTORS
330
394
102
}
330
394
100
DictionaryVariables
280
     0
  1
5.000000
  0
DICTIONARY
  5
3A3
330
45
100
AcDbDictionary
  3
ACAD_XREC_ROUNDTRIP
360
3A4
1001
ACAD
1000
TREAT_AS_HARD
1070
     1
  0
DICTIONARY
  5
3A1
330
44
100
AcDbDictionary
  3
ACAD_XREC_ROUNDTRIP
360
3A2
1001
ACAD
1000
TREAT_AS_HARD
1070
     1
  0
DICTIONARY
  5
3A5
330
46
100
AcDbDictionary
  3
ACAD_XREC_ROUNDTRIP
360
3A6
1001
ACAD
1000
TREAT_AS_HARD
1070
     1
  0
XRECORD
  5
3A4
102
{ACAD_REACTORS
330
3A3
102
}
330
3A3
100
AcDbXrecord
102
MATERIAL
148
0.0
149
0.0
149
0.0
 93
        0
 94
      127
282
     0
 72
     1
 77
     1
171
     1
175
     1
179
     1
273
     0
  0
XRECORD
  5
3A2
102
{ACAD_REACTORS
330
3A1
102
}
330
3A1
100
AcDbXrecord
102
MATERIAL
148
0.0
149
0.0
149
0.0
 93
        0
 94
      127
282
     0
 72
     1
 77
     1
171
     1
175
     1
179
     1
273
     0
  0
XRECORD
  5
3A6
102
{ACAD_REACTORS
330
3A5
102
}
330
3A5
100
AcDbXrecord
102
MATERIAL
148
0.0
149
0.0
149
0.0
 93
        0
 94
      127
282
     0
 72
     1
 77
     1
171
     1
175
     1
179
     1
273
     0
  0
ENDSEC
  0
EOF
