  0
SECTION
  2
HEADER
  9
$ACADVER
  1
AC1012
  9
$DWGCODEPAGE
  3
ansi_1252
  9
$INSBASE
 10
0.0
 20
0.0
 30
0.0
  9
$EXTMIN
 10
1.000000000000000E+20
 20
1.000000000000000E+20
 30
1.000000000000000E+20
  9
$EXTMAX
 10
-1.000000000000000E+20
 20
-1.000000000000000E+20
 30
-1.000000000000000E+20
  9
$LIMMIN
 10
0.0
 20
0.0
  9
$LIMMAX
 10
420.0
 20
297.0
  9
$ORTHOMODE
 70
     0
  9
$REGENMODE
 70
     1
  9
$FILLMODE
 70
     1
  9
$QTEXTMODE
 70
     0
  9
$MIRRTEXT
 70
     1
  9
$DRAGMODE
 70
     2
  9
$LTSCALE
 40
1.0
  9
$OSMODE
 70
    37
  9
$ATTMODE
 70
     1
  9
$TEXTSIZE
 40
2.5
  9
$TRACEWID
 40
1.0
  9
$TEXTSTYLE
  7
STANDARD
  9
$CLAYER
  8
0
  9
$CELTYPE
  6
BYLAYER
  9
$CECOLOR
 62
   256
  9
$CELTSCALE
 40
1.0
  9
$DELOBJ
 70
     1
  9
$DISPSILH
 70
     0
  9
$DIMSCALE
 40
1.0
  9
$DIMASZ
 40
2.5
  9
$DIMEXO
 40
0.625
  9
$DIMDLI
 40
3.75
  9
$DIMRND
 40
0.0
  9
$DIMDLE
 40
0.0
  9
$DIMEXE
 40
1.25
  9
$DIMTP
 40
0.0
  9
$DIMTM
 40
0.0
  9
$DIMTXT
 40
2.5
  9
$DIMCEN
 40
2.5
  9
$DIMTSZ
 40
0.0
  9
$DIMTOL
 70
     0
  9
$DIMLIM
 70
     0
  9
$DIMTIH
 70
     0
  9
$DIMTOH
 70
     0
  9
$DIMSE1
 70
     0
  9
$DIMSE2
 70
     0
  9
$DIMTAD
 70
     1
  9
$DIMZIN
 70
     8
  9
$DIMBLK
  1

  9
$DIMASO
 70
     1
  9
$DIMSHO
 70
     1
  9
$DIMPOST
  1

  9
$DIMAPOST
  1

  9
$DIMALT
 70
     0
  9
$DIMALTD
 70
     3
  9
$DIMALTF
 40
0.03937007874016
  9
$DIMLFAC
 40
1.0
  9
$DIMTOFL
 70
     1
  9
$DIMTVP
 40
0.0
  9
$DIMTIX
 70
     0
  9
$DIMSOXD
 70
     0
  9
$DIMSAH
 70
     0
  9
$DIMBLK1
  1

  9
$DIMBLK2
  1

  9
$DIMSTYLE
  2
ISO-25
  9
$DIMCLRD
 70
     0
  9
$DIMCLRE
 70
     0
  9
$DIMCLRT
 70
     0
  9
$DIMTFAC
 40
1.0
  9
$DIMGAP
 40
0.625
  9
$DIMJUST
 70
     0
  9
$DIMSD1
 70
     0
  9
$DIMSD2
 70
     0
  9
$DIMTOLJ
 70
     0
  9
$DIMTZIN
 70
     8
  9
$DIMALTZ
 70
     0
  9
$DIMALTTZ
 70
     0
  9
$DIMFIT
 70
     3
  9
$DIMUPT
 70
     0
  9
$DIMUNIT
 70
     2
  9
$DIMDEC
 70
     2
  9
$DIMTDEC
 70
     2
  9
$DIMALTU
 70
     2
  9
$DIMALTTD
 70
     3
  9
$DIMTXSTY
  7
STANDARD
  9
$DIMAUNIT
 70
     0
  9
$LUNITS
 70
     2
  9
$LUPREC
 70
     4
  9
$SKETCHINC
 40
1.0
  9
$FILLETRAD
 40
10.0
  9
$AUNITS
 70
     0
  9
$AUPREC
 70
     0
  9
$MENU
  1
.
  9
$ELEVATION
 40
0.0
  9
$PELEVATION
 40
0.0
  9
$THICKNESS
 40
0.0
  9
$LIMCHECK
 70
     0
  9
$CHAMFERA
 40
0.0
  9
$CHAMFERB
 40
0.0
  9
$CHAMFERC
 40
0.0
  9
$CHAMFERD
 40
0.0
  9
$SKPOLY
 70
     0
  9
$TDCREATE
 40
2457980.606467535
  9
$TDUPDATE
 40
2457980.606470787
  9
$TDINDWG
 40
0.0000000116
  9
$TDUSRTIMER
 40
0.0000000116
  9
$USRTIMER
 70
     1
  9
$ANGBASE
 50
0.0
  9
$ANGDIR
 70
     0
  9
$PDMODE
 70
     0
  9
$PDSIZE
 40
0.0
  9
$PLINEWID
 40
0.0
  9
$COORDS
 70
     1
  9
$SPLFRAME
 70
     0
  9
$SPLINETYPE
 70
     6
  9
$SPLINESEGS
 70
     8
  9
$ATTDIA
 70
     0
  9
$ATTREQ
 70
     1
  9
$HANDLING
 70
     1
  9
$HANDSEED
  5
508
  9
$SURFTAB1
 70
     6
  9
$SURFTAB2
 70
     6
  9
$SURFTYPE
 70
     6
  9
$SURFU
 70
     6
  9
$SURFV
 70
     6
  9
$UCSNAME
  2

  9
$UCSORG
 10
0.0
 20
0.0
 30
0.0
  9
$UCSXDIR
 10
1.0
 20
0.0
 30
0.0
  9
$UCSYDIR
 10
0.0
 20
1.0
 30
0.0
  9
$PUCSNAME
  2

  9
$PUCSORG
 10
0.0
 20
0.0
 30
0.0
  9
$PUCSXDIR
 10
1.0
 20
0.0
 30
0.0
  9
$PUCSYDIR
 10
0.0
 20
1.0
 30
0.0
  9
$USERI1
 70
     0
  9
$USERI2
 70
     0
  9
$USERI3
 70
     0
  9
$USERI4
 70
     0
  9
$USERI5
 70
     0
  9
$USERR1
 40
0.0
  9
$USERR2
 40
0.0
  9
$USERR3
 40
0.0
  9
$USERR4
 40
0.0
  9
$USERR5
 40
0.0
  9
$WORLDVIEW
 70
     1
  9
$SHADEDGE
 70
     3
  9
$SHADEDIF
 70
    70
  9
$TILEMODE
 70
     1
  9
$MAXACTVP
 70
    64
  9
$PINSBASE
 10
0.0
 20
0.0
 30
0.0
  9
$PLIMCHECK
 70
     0
  9
$PEXTMIN
 10
1.000000000000000E+20
 20
1.000000000000000E+20
 30
1.000000000000000E+20
  9
$PEXTMAX
 10
-1.000000000000000E+20
 20
-1.000000000000000E+20
 30
-1.000000000000000E+20
  9
$PLIMMIN
 10
0.0
 20
0.0
  9
$PLIMMAX
 10
420.0
 20
297.0
  9
$UNITMODE
 70
     0
  9
$VISRETAIN
 70
     1
  9
$PLINEGEN
 70
     0
  9
$PSLTSCALE
 70
     1
  9
$TREEDEPTH
 70
  3020
  9
$PICKSTYLE
 70
     1
  9
$CMLSTYLE
  2
STANDARD
  9
$CMLJUST
 70
     0
  9
$CMLSCALE
 40
20.0
  9
$SAVEIMAGES
 70
     1
  0
ENDSEC
  0
SECTION
  2
CLASSES
  0
CLASS
  1
ACDBDICTIONARYWDFLT
  2
AcDbDictionaryWithDefault
  3
ObjectDBX Classes
 90
    32768
280
     0
281
     0
  0
CLASS
  1
VISUALSTYLE
  2
AcDbVisualStyle
  3
ObjectDBX Classes
 90
     4095
280
     0
281
     0
  0
CLASS
  1
MATERIAL
  2
AcDbMaterial
  3
ObjectDBX Classes
 90
     1153
280
     0
281
     0
  0
CLASS
  1
SCALE
  2
AcDbScale
  3
ObjectDBX Classes
 90
     1153
280
     0
281
     0
  0
CLASS
  1
TABLESTYLE
  2
AcDbTableStyle
  3
ObjectDBX Classes
 90
     4095
280
     0
281
     0
  0
CLASS
  1
MLEADERSTYLE
  2
AcDbMLeaderStyle
  3
ACDB_MLEADERSTYLE_CLASS
 90
     4095
280
     0
281
     0
  0
CLASS
  1
SUN
  2
AcDbSun
  3
SCENEOE
 90
     1153
280
     0
281
     0
  0
CLASS
  1
DICTIONARYVAR
  2
AcDbDictionaryVar
  3
ObjectDBX Classes
 90
        0
280
     0
281
     0
  0
CLASS
  1
XRECORD
  2
AcDbXrecord
  3
ObjectDBX Classes
 90
    32768
280
     0
281
     0
  0
CLASS
  1
LWPOLYLINE
  2
AcDbPolyline
  3
ObjectDBX Classes
 90
    32768
280
     0
281
     1
  0
CLASS
  1
HATCH
  2
AcDbHatch
  3
ObjectDBX Classes
 90
    32768
280
     0
281
     1
  0
CLASS
  1
ACDBPLACEHOLDER
  2
AcDbPlaceHolder
  3
ObjectDBX Classes
 90
        0
280
     0
281
     0
  0
CLASS
  1
LAYOUT
  2
AcDbLayout
  3
ObjectDBX Classes
 90
        0
280
     0
281
     0
  0
ENDSEC
  0
SECTION
  2
TABLES
  0
TABLE
  2
VPORT
  5
8
330
0
100
AcDbSymbolTable
 70
     1
  0
VPORT
  5
29
330
8
100
AcDbSymbolTableRecord
100
AcDbViewportTableRecord
  2
*ACTIVE
 70
     0
 10
0.0
 20
0.0
 11
1.0
 21
1.0
 12
0.0
 22
0.0
 13
0.0
 23
0.0
 14
10.0
 24
10.0
 15
10.0
 25
10.0
 16
0.0
 26
0.0
 36
1.0
 17
0.0
 27
0.0
 37
0.0
 40
606.9
 41
1.0
 42
50.0
 43
0.0
 44
0.0
 50
0.0
 51
0.0
 71
     0
 72
   100
 73
     1
 74
     3
 75
     0
 76
     0
 77
     0
 78
     0
  0
ENDTAB
  0
TABLE
  2
LTYPE
  5
5
330
0
100
AcDbSymbolTable
 70
     1
  0
LTYPE
  5
14
330
5
100
AcDbSymbolTableRecord
100
AcDbLinetypeTableRecord
  2
BYBLOCK
 70
     0
  3

 72
    65
 73
     0
 40
0.0
  0
LTYPE
  5
15
330
5
100
AcDbSymbolTableRecord
100
AcDbLinetypeTableRecord
  2
BYLAYER
 70
     0
  3

 72
    65
 73
     0
 40
0.0
  0
LTYPE
  5
16
330
5
100
AcDbSymbolTableRecord
100
AcDbLinetypeTableRecord
  2
CONTINUOUS
 70
     0
  3
Solid line
 72
    65
 73
     0
 40
0.0
  0
ENDTAB
  0
TABLE
  2
LAYER
  5
2
330
0
100
AcDbSymbolTable
 70
     4
  0
LAYER
  5
10
330
2
100
AcDbSymbolTableRecord
100
AcDbLayerTableRecord
  2
0
 70
     0
 62
     7
  6
CONTINUOUS
  0
LAYER
  5
6E
330
2
100
AcDbSymbolTableRecord
100
AcDbLayerTableRecord
  2
THICK
 70
     0
 62
     7
  6
CONTINUOUS
  0
LAYER
  5
6F
330
2
100
AcDbSymbolTableRecord
100
AcDbLayerTableRecord
  2
HIDDEN
 70
     0
 62
     7
  6
CONTINUOUS
  0
LAYER
  5
70
330
2
100
AcDbSymbolTableRecord
100
AcDbLayerTableRecord
  2
HASHLINES
 70
     0
 62
     7
  6
CONTINUOUS
  0
ENDTAB
  0
TABLE
  2
STYLE
  5
3
330
0
100
AcDbSymbolTable
 70
     1
  0
STYLE
  5
11
330
3
100
AcDbSymbolTableRecord
100
AcDbTextStyleTableRecord
  2
STANDARD
 70
     0
 40
0.0
 41
1.0
 50
0.0
 71
     0
 42
2.5
  3
txt
  4

  0
ENDTAB
  0
TABLE
  2
VIEW
  5
6
330
0
100
AcDbSymbolTable
 70
     0
  0
ENDTAB
  0
TABLE
  2
UCS
  5
7
330
0
100
AcDbSymbolTable
 70
     0
  0
ENDTAB
  0
TABLE
  2
APPID
  5
9
330
0
100
AcDbSymbolTable
 70
     3
  0
APPID
  5
12
330
9
100
AcDbSymbolTableRecord
100
AcDbRegAppTableRecord
  2
ACAD
 70
     0
  0
APPID
  5
71
330
9
100
AcDbSymbolTableRecord
100
AcDbRegAppTableRecord
  2
DBPROPERTIES
 70
     0
  0
APPID
  5
507
330
9
100
AcDbSymbolTableRecord
100
AcDbRegAppTableRecord
  2
ACAD_MLEADERVER
 70
     0
  0
ENDTAB
  0
TABLE
  2
DIMSTYLE
  5
A
330
0
100
AcDbSymbolTable
 70
     1
  0
DIMSTYLE
105
27
330
A
100
AcDbSymbolTableRecord
100
AcDbDimStyleTableRecord
  2
ISO-25
 70
     0
  3

  4

  5

  6

  7

 40
1.0
 41
2.5
 42
0.625
 43
3.75
 44
1.25
 45
0.0
 46
0.0
 47
0.0
 48
0.0
140
2.5
141
2.5
142
0.0
143
0.03937007874016
144
1.0
145
0.0
146
1.0
147
0.625
 71
     0
 72
     0
 73
     0
 74
     0
 75
     0
 76
     0
 77
     1
 78
     8
170
     0
171
     3
172
     1
173
     0
174
     0
175
     0
176
     0
177
     0
178
     0
270
     2
271
     2
272
     2
273
     2
274
     3
340
11
275
     0
280
     0
281
     0
282
     0
283
     0
284
     8
285
     0
286
     0
287
     3
288
     0
  0
ENDTAB
  0
TABLE
  2
BLOCK_RECORD
  5
1
330
0
100
AcDbSymbolTable
 70
     0
  0
BLOCK_RECORD
  5
1F
330
1
100
AcDbSymbolTableRecord
100
AcDbBlockTableRecord
  2
*MODEL_SPACE
  0
BLOCK_RECORD
  5
1B
330
1
100
AcDbSymbolTableRecord
100
AcDbBlockTableRecord
  2
*PAPER_SPACE
  0
ENDTAB
  0
ENDSEC
  0
SECTION
  2
BLOCKS
  0
BLOCK
  5
20
330
1F
100
AcDbEntity
  8
0
100
AcDbBlockBegin
  2
*MODEL_SPACE
 70
     0
 10
0.0
 20
0.0
 30
0.0
  3
*MODEL_SPACE
  1

  0
ENDBLK
  5
21
330
1F
100
AcDbEntity
  8
0
100
AcDbBlockEnd
  0
BLOCK
  5
1C
330
1B
100
AcDbEntity
 67
     1
  8
0
100
AcDbBlockBegin
  2
*PAPER_SPACE
 70
     0
 10
0.0
 20
0.0
 30
0.0
  3
*PAPER_SPACE
  1

  0
ENDBLK
  5
1D
330
1B
100
AcDbEntity
 67
     1
  8
0
100
AcDbBlockEnd
  0
ENDSEC
  0
SECTION
  2
ENTITIES
  0
ARC
  5
72
330
1F
100
AcDbEntity
  8
THICK
100
AcDbCircle
 10
0.0
 20
0.0
 30
0.0
 40
286.5
100
AcDbArc
 50
180.0000198478428
 51
270.0000187239684
1001
DBPROPERTIES
1002
{
1000
PbThick
1002
}
  0
ARC
  5
73
330
1F
100
AcDbEntity
  8
THICK
100
AcDbCircle
 10
0.0
 20
0.0
 30
0.0
 40
286.5
100
AcDbArc
 50
270.0000187239684
 51
0.0
1001
DBPROPERTIES
1002
{
1000
PbThick
1002
}
  0
ARC
  5
74
330
1F
100
AcDbEntity
  8
THICK
100
AcDbCircle
 10
0.0
 20
0.0
 30
0.0
 40
286.5
100
AcDbArc
 50
0.0
 51
180.0000198478428
1001
DBPROPERTIES
1002
{
1000
PbThick
1002
}
  0
ARC
  5
75
330
1F
100
AcDbEntity
  8
THICK
100
AcDbCircle
 10
140.0000000000001
 20
242.4871130596428
 30
0.0
 40
6.0
100
AcDbArc
 50
240.0000058666979
 51
60.00002571454078
1001
DBPROPERTIES
1002
{
1000
PbThick
1002
}
  0
ARC
  5
76
330
1F
100
AcDbEntity
  8
THICK
100
AcDbCircle
 10
140.0000000000001
 20
242.4871130596428
 30
0.0
 40
6.0
100
AcDbArc
 50
60.00002571454078
 51
240.0000058666979
1001
DBPROPERTIES
1002
{
1000
PbThick
1002
}
  0
ARC
  5
77
330
1F
100
AcDbEntity
  8
THICK
100
AcDbCircle
 10
242.4871130596429
 20
139.9999999999998
 30
0.0
 40
5.999999999999999
100
AcDbArc
 50
209.9999930094276
 51
30.00001285727039
1001
DBPROPERTIES
1002
{
1000
PbThick
1002
}
  0
ARC
  5
78
330
1F
100
AcDbEntity
  8
THICK
100
AcDbCircle
 10
242.4871130596429
 20
139.9999999999998
 30
0.0
 40
5.999999999999999
100
AcDbArc
 50
30.00001285727039
 51
209.9999930094276
1001
DBPROPERTIES
1002
{
1000
PbThick
1002
}
  0
ARC
  5
79
330
1F
100
AcDbEntity
  8
THICK
100
AcDbCircle
 10
280.0
 20
-0.0000000000000686
 30
0.0
 40
6.0
100
AcDbArc
 50
180.0000198478428
 51
0.0
1001
DBPROPERTIES
1002
{
1000
PbThick
1002
}
  0
ARC
  5
7A
330
1F
100
AcDbEntity
  8
THICK
100
AcDbCircle
 10
280.0
 20
-0.0000000000000686
 30
0.0
 40
6.0
100
AcDbArc
 50
0.0
 51
180.0000198478428
1001
DBPROPERTIES
1002
{
1000
PbThick
1002
}
  0
ARC
  5
7B
330
1F
100
AcDbEntity
  8
THICK
100
AcDbCircle
 10
242.4871130596428
 20
-140.0000000000001
 30
0.0
 40
6.0
100
AcDbArc
 50
150.0000069905724
 51
329.9999871427296
1001
DBPROPERTIES
1002
{
1000
PbThick
1002
}
  0
ARC
  5
7C
330
1F
100
AcDbEntity
  8
THICK
100
AcDbCircle
 10
242.4871130596428
 20
-140.0000000000001
 30
0.0
 40
6.0
100
AcDbArc
 50
329.9999871427296
 51
150.0000069905724
1001
DBPROPERTIES
1002
{
1000
PbThick
1002
}
  0
ARC
  5
7D
330
1F
100
AcDbEntity
  8
THICK
100
AcDbCircle
 10
139.9999999999999
 20
-242.4871130596429
 30
0.0
 40
6.0
100
AcDbArc
 50
119.999994133302
 51
299.9999742854592
1001
DBPROPERTIES
1002
{
1000
PbThick
1002
}
  0
ARC
  5
7E
330
1F
100
AcDbEntity
  8
THICK
100
AcDbCircle
 10
139.9999999999999
 20
-242.4871130596429
 30
0.0
 40
6.0
100
AcDbArc
 50
299.9999742854592
 51
119.999994133302
1001
DBPROPERTIES
1002
{
1000
PbThick
1002
}
  0
ARC
  5
7F
330
1F
100
AcDbEntity
  8
THICK
100
AcDbCircle
 10
-0.0000000000000514
 20
-280.0
 30
0.0
 40
6.0
100
AcDbArc
 50
89.99998127603165
 51
270.0000187239684
1001
DBPROPERTIES
1002
{
1000
PbThick
1002
}
  0
ARC
  5
80
330
1F
100
AcDbEntity
  8
THICK
100
AcDbCircle
 10
-0.0000000000000514
 20
-280.0
 30
0.0
 40
6.0
100
AcDbArc
 50
270.0000187239684
 51
89.99998127603165
1001
DBPROPERTIES
1002
{
1000
PbThick
1002
}
  0
ARC
  5
81
330
1F
100
AcDbEntity
  8
THICK
100
AcDbCircle
 10
-140.0000000000001
 20
-242.4871130596428
 30
0.0
 40
5.999999999999999
100
AcDbArc
 50
60.00002571454078
 51
240.0000058666979
1001
DBPROPERTIES
1002
{
1000
PbThick
1002
}
  0
ARC
  5
82
330
1F
100
AcDbEntity
  8
THICK
100
AcDbCircle
 10
-140.0000000000001
 20
-242.4871130596428
 30
0.0
 40
5.999999999999999
100
AcDbArc
 50
240.0000058666979
 51
60.00002571454078
1001
DBPROPERTIES
1002
{
1000
PbThick
1002
}
  0
ARC
  5
83
330
1F
100
AcDbEntity
  8
THICK
100
AcDbCircle
 10
-242.4871130596428
 20
-139.9999999999999
 30
0.0
 40
5.999999999999999
100
AcDbArc
 50
30.00001285727039
 51
209.9999930094276
1001
DBPROPERTIES
1002
{
1000
PbThick
1002
}
  0
ARC
  5
84
330
1F
100
AcDbEntity
  8
THICK
100
AcDbCircle
 10
-242.4871130596428
 20
-139.9999999999999
 30
0.0
 40
5.999999999999999
100
AcDbArc
 50
209.9999930094276
 51
30.00001285727039
1001
DBPROPERTIES
1002
{
1000
PbThick
1002
}
  0
ARC
  5
85
330
1F
100
AcDbEntity
  8
THICK
100
AcDbCircle
 10
-280.0
 20
0.0000000000000343
 30
0.0
 40
6.0
100
AcDbArc
 50
0.0
 51
180.0000198478428
1001
DBPROPERTIES
1002
{
1000
PbThick
1002
}
  0
ARC
  5
86
330
1F
100
AcDbEntity
  8
THICK
100
AcDbCircle
 10
-280.0
 20
0.0000000000000343
 30
0.0
 40
6.0
100
AcDbArc
 50
180.0000198478428
 51
0.0
1001
DBPROPERTIES
1002
{
1000
PbThick
1002
}
  0
ARC
  5
87
330
1F
100
AcDbEntity
  8
THICK
100
AcDbCircle
 10
-242.4871130596428
 20
140.0
 30
0.0
 40
6.0
100
AcDbArc
 50
329.9999871427296
 51
150.0000069905724
1001
DBPROPERTIES
1002
{
1000
PbThick
1002
}
  0
ARC
  5
88
330
1F
100
AcDbEntity
  8
THICK
100
AcDbCircle
 10
-242.4871130596428
 20
140.0
 30
0.0
 40
6.0
100
AcDbArc
 50
150.0000069905724
 51
329.9999871427296
1001
DBPROPERTIES
1002
{
1000
PbThick
1002
}
  0
ARC
  5
89
330
1F
100
AcDbEntity
  8
THICK
100
AcDbCircle
 10
-139.9999999999999
 20
242.4871130596428
 30
0.0
 40
5.999999999999999
100
AcDbArc
 50
299.9999742854592
 51
119.999994133302
1001
DBPROPERTIES
1002
{
1000
PbThick
1002
}
  0
ARC
  5
8A
330
1F
100
AcDbEntity
  8
THICK
100
AcDbCircle
 10
-139.9999999999999
 20
242.4871130596428
 30
0.0
 40
5.999999999999999
100
AcDbArc
 50
119.999994133302
 51
299.9999742854592
1001
DBPROPERTIES
1002
{
1000
PbThick
1002
}
  0
ARC
  5
8B
330
1F
100
AcDbEntity
  8
THICK
100
AcDbCircle
 10
0.0000000000000171
 20
280.0
 30
0.0
 40
6.0
100
AcDbArc
 50
270.0000187239684
 51
89.99998127603165
1001
DBPROPERTIES
1002
{
1000
PbThick
1002
}
  0
ARC
  5
8C
330
1F
100
AcDbEntity
  8
THICK
100
AcDbCircle
 10
0.0000000000000171
 20
280.0
 30
0.0
 40
6.0
100
AcDbArc
 50
89.99998127603165
 51
270.0000187239684
1001
DBPROPERTIES
1002
{
1000
PbThick
1002
}
  0
ARC
  5
8D
330
1F
100
AcDbEntity
  8
THICK
100
AcDbCircle
 10
0.0
 20
0.0
 30
0.0
 40
250.0
100
AcDbArc
 50
270.0000187239684
 51
89.99998127603165
1001
DBPROPERTIES
1002
{
1000
PbThick
1002
}
  0
ARC
  5
8E
330
1F
100
AcDbEntity
  8
THICK
100
AcDbCircle
 10
0.0
 20
0.0
 30
0.0
 40
250.0
100
AcDbArc
 50
89.99998127603165
 51
270.0000187239684
1001
DBPROPERTIES
1002
{
1000
PbThick
1002
}
  0
ARC
  5
8F
330
1F
100
AcDbEntity
  8
THICK
100
AcDbCircle
 10
0.0000000000000007
 20
0.0
 30
0.0
 40
83.33333333333333
100
AcDbArc
 50
270.0000187239684
 51
298.2870023653566
1001
DBPROPERTIES
1002
{
1000
PbThick
1002
}
  0
ELLIPSE
  5
90
330
1F
100
AcDbEntity
  8
HIDDEN
100
AcDbEllipse
 10
0.0
 20
0.0
 30
0.0
 11
-81.24399268181864
 21
18.54341116302624
 31
0.0
210
0.0
220
0.0
230
1.0
 40
0.9999999999999998
 41
-1.346396851538483
 42
-1.266103672779499
1001
DBPROPERTIES
1002
{
1000
PbHidd
1002
}
  0
ARC
  5
91
330
1F
100
AcDbEntity
  8
HIDDEN
100
AcDbCircle
 10
0.0000000000000007
 20
0.0
 30
0.0
 40
83.33333333333333
100
AcDbArc
 50
248.8861801987204
 51
252.1333612068448
1001
DBPROPERTIES
1002
{
1000
PbHidd
1002
}
  0
ARC
  5
92
330
1F
100
AcDbEntity
  8
THICK
100
AcDbCircle
 10
0.0000000000000007
 20
0.0
 30
0.0
 40
83.33333333333333
100
AcDbArc
 50
252.1333612068448
 51
270.0000187239684
1001
DBPROPERTIES
1002
{
1000
PbThick
1002
}
  0
ELLIPSE
  5
93
330
1F
100
AcDbEntity
  8
HIDDEN
100
AcDbEllipse
 10
0.0
 20
0.0
 30
0.0
 11
-65.15262353900248
 21
51.95748348822782
 31
0.0
210
0.0
220
0.0
230
1.0
 40
1.0
 41
1.840098549648825
 42
1.875488980810294
1001
DBPROPERTIES
1002
{
1000
PbHidd
1002
}
  0
ARC
  5
94
330
1F
100
AcDbEntity
  8
HIDDEN
100
AcDbCircle
 10
0.0000000000000007
 20
0.0
 30
0.0
 40
83.33333333333333
100
AcDbArc
 50
197.4576030993368
 51
200.7047841074612
1001
DBPROPERTIES
1002
{
1000
PbHidd
1002
}
  0
ARC
  5
95
330
1F
100
AcDbEntity
  8
THICK
100
AcDbCircle
 10
0.0000000000000007
 20
0.0
 30
0.0
 40
83.33333333333333
100
AcDbArc
 50
200.7047841074612
 51
246.8584252659729
1001
DBPROPERTIES
1002
{
1000
PbThick
1002
}
  0
ELLIPSE
  5
96
330
1F
100
AcDbEntity
  8
HIDDEN
100
AcDbEllipse
 10
0.0
 20
0.0
 30
0.0
 11
5.102526474259905E-15
 21
83.33333333333333
 31
0.0
210
0.0
220
0.0
230
1.0
 40
1.0
 41
1.840098549648825
 42
1.875488980810294
1001
DBPROPERTIES
1002
{
1000
PbHidd
1002
}
  0
ARC
  5
97
330
1F
100
AcDbEntity
  8
THICK
100
AcDbCircle
 10
0.0000000000000007
 20
0.0
 30
0.0
 40
83.33333333333333
100
AcDbArc
 50
180.0000198478428
 51
195.4299054623688
1001
DBPROPERTIES
1002
{
1000
PbThick
1002
}
  0
ARC
  5
98
330
1F
100
AcDbEntity
  8
HIDDEN
100
AcDbCircle
 10
0.0000000000000007
 20
0.0
 30
0.0
 40
83.33333333333333
100
AcDbArc
 50
146.0290083998592
 51
149.2762467037632
1001
DBPROPERTIES
1002
{
1000
PbHidd
1002
}
  0
ARC
  5
99
330
1F
100
AcDbEntity
  8
THICK
100
AcDbCircle
 10
0.0000000000000007
 20
0.0
 30
0.0
 40
83.33333333333333
100
AcDbArc
 50
149.2762467037632
 51
180.0000198478428
1001
DBPROPERTIES
1002
{
1000
PbThick
1002
}
  0
ELLIPSE
  5
9A
330
1F
100
AcDbEntity
  8
HIDDEN
100
AcDbEllipse
 10
0.0
 20
0.0
 30
0.0
 11
51.95748348822778
 21
-65.15262353900249
 31
0.0
210
0.0
220
0.0
230
1.0
 40
0.9999999999999998
 41
-2.872290430735865
 42
-2.836899999574396
1001
DBPROPERTIES
1002
{
1000
PbHidd
1002
}
  0
ARC
  5
9B
330
1F
100
AcDbEntity
  8
HIDDEN
100
AcDbCircle
 10
0.0000000000000007
 20
0.0
 30
0.0
 40
83.33333333333333
100
AcDbArc
 50
94.60048859625509
 51
97.84766960437952
1001
DBPROPERTIES
1002
{
1000
PbHidd
1002
}
  0
ARC
  5
9C
330
1F
100
AcDbEntity
  8
THICK
100
AcDbCircle
 10
0.0000000000000007
 20
0.0
 30
0.0
 40
83.33333333333333
100
AcDbArc
 50
97.84766960437952
 51
144.0013107628912
1001
DBPROPERTIES
1002
{
1000
PbThick
1002
}
  0
ARC
  5
9D
330
1F
100
AcDbEntity
  8
HIDDEN
100
AcDbCircle
 10
0.0000000000000007
 20
0.0
 30
0.0
 40
83.33333333333333
100
AcDbArc
 50
43.17191149687142
 51
46.41909250499585
1001
DBPROPERTIES
1002
{
1000
PbHidd
1002
}
  0
ARC
  5
9E
330
1F
100
AcDbEntity
  8
THICK
100
AcDbCircle
 10
0.0000000000000007
 20
0.0
 30
0.0
 40
83.33333333333333
100
AcDbArc
 50
46.41909250499585
 51
89.99998127603165
1001
DBPROPERTIES
1002
{
1000
PbThick
1002
}
  0
ELLIPSE
  5
9F
330
1F
100
AcDbEntity
  8
HIDDEN
100
AcDbEllipse
 10
0.0
 20
0.0
 30
0.0
 11
-36.1569782597965
 21
75.08073899186826
 31
0.0
210
0.0
220
0.0
230
1.0
 40
1.0
 41
-1.301494103940968
 42
-1.266103672779499
1001
DBPROPERTIES
1002
{
1000
PbHidd
1002
}
  0
ARC
  5
A0
330
1F
100
AcDbEntity
  8
THICK
100
AcDbCircle
 10
0.0000000000000007
 20
0.0
 30
0.0
 40
83.33333333333333
100
AcDbArc
 50
0.0
 51
41.14415656412393
1001
DBPROPERTIES
1002
{
1000
PbThick
1002
}
  0
ARC
  5
A1
330
1F
100
AcDbEntity
  8
HIDDEN
100
AcDbCircle
 10
0.0000000000000007
 20
0.0
 30
0.0
 40
83.33333333333333
100
AcDbArc
 50
351.7433343974878
 51
354.9905154056122
1001
DBPROPERTIES
1002
{
1000
PbHidd
1002
}
  0
ARC
  5
A2
330
1F
100
AcDbEntity
  8
THICK
100
AcDbCircle
 10
0.0000000000000007
 20
0.0
 30
0.0
 40
83.33333333333333
100
AcDbArc
 50
354.9905154056122
 51
0.0
1001
DBPROPERTIES
1002
{
1000
PbThick
1002
}
  0
ELLIPSE
  5
A3
330
1F
100
AcDbEntity
  8
HIDDEN
100
AcDbEllipse
 10
0.0
 20
0.0
 30
0.0
 11
36.15697825979652
 21
75.08073899186826
 31
0.0
210
0.0
220
0.0
230
1.0
 40
0.9999999999999997
 41
-1.301494103940968
 42
-1.266103672779499
1001
DBPROPERTIES
1002
{
1000
PbHidd
1002
}
  0
ARC
  5
A4
330
1F
100
AcDbEntity
  8
HIDDEN
100
AcDbCircle
 10
0.0000000000000007
 20
0.0
 30
0.0
 40
83.33333333333333
100
AcDbArc
 50
300.3147572981041
 51
303.5619383062285
1001
DBPROPERTIES
1002
{
1000
PbHidd
1002
}
  0
ARC
  5
A5
330
1F
100
AcDbEntity
  8
THICK
100
AcDbCircle
 10
0.0000000000000007
 20
0.0
 30
0.0
 40
83.33333333333333
100
AcDbArc
 50
303.5619383062285
 51
349.7155794647403
1001
DBPROPERTIES
1002
{
1000
PbThick
1002
}
  0
ELLIPSE
  5
A6
330
1F
100
AcDbEntity
  8
HIDDEN
100
AcDbEllipse
 10
0.0
 20
0.0
 30
0.0
 11
81.24399268181864
 21
18.5434111630262
 31
0.0
210
0.0
220
0.0
230
1.0
 40
0.9999999999999998
 41
-1.79519580205131
 42
-1.266103672779499
1001
DBPROPERTIES
1002
{
1000
PbHidd
1002
}
  0
ARC
  5
A7
330
1F
100
AcDbEntity
  8
THICK
100
AcDbCircle
 10
0.0
 20
0.0
 30
0.0
 40
72.33333333333333
100
AcDbArc
 50
0.0
 51
89.99998127603165
1001
DBPROPERTIES
1002
{
1000
PbThick
1002
}
  0
LINE
  5
A8
330
1F
100
AcDbEntity
  8
THICK
100
AcDbLine
 10
62.75470352172852
 20
54.82966232299805
 30
0.0
 11
62.51924896240234
 21
55.09011459350586
 31
0.0
1001
DBPROPERTIES
1002
{
1000
PbThick
1002
}
  0
LINE
  5
A9
330
1F
100
AcDbEntity
  8
THICK
100
AcDbLine
 10
62.51924896240234
 20
55.09011459350586
 30
0.0
 11
62.26812362670898
 21
55.34989929199219
 31
0.0
1001
DBPROPERTIES
1002
{
1000
PbThick
1002
}
  0
LINE
  5
AA
330
1F
100
AcDbEntity
  8
THICK
100
AcDbLine
 10
62.26812362670898
 20
55.34989929199219
 30
0.0
 11
62.00205230712891
 21
55.60736846923828
 31
0.0
1001
DBPROPERTIES
1002
{
1000
PbThick
1002
}
  0
LINE
  5
AB
330
1F
100
AcDbEntity
  8
THICK
100
AcDbLine
 10
62.00205230712891
 20
55.60736846923828
 30
0.0
 11
61.72178649902344
 21
55.86090850830078
 31
0.0
1001
DBPROPERTIES
1002
{
1000
PbThick
1002
}
  0
LINE
  5
AC
330
1F
100
AcDbEntity
  8
THICK
100
AcDbLine
 10
61.72178649902344
 20
55.86090850830078
 30
0.0
 11
61.42840957641602
 21
56.10913467407227
 31
0.0
1001
DBPROPERTIES
1002
{
1000
PbThick
1002
}
  0
LINE
  5
AD
330
1F
100
AcDbEntity
  8
THICK
100
AcDbLine
 10
61.42840957641602
 20
56.10913467407227
 30
0.0
 11
61.12319946289062
 21
56.35082244873047
 31
0.0
1001
DBPROPERTIES
1002
{
1000
PbThick
1002
}
  0
LINE
  5
AE
330
1F
100
AcDbEntity
  8
THICK
100
AcDbLine
 10
61.12319946289062
 20
56.35082244873047
 30
0.0
 11
60.80737686157227
 21
56.58471298217773
 31
0.0
1001
DBPROPERTIES
1002
{
1000
PbThick
1002
}
  0
LINE
  5
AF
330
1F
100
AcDbEntity
  8
THICK
100
AcDbLine
 10
60.80737686157227
 20
56.58471298217773
 30
0.0
 11
60.48243713378906
 21
56.8098258972168
 31
0.0
1001
DBPROPERTIES
1002
{
1000
PbThick
1002
}
  0
LINE
  5
B0
330
1F
100
AcDbEntity
  8
THICK
100
AcDbLine
 10
60.48243713378906
 20
56.8098258972168
 30
0.0
 11
60.15012359619141
 21
57.02534866333008
 31
0.0
1001
DBPROPERTIES
1002
{
1000
PbThick
1002
}
  0
LINE
  5
B1
330
1F
100
AcDbEntity
  8
THICK
100
AcDbLine
 10
60.15012359619141
 20
57.02534866333008
 30
0.0
 11
59.8121223449707
 21
57.23040008544922
 31
0.0
1001
DBPROPERTIES
1002
{
1000
PbThick
1002
}
  0
LINE
  5
B2
330
1F
100
AcDbEntity
  8
THICK
100
AcDbLine
 10
59.8121223449707
 20
57.23040008544922
 30
0.0
 11
59.47037124633789
 21
57.42434692382812
 31
0.0
1001
DBPROPERTIES
1002
{
1000
PbThick
1002
}
  0
LINE
  5
B3
330
1F
100
AcDbEntity
  8
THICK
100
AcDbLine
 10
59.47037124633789
 20
57.42434692382812
 30
0.0
 11
59.12703704833984
 21
57.60676574707031
 31
0.0
1001
DBPROPERTIES
1002
{
1000
PbThick
1002
}
  0
LINE
  5
B4
330
1F
100
AcDbEntity
  8
THICK
100
AcDbLine
 10
59.12703704833984
 20
57.60676574707031
 30
0.0
 11
58.78421401977539
 21
57.77717208862305
 31
0.0
1001
DBPROPERTIES
1002
{
1000
PbThick
1002
}
  0
LINE
  5
B5
330
1F
100
AcDbEntity
  8
THICK
100
AcDbLine
 10
58.78421401977539
 20
57.77717208862305
 30
0.0
 11
58.43589782714844
 21
57.93905639648438
 31
0.0
1001
DBPROPERTIES
1002
{
1000
PbThick
1002
}
  0
LINE
  5
B6
330
1F
100
AcDbEntity
  8
THICK
100
AcDbLine
 10
58.43589782714844
 20
57.93905639648438
 30
0.0
 11
58.07197952270508
 21
58.09683609008789
 31
0.0
1001
DBPROPERTIES
1002
{
1000
PbThick
1002
}
  0
LINE
  5
B7
330
1F
100
AcDbEntity
  8
THICK
100
AcDbLine
 10
58.07197952270508
 20
58.09683609008789
 30
0.0
 11
57.6937370300293
 21
58.2492561340332
 31
0.0
1001
DBPROPERTIES
1002
{
1000
PbThick
1002
}
  0
LINE
  5
B8
330
1F
100
AcDbEntity
  8
THICK
100
AcDbLine
 10
57.6937370300293
 20
58.2492561340332
 30
0.0
 11
57.30255126953125
 21
58.3950309753418
 31
0.0
1001
DBPROPERTIES
1002
{
1000
PbThick
1002
}
  0
LINE
  5
B9
330
1F
100
AcDbEntity
  8
THICK
100
AcDbLine
 10
57.30255126953125
 20
58.3950309753418
 30
0.0
 11
56.90003204345703
 21
58.53317260742188
 31
0.0
1001
DBPROPERTIES
1002
{
1000
PbThick
1002
}
  0
LINE
  5
BA
330
1F
100
AcDbEntity
  8
THICK
100
AcDbLine
 10
56.90003204345703
 20
58.53317260742188
 30
0.0
 11
56.85774230957031
 21
58.78055191040039
 31
0.0
1001
DBPROPERTIES
1002
{
1000
PbThick
1002
}
  0
LINE
  5
BB
330
1F
100
AcDbEntity
  8
THICK
100
AcDbLine
 10
56.85774230957031
 20
58.78055191040039
 30
0.0
 11
56.8072395324707
 21
59.02254104614258
 31
0.0
1001
DBPROPERTIES
1002
{
1000
PbThick
1002
}
  0
LINE
  5
BC
330
1F
100
AcDbEntity
  8
THICK
100
AcDbLine
 10
56.8072395324707
 20
59.02254104614258
 30
0.0
 11
56.74923324584961
 21
59.25835800170898
 31
0.0
1001
DBPROPERTIES
1002
{
1000
PbThick
1002
}
  0
LINE
  5
BD
330
1F
100
AcDbEntity
  8
THICK
100
AcDbLine
 10
56.74923324584961
 20
59.25835800170898
 30
0.0
 11
56.68450927734375
 21
59.48723983764648
 31
0.0
1001
DBPROPERTIES
1002
{
1000
PbThick
1002
}
  0
LINE
  5
BE
330
1F
100
AcDbEntity
  8
THICK
100
AcDbLine
 10
56.68450927734375
 20
59.48723983764648
 30
0.0
 11
56.61397552490234
 21
59.70859527587891
 31
0.0
1001
DBPROPERTIES
1002
{
1000
PbThick
1002
}
  0
LINE
  5
BF
330
1F
100
AcDbEntity
  8
THICK
100
AcDbLine
 10
56.61397552490234
 20
59.70859527587891
 30
0.0
 11
56.53629684448242
 21
59.92766571044922
 31
0.0
1001
DBPROPERTIES
1002
{
1000
PbThick
1002
}
  0
LINE
  5
C0
330
1F
100
AcDbEntity
  8
HIDDEN
100
AcDbLine
 10
56.53629684448242
 20
59.92766571044922
 30
0.0
 11
57.05846786499023
 21
59.68719863891602
 31
0.0
1001
DBPROPERTIES
1002
{
1000
PbHidd
1002
}
  0
LINE
  5
C1
330
1F
100
AcDbEntity
  8
HIDDEN
100
AcDbLine
 10
57.05846786499023
 20
59.68719863891602
 30
0.0
 11
57.58166885375977
 21
59.42118835449219
 31
0.0
1001
DBPROPERTIES
1002
{
1000
PbHidd
1002
}
  0
LINE
  5
C2
330
1F
100
AcDbEntity
  8
HIDDEN
100
AcDbLine
 10
57.58166885375977
 20
59.42118835449219
 30
0.0
 11
58.09955596923828
 21
59.13045120239258
 31
0.0
1001
DBPROPERTIES
1002
{
1000
PbHidd
1002
}
  0
LINE
  5
C3
330
1F
100
AcDbEntity
  8
HIDDEN
100
AcDbLine
 10
58.09955596923828
 20
59.13045120239258
 30
0.0
 11
58.60550308227539
 21
58.81682968139648
 31
0.0
1001
DBPROPERTIES
1002
{
1000
PbHidd
1002
}
  0
LINE
  5
C4
330
1F
100
AcDbEntity
  8
HIDDEN
100
AcDbLine
 10
58.60550308227539
 20
58.81682968139648
 30
0.0
 11
59.09366226196289
 21
58.48291397094727
 31
0.0
1001
DBPROPERTIES
1002
{
1000
PbHidd
1002
}
  0
LINE
  5
C5
330
1F
100
AcDbEntity
  8
HIDDEN
100
AcDbLine
 10
59.09366226196289
 20
58.48291397094727
 30
0.0
 11
59.55885314941406
 21
58.13175964355469
 31
0.0
1001
DBPROPERTIES
1002
{
1000
PbHidd
1002
}
  0
LINE
  5
C6
330
1F
100
AcDbEntity
  8
HIDDEN
100
AcDbLine
 10
59.55885314941406
 20
58.13175964355469
 30
0.0
 11
59.99654769897461
 21
57.76712417602539
 31
0.0
1001
DBPROPERTIES
1002
{
1000
PbHidd
1002
}
  0
LINE
  5
C7
330
1F
100
AcDbEntity
  8
HIDDEN
100
AcDbLine
 10
59.99654769897461
 20
57.76712417602539
 30
0.0
 11
60.40299224853516
 21
57.39341735839844
 31
0.0
1001
DBPROPERTIES
1002
{
1000
PbHidd
1002
}
  0
LINE
  5
C8
330
1F
100
AcDbEntity
  8
HIDDEN
100
AcDbLine
 10
60.40299224853516
 20
57.39341735839844
 30
0.0
 11
60.77536773681641
 21
57.01578140258789
 31
0.0
1001
DBPROPERTIES
1002
{
1000
PbHidd
1002
}
  0
ARC
  5
C9
330
1F
100
AcDbEntity
  8
THICK
100
AcDbCircle
 10
0.0000000000000007
 20
0.0
 30
0.0
 40
83.33333333333333
100
AcDbArc
 50
89.99998127603165
 51
92.57273366350759
1001
DBPROPERTIES
1002
{
1000
PbThick
1002
}
  0
LINE
  5
CA
330
1F
100
AcDbEntity
  8
THICK
100
AcDbLine
 10
-3.740638256072998
 20
83.24933624267578
 30
0.0
 11
-4.091071605682373
 21
83.22764587402344
 31
0.0
1001
DBPROPERTIES
1002
{
1000
PbThick
1002
}
  0
LINE
  5
CB
330
1F
100
AcDbEntity
  8
THICK
100
AcDbLine
 10
-4.091071605682373
 20
83.22764587402344
 30
0.0
 11
-4.450753688812256
 21
83.19327545166016
 31
0.0
1001
DBPROPERTIES
1002
{
1000
PbThick
1002
}
  0
LINE
  5
CC
330
1F
100
AcDbEntity
  8
THICK
100
AcDbLine
 10
-4.450753688812256
 20
83.19327545166016
 30
0.0
 11
-4.817946434020996
 21
83.14578247070312
 31
0.0
1001
DBPROPERTIES
1002
{
1000
PbThick
1002
}
  0
LINE
  5
CD
330
1F
100
AcDbEntity
  8
THICK
100
AcDbLine
 10
-4.817946434020996
 20
83.14578247070312
 30
0.0
 11
-5.190912246704102
 21
83.0847396850586
 31
0.0
1001
DBPROPERTIES
1002
{
1000
PbThick
1002
}
  0
LINE
  5
CE
330
1F
100
AcDbEntity
  8
THICK
100
AcDbLine
 10
-5.190912246704102
 20
83.0847396850586
 30
0.0
 11
-5.567901134490967
 21
83.01013946533203
 31
0.0
1001
DBPROPERTIES
1002
{
1000
PbThick
1002
}
  0
LINE
  5
CF
330
1F
100
AcDbEntity
  8
THICK
100
AcDbLine
 10
-5.567901134490967
 20
83.01013946533203
 30
0.0
 11
-5.947157382965088
 21
82.92220306396484
 31
0.0
1001
DBPROPERTIES
1002
{
1000
PbThick
1002
}
  0
LINE
  5
D0
330
1F
100
AcDbEntity
  8
THICK
100
AcDbLine
 10
-5.947157382965088
 20
82.92220306396484
 30
0.0
 11
-6.326930999755859
 21
82.82111358642578
 31
0.0
1001
DBPROPERTIES
1002
{
1000
PbThick
1002
}
  0
LINE
  5
D1
330
1F
100
AcDbEntity
  8
THICK
100
AcDbLine
 10
-6.326930999755859
 20
82.82111358642578
 30
0.0
 11
-6.705527305603027
 21
82.7074203491211
 31
0.0
1001
DBPROPERTIES
1002
{
1000
PbThick
1002
}
  0
LINE
  5
D2
330
1F
100
AcDbEntity
  8
THICK
100
AcDbLine
 10
-6.705527305603027
 20
82.7074203491211
 30
0.0
 11
-7.081223964691162
 21
82.58198547363281
 31
0.0
1001
DBPROPERTIES
1002
{
1000
PbThick
1002
}
  0
LINE
  5
D3
330
1F
100
AcDbEntity
  8
THICK
100
AcDbLine
 10
-7.081223964691162
 20
82.58198547363281
 30
0.0
 11
-7.452281951904297
 21
82.44557189941406
 31
0.0
1001
DBPROPERTIES
1002
{
1000
PbThick
1002
}
  0
LINE
  5
D4
330
1F
100
AcDbEntity
  8
THICK
100
AcDbLine
 10
-7.452281951904297
 20
82.44557189941406
 30
0.0
 11
-7.816992282867432
 21
82.29930114746094
 31
0.0
1001
DBPROPERTIES
1002
{
1000
PbThick
1002
}
  0
LINE
  5
D5
330
1F
100
AcDbEntity
  8
THICK
100
AcDbLine
 10
-7.816992282867432
 20
82.29930114746094
 30
0.0
 11
-8.17367935180664
 21
82.14460754394531
 31
0.0
1001
DBPROPERTIES
1002
{
1000
PbThick
1002
}
  0
LINE
  5
D6
330
1F
100
AcDbEntity
  8
THICK
100
AcDbLine
 10
-8.17367935180664
 20
82.14460754394531
 30
0.0
 11
-8.520652770996094
 21
81.98282623291016
 31
0.0
1001
DBPROPERTIES
1002
{
1000
PbThick
1002
}
  0
LINE
  5
D7
330
1F
100
AcDbEntity
  8
THICK
100
AcDbLine
 10
-8.520652770996094
 20
81.98282623291016
 30
0.0
 11
-8.86439037322998
 21
81.81143188476562
 31
0.0
1001
DBPROPERTIES
1002
{
1000
PbThick
1002
}
  0
LINE
  5
D8
330
1F
100
AcDbEntity
  8
THICK
100
AcDbLine
 10
-8.86439037322998
 20
81.81143188476562
 30
0.0
 11
-9.214648246765137
 21
81.62528228759766
 31
0.0
1001
DBPROPERTIES
1002
{
1000
PbThick
1002
}
  0
LINE
  5
D9
330
1F
100
AcDbEntity
  8
THICK
100
AcDbLine
 10
-9.214648246765137
 20
81.62528228759766
 30
0.0
 11
-9.569644927978516
 21
81.42459869384766
 31
0.0
1001
DBPROPERTIES
1002
{
1000
PbThick
1002
}
  0
LINE
  5
DA
330
1F
100
AcDbEntity
  8
THICK
100
AcDbLine
 10
-9.569644927978516
 20
81.42459869384766
 30
0.0
 11
-9.927518844604492
 21
81.20964050292969
 31
0.0
1001
DBPROPERTIES
1002
{
1000
PbThick
1002
}
  0
LINE
  5
DB
330
1F
100
AcDbEntity
  8
THICK
100
AcDbLine
 10
-9.927518844604492
 20
81.20964050292969
 30
0.0
 11
-10.28648948669434
 21
80.98107147216797
 31
0.0
1001
DBPROPERTIES
1002
{
1000
PbThick
1002
}
  0
LINE
  5
DC
330
1F
100
AcDbEntity
  8
THICK
100
AcDbLine
 10
-10.28648948669434
 20
80.98107147216797
 30
0.0
 11
-10.50626373291016
 21
81.10224914550781
 31
0.0
1001
DBPROPERTIES
1002
{
1000
PbThick
1002
}
  0
LINE
  5
DD
330
1F
100
AcDbEntity
  8
THICK
100
AcDbLine
 10
-10.50626373291016
 20
81.10224914550781
 30
0.0
 11
-10.72694778442383
 21
81.21363830566406
 31
0.0
1001
DBPROPERTIES
1002
{
1000
PbThick
1002
}
  0
LINE
  5
DE
330
1F
100
AcDbEntity
  8
THICK
100
AcDbLine
 10
-10.72694778442383
 20
81.21363830566406
 30
0.0
 11
-10.94748210906982
 21
81.31531524658203
 31
0.0
1001
DBPROPERTIES
1002
{
1000
PbThick
1002
}
  0
LINE
  5
DF
330
1F
100
AcDbEntity
  8
THICK
100
AcDbLine
 10
-10.94748210906982
 20
81.31531524658203
 30
0.0
 11
-11.16677570343018
 21
81.40744018554688
 31
0.0
1001
DBPROPERTIES
1002
{
1000
PbThick
1002
}
  0
LINE
  5
E0
330
1F
100
AcDbEntity
  8
THICK
100
AcDbLine
 10
-11.16677570343018
 20
81.40744018554688
 30
0.0
 11
-11.38382244110107
 21
81.49028778076172
 31
0.0
1001
DBPROPERTIES
1002
{
1000
PbThick
1002
}
  0
LINE
  5
E1
330
1F
100
AcDbEntity
  8
THICK
100
AcDbLine
 10
-11.38382244110107
 20
81.49028778076172
 30
0.0
 11
-11.6035327911377
 21
81.56614685058594
 31
0.0
1001
DBPROPERTIES
1002
{
1000
PbThick
1002
}
  0
LINE
  5
E2
330
1F
100
AcDbEntity
  8
HIDDEN
100
AcDbLine
 10
-11.6035327911377
 20
81.56614685058594
 30
0.0
 11
-11.08995819091797
 21
81.824462890625
 31
0.0
1001
DBPROPERTIES
1002
{
1000
PbHidd
1002
}
  0
LINE
  5
E3
330
1F
100
AcDbEntity
  8
HIDDEN
100
AcDbLine
 10
-11.08995819091797
 20
81.824462890625
 30
0.0
 11
-10.55577087402344
 21
82.06766510009766
 31
0.0
1001
DBPROPERTIES
1002
{
1000
PbHidd
1002
}
  0
LINE
  5
E4
330
1F
100
AcDbEntity
  8
HIDDEN
100
AcDbLine
 10
-10.55577087402344
 20
82.06766510009766
 30
0.0
 11
-10.00556373596191
 21
82.291259765625
 31
0.0
1001
DBPROPERTIES
1002
{
1000
PbHidd
1002
}
  0
LINE
  5
E5
330
1F
100
AcDbEntity
  8
HIDDEN
100
AcDbLine
 10
-10.00556373596191
 20
82.291259765625
 30
0.0
 11
-9.444915771484375
 21
82.49131774902344
 31
0.0
1001
DBPROPERTIES
1002
{
1000
PbHidd
1002
}
  0
LINE
  5
E6
330
1F
100
AcDbEntity
  8
HIDDEN
100
AcDbLine
 10
-9.444915771484375
 20
82.49131774902344
 30
0.0
 11
-8.879487991333008
 21
82.66478729248047
 31
0.0
1001
DBPROPERTIES
1002
{
1000
PbHidd
1002
}
  0
LINE
  5
E7
330
1F
100
AcDbEntity
  8
HIDDEN
100
AcDbLine
 10
-8.879487991333008
 20
82.66478729248047
 30
0.0
 11
-8.314901351928711
 21
82.80949401855469
 31
0.0
1001
DBPROPERTIES
1002
{
1000
PbHidd
1002
}
  0
LINE
  5
E8
330
1F
100
AcDbEntity
  8
HIDDEN
100
AcDbLine
 10
-8.314901351928711
 20
82.80949401855469
 30
0.0
 11
-7.756920337677002
 21
82.92440032958984
 31
0.0
1001
DBPROPERTIES
1002
{
1000
PbHidd
1002
}
  0
LINE
  5
E9
330
1F
100
AcDbEntity
  8
HIDDEN
100
AcDbLine
 10
-7.756920337677002
 20
82.92440032958984
 30
0.0
 11
-7.211331844329834
 21
83.00917053222656
 31
0.0
1001
DBPROPERTIES
1002
{
1000
PbHidd
1002
}
  0
LINE
  5
EA
330
1F
100
AcDbEntity
  8
HIDDEN
100
AcDbLine
 10
-7.211331844329834
 20
83.00917053222656
 30
0.0
 11
-6.683910846710205
 21
83.06484985351562
 31
0.0
1001
DBPROPERTIES
1002
{
1000
PbHidd
1002
}
  0
LINE
  5
EB
330
1F
100
AcDbEntity
  8
THICK
100
AcDbLine
 10
-67.41920471191406
 20
48.98056411743164
 30
0.0
 11
-67.6324691772461
 21
48.67566299438477
 31
0.0
1001
DBPROPERTIES
1002
{
1000
PbThick
1002
}
  0
LINE
  5
EC
330
1F
100
AcDbEntity
  8
THICK
100
AcDbLine
 10
-67.6324691772461
 20
48.67566299438477
 30
0.0
 11
-67.84100341796875
 21
48.35387420654297
 31
0.0
1001
DBPROPERTIES
1002
{
1000
PbThick
1002
}
  0
LINE
  5
ED
330
1F
100
AcDbEntity
  8
THICK
100
AcDbLine
 10
-67.84100341796875
 20
48.35387420654297
 30
0.0
 11
-68.0430908203125
 21
48.01646041870117
 31
0.0
1001
DBPROPERTIES
1002
{
1000
PbThick
1002
}
  0
LINE
  5
EE
330
1F
100
AcDbEntity
  8
THICK
100
AcDbLine
 10
-68.0430908203125
 20
48.01646041870117
 30
0.0
 11
-68.23709106445312
 21
47.66476058959961
 31
0.0
1001
DBPROPERTIES
1002
{
1000
PbThick
1002
}
  0
LINE
  5
EF
330
1F
100
AcDbEntity
  8
THICK
100
AcDbLine
 10
-68.23709106445312
 20
47.66476058959961
 30
0.0
 11
-68.42176818847656
 21
47.30045700073242
 31
0.0
1001
DBPROPERTIES
1002
{
1000
PbThick
1002
}
  0
LINE
  5
F0
330
1F
100
AcDbEntity
  8
THICK
100
AcDbLine
 10
-68.42176818847656
 20
47.30045700073242
 30
0.0
 11
-68.59603118896484
 21
46.92532730102539
 31
0.0
1001
DBPROPERTIES
1002
{
1000
PbThick
1002
}
  0
LINE
  5
F1
330
1F
100
AcDbEntity
  8
THICK
100
AcDbLine
 10
-68.59603118896484
 20
46.92532730102539
 30
0.0
 11
-68.75883483886719
 21
46.54119110107422
 31
0.0
1001
DBPROPERTIES
1002
{
1000
PbThick
1002
}
  0
LINE
  5
F2
330
1F
100
AcDbEntity
  8
THICK
100
AcDbLine
 10
-68.75883483886719
 20
46.54119110107422
 30
0.0
 11
-68.90956115722656
 21
46.15011978149414
 31
0.0
1001
DBPROPERTIES
1002
{
1000
PbThick
1002
}
  0
LINE
  5
F3
330
1F
100
AcDbEntity
  8
THICK
100
AcDbLine
 10
-68.90956115722656
 20
46.15011978149414
 30
0.0
 11
-69.04772186279297
 21
45.75435638427734
 31
0.0
1001
DBPROPERTIES
1002
{
1000
PbThick
1002
}
  0
LINE
  5
F4
330
1F
100
AcDbEntity
  8
THICK
100
AcDbLine
 10
-69.04772186279297
 20
45.75435638427734
 30
0.0
 11
-69.1728744506836
 21
45.35617446899414
 31
0.0
1001
DBPROPERTIES
1002
{
1000
PbThick
1002
}
  0
LINE
  5
F5
330
1F
100
AcDbEntity
  8
THICK
100
AcDbLine
 10
-69.1728744506836
 20
45.35617446899414
 30
0.0
 11
-69.28494262695312
 21
44.95808410644531
 31
0.0
1001
DBPROPERTIES
1002
{
1000
PbThick
1002
}
  0
LINE
  5
F6
330
1F
100
AcDbEntity
  8
THICK
100
AcDbLine
 10
-69.28494262695312
 20
44.95808410644531
 30
0.0
 11
-69.38404846191406
 21
44.56272506713867
 31
0.0
1001
DBPROPERTIES
1002
{
1000
PbThick
1002
}
  0
LINE
  5
F7
330
1F
100
AcDbEntity
  8
THICK
100
AcDbLine
 10
-69.38404846191406
 20
44.56272506713867
 30
0.0
 11
-69.47135162353516
 21
44.1678466796875
 31
0.0
1001
DBPROPERTIES
1002
{
1000
PbThick
1002
}
  0
LINE
  5
F8
330
1F
100
AcDbEntity
  8
THICK
100
AcDbLine
 10
-69.47135162353516
 20
44.1678466796875
 30
0.0
 11
-69.55018615722656
 21
43.75801086425781
 31
0.0
1001
DBPROPERTIES
1002
{
1000
PbThick
1002
}
  0
LINE
  5
F9
330
1F
100
AcDbEntity
  8
THICK
100
AcDbLine
 10
-69.55018615722656
 20
43.75801086425781
 30
0.0
 11
-69.6197738647461
 21
43.33353805541992
 31
0.0
1001
DBPROPERTIES
1002
{
1000
PbThick
1002
}
  0
LINE
  5
FA
330
1F
100
AcDbEntity
  8
THICK
100
AcDbLine
 10
-69.6197738647461
 20
43.33353805541992
 30
0.0
 11
-69.67899322509766
 21
42.89635848999023
 31
0.0
1001
DBPROPERTIES
1002
{
1000
PbThick
1002
}
  0
LINE
  5
FB
330
1F
100
AcDbEntity
  8
THICK
100
AcDbLine
 10
-69.67899322509766
 20
42.89635848999023
 30
0.0
 11
-69.7270736694336
 21
42.44857025146484
 31
0.0
1001
DBPROPERTIES
1002
{
1000
PbThick
1002
}
  0
LINE
  5
FC
330
1F
100
AcDbEntity
  8
THICK
100
AcDbLine
 10
-69.7270736694336
 20
42.44857025146484
 30
0.0
 11
-69.9588394165039
 21
42.35229873657227
 31
0.0
1001
DBPROPERTIES
1002
{
1000
PbThick
1002
}
  0
LINE
  5
FD
330
1F
100
AcDbEntity
  8
THICK
100
AcDbLine
 10
-69.9588394165039
 20
42.35229873657227
 30
0.0
 11
-70.18352508544922
 21
42.24921035766602
 31
0.0
1001
DBPROPERTIES
1002
{
1000
PbThick
1002
}
  0
LINE
  5
FE
330
1F
100
AcDbEntity
  8
THICK
100
AcDbLine
 10
-70.18352508544922
 20
42.24921035766602
 30
0.0
 11
-70.40052032470703
 21
42.14018630981445
 31
0.0
1001
DBPROPERTIES
1002
{
1000
PbThick
1002
}
  0
LINE
  5
FF
330
1F
100
AcDbEntity
  8
THICK
100
AcDbLine
 10
-70.40052032470703
 20
42.14018630981445
 30
0.0
 11
-70.60926055908203
 21
42.02615737915039
 31
0.0
1001
DBPROPERTIES
1002
{
1000
PbThick
1002
}
  0
LINE
  5
100
330
1F
100
AcDbEntity
  8
THICK
100
AcDbLine
 10
-70.60926055908203
 20
42.02615737915039
 30
0.0
 11
-70.80937194824219
 21
41.90813446044922
 31
0.0
1001
DBPROPERTIES
1002
{
1000
PbThick
1002
}
  0
LINE
  5
101
330
1F
100
AcDbEntity
  8
THICK
100
AcDbLine
 10
-70.80937194824219
 20
41.90813446044922
 30
0.0
 11
-71.00566101074219
 21
41.78365325927734
 31
0.0
1001
DBPROPERTIES
1002
{
1000
PbThick
1002
}
  0
LINE
  5
102
330
1F
100
AcDbEntity
  8
HIDDEN
100
AcDbLine
 10
-71.00566101074219
 20
41.78365325927734
 30
0.0
 11
-70.90033721923828
 21
42.28961181640625
 31
0.0
1001
DBPROPERTIES
1002
{
1000
PbHidd
1002
}
  0
LINE
  5
103
330
1F
100
AcDbEntity
  8
HIDDEN
100
AcDbLine
 10
-70.90033721923828
 20
42.28961181640625
 30
0.0
 11
-70.77510070800781
 21
42.80140686035156
 31
0.0
1001
DBPROPERTIES
1002
{
1000
PbHidd
1002
}
  0
LINE
  5
104
330
1F
100
AcDbEntity
  8
HIDDEN
100
AcDbLine
 10
-70.77510070800781
 20
42.80140686035156
 30
0.0
 11
-70.62939453125
 21
43.31461334228516
 31
0.0
1001
DBPROPERTIES
1002
{
1000
PbHidd
1002
}
  0
LINE
  5
105
330
1F
100
AcDbEntity
  8
HIDDEN
100
AcDbLine
 10
-70.62939453125
 20
43.31461334228516
 30
0.0
 11
-70.46329498291016
 21
43.82412719726562
 31
0.0
1001
DBPROPERTIES
1002
{
1000
PbHidd
1002
}
  0
LINE
  5
106
330
1F
100
AcDbEntity
  8
HIDDEN
100
AcDbLine
 10
-70.46329498291016
 20
43.82412719726562
 30
0.0
 11
-70.27755737304688
 21
44.32527160644531
 31
0.0
1001
DBPROPERTIES
1002
{
1000
PbHidd
1002
}
  0
LINE
  5
107
330
1F
100
AcDbEntity
  8
HIDDEN
100
AcDbLine
 10
-70.27755737304688
 20
44.32527160644531
 30
0.0
 11
-70.07313537597656
 21
44.81356048583984
 31
0.0
1001
DBPROPERTIES
1002
{
1000
PbHidd
1002
}
  0
LINE
  5
108
330
1F
100
AcDbEntity
  8
HIDDEN
100
AcDbLine
 10
-70.07313537597656
 20
44.81356048583984
 30
0.0
 11
-69.85179138183594
 21
45.28511428833008
 31
0.0
1001
DBPROPERTIES
1002
{
1000
PbHidd
1002
}
  0
LINE
  5
109
330
1F
100
AcDbEntity
  8
HIDDEN
100
AcDbLine
 10
-69.85179138183594
 20
45.28511428833008
 30
0.0
 11
-69.6156234741211
 21
45.7362060546875
 31
0.0
1001
DBPROPERTIES
1002
{
1000
PbHidd
1002
}
  0
LINE
  5
10A
330
1F
100
AcDbEntity
  8
HIDDEN
100
AcDbLine
 10
-69.6156234741211
 20
45.7362060546875
 30
0.0
 11
-69.36727905273438
 21
46.16354751586914
 31
0.0
1001
DBPROPERTIES
1002
{
1000
PbHidd
1002
}
  0
LINE
  5
10B
330
1F
100
AcDbEntity
  8
HIDDEN
100
AcDbLine
 10
-69.36727905273438
 20
46.16354751586914
 30
0.0
 11
-69.11006927490234
 21
46.56439590454102
 31
0.0
1001
DBPROPERTIES
1002
{
1000
PbHidd
1002
}
  0
ARC
  5
10C
330
1F
100
AcDbEntity
  8
THICK
100
AcDbCircle
 10
0.0
 20
0.0
 30
0.0
 40
72.33333333333333
100
AcDbArc
 50
89.99998127603165
 51
180.0000198478428
1001
DBPROPERTIES
1002
{
1000
PbThick
1002
}
  0
ARC
  5
10D
330
1F
100
AcDbEntity
  8
HIDDEN
100
AcDbCircle
 10
0.0
 20
0.0
 30
0.0
 40
81.9672131147541
100
AcDbArc
 50
89.99998127603165
 51
270.0000187239684
1001
DBPROPERTIES
1002
{
1000
PbHidd
1002
}
  0
ARC
  5
10E
330
1F
100
AcDbEntity
  8
HIDDEN
100
AcDbCircle
 10
0.0
 20
0.0000000000000198
 30
0.0
 40
89.0
100
AcDbArc
 50
180.0000198478428
 51
182.9999871674622
1001
DBPROPERTIES
1002
{
1000
PbHidd
1002
}
  0
ARC
  5
10F
330
1F
100
AcDbEntity
  8
HIDDEN
100
AcDbCircle
 10
0.0
 20
0.0000000000000198
 30
0.0
 40
89.0
100
AcDbArc
 50
356.999992984695
 51
0.0
1001
DBPROPERTIES
1002
{
1000
PbHidd
1002
}
  0
ARC
  5
110
330
1F
100
AcDbEntity
  8
HIDDEN
100
AcDbCircle
 10
0.0
 20
0.0000000000000147
 30
0.0
 40
100.0
100
AcDbArc
 50
81.0000175258962
 51
89.99998127603165
1001
DBPROPERTIES
1002
{
1000
PbHidd
1002
}
  0
LINE
  5
111
330
1F
100
AcDbEntity
  8
HIDDEN
100
AcDbLine
 10
15.64344650402318
 20
98.76883405951378
 30
0.0
 11
15.64344650402318
 21
98.76883405951378
 31
0.0
1001
DBPROPERTIES
1002
{
1000
PbHidd
1002
}
  0
ARC
  5
112
330
1F
100
AcDbEntity
  8
HIDDEN
100
AcDbCircle
 10
0.0
 20
0.000000000000011
 30
0.0
 40
102.0408163265306
100
AcDbArc
 50
270.0000187239684
 51
299.6394119449834
1001
DBPROPERTIES
1002
{
1000
PbHidd
1002
}
  0
ARC
  5
113
330
1F
100
AcDbEntity
  8
THICK
100
AcDbCircle
 10
0.0
 20
0.000000000000011
 30
0.0
 40
102.0408163265306
100
AcDbArc
 50
299.6394119449834
 51
316.6721866870735
1001
DBPROPERTIES
1002
{
1000
PbThick
1002
}
  0
ARC
  5
114
330
1F
100
AcDbEntity
  8
HIDDEN
100
AcDbCircle
 10
0.0
 20
0.000000000000011
 30
0.0
 40
102.0408163265306
100
AcDbArc
 50
316.6721866870735
 51
351.0679890443671
1001
DBPROPERTIES
1002
{
1000
PbHidd
1002
}
  0
ARC
  5
115
330
1F
100
AcDbEntity
  8
THICK
100
AcDbCircle
 10
0.0
 20
0.000000000000011
 30
0.0
 40
102.0408163265306
100
AcDbArc
 50
351.0679890443671
 51
8.100763786457144
1001
DBPROPERTIES
1002
{
1000
PbThick
1002
}
  0
ARC
  5
116
330
1F
100
AcDbEntity
  8
HIDDEN
100
AcDbCircle
 10
0.0
 20
0.000000000000011
 30
0.0
 40
102.0408163265306
100
AcDbArc
 50
8.100763786457144
 51
42.49656614375072
1001
DBPROPERTIES
1002
{
1000
PbHidd
1002
}
  0
ARC
  5
117
330
1F
100
AcDbEntity
  8
THICK
100
AcDbCircle
 10
0.0
 20
0.000000000000011
 30
0.0
 40
102.0408163265306
100
AcDbArc
 50
42.49656614375072
 51
59.52934088584081
1001
DBPROPERTIES
1002
{
1000
PbThick
1002
}
  0
ARC
  5
118
330
1F
100
AcDbEntity
  8
HIDDEN
100
AcDbCircle
 10
0.0
 20
0.000000000000011
 30
0.0
 40
102.0408163265306
100
AcDbArc
 50
59.52934088584081
 51
89.99998127603165
1001
DBPROPERTIES
1002
{
1000
PbHidd
1002
}
  0
LINE
  5
119
330
1F
100
AcDbEntity
  8
HIDDEN
100
AcDbLine
 10
8.675076975772008
 20
-101.6713884829414
 30
0.0
 11
8.675076975772008
 21
-101.6713884829414
 31
0.0
1001
DBPROPERTIES
1002
{
1000
PbHidd
1002
}
  0
LINE
  5
11A
330
1F
100
AcDbEntity
  8
HIDDEN
100
AcDbLine
 10
12.65316455724511
 20
-101.2532746298707
 30
0.0
 11
12.65316455724511
 21
-101.2532746298707
 31
0.0
1001
DBPROPERTIES
1002
{
1000
PbHidd
1002
}
  0
LINE
  5
11B
330
1F
100
AcDbEntity
  8
HIDDEN
100
AcDbLine
 10
101.6713884829414
 20
8.675076975772003
 30
0.0
 11
101.6713884829414
 21
8.675076975772003
 31
0.0
1001
DBPROPERTIES
1002
{
1000
PbHidd
1002
}
  0
LINE
  5
11C
330
1F
100
AcDbEntity
  8
HIDDEN
100
AcDbLine
 10
101.2532746298708
 20
12.6531645572451
 30
0.0
 11
101.2532746298708
 21
12.6531645572451
 31
0.0
1001
DBPROPERTIES
1002
{
1000
PbHidd
1002
}
  0
LINE
  5
11D
330
1F
100
AcDbEntity
  8
HIDDEN
100
AcDbLine
 10
101.2532746298708
 20
-12.65316455724514
 30
0.0
 11
101.2532746298708
 21
-12.65316455724514
 31
0.0
1001
DBPROPERTIES
1002
{
1000
PbHidd
1002
}
  0
LINE
  5
11E
330
1F
100
AcDbEntity
  8
HIDDEN
100
AcDbLine
 10
101.6713884829414
 20
-8.675076975772045
 30
0.0
 11
101.6713884829414
 21
-8.675076975772045
 31
0.0
1001
DBPROPERTIES
1002
{
1000
PbHidd
1002
}
  0
LINE
  5
11F
330
1F
100
AcDbEntity
  8
HIDDEN
100
AcDbLine
 10
12.65316455724514
 20
101.2532746298708
 30
0.0
 11
12.65316455724514
 21
101.2532746298708
 31
0.0
1001
DBPROPERTIES
1002
{
1000
PbHidd
1002
}
  0
LINE
  5
120
330
1F
100
AcDbEntity
  8
HIDDEN
100
AcDbLine
 10
8.675076975772054
 20
101.6713884829414
 30
0.0
 11
8.675076975772054
 21
101.6713884829414
 31
0.0
1001
DBPROPERTIES
1002
{
1000
PbHidd
1002
}
  0
ARC
  5
121
330
1F
100
AcDbEntity
  8
HIDDEN
100
AcDbCircle
 10
0.0
 20
0.0000000000000147
 30
0.0
 40
71.42857142857143
100
AcDbArc
 50
270.0000187239684
 51
273.0000257392733
1001
DBPROPERTIES
1002
{
1000
PbHidd
1002
}
  0
LINE
  5
122
330
1F
100
AcDbEntity
  8
HIDDEN
100
AcDbLine
 10
3.738282588781663
 20
-71.33068105389812
 30
0.0
 11
3.738282588781663
 21
-71.33068105389812
 31
0.0
1001
DBPROPERTIES
1002
{
1000
PbHidd
1002
}
  0
ARC
  5
123
330
1F
100
AcDbEntity
  8
THICK
100
AcDbCircle
 10
0.0
 20
0.0000000000000019
 30
0.0
 40
128.6453792062852
100
AcDbArc
 50
347.5252764055141
 51
0.0
1001
DBPROPERTIES
1002
{
1000
PbThick
1002
}
  0
ARC
  5
124
330
1F
100
AcDbEntity
  8
HIDDEN
100
AcDbCircle
 10
0.0
 20
0.0000000000000019
 30
0.0
 40
128.6453792062852
100
AcDbArc
 50
320.3981885245888
 51
347.5252764055141
1001
DBPROPERTIES
1002
{
1000
PbHidd
1002
}
  0
ARC
  5
125
330
1F
100
AcDbEntity
  8
THICK
100
AcDbCircle
 10
0.0
 20
0.0000000000000019
 30
0.0
 40
128.6453792062852
100
AcDbArc
 50
296.0966993061305
 51
320.3981885245888
1001
DBPROPERTIES
1002
{
1000
PbThick
1002
}
  0
ARC
  5
126
330
1F
100
AcDbEntity
  8
HIDDEN
100
AcDbCircle
 10
0.0
 20
0.0000000000000019
 30
0.0
 40
128.6453792062852
100
AcDbArc
 50
268.9696114252051
 51
296.0966993061305
1001
DBPROPERTIES
1002
{
1000
PbHidd
1002
}
  0
ARC
  5
127
330
1F
100
AcDbEntity
  8
THICK
100
AcDbCircle
 10
0.0
 20
0.0000000000000019
 30
0.0
 40
128.6453792062852
100
AcDbArc
 50
244.6681222067468
 51
268.9696114252051
1001
DBPROPERTIES
1002
{
1000
PbThick
1002
}
  0
ARC
  5
128
330
1F
100
AcDbEntity
  8
HIDDEN
100
AcDbCircle
 10
0.0
 20
0.0000000000000019
 30
0.0
 40
128.6453792062852
100
AcDbArc
 50
217.5410916216009
 51
244.6681222067468
1001
DBPROPERTIES
1002
{
1000
PbHidd
1002
}
  0
ARC
  5
129
330
1F
100
AcDbEntity
  8
THICK
100
AcDbCircle
 10
0.0
 20
0.0000000000000019
 30
0.0
 40
128.6453792062852
100
AcDbArc
 50
193.2395451073632
 51
217.5410916216009
1001
DBPROPERTIES
1002
{
1000
PbThick
1002
}
  0
ARC
  5
12A
330
1F
100
AcDbEntity
  8
HIDDEN
100
AcDbCircle
 10
0.0
 20
0.0000000000000019
 30
0.0
 40
128.6453792062852
100
AcDbArc
 50
179.9999801521572
 51
193.2395451073632
1001
DBPROPERTIES
1002
{
1000
PbHidd
1002
}
  0
ARC
  5
12B
330
1F
100
AcDbEntity
  8
HIDDEN
100
AcDbCircle
 10
0.0
 20
0.0000000000000021
 30
0.0
 40
130.4453792062852
100
AcDbArc
 50
180.0000198478428
 51
185.1214779954931
1001
DBPROPERTIES
1002
{
1000
PbHidd
1002
}
  0
ARC
  5
12C
330
1F
100
AcDbEntity
  8
HIDDEN
100
AcDbCircle
 10
0.0
 20
0.0000000000000021
 30
0.0
 40
130.4453792062852
100
AcDbArc
 50
185.1214779954931
 51
186.8785103700413
1001
DBPROPERTIES
1002
{
1000
PbHidd
1002
}
  0
ARC
  5
12D
330
1F
100
AcDbEntity
  8
THICK
100
AcDbCircle
 10
0.0
 20
0.0000000000000021
 30
0.0
 40
130.4453792062852
100
AcDbArc
 50
244.4821974022269
 51
263.1214885060843
1001
DBPROPERTIES
1002
{
1000
PbThick
1002
}
  0
ARC
  5
12E
330
1F
100
AcDbEntity
  8
HIDDEN
100
AcDbCircle
 10
0.0
 20
0.0000000000000021
 30
0.0
 40
130.4453792062852
100
AcDbArc
 50
217.7364702297405
 51
244.4821974022269
1001
DBPROPERTIES
1002
{
1000
PbHidd
1002
}
  0
ARC
  5
12F
330
1F
100
AcDbEntity
  8
THICK
100
AcDbCircle
 10
0.0
 20
0.0000000000000021
 30
0.0
 40
130.4453792062852
100
AcDbArc
 50
193.0536203028432
 51
217.7364702297405
1001
DBPROPERTIES
1002
{
1000
PbThick
1002
}
  0
ARC
  5
130
330
1F
100
AcDbEntity
  8
HIDDEN
100
AcDbCircle
 10
0.0
 20
0.0000000000000021
 30
0.0
 40
130.4453792062852
100
AcDbArc
 50
186.8785103700413
 51
193.0536203028432
1001
DBPROPERTIES
1002
{
1000
PbHidd
1002
}
  0
ARC
  5
131
330
1F
100
AcDbEntity
  8
THICK
100
AcDbCircle
 10
0.0
 20
0.0000000000000021
 30
0.0
 40
130.4453792062852
100
AcDbArc
 50
263.1214885060843
 51
264.8785208806324
1001
DBPROPERTIES
1002
{
1000
PbThick
1002
}
  0
ARC
  5
132
330
1F
100
AcDbEntity
  8
HIDDEN
100
AcDbCircle
 10
0.0
 20
0.0000000000000021
 30
0.0
 40
130.4453792062852
100
AcDbArc
 50
269.1650473291242
 51
275.1215165673042
1001
DBPROPERTIES
1002
{
1000
PbHidd
1002
}
  0
ARC
  5
133
330
1F
100
AcDbEntity
  8
THICK
100
AcDbCircle
 10
0.0
 20
0.0000000000000021
 30
0.0
 40
130.4453792062852
100
AcDbArc
 50
264.8785208806324
 51
269.1650473291242
1001
DBPROPERTIES
1002
{
1000
PbThick
1002
}
  0
ARC
  5
134
330
1F
100
AcDbEntity
  8
HIDDEN
100
AcDbCircle
 10
0.0
 20
0.0000000000000021
 30
0.0
 40
130.4453792062852
100
AcDbArc
 50
275.1215165673042
 51
276.8784916460729
1001
DBPROPERTIES
1002
{
1000
PbHidd
1002
}
  0
ARC
  5
135
330
1F
100
AcDbEntity
  8
THICK
100
AcDbCircle
 10
0.0
 20
0.0000000000000021
 30
0.0
 40
130.4453792062852
100
AcDbArc
 50
347.3393516009942
 51
353.1215270778955
1001
DBPROPERTIES
1002
{
1000
PbThick
1002
}
  0
ARC
  5
136
330
1F
100
AcDbEntity
  8
HIDDEN
100
AcDbCircle
 10
0.0
 20
0.0000000000000021
 30
0.0
 40
130.4453792062852
100
AcDbArc
 50
320.5936244285079
 51
347.3393516009942
1001
DBPROPERTIES
1002
{
1000
PbHidd
1002
}
  0
ARC
  5
137
330
1F
100
AcDbEntity
  8
THICK
100
AcDbCircle
 10
0.0
 20
0.0000000000000021
 30
0.0
 40
130.4453792062852
100
AcDbArc
 50
295.9107745016105
 51
320.5936244285079
1001
DBPROPERTIES
1002
{
1000
PbThick
1002
}
  0
ARC
  5
138
330
1F
100
AcDbEntity
  8
HIDDEN
100
AcDbCircle
 10
0.0
 20
0.0000000000000021
 30
0.0
 40
130.4453792062852
100
AcDbArc
 50
276.8784916460729
 51
295.9107745016105
1001
DBPROPERTIES
1002
{
1000
PbHidd
1002
}
  0
ARC
  5
139
330
1F
100
AcDbEntity
  8
THICK
100
AcDbCircle
 10
0.0
 20
0.0000000000000021
 30
0.0
 40
130.4453792062852
100
AcDbArc
 50
353.1215270778955
 51
354.8785021566641
1001
DBPROPERTIES
1002
{
1000
PbThick
1002
}
  0
ARC
  5
13A
330
1F
100
AcDbEntity
  8
THICK
100
AcDbCircle
 10
0.0
 20
0.0000000000000021
 30
0.0
 40
130.4453792062852
100
AcDbArc
 50
354.8785021566641
 51
0.0
1001
DBPROPERTIES
1002
{
1000
PbThick
1002
}
  0
ARC
  5
13B
330
1F
100
AcDbEntity
  8
HIDDEN
100
AcDbCircle
 10
0.0
 20
0.0000000000000021
 30
0.0
 40
126.5669182372026
100
AcDbArc
 50
0.0
 51
5.094568826964741
1001
DBPROPERTIES
1002
{
1000
PbHidd
1002
}
  0
ARC
  5
13C
330
1F
100
AcDbEntity
  8
THICK
100
AcDbCircle
 10
0.0
 20
0.0000000000000019
 30
0.0
 40
124.7669182372026
100
AcDbArc
 50
0.0
 51
5.081505389235757
1001
DBPROPERTIES
1002
{
1000
PbThick
1002
}
  0
ARC
  5
13D
330
1F
100
AcDbEntity
  8
HIDDEN
100
AcDbCircle
 10
0.0
 20
0.0000000000000019
 30
0.0
 40
124.7669182372026
100
AcDbArc
 50
174.9184571628276
 51
180.0000198478428
1001
DBPROPERTIES
1002
{
1000
PbHidd
1002
}
  0
ARC
  5
13E
330
1F
100
AcDbEntity
  8
HIDDEN
100
AcDbCircle
 10
0.0
 20
0.0000000000000021
 30
0.0
 40
126.5669182372026
100
AcDbArc
 50
174.9053937250986
 51
180.0000198478428
1001
DBPROPERTIES
1002
{
1000
PbHidd
1002
}
  0
ARC
  5
13F
330
1F
100
AcDbEntity
  8
HIDDEN
100
AcDbCircle
 10
0.0
 20
0.0000000000000122
 30
0.0
 40
62.5
100
AcDbArc
 50
270.0000187239684
 51
273.0000257392733
1001
DBPROPERTIES
1002
{
1000
PbHidd
1002
}
  0
LINE
  5
140
330
1F
100
AcDbEntity
  8
HIDDEN
100
AcDbLine
 10
3.270997265183955
 20
-62.41434592216085
 30
0.0
 11
3.270997265183955
 21
-62.41434592216086
 31
0.0
1001
DBPROPERTIES
1002
{
1000
PbHidd
1002
}
  0
LINE
  5
141
330
1F
100
AcDbEntity
  8
HIDDEN
100
AcDbLine
 10
-2.17543124783172
 20
-41.50970099463177
 30
0.0
 11
-2.17543124783172
 21
-41.50970099463177
 31
0.0
1001
DBPROPERTIES
1002
{
1000
PbHidd
1002
}
  0
LINE
  5
142
330
1F
100
AcDbEntity
  8
HIDDEN
100
AcDbLine
 10
-3.270997265184021
 20
-62.41434592216083
 30
0.0
 11
-2.17543124783172
 21
-41.50970099463176
 31
0.0
1001
DBPROPERTIES
1002
{
1000
PbHidd
1002
}
  0
LINE
  5
143
330
1F
100
AcDbEntity
  8
HIDDEN
100
AcDbLine
 10
-3.270997265184022
 20
-62.41434592216085
 30
0.0
 11
-3.270997265184022
 21
-62.41434592216084
 31
0.0
1001
DBPROPERTIES
1002
{
1000
PbHidd
1002
}
  0
ARC
  5
144
330
1F
100
AcDbEntity
  8
HIDDEN
100
AcDbCircle
 10
0.0
 20
0.0000000000000122
 30
0.0
 40
62.5
100
AcDbArc
 50
267.0000117086634
 51
270.0000187239684
1001
DBPROPERTIES
1002
{
1000
PbHidd
1002
}
  0
LINE
  5
145
330
1F
100
AcDbEntity
  8
HIDDEN
100
AcDbLine
 10
6.502459263505585
 20
-41.05491202407121
 30
0.0
 11
6.502459263505585
 21
-41.05491202407121
 31
0.0
1001
DBPROPERTIES
1002
{
1000
PbHidd
1002
}
  0
LINE
  5
146
330
1F
100
AcDbEntity
  8
HIDDEN
100
AcDbLine
 10
9.777154065014413
 20
-61.73052128719609
 30
0.0
 11
6.502459263505585
 21
-41.05491202407121
 31
0.0
1001
DBPROPERTIES
1002
{
1000
PbHidd
1002
}
  0
LINE
  5
147
330
1F
100
AcDbEntity
  8
HIDDEN
100
AcDbLine
 10
9.777154065014415
 20
-61.7305212871961
 30
0.0
 11
9.777154065014415
 21
-61.7305212871961
 31
0.0
1001
DBPROPERTIES
1002
{
1000
PbHidd
1002
}
  0
ARC
  5
148
330
1F
100
AcDbEntity
  8
HIDDEN
100
AcDbCircle
 10
0.0
 20
0.0000000000000122
 30
0.0
 40
62.5
100
AcDbArc
 50
278.9999824741038
 51
284.9999965047138
1001
DBPROPERTIES
1002
{
1000
PbHidd
1002
}
  0
LINE
  5
149
330
1F
100
AcDbEntity
  8
HIDDEN
100
AcDbLine
 10
16.17619031890753
 20
-60.37036414306675
 30
0.0
 11
16.17619031890753
 21
-60.37036414306676
 31
0.0
1001
DBPROPERTIES
1002
{
1000
PbHidd
1002
}
  0
LINE
  5
14A
330
1F
100
AcDbEntity
  8
HIDDEN
100
AcDbLine
 10
-10.75824497476146
 20
-40.15031684608226
 30
0.0
 11
-10.75824497476146
 21
-40.15031684608226
 31
0.0
1001
DBPROPERTIES
1002
{
1000
PbHidd
1002
}
  0
LINE
  5
14B
330
1F
100
AcDbEntity
  8
HIDDEN
100
AcDbLine
 10
-16.17619031890755
 20
-60.37036414306674
 30
0.0
 11
-10.75824497476145
 21
-40.15031684608225
 31
0.0
1001
DBPROPERTIES
1002
{
1000
PbHidd
1002
}
  0
LINE
  5
14C
330
1F
100
AcDbEntity
  8
HIDDEN
100
AcDbLine
 10
-16.17619031890756
 20
-60.37036414306676
 30
0.0
 11
-16.17619031890756
 21
-60.37036414306675
 31
0.0
1001
DBPROPERTIES
1002
{
1000
PbHidd
1002
}
  0
ARC
  5
14D
330
1F
100
AcDbEntity
  8
HIDDEN
100
AcDbCircle
 10
0.0
 20
0.0000000000000122
 30
0.0
 40
62.5
100
AcDbArc
 50
254.9999836474434
 51
260.9999976780534
1001
DBPROPERTIES
1002
{
1000
PbHidd
1002
}
  0
LINE
  5
14E
330
1F
100
AcDbEntity
  8
HIDDEN
100
AcDbLine
 10
-9.777154065014448
 20
-61.73052128719609
 30
0.0
 11
-9.777154065014448
 21
-61.7305212871961
 31
0.0
1001
DBPROPERTIES
1002
{
1000
PbHidd
1002
}
  0
LINE
  5
14F
330
1F
100
AcDbEntity
  8
HIDDEN
100
AcDbLine
 10
14.8961611027663
 20
-38.80582639473368
 30
0.0
 11
14.8961611027663
 21
-38.80582639473368
 31
0.0
1001
DBPROPERTIES
1002
{
1000
PbHidd
1002
}
  0
LINE
  5
150
330
1F
100
AcDbEntity
  8
HIDDEN
100
AcDbLine
 10
22.39799684658123
 20
-58.34877665607509
 30
0.0
 11
14.89616110276629
 21
-38.80582639473367
 31
0.0
1001
DBPROPERTIES
1002
{
1000
PbHidd
1002
}
  0
LINE
  5
151
330
1F
100
AcDbEntity
  8
HIDDEN
100
AcDbLine
 10
22.39799684658124
 20
-58.3487766560751
 30
0.0
 11
22.39799684658124
 21
-58.3487766560751
 31
0.0
1001
DBPROPERTIES
1002
{
1000
PbHidd
1002
}
  0
ARC
  5
152
330
1F
100
AcDbEntity
  8
HIDDEN
100
AcDbCircle
 10
0.0
 20
0.0000000000000122
 30
0.0
 40
62.5
100
AcDbArc
 50
291.0000105353237
 51
297.0000245659338
1001
DBPROPERTIES
1002
{
1000
PbHidd
1002
}
  0
LINE
  5
153
330
1F
100
AcDbEntity
  8
HIDDEN
100
AcDbLine
 10
28.37440623372164
 20
-55.68790776177298
 30
0.0
 11
28.37440623372164
 21
-55.68790776177298
 31
0.0
1001
DBPROPERTIES
1002
{
1000
PbHidd
1002
}
  0
LINE
  5
154
330
1F
100
AcDbEntity
  8
HIDDEN
100
AcDbLine
 10
-18.87087177250716
 20
-37.03617118876313
 30
0.0
 11
-18.87087177250716
 21
-37.03617118876313
 31
0.0
1001
DBPROPERTIES
1002
{
1000
PbHidd
1002
}
  0
LINE
  5
155
330
1F
100
AcDbEntity
  8
HIDDEN
100
AcDbLine
 10
-28.37440623372168
 20
-55.68790776177296
 30
0.0
 11
-18.87087177250716
 21
-37.03617118876313
 31
0.0
1001
DBPROPERTIES
1002
{
1000
PbHidd
1002
}
  0
LINE
  5
156
330
1F
100
AcDbEntity
  8
HIDDEN
100
AcDbLine
 10
-28.37440623372168
 20
-55.68790776177298
 30
0.0
 11
-28.37440623372168
 21
-55.68790776177297
 31
0.0
1001
DBPROPERTIES
1002
{
1000
PbHidd
1002
}
  0
ARC
  5
157
330
1F
100
AcDbEntity
  8
HIDDEN
100
AcDbCircle
 10
0.0
 20
0.0000000000000122
 30
0.0
 40
62.5
100
AcDbArc
 50
243.0000128820029
 51
249.0000269126129
1001
DBPROPERTIES
1002
{
1000
PbHidd
1002
}
  0
LINE
  5
158
330
1F
100
AcDbEntity
  8
HIDDEN
100
AcDbLine
 10
-22.39799684658128
 20
-58.34877665607509
 30
0.0
 11
-22.39799684658128
 21
-58.3487766560751
 31
0.0
1001
DBPROPERTIES
1002
{
1000
PbHidd
1002
}
  0
LINE
  5
159
330
1F
100
AcDbEntity
  8
HIDDEN
100
AcDbLine
 10
22.6388292221246
 20
-34.86073994093145
 30
0.0
 11
22.6388292221246
 21
-34.86073994093145
 31
0.0
1001
DBPROPERTIES
1002
{
1000
PbHidd
1002
}
  0
LINE
  5
15A
330
1F
100
AcDbEntity
  8
HIDDEN
100
AcDbLine
 10
34.03993968843915
 20
-52.41691049658899
 30
0.0
 11
22.63882922212459
 21
-34.86073994093145
 31
0.0
1001
DBPROPERTIES
1002
{
1000
PbHidd
1002
}
  0
LINE
  5
15B
330
1F
100
AcDbEntity
  8
HIDDEN
100
AcDbLine
 10
34.03993968843916
 20
-52.41691049658901
 30
0.0
 11
34.03993968843916
 21
-52.416910496589
 31
0.0
1001
DBPROPERTIES
1002
{
1000
PbHidd
1002
}
  0
ARC
  5
15C
330
1F
100
AcDbEntity
  8
HIDDEN
100
AcDbCircle
 10
0.0
 20
0.0000000000000122
 30
0.0
 40
62.5
100
AcDbArc
 50
302.9999813007643
 51
308.9999953313742
1001
DBPROPERTIES
1002
{
1000
PbHidd
1002
}
  0
LINE
  5
15D
330
1F
100
AcDbEntity
  8
HIDDEN
100
AcDbLine
 10
39.33252444061482
 20
-48.57162259106068
 30
0.0
 11
39.33252444061482
 21
-48.57162259106069
 31
0.0
1001
DBPROPERTIES
1002
{
1000
PbHidd
1002
}
  0
LINE
  5
15E
330
1F
100
AcDbEntity
  8
HIDDEN
100
AcDbLine
 10
-26.15875092130492
 20
-32.30336713122806
 30
0.0
 11
-26.15875092130492
 21
-32.30336713122806
 31
0.0
1001
DBPROPERTIES
1002
{
1000
PbHidd
1002
}
  0
LINE
  5
15F
330
1F
100
AcDbEntity
  8
HIDDEN
100
AcDbLine
 10
-39.33252444061485
 20
-48.57162259106063
 30
0.0
 11
-26.15875092130492
 21
-32.30336713122806
 31
0.0
1001
DBPROPERTIES
1002
{
1000
PbHidd
1002
}
  0
LINE
  5
160
330
1F
100
AcDbEntity
  8
HIDDEN
100
AcDbLine
 10
-39.33252444061486
 20
-48.57162259106065
 30
0.0
 11
-39.33252444061486
 21
-48.57162259106065
 31
0.0
1001
DBPROPERTIES
1002
{
1000
PbHidd
1002
}
  0
ARC
  5
161
330
1F
100
AcDbEntity
  8
HIDDEN
100
AcDbCircle
 10
0.0
 20
0.0000000000000122
 30
0.0
 40
62.5
100
AcDbArc
 50
230.999984820783
 51
236.999998851393
1001
DBPROPERTIES
1002
{
1000
PbHidd
1002
}
  0
LINE
  5
162
330
1F
100
AcDbEntity
  8
HIDDEN
100
AcDbLine
 10
-34.03993968843922
 20
-52.41691049658897
 30
0.0
 11
-34.03993968843922
 21
-52.41691049658898
 31
0.0
1001
DBPROPERTIES
1002
{
1000
PbHidd
1002
}
  0
LINE
  5
163
330
1F
100
AcDbEntity
  8
HIDDEN
100
AcDbLine
 10
29.39207187132081
 20
-29.39207187132083
 30
0.0
 11
29.39207187132081
 21
-29.39207187132083
 31
0.0
1001
DBPROPERTIES
1002
{
1000
PbHidd
1002
}
  0
LINE
  5
164
330
1F
100
AcDbEntity
  8
HIDDEN
100
AcDbLine
 10
44.19417382415919
 20
-44.19417382415922
 30
0.0
 11
29.3920718713208
 21
-29.39207187132083
 31
0.0
1001
DBPROPERTIES
1002
{
1000
PbHidd
1002
}
  0
LINE
  5
165
330
1F
100
AcDbEntity
  8
HIDDEN
100
AcDbLine
 10
44.1941738241592
 20
-44.19417382415923
 30
0.0
 11
44.1941738241592
 21
-44.19417382415922
 31
0.0
1001
DBPROPERTIES
1002
{
1000
PbHidd
1002
}
  0
ARC
  5
166
330
1F
100
AcDbEntity
  8
HIDDEN
100
AcDbCircle
 10
0.0
 20
0.0000000000000122
 30
0.0
 40
62.5
100
AcDbArc
 50
315.0000093619842
 51
321.0000233925941
1001
DBPROPERTIES
1002
{
1000
PbHidd
1002
}
  0
LINE
  5
167
330
1F
100
AcDbEntity
  8
HIDDEN
100
AcDbLine
 10
48.57162259106066
 20
-39.33252444061485
 30
0.0
 11
48.57162259106066
 21
-39.33252444061485
 31
0.0
1001
DBPROPERTIES
1002
{
1000
PbHidd
1002
}
  0
LINE
  5
168
330
1F
100
AcDbEntity
  8
HIDDEN
100
AcDbLine
 10
-32.30336713122809
 20
-26.15875092130489
 30
0.0
 11
-32.30336713122809
 21
-26.15875092130489
 31
0.0
1001
DBPROPERTIES
1002
{
1000
PbHidd
1002
}
  0
LINE
  5
169
330
1F
100
AcDbEntity
  8
HIDDEN
100
AcDbLine
 10
-48.57162259106066
 20
-39.33252444061481
 30
0.0
 11
-32.30336713122808
 21
-26.15875092130489
 31
0.0
1001
DBPROPERTIES
1002
{
1000
PbHidd
1002
}
  0
LINE
  5
16A
330
1F
100
AcDbEntity
  8
HIDDEN
100
AcDbLine
 10
-48.57162259106068
 20
-39.33252444061483
 30
0.0
 11
-48.57162259106068
 21
-39.33252444061482
 31
0.0
1001
DBPROPERTIES
1002
{
1000
PbHidd
1002
}
  0
ARC
  5
16B
330
1F
100
AcDbEntity
  8
HIDDEN
100
AcDbCircle
 10
0.0
 20
0.0000000000000122
 30
0.0
 40
62.5
100
AcDbArc
 50
219.0000140553425
 51
225.0000280859525
1001
DBPROPERTIES
1002
{
1000
PbHidd
1002
}
  0
LINE
  5
16C
330
1F
100
AcDbEntity
  8
HIDDEN
100
AcDbLine
 10
-44.19417382415922
 20
-44.19417382415919
 30
0.0
 11
-44.19417382415922
 21
-44.1941738241592
 31
0.0
1001
DBPROPERTIES
1002
{
1000
PbHidd
1002
}
  0
LINE
  5
16D
330
1F
100
AcDbEntity
  8
HIDDEN
100
AcDbLine
 10
34.86073994093145
 20
-22.63882922212463
 30
0.0
 11
34.86073994093145
 21
-22.63882922212463
 31
0.0
1001
DBPROPERTIES
1002
{
1000
PbHidd
1002
}
  0
LINE
  5
16E
330
1F
100
AcDbEntity
  8
HIDDEN
100
AcDbLine
 10
52.41691049658897
 20
-34.03993968843921
 30
0.0
 11
34.86073994093144
 21
-22.63882922212464
 31
0.0
1001
DBPROPERTIES
1002
{
1000
PbHidd
1002
}
  0
LINE
  5
16F
330
1F
100
AcDbEntity
  8
HIDDEN
100
AcDbLine
 10
52.41691049658898
 20
-34.03993968843921
 30
0.0
 11
52.41691049658898
 21
-34.0399396884392
 31
0.0
1001
DBPROPERTIES
1002
{
1000
PbHidd
1002
}
  0
ARC
  5
170
330
1F
100
AcDbEntity
  8
HIDDEN
100
AcDbCircle
 10
0.0
 20
0.0000000000000122
 30
0.0
 40
62.5
100
AcDbArc
 50
326.9999801274246
 51
332.9999941580346
1001
DBPROPERTIES
1002
{
1000
PbHidd
1002
}
  0
LINE
  5
171
330
1F
100
AcDbEntity
  8
HIDDEN
100
AcDbLine
 10
55.68790776177298
 20
-28.3744062337217
 30
0.0
 11
55.68790776177298
 21
-28.3744062337217
 31
0.0
1001
DBPROPERTIES
1002
{
1000
PbHidd
1002
}
  0
LINE
  5
172
330
1F
100
AcDbEntity
  8
HIDDEN
100
AcDbLine
 10
-37.03617118876315
 20
-18.87087177250715
 30
0.0
 11
-37.03617118876315
 21
-18.87087177250715
 31
0.0
1001
DBPROPERTIES
1002
{
1000
PbHidd
1002
}
  0
LINE
  5
173
330
1F
100
AcDbEntity
  8
HIDDEN
100
AcDbLine
 10
-55.68790776177298
 20
-28.37440623372166
 30
0.0
 11
-37.03617118876314
 21
-18.87087177250715
 31
0.0
1001
DBPROPERTIES
1002
{
1000
PbHidd
1002
}
  0
LINE
  5
174
330
1F
100
AcDbEntity
  8
HIDDEN
100
AcDbLine
 10
-55.68790776177299
 20
-28.37440623372167
 30
0.0
 11
-55.68790776177299
 21
-28.37440623372166
 31
0.0
1001
DBPROPERTIES
1002
{
1000
PbHidd
1002
}
  0
ARC
  5
175
330
1F
100
AcDbEntity
  8
HIDDEN
100
AcDbCircle
 10
0.0
 20
0.0000000000000122
 30
0.0
 40
62.5
100
AcDbArc
 50
206.9999859941226
 51
213.0000000247326
1001
DBPROPERTIES
1002
{
1000
PbHidd
1002
}
  0
LINE
  5
176
330
1F
100
AcDbEntity
  8
HIDDEN
100
AcDbLine
 10
-52.416910496589
 20
-34.03993968843918
 30
0.0
 11
-52.416910496589
 21
-34.03993968843918
 31
0.0
1001
DBPROPERTIES
1002
{
1000
PbHidd
1002
}
  0
LINE
  5
177
330
1F
100
AcDbEntity
  8
HIDDEN
100
AcDbLine
 10
38.80582639473366
 20
-14.89616110276633
 30
0.0
 11
38.80582639473366
 21
-14.89616110276633
 31
0.0
1001
DBPROPERTIES
1002
{
1000
PbHidd
1002
}
  0
LINE
  5
178
330
1F
100
AcDbEntity
  8
HIDDEN
100
AcDbLine
 10
58.34877665607508
 20
-22.39799684658129
 30
0.0
 11
38.80582639473366
 21
-14.89616110276633
 31
0.0
1001
DBPROPERTIES
1002
{
1000
PbHidd
1002
}
  0
LINE
  5
179
330
1F
100
AcDbEntity
  8
HIDDEN
100
AcDbLine
 10
58.3487766560751
 20
-22.3979968465813
 30
0.0
 11
58.3487766560751
 21
-22.3979968465813
 31
0.0
1001
DBPROPERTIES
1002
{
1000
PbHidd
1002
}
  0
ARC
  5
17A
330
1F
100
AcDbEntity
  8
HIDDEN
100
AcDbCircle
 10
0.0
 20
0.0000000000000122
 30
0.0
 40
62.5
100
AcDbArc
 50
339.0000081886445
 51
345.0000222192546
1001
DBPROPERTIES
1002
{
1000
PbHidd
1002
}
  0
LINE
  5
17B
330
1F
100
AcDbEntity
  8
HIDDEN
100
AcDbLine
 10
60.37036414306676
 20
-16.17619031890758
 30
0.0
 11
60.37036414306676
 21
-16.17619031890759
 31
0.0
1001
DBPROPERTIES
1002
{
1000
PbHidd
1002
}
  0
LINE
  5
17C
330
1F
100
AcDbEntity
  8
HIDDEN
100
AcDbLine
 10
-40.15031684608226
 20
-10.75824497476143
 30
0.0
 11
-40.15031684608226
 21
-10.75824497476143
 31
0.0
1001
DBPROPERTIES
1002
{
1000
PbHidd
1002
}
  0
LINE
  5
17D
330
1F
100
AcDbEntity
  8
HIDDEN
100
AcDbLine
 10
-60.37036414306675
 20
-16.17619031890752
 30
0.0
 11
-40.15031684608226
 21
-10.75824497476143
 31
0.0
1001
DBPROPERTIES
1002
{
1000
PbHidd
1002
}
  0
LINE
  5
17E
330
1F
100
AcDbEntity
  8
HIDDEN
100
AcDbLine
 10
-60.37036414306677
 20
-16.17619031890753
 30
0.0
 11
-60.37036414306677
 21
-16.17619031890753
 31
0.0
1001
DBPROPERTIES
1002
{
1000
PbHidd
1002
}
  0
ARC
  5
17F
330
1F
100
AcDbEntity
  8
HIDDEN
100
AcDbCircle
 10
0.0
 20
0.0000000000000122
 30
0.0
 40
62.5
100
AcDbArc
 50
195.0000152286821
 51
200.9999719635126
1001
DBPROPERTIES
1002
{
1000
PbHidd
1002
}
  0
LINE
  5
180
330
1F
100
AcDbEntity
  8
HIDDEN
100
AcDbLine
 10
-58.34877665607511
 20
-22.39799684658125
 30
0.0
 11
-58.34877665607511
 21
-22.39799684658126
 31
0.0
1001
DBPROPERTIES
1002
{
1000
PbHidd
1002
}
  0
LINE
  5
181
330
1F
100
AcDbEntity
  8
HIDDEN
100
AcDbLine
 10
41.05491202407121
 20
-6.502459263505607
 30
0.0
 11
41.05491202407121
 21
-6.502459263505607
 31
0.0
1001
DBPROPERTIES
1002
{
1000
PbHidd
1002
}
  0
LINE
  5
182
330
1F
100
AcDbEntity
  8
HIDDEN
100
AcDbLine
 10
61.73052128719608
 20
-9.777154065014445
 30
0.0
 11
41.0549120240712
 21
-6.502459263505606
 31
0.0
1001
DBPROPERTIES
1002
{
1000
PbHidd
1002
}
  0
LINE
  5
183
330
1F
100
AcDbEntity
  8
HIDDEN
100
AcDbLine
 10
61.73052128719611
 20
-9.777154065014452
 30
0.0
 11
61.73052128719611
 21
-9.777154065014445
 31
0.0
1001
DBPROPERTIES
1002
{
1000
PbHidd
1002
}
  0
ARC
  5
184
330
1F
100
AcDbEntity
  8
HIDDEN
100
AcDbCircle
 10
0.0
 20
0.0000000000000122
 30
0.0
 40
62.5
100
AcDbArc
 50
350.9999789540851
 51
356.999992984695
1001
DBPROPERTIES
1002
{
1000
PbHidd
1002
}
  0
LINE
  5
185
330
1F
100
AcDbEntity
  8
HIDDEN
100
AcDbLine
 10
62.41434592216087
 20
-3.270997265184005
 30
0.0
 11
62.41434592216087
 21
-3.270997265184013
 31
0.0
1001
DBPROPERTIES
1002
{
1000
PbHidd
1002
}
  0
LINE
  5
186
330
1F
100
AcDbEntity
  8
HIDDEN
100
AcDbLine
 10
-41.50970099463178
 20
-2.175431247831686
 30
0.0
 11
-41.50970099463178
 21
-2.175431247831686
 31
0.0
1001
DBPROPERTIES
1002
{
1000
PbHidd
1002
}
  0
LINE
  5
187
330
1F
100
AcDbEntity
  8
HIDDEN
100
AcDbLine
 10
-62.41434592216085
 20
-3.270997265183968
 30
0.0
 11
-41.50970099463178
 21
-2.175431247831684
 31
0.0
1001
DBPROPERTIES
1002
{
1000
PbHidd
1002
}
  0
LINE
  5
188
330
1F
100
AcDbEntity
  8
HIDDEN
100
AcDbLine
 10
-62.41434592216087
 20
-3.270997265183972
 30
0.0
 11
-62.41434592216087
 21
-3.270997265183965
 31
0.0
1001
DBPROPERTIES
1002
{
1000
PbHidd
1002
}
  0
ARC
  5
189
330
1F
100
AcDbEntity
  8
HIDDEN
100
AcDbCircle
 10
0.0
 20
0.0000000000000122
 30
0.0
 40
62.5
100
AcDbArc
 50
182.9999871674622
 51
189.0000011980722
1001
DBPROPERTIES
1002
{
1000
PbHidd
1002
}
  0
LINE
  5
18A
330
1F
100
AcDbEntity
  8
HIDDEN
100
AcDbLine
 10
-61.73052128719611
 20
-9.777154065014408
 30
0.0
 11
-61.73052128719611
 21
-9.777154065014415
 31
0.0
1001
DBPROPERTIES
1002
{
1000
PbHidd
1002
}
  0
LINE
  5
18B
330
1F
100
AcDbEntity
  8
HIDDEN
100
AcDbLine
 10
41.50970099463178
 20
2.175431247831663
 30
0.0
 11
41.50970099463178
 21
2.175431247831663
 31
0.0
1001
DBPROPERTIES
1002
{
1000
PbHidd
1002
}
  0
LINE
  5
18C
330
1F
100
AcDbEntity
  8
HIDDEN
100
AcDbLine
 10
62.41434592216086
 20
3.270997265183934
 30
0.0
 11
41.50970099463177
 21
2.175431247831661
 31
0.0
1001
DBPROPERTIES
1002
{
1000
PbHidd
1002
}
  0
LINE
  5
18D
330
1F
100
AcDbEntity
  8
HIDDEN
100
AcDbLine
 10
62.41434592216088
 20
3.270997265183932
 30
0.0
 11
62.41434592216088
 21
3.270997265183939
 31
0.0
1001
DBPROPERTIES
1002
{
1000
PbHidd
1002
}
  0
ARC
  5
18E
330
1F
100
AcDbEntity
  8
HIDDEN
100
AcDbCircle
 10
0.0
 20
0.0000000000000122
 30
0.0
 40
62.5
100
AcDbArc
 50
3.00000701530499
 51
9.000021045914972
1001
DBPROPERTIES
1002
{
1000
PbHidd
1002
}
  0
LINE
  5
18F
330
1F
100
AcDbEntity
  8
HIDDEN
100
AcDbLine
 10
61.73052128719611
 20
9.777154065014381
 30
0.0
 11
61.73052128719611
 21
9.777154065014374
 31
0.0
1001
DBPROPERTIES
1002
{
1000
PbHidd
1002
}
  0
LINE
  5
190
330
1F
100
AcDbEntity
  8
HIDDEN
100
AcDbLine
 10
-41.05491202407121
 20
6.502459263505601
 30
0.0
 11
-41.05491202407121
 21
6.502459263505601
 31
0.0
1001
DBPROPERTIES
1002
{
1000
PbHidd
1002
}
  0
LINE
  5
191
330
1F
100
AcDbEntity
  8
HIDDEN
100
AcDbLine
 10
-61.73052128719608
 20
9.77715406501444
 30
0.0
 11
-41.0549120240712
 21
6.502459263505602
 31
0.0
1001
DBPROPERTIES
1002
{
1000
PbHidd
1002
}
  0
LINE
  5
192
330
1F
100
AcDbEntity
  8
HIDDEN
100
AcDbLine
 10
-61.73052128719612
 20
9.77715406501444
 30
0.0
 11
-61.73052128719612
 21
9.777154065014447
 31
0.0
1001
DBPROPERTIES
1002
{
1000
PbHidd
1002
}
  0
ARC
  5
193
330
1F
100
AcDbEntity
  8
HIDDEN
100
AcDbCircle
 10
0.0
 20
0.0000000000000122
 30
0.0
 40
62.5
100
AcDbArc
 50
170.9999988019279
 51
177.0000128325378
1001
DBPROPERTIES
1002
{
1000
PbHidd
1002
}
  0
LINE
  5
194
330
1F
100
AcDbEntity
  8
HIDDEN
100
AcDbLine
 10
-62.41434592216087
 20
3.270997265184005
 30
0.0
 11
-62.41434592216087
 21
3.270997265183997
 31
0.0
1001
DBPROPERTIES
1002
{
1000
PbHidd
1002
}
  0
LINE
  5
195
330
1F
100
AcDbEntity
  8
HIDDEN
100
AcDbLine
 10
40.15031684608226
 20
10.75824497476142
 30
0.0
 11
40.15031684608226
 21
10.75824497476142
 31
0.0
1001
DBPROPERTIES
1002
{
1000
PbHidd
1002
}
  0
LINE
  5
196
330
1F
100
AcDbEntity
  8
HIDDEN
100
AcDbLine
 10
60.37036414306677
 20
16.1761903189075
 30
0.0
 11
40.15031684608226
 21
10.75824497476141
 31
0.0
1001
DBPROPERTIES
1002
{
1000
PbHidd
1002
}
  0
LINE
  5
197
330
1F
100
AcDbEntity
  8
HIDDEN
100
AcDbLine
 10
60.37036414306679
 20
16.1761903189075
 30
0.0
 11
60.37036414306679
 21
16.17619031890751
 31
0.0
1001
DBPROPERTIES
1002
{
1000
PbHidd
1002
}
  0
ARC
  5
198
330
1F
100
AcDbEntity
  8
HIDDEN
100
AcDbCircle
 10
0.0
 20
0.0000000000000122
 30
0.0
 40
62.5
100
AcDbArc
 50
14.99997778074544
 51
20.99999181135542
1001
DBPROPERTIES
1002
{
1000
PbHidd
1002
}
  0
LINE
  5
199
330
1F
100
AcDbEntity
  8
HIDDEN
100
AcDbLine
 10
58.34877665607512
 20
22.39799684658124
 30
0.0
 11
58.34877665607512
 21
22.39799684658123
 31
0.0
1001
DBPROPERTIES
1002
{
1000
PbHidd
1002
}
  0
LINE
  5
19A
330
1F
100
AcDbEntity
  8
HIDDEN
100
AcDbLine
 10
-38.80582639473368
 20
14.89616110276631
 30
0.0
 11
-38.80582639473368
 21
14.89616110276631
 31
0.0
1001
DBPROPERTIES
1002
{
1000
PbHidd
1002
}
  0
LINE
  5
19B
330
1F
100
AcDbEntity
  8
HIDDEN
100
AcDbLine
 10
-58.3487766560751
 20
22.39799684658127
 30
0.0
 11
-38.80582639473367
 21
14.89616110276631
 31
0.0
1001
DBPROPERTIES
1002
{
1000
PbHidd
1002
}
  0
LINE
  5
19C
330
1F
100
AcDbEntity
  8
HIDDEN
100
AcDbLine
 10
-58.34877665607512
 20
22.39799684658127
 30
0.0
 11
-58.34877665607512
 21
22.39799684658128
 31
0.0
1001
DBPROPERTIES
1002
{
1000
PbHidd
1002
}
  0
ARC
  5
19D
330
1F
100
AcDbEntity
  8
HIDDEN
100
AcDbCircle
 10
0.0
 20
0.0000000000000122
 30
0.0
 40
62.5
100
AcDbArc
 50
159.0000280364874
 51
164.9999847713179
1001
DBPROPERTIES
1002
{
1000
PbHidd
1002
}
  0
LINE
  5
19E
330
1F
100
AcDbEntity
  8
HIDDEN
100
AcDbLine
 10
-60.37036414306677
 20
16.17619031890756
 30
0.0
 11
-60.37036414306677
 21
16.17619031890755
 31
0.0
1001
DBPROPERTIES
1002
{
1000
PbHidd
1002
}
  0
LINE
  5
19F
330
1F
100
AcDbEntity
  8
HIDDEN
100
AcDbLine
 10
37.03617118876315
 20
18.87087177250714
 30
0.0
 11
37.03617118876315
 21
18.87087177250714
 31
0.0
1001
DBPROPERTIES
1002
{
1000
PbHidd
1002
}
  0
LINE
  5
1A0
330
1F
100
AcDbEntity
  8
HIDDEN
100
AcDbLine
 10
55.68790776177298
 20
28.37440623372165
 30
0.0
 11
37.03617118876315
 21
18.87087177250714
 31
0.0
1001
DBPROPERTIES
1002
{
1000
PbHidd
1002
}
  0
LINE
  5
1A1
330
1F
100
AcDbEntity
  8
HIDDEN
100
AcDbLine
 10
55.687907761773
 20
28.37440623372166
 30
0.0
 11
55.687907761773
 21
28.37440623372167
 31
0.0
1001
DBPROPERTIES
1002
{
1000
PbHidd
1002
}
  0
ARC
  5
1A2
330
1F
100
AcDbEntity
  8
HIDDEN
100
AcDbCircle
 10
0.0
 20
0.0000000000000122
 30
0.0
 40
62.5
100
AcDbArc
 50
27.0000058419654
 51
33.00001987257539
1001
DBPROPERTIES
1002
{
1000
PbHidd
1002
}
  0
LINE
  5
1A3
330
1F
100
AcDbEntity
  8
HIDDEN
100
AcDbLine
 10
52.41691049658901
 20
34.03993968843919
 30
0.0
 11
52.41691049658901
 21
34.03993968843918
 31
0.0
1001
DBPROPERTIES
1002
{
1000
PbHidd
1002
}
  0
LINE
  5
1A4
330
1F
100
AcDbEntity
  8
HIDDEN
100
AcDbLine
 10
-34.86073994093144
 20
22.63882922212463
 30
0.0
 11
-34.86073994093144
 21
22.63882922212463
 31
0.0
1001
DBPROPERTIES
1002
{
1000
PbHidd
1002
}
  0
LINE
  5
1A5
330
1F
100
AcDbEntity
  8
HIDDEN
100
AcDbLine
 10
-52.41691049658899
 20
34.0399396884392
 30
0.0
 11
-34.86073994093144
 21
22.63882922212462
 31
0.0
1001
DBPROPERTIES
1002
{
1000
PbHidd
1002
}
  0
LINE
  5
1A6
330
1F
100
AcDbEntity
  8
HIDDEN
100
AcDbLine
 10
-52.416910496589
 20
34.0399396884392
 30
0.0
 11
-52.416910496589
 21
34.03993968843921
 31
0.0
1001
DBPROPERTIES
1002
{
1000
PbHidd
1002
}
  0
ARC
  5
1A7
330
1F
100
AcDbEntity
  8
HIDDEN
100
AcDbCircle
 10
0.0
 20
0.0000000000000122
 30
0.0
 40
62.5
100
AcDbArc
 50
146.9999999752674
 51
153.0000140058774
1001
DBPROPERTIES
1002
{
1000
PbHidd
1002
}
  0
LINE
  5
1A8
330
1F
100
AcDbEntity
  8
HIDDEN
100
AcDbLine
 10
-55.68790776177299
 20
28.3744062337217
 30
0.0
 11
-55.68790776177299
 21
28.37440623372169
 31
0.0
1001
DBPROPERTIES
1002
{
1000
PbHidd
1002
}
  0
LINE
  5
1A9
330
1F
100
AcDbEntity
  8
HIDDEN
100
AcDbLine
 10
32.3033671312281
 20
26.15875092130487
 30
0.0
 11
32.3033671312281
 21
26.15875092130487
 31
0.0
1001
DBPROPERTIES
1002
{
1000
PbHidd
1002
}
  0
LINE
  5
1AA
330
1F
100
AcDbEntity
  8
HIDDEN
100
AcDbLine
 10
48.57162259106071
 20
39.3325244406148
 30
0.0
 11
32.30336713122809
 21
26.15875092130488
 31
0.0
1001
DBPROPERTIES
1002
{
1000
PbHidd
1002
}
  0
LINE
  5
1AB
330
1F
100
AcDbEntity
  8
HIDDEN
100
AcDbLine
 10
48.57162259106072
 20
39.33252444061481
 30
0.0
 11
48.57162259106072
 21
39.33252444061482
 31
0.0
1001
DBPROPERTIES
1002
{
1000
PbHidd
1002
}
  0
ARC
  5
1AC
330
1F
100
AcDbEntity
  8
HIDDEN
100
AcDbCircle
 10
0.0
 20
0.0000000000000122
 30
0.0
 40
62.5
100
AcDbArc
 50
38.99997660740585
 51
44.99999063801582
1001
DBPROPERTIES
1002
{
1000
PbHidd
1002
}
  0
LINE
  5
1AD
330
1F
100
AcDbEntity
  8
HIDDEN
100
AcDbLine
 10
44.19417382415926
 20
44.1941738241592
 30
0.0
 11
44.19417382415926
 21
44.19417382415919
 31
0.0
1001
DBPROPERTIES
1002
{
1000
PbHidd
1002
}
  0
LINE
  5
1AE
330
1F
100
AcDbEntity
  8
HIDDEN
100
AcDbLine
 10
-29.39207187132081
 20
29.39207187132083
 30
0.0
 11
-29.39207187132081
 21
29.39207187132083
 31
0.0
1001
DBPROPERTIES
1002
{
1000
PbHidd
1002
}
  0
LINE
  5
1AF
330
1F
100
AcDbEntity
  8
HIDDEN
100
AcDbLine
 10
-44.19417382415921
 20
44.19417382415923
 30
0.0
 11
-29.39207187132081
 21
29.39207187132083
 31
0.0
1001
DBPROPERTIES
1002
{
1000
PbHidd
1002
}
  0
LINE
  5
1B0
330
1F
100
AcDbEntity
  8
HIDDEN
100
AcDbLine
 10
-44.19417382415922
 20
44.19417382415923
 30
0.0
 11
-44.19417382415922
 21
44.19417382415924
 31
0.0
1001
DBPROPERTIES
1002
{
1000
PbHidd
1002
}
  0
ARC
  5
1B1
330
1F
100
AcDbEntity
  8
HIDDEN
100
AcDbCircle
 10
0.0
 20
0.0000000000000122
 30
0.0
 40
62.5
100
AcDbArc
 50
134.9999719140475
 51
140.9999859446575
1001
DBPROPERTIES
1002
{
1000
PbHidd
1002
}
  0
LINE
  5
1B2
330
1F
100
AcDbEntity
  8
HIDDEN
100
AcDbLine
 10
-48.57162259106069
 20
39.33252444061485
 30
0.0
 11
-48.57162259106069
 21
39.33252444061485
 31
0.0
1001
DBPROPERTIES
1002
{
1000
PbHidd
1002
}
  0
LINE
  5
1B3
330
1F
100
AcDbEntity
  8
HIDDEN
100
AcDbLine
 10
26.15875092130492
 20
32.30336713122806
 30
0.0
 11
26.15875092130492
 21
32.30336713122806
 31
0.0
1001
DBPROPERTIES
1002
{
1000
PbHidd
1002
}
  0
LINE
  5
1B4
330
1F
100
AcDbEntity
  8
HIDDEN
100
AcDbLine
 10
39.33252444061486
 20
48.57162259106065
 30
0.0
 11
26.15875092130492
 21
32.30336713122806
 31
0.0
1001
DBPROPERTIES
1002
{
1000
PbHidd
1002
}
  0
LINE
  5
1B5
330
1F
100
AcDbEntity
  8
HIDDEN
100
AcDbLine
 10
39.33252444061488
 20
48.57162259106067
 30
0.0
 11
39.33252444061488
 21
48.57162259106067
 31
0.0
1001
DBPROPERTIES
1002
{
1000
PbHidd
1002
}
  0
ARC
  5
1B6
330
1F
100
AcDbEntity
  8
HIDDEN
100
AcDbCircle
 10
0.0
 20
0.0000000000000122
 30
0.0
 40
62.5
100
AcDbArc
 50
51.00000466862581
 51
57.0000186992358
1001
DBPROPERTIES
1002
{
1000
PbHidd
1002
}
  0
LINE
  5
1B7
330
1F
100
AcDbEntity
  8
HIDDEN
100
AcDbLine
 10
34.03993968843923
 20
52.416910496589
 30
0.0
 11
34.03993968843923
 21
52.41691049658899
 31
0.0
1001
DBPROPERTIES
1002
{
1000
PbHidd
1002
}
  0
LINE
  5
1B8
330
1F
100
AcDbEntity
  8
HIDDEN
100
AcDbLine
 10
-22.63882922212461
 20
34.86073994093145
 30
0.0
 11
-22.63882922212461
 21
34.86073994093145
 31
0.0
1001
DBPROPERTIES
1002
{
1000
PbHidd
1002
}
  0
LINE
  5
1B9
330
1F
100
AcDbEntity
  8
HIDDEN
100
AcDbLine
 10
-34.03993968843919
 20
52.416910496589
 30
0.0
 11
-22.63882922212461
 21
34.86073994093144
 31
0.0
1001
DBPROPERTIES
1002
{
1000
PbHidd
1002
}
  0
LINE
  5
1BA
330
1F
100
AcDbEntity
  8
HIDDEN
100
AcDbLine
 10
-34.0399396884392
 20
52.41691049658902
 30
0.0
 11
-34.0399396884392
 21
52.41691049658903
 31
0.0
1001
DBPROPERTIES
1002
{
1000
PbHidd
1002
}
  0
ARC
  5
1BB
330
1F
100
AcDbEntity
  8
HIDDEN
100
AcDbCircle
 10
0.0
 20
0.0000000000000122
 30
0.0
 40
62.5
100
AcDbArc
 50
123.000001148607
 51
129.000015179217
1001
DBPROPERTIES
1002
{
1000
PbHidd
1002
}
  0
LINE
  5
1BC
330
1F
100
AcDbEntity
  8
HIDDEN
100
AcDbLine
 10
-39.33252444061485
 20
48.5716225910607
 30
0.0
 11
-39.33252444061485
 21
48.5716225910607
 31
0.0
1001
DBPROPERTIES
1002
{
1000
PbHidd
1002
}
  0
LINE
  5
1BD
330
1F
100
AcDbEntity
  8
HIDDEN
100
AcDbLine
 10
18.87087177250717
 20
37.03617118876313
 30
0.0
 11
18.87087177250717
 21
37.03617118876313
 31
0.0
1001
DBPROPERTIES
1002
{
1000
PbHidd
1002
}
  0
LINE
  5
1BE
330
1F
100
AcDbEntity
  8
HIDDEN
100
AcDbLine
 10
28.3744062337217
 20
55.68790776177299
 30
0.0
 11
18.87087177250717
 21
37.03617118876313
 31
0.0
1001
DBPROPERTIES
1002
{
1000
PbHidd
1002
}
  0
LINE
  5
1BF
330
1F
100
AcDbEntity
  8
HIDDEN
100
AcDbLine
 10
28.3744062337217
 20
55.687907761773
 30
0.0
 11
28.3744062337217
 21
55.687907761773
 31
0.0
1001
DBPROPERTIES
1002
{
1000
PbHidd
1002
}
  0
ARC
  5
1C0
330
1F
100
AcDbEntity
  8
HIDDEN
100
AcDbCircle
 10
0.0
 20
0.0000000000000122
 30
0.0
 40
62.5
100
AcDbArc
 50
62.99997543406626
 51
68.99998946467625
1001
DBPROPERTIES
1002
{
1000
PbHidd
1002
}
  0
LINE
  5
1C1
330
1F
100
AcDbEntity
  8
HIDDEN
100
AcDbLine
 10
22.3979968465813
 20
58.34877665607512
 30
0.0
 11
22.3979968465813
 21
58.34877665607512
 31
0.0
1001
DBPROPERTIES
1002
{
1000
PbHidd
1002
}
  0
LINE
  5
1C2
330
1F
100
AcDbEntity
  8
HIDDEN
100
AcDbLine
 10
-14.89616110276631
 20
38.80582639473368
 30
0.0
 11
-14.89616110276631
 21
38.80582639473368
 31
0.0
1001
DBPROPERTIES
1002
{
1000
PbHidd
1002
}
  0
LINE
  5
1C3
330
1F
100
AcDbEntity
  8
HIDDEN
100
AcDbLine
 10
-22.39799684658126
 20
58.34877665607511
 30
0.0
 11
-14.89616110276631
 21
38.80582639473367
 31
0.0
1001
DBPROPERTIES
1002
{
1000
PbHidd
1002
}
  0
LINE
  5
1C4
330
1F
100
AcDbEntity
  8
HIDDEN
100
AcDbLine
 10
-22.39799684658127
 20
58.34877665607512
 30
0.0
 11
-22.39799684658127
 21
58.34877665607513
 31
0.0
1001
DBPROPERTIES
1002
{
1000
PbHidd
1002
}
  0
ARC
  5
1C5
330
1F
100
AcDbEntity
  8
HIDDEN
100
AcDbCircle
 10
0.0
 20
0.0000000000000122
 30
0.0
 40
62.5
100
AcDbArc
 50
110.9999730873871
 51
116.9999871179971
1001
DBPROPERTIES
1002
{
1000
PbHidd
1002
}
  0
LINE
  5
1C6
330
1F
100
AcDbEntity
  8
HIDDEN
100
AcDbLine
 10
-28.37440623372167
 20
55.68790776177301
 30
0.0
 11
-28.37440623372167
 21
55.687907761773
 31
0.0
1001
DBPROPERTIES
1002
{
1000
PbHidd
1002
}
  0
LINE
  5
1C7
330
1F
100
AcDbEntity
  8
HIDDEN
100
AcDbLine
 10
10.75824497476148
 20
40.15031684608226
 30
0.0
 11
10.75824497476148
 21
40.15031684608226
 31
0.0
1001
DBPROPERTIES
1002
{
1000
PbHidd
1002
}
  0
LINE
  5
1C8
330
1F
100
AcDbEntity
  8
HIDDEN
100
AcDbLine
 10
16.1761903189076
 20
60.37036414306676
 30
0.0
 11
10.75824497476148
 21
40.15031684608225
 31
0.0
1001
DBPROPERTIES
1002
{
1000
PbHidd
1002
}
  0
LINE
  5
1C9
330
1F
100
AcDbEntity
  8
HIDDEN
100
AcDbLine
 10
16.1761903189076
 20
60.37036414306677
 30
0.0
 11
16.1761903189076
 21
60.37036414306678
 31
0.0
1001
DBPROPERTIES
1002
{
1000
PbHidd
1002
}
  0
ARC
  5
1CA
330
1F
100
AcDbEntity
  8
HIDDEN
100
AcDbCircle
 10
0.0
 20
0.0000000000000122
 30
0.0
 40
62.5
100
AcDbArc
 50
75.00000349528622
 51
81.0000175258962
1001
DBPROPERTIES
1002
{
1000
PbHidd
1002
}
  0
LINE
  5
1CB
330
1F
100
AcDbEntity
  8
HIDDEN
100
AcDbLine
 10
9.777154065014486
 20
61.73052128719612
 30
0.0
 11
9.777154065014486
 21
61.73052128719611
 31
0.0
1001
DBPROPERTIES
1002
{
1000
PbHidd
1002
}
  0
LINE
  5
1CC
330
1F
100
AcDbEntity
  8
HIDDEN
100
AcDbLine
 10
-6.502459263505591
 20
41.05491202407121
 30
0.0
 11
-6.502459263505591
 21
41.05491202407121
 31
0.0
1001
DBPROPERTIES
1002
{
1000
PbHidd
1002
}
  0
LINE
  5
1CD
330
1F
100
AcDbEntity
  8
HIDDEN
100
AcDbLine
 10
-9.777154065014422
 20
61.73052128719611
 30
0.0
 11
-6.50245926350559
 21
41.05491202407121
 31
0.0
1001
DBPROPERTIES
1002
{
1000
PbHidd
1002
}
  0
LINE
  5
1CE
330
1F
100
AcDbEntity
  8
HIDDEN
100
AcDbLine
 10
-9.777154065014425
 20
61.73052128719613
 30
0.0
 11
-9.777154065014425
 21
61.73052128719613
 31
0.0
1001
DBPROPERTIES
1002
{
1000
PbHidd
1002
}
  0
ARC
  5
1CF
330
1F
100
AcDbEntity
  8
HIDDEN
100
AcDbCircle
 10
0.0
 20
0.0000000000000122
 30
0.0
 40
62.5
100
AcDbArc
 50
99.00000232194662
 51
105.0000163525566
1001
DBPROPERTIES
1002
{
1000
PbHidd
1002
}
  0
LINE
  5
1D0
330
1F
100
AcDbEntity
  8
HIDDEN
100
AcDbLine
 10
-16.17619031890755
 20
60.37036414306679
 30
0.0
 11
-16.17619031890755
 21
60.37036414306679
 31
0.0
1001
DBPROPERTIES
1002
{
1000
PbHidd
1002
}
  0
ARC
  5
1D1
330
1F
100
AcDbEntity
  8
HIDDEN
100
AcDbCircle
 10
0.0
 20
0.000000000000011
 30
0.0
 40
102.0408163265306
100
AcDbArc
 50
89.99998127603165
 51
93.92508594735487
1001
DBPROPERTIES
1002
{
1000
PbHidd
1002
}
  0
ARC
  5
1D2
330
1F
100
AcDbEntity
  8
THICK
100
AcDbCircle
 10
0.0
 20
0.000000000000011
 30
0.0
 40
102.0408163265306
100
AcDbArc
 50
93.92508594735487
 51
110.9579179852245
1001
DBPROPERTIES
1002
{
1000
PbThick
1002
}
  0
ARC
  5
1D3
330
1F
100
AcDbEntity
  8
HIDDEN
100
AcDbCircle
 10
0.0
 20
0.000000000000011
 30
0.0
 40
102.0408163265306
100
AcDbArc
 50
110.9579179852245
 51
145.3536630467385
1001
DBPROPERTIES
1002
{
1000
PbHidd
1002
}
  0
ARC
  5
1D4
330
1F
100
AcDbEntity
  8
THICK
100
AcDbCircle
 10
0.0
 20
0.000000000000011
 30
0.0
 40
102.0408163265306
100
AcDbArc
 50
145.3536630467385
 51
162.3864950846081
1001
DBPROPERTIES
1002
{
1000
PbThick
1002
}
  0
ARC
  5
1D5
330
1F
100
AcDbEntity
  8
HIDDEN
100
AcDbCircle
 10
0.0
 20
0.000000000000011
 30
0.0
 40
102.0408163265306
100
AcDbArc
 50
162.3864950846081
 51
196.782257746216
1001
DBPROPERTIES
1002
{
1000
PbHidd
1002
}
  0
ARC
  5
1D6
330
1F
100
AcDbEntity
  8
THICK
100
AcDbCircle
 10
0.0
 20
0.000000000000011
 30
0.0
 40
102.0408163265306
100
AcDbArc
 50
196.782257746216
 51
213.8150897840857
1001
DBPROPERTIES
1002
{
1000
PbThick
1002
}
  0
ARC
  5
1D7
330
1F
100
AcDbEntity
  8
HIDDEN
100
AcDbCircle
 10
0.0
 20
0.000000000000011
 30
0.0
 40
102.0408163265306
100
AcDbArc
 50
213.8150897840857
 51
248.2108348455997
1001
DBPROPERTIES
1002
{
1000
PbHidd
1002
}
  0
ARC
  5
1D8
330
1F
100
AcDbEntity
  8
THICK
100
AcDbCircle
 10
0.0
 20
0.000000000000011
 30
0.0
 40
102.0408163265306
100
AcDbArc
 50
248.2108348455997
 51
265.2436095876898
1001
DBPROPERTIES
1002
{
1000
PbThick
1002
}
  0
ARC
  5
1D9
330
1F
100
AcDbEntity
  8
HIDDEN
100
AcDbCircle
 10
0.0
 20
0.000000000000011
 30
0.0
 40
102.0408163265306
100
AcDbArc
 50
265.2436095876898
 51
270.0000187239684
1001
DBPROPERTIES
1002
{
1000
PbHidd
1002
}
  0
ARC
  5
1DA
330
1F
100
AcDbEntity
  8
HIDDEN
100
AcDbCircle
 10
0.0
 20
0.0000000000000021
 30
0.0
 40
126.5669182372026
100
AcDbArc
 50
186.9054393864124
 51
263.0945594897131
1001
DBPROPERTIES
1002
{
1000
PbHidd
1002
}
  0
LINE
  5
1DB
330
1F
100
AcDbEntity
  8
HIDDEN
100
AcDbLine
 10
-15.62269608576975
 20
-129.5064798505588
 30
0.0
 11
-15.38388335402025
 21
-127.2343284843856
 31
0.0
1001
DBPROPERTIES
1002
{
1000
PbHidd
1002
}
  0
LINE
  5
1DC
330
1F
100
AcDbEntity
  8
HIDDEN
100
AcDbLine
 10
-127.2343284843856
 20
-15.38388335402025
 30
0.0
 11
-129.5064798505589
 21
-15.62269608576975
 31
0.0
1001
DBPROPERTIES
1002
{
1000
PbHidd
1002
}
  0
LINE
  5
1DD
330
1F
100
AcDbEntity
  8
HIDDEN
100
AcDbLine
 10
-11.40579577254716
 20
-127.6524423374562
 30
0.0
 11
-11.64460850429667
 21
-129.9245937036295
 31
0.0
1001
DBPROPERTIES
1002
{
1000
PbHidd
1002
}
  0
ARC
  5
1DE
330
1F
100
AcDbEntity
  8
HIDDEN
100
AcDbCircle
 10
0.0
 20
0.0000000000000021
 30
0.0
 40
126.5669182372026
100
AcDbArc
 50
264.9053926012241
 51
275.0945875509331
1001
DBPROPERTIES
1002
{
1000
PbHidd
1002
}
  0
LINE
  5
1DF
330
1F
100
AcDbEntity
  8
HIDDEN
100
AcDbLine
 10
11.64460850429666
 20
-129.9245937036295
 30
0.0
 11
11.40579577254715
 21
-127.6524423374562
 31
0.0
1001
DBPROPERTIES
1002
{
1000
PbHidd
1002
}
  0
ARC
  5
1E0
330
1F
100
AcDbEntity
  8
HIDDEN
100
AcDbCircle
 10
0.0
 20
0.0000000000000021
 30
0.0
 40
130.4453792062852
100
AcDbArc
 50
174.8785220045069
 51
180.0000198478428
1001
DBPROPERTIES
1002
{
1000
PbHidd
1002
}
  0
LINE
  5
1E1
330
1F
100
AcDbEntity
  8
HIDDEN
100
AcDbLine
 10
-127.6524423374562
 20
11.40579577254717
 30
0.0
 11
-129.9245937036295
 21
11.64460850429668
 31
0.0
1001
DBPROPERTIES
1002
{
1000
PbHidd
1002
}
  0
ARC
  5
1E2
330
1F
100
AcDbEntity
  8
HIDDEN
100
AcDbCircle
 10
0.0
 20
0.0000000000000021
 30
0.0
 40
126.5669182372026
100
AcDbArc
 50
180.0000198478428
 51
185.0946062749015
1001
DBPROPERTIES
1002
{
1000
PbHidd
1002
}
  0
LINE
  5
1E3
330
1F
100
AcDbEntity
  8
HIDDEN
100
AcDbLine
 10
-129.9245937036295
 20
-11.64460850429666
 30
0.0
 11
-127.6524423374562
 21
-11.40579577254715
 31
0.0
1001
DBPROPERTIES
1002
{
1000
PbHidd
1002
}
  0
ARC
  5
1E4
330
1F
100
AcDbEntity
  8
HIDDEN
100
AcDbCircle
 10
0.0
 20
0.0000000000000021
 30
0.0
 40
126.5669182372026
100
AcDbArc
 50
276.905420662444
 51
353.0945980615243
1001
DBPROPERTIES
1002
{
1000
PbHidd
1002
}
  0
LINE
  5
1E5
330
1F
100
AcDbEntity
  8
HIDDEN
100
AcDbLine
 10
129.5064798505588
 20
-15.62269608576977
 30
0.0
 11
127.2343284843855
 21
-15.38388335402027
 31
0.0
1001
DBPROPERTIES
1002
{
1000
PbHidd
1002
}
  0
LINE
  5
1E6
330
1F
100
AcDbEntity
  8
HIDDEN
100
AcDbLine
 10
15.38388335402025
 20
-127.2343284843855
 30
0.0
 11
15.62269608576976
 21
-129.5064798505589
 31
0.0
1001
DBPROPERTIES
1002
{
1000
PbHidd
1002
}
  0
ARC
  5
1E7
330
1F
100
AcDbEntity
  8
HIDDEN
100
AcDbCircle
 10
0.0
 20
0.0000000000000021
 30
0.0
 40
130.4453792062852
100
AcDbArc
 50
166.307875530263
 51
173.1214896299587
1001
DBPROPERTIES
1002
{
1000
PbHidd
1002
}
  0
ARC
  5
1E8
330
1F
100
AcDbEntity
  8
THICK
100
AcDbCircle
 10
0.0
 20
0.0000000000000021
 30
0.0
 40
130.4453792062852
100
AcDbArc
 50
141.6250828991452
 51
166.307875530263
1001
DBPROPERTIES
1002
{
1000
PbThick
1002
}
  0
ARC
  5
1E9
330
1F
100
AcDbEntity
  8
HIDDEN
100
AcDbCircle
 10
0.0
 20
0.0000000000000021
 30
0.0
 40
130.4453792062852
100
AcDbArc
 50
114.8792984308793
 51
141.6250828991452
1001
DBPROPERTIES
1002
{
1000
PbHidd
1002
}
  0
ARC
  5
1EA
330
1F
100
AcDbEntity
  8
THICK
100
AcDbCircle
 10
0.0
 20
0.0000000000000021
 30
0.0
 40
130.4453792062852
100
AcDbArc
 50
96.87851149391572
 51
114.8792984308793
1001
DBPROPERTIES
1002
{
1000
PbThick
1002
}
  0
LINE
  5
1EB
330
1F
100
AcDbEntity
  8
HIDDEN
100
AcDbLine
 10
-15.3838833540202
 20
127.2343284843856
 30
0.0
 11
-15.62269608576971
 21
129.5064798505589
 31
0.0
1001
DBPROPERTIES
1002
{
1000
PbHidd
1002
}
  0
ARC
  5
1EC
330
1F
100
AcDbEntity
  8
HIDDEN
100
AcDbCircle
 10
0.0
 20
0.0000000000000021
 30
0.0
 40
126.5669182372026
100
AcDbArc
 50
96.90544051028688
 51
173.0945606135876
1001
DBPROPERTIES
1002
{
1000
PbHidd
1002
}
  0
LINE
  5
1ED
330
1F
100
AcDbEntity
  8
HIDDEN
100
AcDbLine
 10
-129.5064798505589
 20
15.62269608576977
 30
0.0
 11
-127.2343284843856
 21
15.38388335402026
 31
0.0
1001
DBPROPERTIES
1002
{
1000
PbHidd
1002
}
  0
LINE
  5
1EE
330
1F
100
AcDbEntity
  8
HIDDEN
100
AcDbLine
 10
127.6524423374561
 20
-11.40579577254718
 30
0.0
 11
129.9245937036295
 21
-11.64460850429669
 31
0.0
1001
DBPROPERTIES
1002
{
1000
PbHidd
1002
}
  0
ARC
  5
1EF
330
1F
100
AcDbEntity
  8
HIDDEN
100
AcDbCircle
 10
0.0
 20
0.0000000000000021
 30
0.0
 40
126.5669182372026
100
AcDbArc
 50
354.9054311730353
 51
0.0
1001
DBPROPERTIES
1002
{
1000
PbHidd
1002
}
  0
LINE
  5
1F0
330
1F
100
AcDbEntity
  8
HIDDEN
100
AcDbLine
 10
129.9245937036294
 20
11.64460850429663
 30
0.0
 11
127.6524423374561
 21
11.40579577254713
 31
0.0
1001
DBPROPERTIES
1002
{
1000
PbHidd
1002
}
  0
ARC
  5
1F1
330
1F
100
AcDbEntity
  8
THICK
100
AcDbCircle
 10
0.0
 20
0.0000000000000021
 30
0.0
 40
130.4453792062852
100
AcDbArc
 50
0.0
 51
5.121497843335889
1001
DBPROPERTIES
1002
{
1000
PbThick
1002
}
  0
ARC
  5
1F2
330
1F
100
AcDbEntity
  8
THICK
100
AcDbCircle
 10
0.0
 20
0.0000000000000021
 30
0.0
 40
130.4453792062852
100
AcDbArc
 50
90.19650579976152
 51
95.12147911936755
1001
DBPROPERTIES
1002
{
1000
PbThick
1002
}
  0
ARC
  5
1F3
330
1F
100
AcDbEntity
  8
HIDDEN
100
AcDbCircle
 10
0.0
 20
0.0000000000000021
 30
0.0
 40
130.4453792062852
100
AcDbArc
 50
84.87848343269577
 51
90.19650579976152
1001
DBPROPERTIES
1002
{
1000
PbHidd
1002
}
  0
LINE
  5
1F4
330
1F
100
AcDbEntity
  8
HIDDEN
100
AcDbLine
 10
11.40579577254721
 20
127.6524423374562
 30
0.0
 11
11.64460850429672
 21
129.9245937036295
 31
0.0
1001
DBPROPERTIES
1002
{
1000
PbHidd
1002
}
  0
ARC
  5
1F5
330
1F
100
AcDbEntity
  8
HIDDEN
100
AcDbCircle
 10
0.0
 20
0.0000000000000021
 30
0.0
 40
126.5669182372026
100
AcDbArc
 50
84.90541244906692
 51
95.09460739877592
1001
DBPROPERTIES
1002
{
1000
PbHidd
1002
}
  0
LINE
  5
1F6
330
1F
100
AcDbEntity
  8
HIDDEN
100
AcDbLine
 10
-11.64460850429663
 20
129.9245937036295
 30
0.0
 11
-11.40579577254712
 21
127.6524423374562
 31
0.0
1001
DBPROPERTIES
1002
{
1000
PbHidd
1002
}
  0
ARC
  5
1F7
330
1F
100
AcDbEntity
  8
THICK
100
AcDbCircle
 10
0.0
 20
0.0000000000000019
 30
0.0
 40
124.7669182372026
100
AcDbArc
 50
245.0875273127825
 51
263.0814960519841
1001
DBPROPERTIES
1002
{
1000
PbThick
1002
}
  0
ARC
  5
1F8
330
1F
100
AcDbEntity
  8
HIDDEN
100
AcDbCircle
 10
0.0
 20
0.0000000000000019
 30
0.0
 40
124.7669182372026
100
AcDbArc
 50
217.1002578940273
 51
245.0875273127825
1001
DBPROPERTIES
1002
{
1000
PbHidd
1002
}
  0
ARC
  5
1F9
330
1F
100
AcDbEntity
  8
THICK
100
AcDbCircle
 10
0.0
 20
0.0000000000000019
 30
0.0
 40
124.7669182372026
100
AcDbArc
 50
193.6590075091784
 51
217.1002578940273
1001
DBPROPERTIES
1002
{
1000
PbThick
1002
}
  0
ARC
  5
1FA
330
1F
100
AcDbEntity
  8
HIDDEN
100
AcDbCircle
 10
0.0
 20
0.0000000000000019
 30
0.0
 40
124.7669182372026
100
AcDbArc
 50
186.9185028241414
 51
193.6590075091784
1001
DBPROPERTIES
1002
{
1000
PbHidd
1002
}
  0
ARC
  5
1FB
330
1F
100
AcDbEntity
  8
HIDDEN
100
AcDbCircle
 10
0.0
 20
0.0000000000000019
 30
0.0
 40
124.7669182372026
100
AcDbArc
 50
268.528834993411
 51
275.0815241132041
1001
DBPROPERTIES
1002
{
1000
PbHidd
1002
}
  0
ARC
  5
1FC
330
1F
100
AcDbEntity
  8
THICK
100
AcDbCircle
 10
0.0
 20
0.0000000000000019
 30
0.0
 40
124.7669182372026
100
AcDbArc
 50
264.918456038953
 51
268.528834993411
1001
DBPROPERTIES
1002
{
1000
PbThick
1002
}
  0
ARC
  5
1FD
330
1F
100
AcDbEntity
  8
HIDDEN
100
AcDbCircle
 10
0.0
 20
0.0000000000000019
 30
0.0
 40
124.7669182372026
100
AcDbArc
 50
180.0000198478428
 51
185.0815428371724
1001
DBPROPERTIES
1002
{
1000
PbHidd
1002
}
  0
ARC
  5
1FE
330
1F
100
AcDbEntity
  8
THICK
100
AcDbCircle
 10
0.0
 20
0.0000000000000019
 30
0.0
 40
124.7669182372026
100
AcDbArc
 50
347.94468151155
 51
353.0815346237953
1001
DBPROPERTIES
1002
{
1000
PbThick
1002
}
  0
ARC
  5
1FF
330
1F
100
AcDbEntity
  8
HIDDEN
100
AcDbCircle
 10
0.0
 20
0.0000000000000019
 30
0.0
 40
124.7669182372026
100
AcDbArc
 50
319.9574120927946
 51
347.94468151155
1001
DBPROPERTIES
1002
{
1000
PbHidd
1002
}
  0
ARC
  5
200
330
1F
100
AcDbEntity
  8
THICK
100
AcDbCircle
 10
0.0
 20
0.0000000000000019
 30
0.0
 40
124.7669182372026
100
AcDbArc
 50
296.5161044121663
 51
319.9574120927946
1001
DBPROPERTIES
1002
{
1000
PbThick
1002
}
  0
ARC
  5
201
330
1F
100
AcDbEntity
  8
HIDDEN
100
AcDbCircle
 10
0.0
 20
0.0000000000000019
 30
0.0
 40
124.7669182372026
100
AcDbArc
 50
276.918484100173
 51
296.5161044121663
1001
DBPROPERTIES
1002
{
1000
PbHidd
1002
}
  0
ARC
  5
202
330
1F
100
AcDbEntity
  8
HIDDEN
100
AcDbCircle
 10
0.0
 20
0.0000000000000019
 30
0.0
 40
124.7669182372026
100
AcDbArc
 50
165.6717204903292
 51
173.0814971758586
1001
DBPROPERTIES
1002
{
1000
PbHidd
1002
}
  0
ARC
  5
203
330
1F
100
AcDbEntity
  8
THICK
100
AcDbCircle
 10
0.0
 20
0.0000000000000019
 30
0.0
 40
124.7669182372026
100
AcDbArc
 50
142.2304128097009
 51
165.6717204903292
1001
DBPROPERTIES
1002
{
1000
PbThick
1002
}
  0
ARC
  5
204
330
1F
100
AcDbEntity
  8
HIDDEN
100
AcDbCircle
 10
0.0
 20
0.0000000000000019
 30
0.0
 40
124.7669182372026
100
AcDbArc
 50
114.2431433909456
 51
142.2304128097009
1001
DBPROPERTIES
1002
{
1000
PbHidd
1002
}
  0
ARC
  5
205
330
1F
100
AcDbEntity
  8
THICK
100
AcDbCircle
 10
0.0
 20
0.0000000000000019
 30
0.0
 40
124.7669182372026
100
AcDbArc
 50
96.91850394801585
 51
114.2431433909456
1001
DBPROPERTIES
1002
{
1000
PbThick
1002
}
  0
ARC
  5
206
330
1F
100
AcDbEntity
  8
THICK
100
AcDbCircle
 10
0.0
 20
0.0000000000000019
 30
0.0
 40
124.7669182372026
100
AcDbArc
 50
354.9184946107642
 51
0.0
1001
DBPROPERTIES
1002
{
1000
PbThick
1002
}
  0
ARC
  5
207
330
1F
100
AcDbEntity
  8
THICK
100
AcDbCircle
 10
0.0
 20
0.0000000000000019
 30
0.0
 40
124.7669182372026
100
AcDbArc
 50
90.80183571031723
 51
95.08154396104693
1001
DBPROPERTIES
1002
{
1000
PbThick
1002
}
  0
ARC
  5
208
330
1F
100
AcDbEntity
  8
HIDDEN
100
AcDbCircle
 10
0.0
 20
0.0000000000000019
 30
0.0
 40
124.7669182372026
100
AcDbArc
 50
84.91847588679589
 51
90.80183571031723
1001
DBPROPERTIES
1002
{
1000
PbHidd
1002
}
  0
ARC
  5
209
330
1F
100
AcDbEntity
  8
HIDDEN
100
AcDbCircle
 10
0.0
 20
0.0000000000000019
 30
0.0
 40
124.7669182372026
100
AcDbArc
 50
62.81456629156192
 51
83.08151589982697
1001
DBPROPERTIES
1002
{
1000
PbHidd
1002
}
  0
ARC
  5
20A
330
1F
100
AcDbEntity
  8
THICK
100
AcDbCircle
 10
0.0
 20
0.0000000000000019
 30
0.0
 40
124.7669182372026
100
AcDbArc
 50
39.37325861093358
 51
62.81456629156192
1001
DBPROPERTIES
1002
{
1000
PbThick
1002
}
  0
ARC
  5
20B
330
1F
100
AcDbEntity
  8
HIDDEN
100
AcDbCircle
 10
0.0
 20
0.0000000000000019
 30
0.0
 40
124.7669182372026
100
AcDbArc
 50
11.38598919217826
 51
39.37325861093358
1001
DBPROPERTIES
1002
{
1000
PbHidd
1002
}
  0
ARC
  5
20C
330
1F
100
AcDbEntity
  8
THICK
100
AcDbCircle
 10
0.0
 20
0.0000000000000019
 30
0.0
 40
124.7669182372026
100
AcDbArc
 50
6.91846537620469
 51
11.38598919217826
1001
DBPROPERTIES
1002
{
1000
PbThick
1002
}
  0
ARC
  5
20D
330
1F
100
AcDbEntity
  8
HIDDEN
100
AcDbCircle
 10
0.0
 20
0.0000000000000021
 30
0.0
 40
126.5669182372026
100
AcDbArc
 50
6.905401938475707
 51
83.09457933755594
1001
DBPROPERTIES
1002
{
1000
PbHidd
1002
}
  0
ARC
  5
20E
330
1F
100
AcDbEntity
  8
HIDDEN
100
AcDbCircle
 10
0.0
 20
0.0000000000000019
 30
0.0
 40
128.6453792062852
100
AcDbArc
 50
166.1124969221234
 51
180.0000198478428
1001
DBPROPERTIES
1002
{
1000
PbHidd
1002
}
  0
ARC
  5
20F
330
1F
100
AcDbEntity
  8
THICK
100
AcDbCircle
 10
0.0
 20
0.0000000000000019
 30
0.0
 40
128.6453792062852
100
AcDbArc
 50
141.8110077036652
 51
166.1124969221234
1001
DBPROPERTIES
1002
{
1000
PbThick
1002
}
  0
ARC
  5
210
330
1F
100
AcDbEntity
  8
HIDDEN
100
AcDbCircle
 10
0.0
 20
0.0000000000000019
 30
0.0
 40
128.6453792062852
100
AcDbArc
 50
114.6839198227397
 51
141.8110077036652
1001
DBPROPERTIES
1002
{
1000
PbHidd
1002
}
  0
ARC
  5
211
330
1F
100
AcDbEntity
  8
THICK
100
AcDbCircle
 10
0.0
 20
0.0000000000000019
 30
0.0
 40
128.6453792062852
100
AcDbArc
 50
90.38243060428148
 51
114.6839198227397
1001
DBPROPERTIES
1002
{
1000
PbThick
1002
}
  0
ARC
  5
212
330
1F
100
AcDbEntity
  8
HIDDEN
100
AcDbCircle
 10
0.0
 20
0.0000000000000019
 30
0.0
 40
128.6453792062852
100
AcDbArc
 50
63.25534272335607
 51
90.38243060428148
1001
DBPROPERTIES
1002
{
1000
PbHidd
1002
}
  0
ARC
  5
213
330
1F
100
AcDbEntity
  8
THICK
100
AcDbCircle
 10
0.0
 20
0.0000000000000019
 30
0.0
 40
128.6453792062852
100
AcDbArc
 50
38.95385350489781
 51
63.25534272335607
1001
DBPROPERTIES
1002
{
1000
PbThick
1002
}
  0
ARC
  5
214
330
1F
100
AcDbEntity
  8
HIDDEN
100
AcDbCircle
 10
0.0
 20
0.0000000000000019
 30
0.0
 40
128.6453792062852
100
AcDbArc
 50
11.8267656239724
 51
38.95385350489781
1001
DBPROPERTIES
1002
{
1000
PbHidd
1002
}
  0
ARC
  5
215
330
1F
100
AcDbEntity
  8
THICK
100
AcDbCircle
 10
0.0
 20
0.0000000000000019
 30
0.0
 40
128.6453792062852
100
AcDbArc
 50
0.0
 51
11.8267656239724
1001
DBPROPERTIES
1002
{
1000
PbThick
1002
}
  0
LINE
  5
216
330
1F
100
AcDbEntity
  8
HIDDEN
100
AcDbLine
 10
15.38388335402026
 20
127.2343284843856
 30
0.0
 11
11.40579577254717
 21
127.6524423374562
 31
0.0
1001
DBPROPERTIES
1002
{
1000
PbHidd
1002
}
  0
LINE
  5
217
330
1F
100
AcDbEntity
  8
THICK
100
AcDbLine
 10
127.6524423374562
 20
11.40579577254714
 30
0.0
 11
127.2343284843856
 21
15.38388335402023
 31
0.0
1001
DBPROPERTIES
1002
{
1000
PbThick
1002
}
  0
LINE
  5
218
330
1F
100
AcDbEntity
  8
THICK
100
AcDbLine
 10
127.2343284843856
 20
-15.38388335402028
 30
0.0
 11
127.6524423374562
 21
-11.40579577254719
 31
0.0
1001
DBPROPERTIES
1002
{
1000
PbThick
1002
}
  0
LINE
  5
219
330
1F
100
AcDbEntity
  8
HIDDEN
100
AcDbLine
 10
11.40579577254712
 20
-127.6524423374562
 30
0.0
 11
15.3838833540202
 21
-127.2343284843856
 31
0.0
1001
DBPROPERTIES
1002
{
1000
PbHidd
1002
}
  0
LINE
  5
21A
330
1F
100
AcDbEntity
  8
THICK
100
AcDbLine
 10
-15.38388335402031
 20
-127.2343284843856
 30
0.0
 11
-11.4057957725472
 21
-127.6524423374562
 31
0.0
1001
DBPROPERTIES
1002
{
1000
PbThick
1002
}
  0
LINE
  5
21B
330
1F
100
AcDbEntity
  8
HIDDEN
100
AcDbLine
 10
-127.6524423374562
 20
-11.40579577254714
 30
0.0
 11
-127.2343284843856
 21
-15.38388335402024
 31
0.0
1001
DBPROPERTIES
1002
{
1000
PbHidd
1002
}
  0
LINE
  5
21C
330
1F
100
AcDbEntity
  8
HIDDEN
100
AcDbLine
 10
-127.2343284843856
 20
15.38388335402026
 30
0.0
 11
-127.6524423374562
 21
11.40579577254717
 31
0.0
1001
DBPROPERTIES
1002
{
1000
PbHidd
1002
}
  0
LINE
  5
21D
330
1F
100
AcDbEntity
  8
THICK
100
AcDbLine
 10
-11.40579577254715
 20
127.6524423374562
 30
0.0
 11
-15.38388335402024
 21
127.2343284843855
 31
0.0
1001
DBPROPERTIES
1002
{
1000
PbThick
1002
}
  0
ARC
  5
21E
330
1F
100
AcDbEntity
  8
THICK
100
AcDbCircle
 10
0.0
 20
0.0000000000000021
 30
0.0
 40
130.4453792062852
100
AcDbArc
 50
5.121497843335889
 51
6.878472922104559
1001
DBPROPERTIES
1002
{
1000
PbThick
1002
}
  0
ARC
  5
21F
330
1F
100
AcDbEntity
  8
HIDDEN
100
AcDbCircle
 10
0.0
 20
0.0000000000000021
 30
0.0
 40
130.4453792062852
100
AcDbArc
 50
63.45072133149568
 51
83.1215083539271
1001
DBPROPERTIES
1002
{
1000
PbHidd
1002
}
  0
ARC
  5
220
330
1F
100
AcDbEntity
  8
THICK
100
AcDbCircle
 10
0.0
 20
0.0000000000000021
 30
0.0
 40
130.4453792062852
100
AcDbArc
 50
38.76792870037787
 51
63.45072133149568
1001
DBPROPERTIES
1002
{
1000
PbThick
1002
}
  0
ARC
  5
221
330
1F
100
AcDbEntity
  8
HIDDEN
100
AcDbCircle
 10
0.0
 20
0.0000000000000021
 30
0.0
 40
130.4453792062852
100
AcDbArc
 50
12.02214423211201
 51
38.76792870037787
1001
DBPROPERTIES
1002
{
1000
PbHidd
1002
}
  0
ARC
  5
222
330
1F
100
AcDbEntity
  8
THICK
100
AcDbCircle
 10
0.0
 20
0.0000000000000021
 30
0.0
 40
130.4453792062852
100
AcDbArc
 50
6.878472922104559
 51
12.02214423211201
1001
DBPROPERTIES
1002
{
1000
PbThick
1002
}
  0
ARC
  5
223
330
1F
100
AcDbEntity
  8
HIDDEN
100
AcDbCircle
 10
0.0
 20
0.0000000000000021
 30
0.0
 40
130.4453792062852
100
AcDbArc
 50
83.1215083539271
 51
84.87848343269577
1001
DBPROPERTIES
1002
{
1000
PbHidd
1002
}
  0
ARC
  5
224
330
1F
100
AcDbEntity
  8
THICK
100
AcDbCircle
 10
0.0
 20
0.0000000000000021
 30
0.0
 40
130.4453792062852
100
AcDbArc
 50
95.12147911936755
 51
96.87851149391572
1001
DBPROPERTIES
1002
{
1000
PbThick
1002
}
  0
ARC
  5
225
330
1F
100
AcDbEntity
  8
HIDDEN
100
AcDbCircle
 10
0.0
 20
0.0000000000000021
 30
0.0
 40
130.4453792062852
100
AcDbArc
 50
173.1214896299587
 51
174.8785220045069
1001
DBPROPERTIES
1002
{
1000
PbHidd
1002
}
  0
LINE
  5
226
330
1F
100
AcDbEntity
  8
HIDDEN
100
AcDbLine
 10
15.62269608576981
 20
129.5064798505589
 30
0.0
 11
15.3838833540203
 21
127.2343284843856
 31
0.0
1001
DBPROPERTIES
1002
{
1000
PbHidd
1002
}
  0
LINE
  5
227
330
1F
100
AcDbEntity
  8
HIDDEN
100
AcDbLine
 10
127.2343284843855
 20
15.38388335402022
 30
0.0
 11
129.5064798505588
 21
15.62269608576973
 31
0.0
1001
DBPROPERTIES
1002
{
1000
PbHidd
1002
}
  0
LINE
  5
228
330
1F
100
AcDbEntity
  8
HIDDEN
100
AcDbLine
 10
13.50808044283198
 20
109.3872559430484
 30
0.0
 11
15.38388335402028
 21
127.2343284843856
 31
0.0
1001
DBPROPERTIES
1002
{
1000
PbHidd
1002
}
  0
LINE
  5
229
330
1F
100
AcDbEntity
  8
HIDDEN
100
AcDbLine
 10
11.40579577254719
 20
127.6524423374562
 30
0.0
 11
9.52999286135889
 21
109.805369796119
 31
0.0
1001
DBPROPERTIES
1002
{
1000
PbHidd
1002
}
  0
LINE
  5
22A
330
1F
100
AcDbEntity
  8
HIDDEN
100
AcDbLine
 10
9.529992861358888
 20
109.805369796119
 30
0.0
 11
13.50808044283198
 21
109.3872559430484
 31
0.0
1001
DBPROPERTIES
1002
{
1000
PbHidd
1002
}
  0
LINE
  5
22B
330
1F
100
AcDbEntity
  8
THICK
100
AcDbLine
 10
23.71450532677949
 20
244.7619909975937
 30
0.0
 11
21.43147362030126
 21
223.0403952816142
 31
0.0
1001
DBPROPERTIES
1002
{
1000
PbThick
1002
}
  0
LINE
  5
22C
330
1F
100
AcDbEntity
  8
HIDDEN
100
AcDbLine
 10
21.43147362030126
 20
223.0403952816142
 30
0.0
 11
11.64460850429669
 21
129.9245937036295
 31
0.0
1001
DBPROPERTIES
1002
{
1000
PbHidd
1002
}
  0
LINE
  5
22D
330
1F
100
AcDbEntity
  8
HIDDEN
100
AcDbLine
 10
23.71450532677949
 20
244.7619909975937
 30
0.0
 11
23.71450532677949
 21
244.7619909975937
 31
0.0
1001
DBPROPERTIES
1002
{
1000
PbHidd
1002
}
  0
LINE
  5
22E
330
1F
100
AcDbEntity
  8
THICK
100
AcDbLine
 10
24.09080779454304
 20
248.3422698209195
 30
0.0
 11
23.71450532677948
 21
244.7619909975937
 31
0.0
1001
DBPROPERTIES
1002
{
1000
PbThick
1002
}
  0
LINE
  5
22F
330
1F
100
AcDbEntity
  8
HIDDEN
100
AcDbLine
 10
24.09080779454304
 20
248.3422698209195
 30
0.0
 11
24.09080779454304
 21
248.3422698209195
 31
0.0
1001
DBPROPERTIES
1002
{
1000
PbHidd
1002
}
  0
LINE
  5
230
330
1F
100
AcDbEntity
  8
HIDDEN
100
AcDbLine
 10
9.529992861358888
 20
109.805369796119
 30
0.0
 11
8.675076975772047
 21
101.6713884829414
 31
0.0
1001
DBPROPERTIES
1002
{
1000
PbHidd
1002
}
  0
LINE
  5
231
330
1F
100
AcDbEntity
  8
THICK
100
AcDbLine
 10
-9.529992861358838
 20
109.805369796119
 30
0.0
 11
-11.40579577254713
 21
127.6524423374562
 31
0.0
1001
DBPROPERTIES
1002
{
1000
PbThick
1002
}
  0
LINE
  5
232
330
1F
100
AcDbEntity
  8
THICK
100
AcDbLine
 10
-15.38388335402022
 20
127.2343284843856
 30
0.0
 11
-13.50808044283193
 21
109.3872559430484
 31
0.0
1001
DBPROPERTIES
1002
{
1000
PbThick
1002
}
  0
LINE
  5
233
330
1F
100
AcDbEntity
  8
THICK
100
AcDbLine
 10
-13.50808044283193
 20
109.3872559430484
 30
0.0
 11
-9.529992861358838
 21
109.805369796119
 31
0.0
1001
DBPROPERTIES
1002
{
1000
PbThick
1002
}
  0
LINE
  5
234
330
1F
100
AcDbEntity
  8
THICK
100
AcDbLine
 10
-27.69259290825247
 20
244.3438771445231
 30
0.0
 11
-15.62269608576973
 21
129.5064798505589
 31
0.0
1001
DBPROPERTIES
1002
{
1000
PbThick
1002
}
  0
LINE
  5
235
330
1F
100
AcDbEntity
  8
HIDDEN
100
AcDbLine
 10
-27.69259290825247
 20
244.3438771445231
 30
0.0
 11
-27.69259290825247
 21
244.3438771445231
 31
0.0
1001
DBPROPERTIES
1002
{
1000
PbHidd
1002
}
  0
LINE
  5
236
330
1F
100
AcDbEntity
  8
THICK
100
AcDbLine
 10
-28.06889537601602
 20
247.9241559678489
 30
0.0
 11
-27.69259290825247
 21
244.3438771445231
 31
0.0
1001
DBPROPERTIES
1002
{
1000
PbThick
1002
}
  0
LINE
  5
237
330
1F
100
AcDbEntity
  8
HIDDEN
100
AcDbLine
 10
-28.06889537601602
 20
247.9241559678489
 30
0.0
 11
-28.06889537601602
 21
247.9241559678489
 31
0.0
1001
DBPROPERTIES
1002
{
1000
PbHidd
1002
}
  0
LINE
  5
238
330
1F
100
AcDbEntity
  8
HIDDEN
100
AcDbLine
 10
-12.65316455724509
 20
101.2532746298708
 30
0.0
 11
-12.65316455724509
 21
101.2532746298708
 31
0.0
1001
DBPROPERTIES
1002
{
1000
PbHidd
1002
}
  0
LINE
  5
239
330
1F
100
AcDbEntity
  8
THICK
100
AcDbLine
 10
-13.50808044283193
 20
109.3872559430484
 30
0.0
 11
-12.65316455724509
 21
101.2532746298708
 31
0.0
1001
DBPROPERTIES
1002
{
1000
PbThick
1002
}
  0
LINE
  5
23A
330
1F
100
AcDbEntity
  8
THICK
100
AcDbLine
 10
109.3872559430484
 20
-13.50808044283198
 30
0.0
 11
127.2343284843856
 21
-15.38388335402027
 31
0.0
1001
DBPROPERTIES
1002
{
1000
PbThick
1002
}
  0
LINE
  5
23B
330
1F
100
AcDbEntity
  8
THICK
100
AcDbLine
 10
127.6524423374562
 20
-11.40579577254718
 30
0.0
 11
109.805369796119
 21
-9.529992861358885
 31
0.0
1001
DBPROPERTIES
1002
{
1000
PbThick
1002
}
  0
LINE
  5
23C
330
1F
100
AcDbEntity
  8
THICK
100
AcDbLine
 10
109.805369796119
 20
-9.529992861358881
 30
0.0
 11
109.3872559430484
 21
-13.50808044283197
 31
0.0
1001
DBPROPERTIES
1002
{
1000
PbThick
1002
}
  0
LINE
  5
23D
330
1F
100
AcDbEntity
  8
THICK
100
AcDbLine
 10
244.7619909975937
 20
-23.71450532677947
 30
0.0
 11
129.9245937036295
 21
-11.64460850429668
 31
0.0
1001
DBPROPERTIES
1002
{
1000
PbThick
1002
}
  0
LINE
  5
23E
330
1F
100
AcDbEntity
  8
HIDDEN
100
AcDbLine
 10
244.7619909975937
 20
-23.71450532677947
 30
0.0
 11
244.7619909975937
 21
-23.71450532677947
 31
0.0
1001
DBPROPERTIES
1002
{
1000
PbHidd
1002
}
  0
LINE
  5
23F
330
1F
100
AcDbEntity
  8
THICK
100
AcDbLine
 10
248.3422698209195
 20
-24.09080779454302
 30
0.0
 11
244.7619909975937
 21
-23.71450532677947
 31
0.0
1001
DBPROPERTIES
1002
{
1000
PbThick
1002
}
  0
LINE
  5
240
330
1F
100
AcDbEntity
  8
HIDDEN
100
AcDbLine
 10
248.3422698209195
 20
-24.09080779454302
 30
0.0
 11
248.3422698209195
 21
-24.09080779454302
 31
0.0
1001
DBPROPERTIES
1002
{
1000
PbHidd
1002
}
  0
LINE
  5
241
330
1F
100
AcDbEntity
  8
THICK
100
AcDbLine
 10
109.805369796119
 20
-9.529992861358881
 30
0.0
 11
101.6713884829414
 21
-8.67507697577204
 31
0.0
1001
DBPROPERTIES
1002
{
1000
PbThick
1002
}
  0
LINE
  5
242
330
1F
100
AcDbEntity
  8
THICK
100
AcDbLine
 10
109.805369796119
 20
9.529992861358846
 30
0.0
 11
127.6524423374562
 21
11.40579577254713
 31
0.0
1001
DBPROPERTIES
1002
{
1000
PbThick
1002
}
  0
LINE
  5
243
330
1F
100
AcDbEntity
  8
THICK
100
AcDbLine
 10
127.2343284843856
 20
15.38388335402023
 30
0.0
 11
109.3872559430484
 21
13.50808044283194
 31
0.0
1001
DBPROPERTIES
1002
{
1000
PbThick
1002
}
  0
LINE
  5
244
330
1F
100
AcDbEntity
  8
THICK
100
AcDbLine
 10
109.3872559430484
 20
13.50808044283194
 30
0.0
 11
109.805369796119
 21
9.529992861358846
 31
0.0
1001
DBPROPERTIES
1002
{
1000
PbThick
1002
}
  0
LINE
  5
245
330
1F
100
AcDbEntity
  8
THICK
100
AcDbLine
 10
244.3438771445231
 20
27.69259290825249
 30
0.0
 11
129.5064798505588
 21
15.62269608576973
 31
0.0
1001
DBPROPERTIES
1002
{
1000
PbThick
1002
}
  0
LINE
  5
246
330
1F
100
AcDbEntity
  8
HIDDEN
100
AcDbLine
 10
244.3438771445231
 20
27.69259290825249
 30
0.0
 11
244.3438771445231
 21
27.69259290825249
 31
0.0
1001
DBPROPERTIES
1002
{
1000
PbHidd
1002
}
  0
LINE
  5
247
330
1F
100
AcDbEntity
  8
THICK
100
AcDbLine
 10
247.9241559678489
 20
28.06889537601604
 30
0.0
 11
244.3438771445231
 21
27.69259290825249
 31
0.0
1001
DBPROPERTIES
1002
{
1000
PbThick
1002
}
  0
LINE
  5
248
330
1F
100
AcDbEntity
  8
HIDDEN
100
AcDbLine
 10
247.9241559678489
 20
28.06889537601604
 30
0.0
 11
247.9241559678489
 21
28.06889537601604
 31
0.0
1001
DBPROPERTIES
1002
{
1000
PbHidd
1002
}
  0
LINE
  5
249
330
1F
100
AcDbEntity
  8
THICK
100
AcDbLine
 10
109.3872559430484
 20
13.50808044283194
 30
0.0
 11
101.2532746298708
 21
12.6531645572451
 31
0.0
1001
DBPROPERTIES
1002
{
1000
PbThick
1002
}
  0
LINE
  5
24A
330
1F
100
AcDbEntity
  8
THICK
100
AcDbLine
 10
-13.50808044283197
 20
-109.3872559430484
 30
0.0
 11
-15.38388335402027
 21
-127.2343284843856
 31
0.0
1001
DBPROPERTIES
1002
{
1000
PbThick
1002
}
  0
LINE
  5
24B
330
1F
100
AcDbEntity
  8
THICK
100
AcDbLine
 10
-11.40579577254718
 20
-127.6524423374562
 30
0.0
 11
-9.529992861358878
 21
-109.805369796119
 31
0.0
1001
DBPROPERTIES
1002
{
1000
PbThick
1002
}
  0
LINE
  5
24C
330
1F
100
AcDbEntity
  8
THICK
100
AcDbLine
 10
-9.529992861358874
 20
-109.805369796119
 30
0.0
 11
-13.50808044283196
 21
-109.3872559430484
 31
0.0
1001
DBPROPERTIES
1002
{
1000
PbThick
1002
}
  0
LINE
  5
24D
330
1F
100
AcDbEntity
  8
THICK
100
AcDbLine
 10
-23.71450532677946
 20
-244.7619909975937
 30
0.0
 11
-11.64460850429667
 21
-129.9245937036295
 31
0.0
1001
DBPROPERTIES
1002
{
1000
PbThick
1002
}
  0
LINE
  5
24E
330
1F
100
AcDbEntity
  8
HIDDEN
100
AcDbLine
 10
-23.71450532677946
 20
-244.7619909975937
 30
0.0
 11
-23.71450532677946
 21
-244.7619909975937
 31
0.0
1001
DBPROPERTIES
1002
{
1000
PbHidd
1002
}
  0
LINE
  5
24F
330
1F
100
AcDbEntity
  8
THICK
100
AcDbLine
 10
-24.09080779454301
 20
-248.3422698209195
 30
0.0
 11
-23.71450532677946
 21
-244.7619909975937
 31
0.0
1001
DBPROPERTIES
1002
{
1000
PbThick
1002
}
  0
LINE
  5
250
330
1F
100
AcDbEntity
  8
HIDDEN
100
AcDbLine
 10
-24.09080779454301
 20
-248.3422698209195
 30
0.0
 11
-24.09080779454301
 21
-248.3422698209195
 31
0.0
1001
DBPROPERTIES
1002
{
1000
PbHidd
1002
}
  0
LINE
  5
251
330
1F
100
AcDbEntity
  8
HIDDEN
100
AcDbLine
 10
-8.675076975772035
 20
-101.6713884829414
 30
0.0
 11
-8.675076975772035
 21
-101.6713884829414
 31
0.0
1001
DBPROPERTIES
1002
{
1000
PbHidd
1002
}
  0
LINE
  5
252
330
1F
100
AcDbEntity
  8
THICK
100
AcDbLine
 10
-9.529992861358874
 20
-109.805369796119
 30
0.0
 11
-8.675076975772031
 21
-101.6713884829414
 31
0.0
1001
DBPROPERTIES
1002
{
1000
PbThick
1002
}
  0
LINE
  5
253
330
1F
100
AcDbEntity
  8
HIDDEN
100
AcDbLine
 10
9.529992861358851
 20
-109.805369796119
 30
0.0
 11
11.40579577254714
 21
-127.6524423374562
 31
0.0
1001
DBPROPERTIES
1002
{
1000
PbHidd
1002
}
  0
LINE
  5
254
330
1F
100
AcDbEntity
  8
HIDDEN
100
AcDbLine
 10
15.38388335402023
 20
-127.2343284843856
 30
0.0
 11
13.50808044283194
 21
-109.3872559430484
 31
0.0
1001
DBPROPERTIES
1002
{
1000
PbHidd
1002
}
  0
LINE
  5
255
330
1F
100
AcDbEntity
  8
HIDDEN
100
AcDbLine
 10
13.50808044283194
 20
-109.3872559430484
 30
0.0
 11
9.529992861358853
 21
-109.805369796119
 31
0.0
1001
DBPROPERTIES
1002
{
1000
PbHidd
1002
}
  0
LINE
  5
256
330
1F
100
AcDbEntity
  8
THICK
100
AcDbLine
 10
27.6925929082525
 20
-244.3438771445231
 30
0.0
 11
25.63243910849927
 21
-224.7428230619194
 31
0.0
1001
DBPROPERTIES
1002
{
1000
PbThick
1002
}
  0
LINE
  5
257
330
1F
100
AcDbEntity
  8
HIDDEN
100
AcDbLine
 10
25.63243910849927
 20
-224.7428230619194
 30
0.0
 11
15.62269608576975
 21
-129.5064798505589
 31
0.0
1001
DBPROPERTIES
1002
{
1000
PbHidd
1002
}
  0
LINE
  5
258
330
1F
100
AcDbEntity
  8
HIDDEN
100
AcDbLine
 10
27.6925929082525
 20
-244.3438771445231
 30
0.0
 11
27.6925929082525
 21
-244.3438771445231
 31
0.0
1001
DBPROPERTIES
1002
{
1000
PbHidd
1002
}
  0
LINE
  5
259
330
1F
100
AcDbEntity
  8
THICK
100
AcDbLine
 10
28.06889537601605
 20
-247.9241559678489
 30
0.0
 11
27.6925929082525
 21
-244.3438771445231
 31
0.0
1001
DBPROPERTIES
1002
{
1000
PbThick
1002
}
  0
LINE
  5
25A
330
1F
100
AcDbEntity
  8
HIDDEN
100
AcDbLine
 10
28.06889537601605
 20
-247.9241559678489
 30
0.0
 11
28.06889537601605
 21
-247.9241559678489
 31
0.0
1001
DBPROPERTIES
1002
{
1000
PbHidd
1002
}
  0
LINE
  5
25B
330
1F
100
AcDbEntity
  8
HIDDEN
100
AcDbLine
 10
13.50808044283194
 20
-109.3872559430484
 30
0.0
 11
12.65316455724511
 21
-101.2532746298708
 31
0.0
1001
DBPROPERTIES
1002
{
1000
PbHidd
1002
}
  0
LINE
  5
25C
330
1F
100
AcDbEntity
  8
HIDDEN
100
AcDbLine
 10
-109.3872559430484
 20
13.50808044283196
 30
0.0
 11
-127.2343284843856
 21
15.38388335402026
 31
0.0
1001
DBPROPERTIES
1002
{
1000
PbHidd
1002
}
  0
LINE
  5
25D
330
1F
100
AcDbEntity
  8
HIDDEN
100
AcDbLine
 10
-127.6524423374562
 20
11.40579577254717
 30
0.0
 11
-109.805369796119
 21
9.529992861358872
 31
0.0
1001
DBPROPERTIES
1002
{
1000
PbHidd
1002
}
  0
LINE
  5
25E
330
1F
100
AcDbEntity
  8
HIDDEN
100
AcDbLine
 10
-109.805369796119
 20
9.529992861358867
 30
0.0
 11
-109.3872559430484
 21
13.50808044283196
 31
0.0
1001
DBPROPERTIES
1002
{
1000
PbHidd
1002
}
  0
LINE
  5
25F
330
1F
100
AcDbEntity
  8
THICK
100
AcDbLine
 10
-244.7619909975937
 20
23.71450532677945
 30
0.0
 11
-226.1699811282429
 21
21.76040634740941
 31
0.0
1001
DBPROPERTIES
1002
{
1000
PbThick
1002
}
  0
LINE
  5
260
330
1F
100
AcDbEntity
  8
HIDDEN
100
AcDbLine
 10
-226.1699811282429
 20
21.76040634740941
 30
0.0
 11
-129.9245937036296
 21
11.64460850429667
 31
0.0
1001
DBPROPERTIES
1002
{
1000
PbHidd
1002
}
  0
LINE
  5
261
330
1F
100
AcDbEntity
  8
HIDDEN
100
AcDbLine
 10
-244.7619909975937
 20
23.71450532677945
 30
0.0
 11
-244.7619909975937
 21
23.71450532677945
 31
0.0
1001
DBPROPERTIES
1002
{
1000
PbHidd
1002
}
  0
LINE
  5
262
330
1F
100
AcDbEntity
  8
THICK
100
AcDbLine
 10
-248.3422698209195
 20
24.09080779454299
 30
0.0
 11
-244.7619909975937
 21
23.71450532677944
 31
0.0
1001
DBPROPERTIES
1002
{
1000
PbThick
1002
}
  0
LINE
  5
263
330
1F
100
AcDbEntity
  8
HIDDEN
100
AcDbLine
 10
-248.3422698209195
 20
24.09080779454299
 30
0.0
 11
-248.3422698209195
 21
24.09080779454299
 31
0.0
1001
DBPROPERTIES
1002
{
1000
PbHidd
1002
}
  0
LINE
  5
264
330
1F
100
AcDbEntity
  8
HIDDEN
100
AcDbLine
 10
-101.6713884829414
 20
8.675076975772031
 30
0.0
 11
-101.6713884829414
 21
8.675076975772031
 31
0.0
1001
DBPROPERTIES
1002
{
1000
PbHidd
1002
}
  0
LINE
  5
265
330
1F
100
AcDbEntity
  8
HIDDEN
100
AcDbLine
 10
-109.805369796119
 20
9.529992861358867
 30
0.0
 11
-101.6713884829414
 21
8.675076975772027
 31
0.0
1001
DBPROPERTIES
1002
{
1000
PbHidd
1002
}
  0
LINE
  5
266
330
1F
100
AcDbEntity
  8
HIDDEN
100
AcDbLine
 10
-109.805369796119
 20
-9.529992861358856
 30
0.0
 11
-127.6524423374562
 21
-11.40579577254715
 31
0.0
1001
DBPROPERTIES
1002
{
1000
PbHidd
1002
}
  0
LINE
  5
267
330
1F
100
AcDbEntity
  8
HIDDEN
100
AcDbLine
 10
-127.2343284843856
 20
-15.38388335402024
 30
0.0
 11
-109.3872559430484
 21
-13.50808044283195
 31
0.0
1001
DBPROPERTIES
1002
{
1000
PbHidd
1002
}
  0
LINE
  5
268
330
1F
100
AcDbEntity
  8
HIDDEN
100
AcDbLine
 10
-109.3872559430484
 20
-13.50808044283195
 30
0.0
 11
-109.805369796119
 21
-9.52999286135886
 31
0.0
1001
DBPROPERTIES
1002
{
1000
PbHidd
1002
}
  0
LINE
  5
269
330
1F
100
AcDbEntity
  8
THICK
100
AcDbLine
 10
-244.3438771445231
 20
-27.69259290825251
 30
0.0
 11
-223.899144146924
 21
-25.54376488132892
 31
0.0
1001
DBPROPERTIES
1002
{
1000
PbThick
1002
}
  0
LINE
  5
26A
330
1F
100
AcDbEntity
  8
HIDDEN
100
AcDbLine
 10
-223.899144146924
 20
-25.54376488132892
 30
0.0
 11
-129.5064798505589
 21
-15.62269608576976
 31
0.0
1001
DBPROPERTIES
1002
{
1000
PbHidd
1002
}
  0
LINE
  5
26B
330
1F
100
AcDbEntity
  8
HIDDEN
100
AcDbLine
 10
-244.3438771445231
 20
-27.69259290825251
 30
0.0
 11
-244.3438771445231
 21
-27.69259290825251
 31
0.0
1001
DBPROPERTIES
1002
{
1000
PbHidd
1002
}
  0
LINE
  5
26C
330
1F
100
AcDbEntity
  8
THICK
100
AcDbLine
 10
-247.9241559678489
 20
-28.06889537601607
 30
0.0
 11
-244.3438771445231
 21
-27.69259290825251
 31
0.0
1001
DBPROPERTIES
1002
{
1000
PbThick
1002
}
  0
LINE
  5
26D
330
1F
100
AcDbEntity
  8
HIDDEN
100
AcDbLine
 10
-247.9241559678489
 20
-28.06889537601607
 30
0.0
 11
-247.9241559678489
 21
-28.06889537601607
 31
0.0
1001
DBPROPERTIES
1002
{
1000
PbHidd
1002
}
  0
LINE
  5
26E
330
1F
100
AcDbEntity
  8
HIDDEN
100
AcDbLine
 10
-101.2532746298708
 20
-12.65316455724511
 30
0.0
 11
-101.2532746298708
 21
-12.65316455724511
 31
0.0
1001
DBPROPERTIES
1002
{
1000
PbHidd
1002
}
  0
LINE
  5
26F
330
1F
100
AcDbEntity
  8
HIDDEN
100
AcDbLine
 10
-109.3872559430484
 20
-13.50808044283195
 30
0.0
 11
-101.2532746298708
 21
-12.65316455724511
 31
0.0
1001
DBPROPERTIES
1002
{
1000
PbHidd
1002
}
  0
LINE
  5
270
330
1F
100
AcDbEntity
  8
HIDDEN
100
AcDbLine
 10
12.65316455724514
 20
101.2532746298708
 30
0.0
 11
13.50808044283198
 21
109.3872559430484
 31
0.0
1001
DBPROPERTIES
1002
{
1000
PbHidd
1002
}
  0
LINE
  5
271
330
1F
100
AcDbEntity
  8
HIDDEN
100
AcDbLine
 10
15.62269608576979
 20
129.5064798505589
 30
0.0
 11
25.56692438410752
 21
224.1194920969375
 31
0.0
1001
DBPROPERTIES
1002
{
1000
PbHidd
1002
}
  0
LINE
  5
272
330
1F
100
AcDbEntity
  8
THICK
100
AcDbLine
 10
25.56692438410752
 20
224.1194920969375
 30
0.0
 11
27.69259290825259
 21
244.3438771445231
 31
0.0
1001
DBPROPERTIES
1002
{
1000
PbThick
1002
}
  0
LINE
  5
273
330
1F
100
AcDbEntity
  8
HIDDEN
100
AcDbLine
 10
27.69259290825259
 20
244.3438771445231
 30
0.0
 11
27.69259290825259
 21
244.3438771445231
 31
0.0
1001
DBPROPERTIES
1002
{
1000
PbHidd
1002
}
  0
LINE
  5
274
330
1F
100
AcDbEntity
  8
THICK
100
AcDbLine
 10
23.71450532677949
 20
244.7619909975937
 30
0.0
 11
27.69259290825258
 21
244.3438771445231
 31
0.0
1001
DBPROPERTIES
1002
{
1000
PbThick
1002
}
  0
LINE
  5
275
330
1F
100
AcDbEntity
  8
THICK
100
AcDbLine
 10
27.69259290825259
 20
244.3438771445231
 30
0.0
 11
28.06889537601614
 21
247.9241559678489
 31
0.0
1001
DBPROPERTIES
1002
{
1000
PbThick
1002
}
  0
LINE
  5
276
330
1F
100
AcDbEntity
  8
THICK
100
AcDbLine
 10
24.09080779454304
 20
248.3422698209195
 30
0.0
 11
28.06889537601613
 21
247.9241559678489
 31
0.0
1001
DBPROPERTIES
1002
{
1000
PbThick
1002
}
  0
LINE
  5
277
330
1F
100
AcDbEntity
  8
HIDDEN
100
AcDbLine
 10
28.06889537601614
 20
247.9241559678489
 30
0.0
 11
28.06889537601614
 21
247.9241559678489
 31
0.0
1001
DBPROPERTIES
1002
{
1000
PbHidd
1002
}
  0
LINE
  5
278
330
1F
100
AcDbEntity
  8
HIDDEN
100
AcDbLine
 10
11.29716660701718
 20
126.6189048662456
 30
0.0
 11
15.27525418849027
 21
126.200791013175
 31
0.0
1001
DBPROPERTIES
1002
{
1000
PbHidd
1002
}
  0
LINE
  5
279
330
1F
100
AcDbEntity
  8
HIDDEN
100
AcDbLine
 10
9.341841627477114
 20
108.0152303844561
 30
0.0
 11
13.3199292089502
 21
107.5971165313855
 31
0.0
1001
DBPROPERTIES
1002
{
1000
PbHidd
1002
}
  0
LINE
  5
27A
330
1F
100
AcDbEntity
  8
THICK
100
AcDbLine
 10
-8.675076975771999
 20
101.6713884829414
 30
0.0
 11
-9.529992861358835
 21
109.805369796119
 31
0.0
1001
DBPROPERTIES
1002
{
1000
PbThick
1002
}
  0
LINE
  5
27B
330
1F
100
AcDbEntity
  8
THICK
100
AcDbLine
 10
-11.64460850429663
 20
129.9245937036295
 30
0.0
 11
-23.71450532677938
 21
244.7619909975937
 31
0.0
1001
DBPROPERTIES
1002
{
1000
PbThick
1002
}
  0
LINE
  5
27C
330
1F
100
AcDbEntity
  8
HIDDEN
100
AcDbLine
 10
-23.71450532677938
 20
244.7619909975937
 30
0.0
 11
-23.71450532677938
 21
244.7619909975937
 31
0.0
1001
DBPROPERTIES
1002
{
1000
PbHidd
1002
}
  0
LINE
  5
27D
330
1F
100
AcDbEntity
  8
THICK
100
AcDbLine
 10
-27.69259290825247
 20
244.3438771445231
 30
0.0
 11
-23.71450532677938
 21
244.7619909975937
 31
0.0
1001
DBPROPERTIES
1002
{
1000
PbThick
1002
}
  0
LINE
  5
27E
330
1F
100
AcDbEntity
  8
THICK
100
AcDbLine
 10
-23.71450532677938
 20
244.7619909975937
 30
0.0
 11
-24.09080779454293
 21
248.3422698209195
 31
0.0
1001
DBPROPERTIES
1002
{
1000
PbThick
1002
}
  0
LINE
  5
27F
330
1F
100
AcDbEntity
  8
THICK
100
AcDbLine
 10
-28.06889537601602
 20
247.9241559678489
 30
0.0
 11
-24.09080779454293
 21
248.3422698209195
 31
0.0
1001
DBPROPERTIES
1002
{
1000
PbThick
1002
}
  0
LINE
  5
280
330
1F
100
AcDbEntity
  8
HIDDEN
100
AcDbLine
 10
-24.09080779454293
 20
248.3422698209195
 30
0.0
 11
-24.09080779454293
 21
248.3422698209195
 31
0.0
1001
DBPROPERTIES
1002
{
1000
PbHidd
1002
}
  0
LINE
  5
281
330
1F
100
AcDbEntity
  8
HIDDEN
100
AcDbLine
 10
-15.27525418849021
 20
126.200791013175
 30
0.0
 11
-11.29716660701712
 21
126.6189048662456
 31
0.0
1001
DBPROPERTIES
1002
{
1000
PbHidd
1002
}
  0
LINE
  5
282
330
1F
100
AcDbEntity
  8
HIDDEN
100
AcDbLine
 10
-13.31992920895015
 20
107.5971165313855
 30
0.0
 11
-9.341841627477063
 21
108.0152303844561
 31
0.0
1001
DBPROPERTIES
1002
{
1000
PbHidd
1002
}
  0
LINE
  5
283
330
1F
100
AcDbEntity
  8
HIDDEN
100
AcDbLine
 10
-8.675076975771995
 20
101.6713884829414
 30
0.0
 11
-8.675076975771995
 21
101.6713884829414
 31
0.0
1001
DBPROPERTIES
1002
{
1000
PbHidd
1002
}
  0
LINE
  5
284
330
1F
100
AcDbEntity
  8
THICK
100
AcDbLine
 10
101.2532746298708
 20
-12.65316455724514
 30
0.0
 11
109.3872559430484
 21
-13.50808044283198
 31
0.0
1001
DBPROPERTIES
1002
{
1000
PbThick
1002
}
  0
LINE
  5
285
330
1F
100
AcDbEntity
  8
THICK
100
AcDbLine
 10
129.5064798505588
 20
-15.62269608576978
 30
0.0
 11
244.3438771445231
 21
-27.69259290825257
 31
0.0
1001
DBPROPERTIES
1002
{
1000
PbThick
1002
}
  0
LINE
  5
286
330
1F
100
AcDbEntity
  8
HIDDEN
100
AcDbLine
 10
244.3438771445231
 20
-27.69259290825257
 30
0.0
 11
244.3438771445231
 21
-27.69259290825257
 31
0.0
1001
DBPROPERTIES
1002
{
1000
PbHidd
1002
}
  0
LINE
  5
287
330
1F
100
AcDbEntity
  8
THICK
100
AcDbLine
 10
244.7619909975937
 20
-23.71450532677947
 30
0.0
 11
244.3438771445231
 21
-27.69259290825256
 31
0.0
1001
DBPROPERTIES
1002
{
1000
PbThick
1002
}
  0
LINE
  5
288
330
1F
100
AcDbEntity
  8
THICK
100
AcDbLine
 10
244.3438771445231
 20
-27.69259290825257
 30
0.0
 11
247.9241559678489
 21
-28.06889537601612
 31
0.0
1001
DBPROPERTIES
1002
{
1000
PbThick
1002
}
  0
LINE
  5
289
330
1F
100
AcDbEntity
  8
THICK
100
AcDbLine
 10
248.3422698209195
 20
-24.09080779454302
 30
0.0
 11
247.9241559678489
 21
-28.06889537601611
 31
0.0
1001
DBPROPERTIES
1002
{
1000
PbThick
1002
}
  0
LINE
  5
28A
330
1F
100
AcDbEntity
  8
HIDDEN
100
AcDbLine
 10
247.9241559678489
 20
-28.06889537601612
 30
0.0
 11
247.9241559678489
 21
-28.06889537601612
 31
0.0
1001
DBPROPERTIES
1002
{
1000
PbHidd
1002
}
  0
LINE
  5
28B
330
1F
100
AcDbEntity
  8
HIDDEN
100
AcDbLine
 10
126.6189048662456
 20
-11.29716660701717
 30
0.0
 11
126.200791013175
 21
-15.27525418849026
 31
0.0
1001
DBPROPERTIES
1002
{
1000
PbHidd
1002
}
  0
LINE
  5
28C
330
1F
100
AcDbEntity
  8
HIDDEN
100
AcDbLine
 10
108.0152303844561
 20
-9.341841627477107
 30
0.0
 11
107.5971165313855
 21
-13.3199292089502
 31
0.0
1001
DBPROPERTIES
1002
{
1000
PbHidd
1002
}
  0
LINE
  5
28D
330
1F
100
AcDbEntity
  8
THICK
100
AcDbLine
 10
101.6713884829414
 20
8.675076975772004
 30
0.0
 11
109.805369796119
 21
9.529992861358842
 31
0.0
1001
DBPROPERTIES
1002
{
1000
PbThick
1002
}
  0
LINE
  5
28E
330
1F
100
AcDbEntity
  8
THICK
100
AcDbLine
 10
129.9245937036295
 20
11.64460850429664
 30
0.0
 11
244.7619909975937
 21
23.71450532677939
 31
0.0
1001
DBPROPERTIES
1002
{
1000
PbThick
1002
}
  0
LINE
  5
28F
330
1F
100
AcDbEntity
  8
HIDDEN
100
AcDbLine
 10
244.7619909975937
 20
23.71450532677939
 30
0.0
 11
244.7619909975937
 21
23.71450532677939
 31
0.0
1001
DBPROPERTIES
1002
{
1000
PbHidd
1002
}
  0
LINE
  5
290
330
1F
100
AcDbEntity
  8
THICK
100
AcDbLine
 10
244.3438771445231
 20
27.69259290825249
 30
0.0
 11
244.7619909975937
 21
23.7145053267794
 31
0.0
1001
DBPROPERTIES
1002
{
1000
PbThick
1002
}
  0
LINE
  5
291
330
1F
100
AcDbEntity
  8
THICK
100
AcDbLine
 10
244.7619909975937
 20
23.71450532677939
 30
0.0
 11
248.3422698209195
 21
24.09080779454294
 31
0.0
1001
DBPROPERTIES
1002
{
1000
PbThick
1002
}
  0
LINE
  5
292
330
1F
100
AcDbEntity
  8
THICK
100
AcDbLine
 10
247.9241559678489
 20
28.06889537601604
 30
0.0
 11
248.3422698209195
 21
24.09080779454295
 31
0.0
1001
DBPROPERTIES
1002
{
1000
PbThick
1002
}
  0
LINE
  5
293
330
1F
100
AcDbEntity
  8
HIDDEN
100
AcDbLine
 10
248.3422698209195
 20
24.09080779454294
 30
0.0
 11
248.3422698209195
 21
24.09080779454294
 31
0.0
1001
DBPROPERTIES
1002
{
1000
PbHidd
1002
}
  0
LINE
  5
294
330
1F
100
AcDbEntity
  8
HIDDEN
100
AcDbLine
 10
126.200791013175
 20
15.27525418849022
 30
0.0
 11
126.6189048662456
 21
11.29716660701713
 31
0.0
1001
DBPROPERTIES
1002
{
1000
PbHidd
1002
}
  0
LINE
  5
295
330
1F
100
AcDbEntity
  8
HIDDEN
100
AcDbLine
 10
107.5971165313855
 20
13.31992920895016
 30
0.0
 11
108.0152303844561
 21
9.34184162747707
 31
0.0
1001
DBPROPERTIES
1002
{
1000
PbHidd
1002
}
  0
LINE
  5
296
330
1F
100
AcDbEntity
  8
THICK
100
AcDbLine
 10
-12.65316455724513
 20
-101.2532746298707
 30
0.0
 11
-13.50808044283197
 21
-109.3872559430484
 31
0.0
1001
DBPROPERTIES
1002
{
1000
PbThick
1002
}
  0
LINE
  5
297
330
1F
100
AcDbEntity
  8
THICK
100
AcDbLine
 10
-15.62269608576977
 20
-129.5064798505588
 30
0.0
 11
-27.69259290825256
 21
-244.3438771445231
 31
0.0
1001
DBPROPERTIES
1002
{
1000
PbThick
1002
}
  0
LINE
  5
298
330
1F
100
AcDbEntity
  8
HIDDEN
100
AcDbLine
 10
-27.69259290825256
 20
-244.3438771445231
 30
0.0
 11
-27.69259290825256
 21
-244.3438771445231
 31
0.0
1001
DBPROPERTIES
1002
{
1000
PbHidd
1002
}
  0
LINE
  5
299
330
1F
100
AcDbEntity
  8
THICK
100
AcDbLine
 10
-23.71450532677946
 20
-244.7619909975937
 30
0.0
 11
-27.69259290825255
 21
-244.3438771445231
 31
0.0
1001
DBPROPERTIES
1002
{
1000
PbThick
1002
}
  0
LINE
  5
29A
330
1F
100
AcDbEntity
  8
THICK
100
AcDbLine
 10
-27.69259290825256
 20
-244.3438771445231
 30
0.0
 11
-28.06889537601611
 21
-247.9241559678489
 31
0.0
1001
DBPROPERTIES
1002
{
1000
PbThick
1002
}
  0
LINE
  5
29B
330
1F
100
AcDbEntity
  8
THICK
100
AcDbLine
 10
-24.09080779454301
 20
-248.3422698209195
 30
0.0
 11
-28.0688953760161
 21
-247.9241559678489
 31
0.0
1001
DBPROPERTIES
1002
{
1000
PbThick
1002
}
  0
LINE
  5
29C
330
1F
100
AcDbEntity
  8
HIDDEN
100
AcDbLine
 10
-28.06889537601611
 20
-247.9241559678489
 30
0.0
 11
-28.06889537601611
 21
-247.9241559678489
 31
0.0
1001
DBPROPERTIES
1002
{
1000
PbHidd
1002
}
  0
LINE
  5
29D
330
1F
100
AcDbEntity
  8
HIDDEN
100
AcDbLine
 10
-11.29716660701717
 20
-126.6189048662456
 30
0.0
 11
-15.27525418849026
 21
-126.200791013175
 31
0.0
1001
DBPROPERTIES
1002
{
1000
PbHidd
1002
}
  0
LINE
  5
29E
330
1F
100
AcDbEntity
  8
HIDDEN
100
AcDbLine
 10
-9.3418416274771
 20
-108.0152303844561
 30
0.0
 11
-13.31992920895019
 21
-107.5971165313855
 31
0.0
1001
DBPROPERTIES
1002
{
1000
PbHidd
1002
}
  0
LINE
  5
29F
330
1F
100
AcDbEntity
  8
HIDDEN
100
AcDbLine
 10
-12.65316455724513
 20
-101.2532746298707
 30
0.0
 11
-12.65316455724513
 21
-101.2532746298707
 31
0.0
1001
DBPROPERTIES
1002
{
1000
PbHidd
1002
}
  0
LINE
  5
2A0
330
1F
100
AcDbEntity
  8
HIDDEN
100
AcDbLine
 10
8.67507697577201
 20
-101.6713884829414
 30
0.0
 11
9.52999286135885
 21
-109.805369796119
 31
0.0
1001
DBPROPERTIES
1002
{
1000
PbHidd
1002
}
  0
LINE
  5
2A1
330
1F
100
AcDbEntity
  8
HIDDEN
100
AcDbLine
 10
11.64460850429665
 20
-129.9245937036296
 30
0.0
 11
21.50793575595267
 21
-223.7678839071506
 31
0.0
1001
DBPROPERTIES
1002
{
1000
PbHidd
1002
}
  0
LINE
  5
2A2
330
1F
100
AcDbEntity
  8
THICK
100
AcDbLine
 10
21.50793575595267
 20
-223.7678839071506
 30
0.0
 11
23.71450532677941
 21
-244.7619909975937
 31
0.0
1001
DBPROPERTIES
1002
{
1000
PbThick
1002
}
  0
LINE
  5
2A3
330
1F
100
AcDbEntity
  8
HIDDEN
100
AcDbLine
 10
23.71450532677941
 20
-244.7619909975937
 30
0.0
 11
23.71450532677941
 21
-244.7619909975937
 31
0.0
1001
DBPROPERTIES
1002
{
1000
PbHidd
1002
}
  0
LINE
  5
2A4
330
1F
100
AcDbEntity
  8
THICK
100
AcDbLine
 10
27.6925929082525
 20
-244.3438771445231
 30
0.0
 11
23.71450532677941
 21
-244.7619909975937
 31
0.0
1001
DBPROPERTIES
1002
{
1000
PbThick
1002
}
  0
LINE
  5
2A5
330
1F
100
AcDbEntity
  8
THICK
100
AcDbLine
 10
23.71450532677941
 20
-244.7619909975937
 30
0.0
 11
24.09080779454296
 21
-248.3422698209195
 31
0.0
1001
DBPROPERTIES
1002
{
1000
PbThick
1002
}
  0
LINE
  5
2A6
330
1F
100
AcDbEntity
  8
THICK
100
AcDbLine
 10
28.06889537601605
 20
-247.9241559678489
 30
0.0
 11
24.09080779454296
 21
-248.3422698209195
 31
0.0
1001
DBPROPERTIES
1002
{
1000
PbThick
1002
}
  0
LINE
  5
2A7
330
1F
100
AcDbEntity
  8
HIDDEN
100
AcDbLine
 10
24.09080779454296
 20
-248.3422698209195
 30
0.0
 11
24.09080779454296
 21
-248.3422698209195
 31
0.0
1001
DBPROPERTIES
1002
{
1000
PbHidd
1002
}
  0
LINE
  5
2A8
330
1F
100
AcDbEntity
  8
HIDDEN
100
AcDbLine
 10
15.27525418849023
 20
-126.200791013175
 30
0.0
 11
11.29716660701714
 21
-126.6189048662456
 31
0.0
1001
DBPROPERTIES
1002
{
1000
PbHidd
1002
}
  0
LINE
  5
2A9
330
1F
100
AcDbEntity
  8
HIDDEN
100
AcDbLine
 10
13.31992920895017
 20
-107.5971165313855
 30
0.0
 11
9.341841627477077
 21
-108.0152303844561
 31
0.0
1001
DBPROPERTIES
1002
{
1000
PbHidd
1002
}
  0
LINE
  5
2AA
330
1F
100
AcDbEntity
  8
HIDDEN
100
AcDbLine
 10
-101.2532746298708
 20
12.65316455724512
 30
0.0
 11
-109.3872559430484
 21
13.50808044283196
 31
0.0
1001
DBPROPERTIES
1002
{
1000
PbHidd
1002
}
  0
LINE
  5
2AB
330
1F
100
AcDbEntity
  8
HIDDEN
100
AcDbLine
 10
-129.5064798505589
 20
15.62269608576977
 30
0.0
 11
-224.5418595138993
 21
25.61131698846839
 31
0.0
1001
DBPROPERTIES
1002
{
1000
PbHidd
1002
}
  0
LINE
  5
2AC
330
1F
100
AcDbEntity
  8
THICK
100
AcDbLine
 10
-224.5418595138993
 20
25.61131698846839
 30
0.0
 11
-244.3438771445231
 21
27.69259290825255
 31
0.0
1001
DBPROPERTIES
1002
{
1000
PbThick
1002
}
  0
LINE
  5
2AD
330
1F
100
AcDbEntity
  8
HIDDEN
100
AcDbLine
 10
-244.3438771445231
 20
27.69259290825255
 30
0.0
 11
-244.3438771445231
 21
27.69259290825255
 31
0.0
1001
DBPROPERTIES
1002
{
1000
PbHidd
1002
}
  0
LINE
  5
2AE
330
1F
100
AcDbEntity
  8
THICK
100
AcDbLine
 10
-244.7619909975937
 20
23.71450532677945
 30
0.0
 11
-244.3438771445231
 21
27.69259290825254
 31
0.0
1001
DBPROPERTIES
1002
{
1000
PbThick
1002
}
  0
LINE
  5
2AF
330
1F
100
AcDbEntity
  8
THICK
100
AcDbLine
 10
-244.3438771445231
 20
27.69259290825254
 30
0.0
 11
-247.9241559678489
 21
28.06889537601609
 31
0.0
1001
DBPROPERTIES
1002
{
1000
PbThick
1002
}
  0
LINE
  5
2B0
330
1F
100
AcDbEntity
  8
THICK
100
AcDbLine
 10
-248.3422698209195
 20
24.09080779454299
 30
0.0
 11
-247.9241559678489
 21
28.06889537601608
 31
0.0
1001
DBPROPERTIES
1002
{
1000
PbThick
1002
}
  0
LINE
  5
2B1
330
1F
100
AcDbEntity
  8
HIDDEN
100
AcDbLine
 10
-247.9241559678489
 20
28.06889537601609
 30
0.0
 11
-247.9241559678489
 21
28.06889537601609
 31
0.0
1001
DBPROPERTIES
1002
{
1000
PbHidd
1002
}
  0
LINE
  5
2B2
330
1F
100
AcDbEntity
  8
HIDDEN
100
AcDbLine
 10
-126.6189048662456
 20
11.29716660701716
 30
0.0
 11
-126.200791013175
 21
15.27525418849025
 31
0.0
1001
DBPROPERTIES
1002
{
1000
PbHidd
1002
}
  0
LINE
  5
2B3
330
1F
100
AcDbEntity
  8
HIDDEN
100
AcDbLine
 10
-108.0152303844561
 20
9.341841627477093
 30
0.0
 11
-107.5971165313855
 21
13.31992920895018
 31
0.0
1001
DBPROPERTIES
1002
{
1000
PbHidd
1002
}
  0
LINE
  5
2B4
330
1F
100
AcDbEntity
  8
HIDDEN
100
AcDbLine
 10
-101.2532746298708
 20
12.65316455724512
 30
0.0
 11
-101.2532746298708
 21
12.65316455724512
 31
0.0
1001
DBPROPERTIES
1002
{
1000
PbHidd
1002
}
  0
LINE
  5
2B5
330
1F
100
AcDbEntity
  8
HIDDEN
100
AcDbLine
 10
-101.6713884829414
 20
-8.675076975772019
 30
0.0
 11
-109.805369796119
 21
-9.529992861358856
 31
0.0
1001
DBPROPERTIES
1002
{
1000
PbHidd
1002
}
  0
LINE
  5
2B6
330
1F
100
AcDbEntity
  8
HIDDEN
100
AcDbLine
 10
-129.9245937036296
 20
-11.64460850429666
 30
0.0
 11
-225.6309350942254
 21
-21.70375032623098
 31
0.0
1001
DBPROPERTIES
1002
{
1000
PbHidd
1002
}
  0
LINE
  5
2B7
330
1F
100
AcDbEntity
  8
THICK
100
AcDbLine
 10
-225.6309350942254
 20
-21.70375032623098
 30
0.0
 11
-244.7619909975937
 21
-23.71450532677942
 31
0.0
1001
DBPROPERTIES
1002
{
1000
PbThick
1002
}
  0
LINE
  5
2B8
330
1F
100
AcDbEntity
  8
HIDDEN
100
AcDbLine
 10
-244.7619909975937
 20
-23.71450532677942
 30
0.0
 11
-244.7619909975937
 21
-23.71450532677942
 31
0.0
1001
DBPROPERTIES
1002
{
1000
PbHidd
1002
}
  0
LINE
  5
2B9
330
1F
100
AcDbEntity
  8
THICK
100
AcDbLine
 10
-244.3438771445231
 20
-27.69259290825251
 30
0.0
 11
-244.7619909975937
 21
-23.71450532677942
 31
0.0
1001
DBPROPERTIES
1002
{
1000
PbThick
1002
}
  0
LINE
  5
2BA
330
1F
100
AcDbEntity
  8
THICK
100
AcDbLine
 10
-244.7619909975937
 20
-23.71450532677942
 30
0.0
 11
-248.3422698209195
 21
-24.09080779454297
 31
0.0
1001
DBPROPERTIES
1002
{
1000
PbThick
1002
}
  0
LINE
  5
2BB
330
1F
100
AcDbEntity
  8
THICK
100
AcDbLine
 10
-247.9241559678489
 20
-28.06889537601607
 30
0.0
 11
-248.3422698209195
 21
-24.09080779454298
 31
0.0
1001
DBPROPERTIES
1002
{
1000
PbThick
1002
}
  0
LINE
  5
2BC
330
1F
100
AcDbEntity
  8
HIDDEN
100
AcDbLine
 10
-248.3422698209195
 20
-24.09080779454297
 30
0.0
 11
-248.3422698209195
 21
-24.09080779454297
 31
0.0
1001
DBPROPERTIES
1002
{
1000
PbHidd
1002
}
  0
LINE
  5
2BD
330
1F
100
AcDbEntity
  8
HIDDEN
100
AcDbLine
 10
-126.200791013175
 20
-15.27525418849023
 30
0.0
 11
-126.6189048662456
 21
-11.29716660701714
 31
0.0
1001
DBPROPERTIES
1002
{
1000
PbHidd
1002
}
  0
LINE
  5
2BE
330
1F
100
AcDbEntity
  8
HIDDEN
100
AcDbLine
 10
-107.5971165313855
 20
-13.31992920895017
 30
0.0
 11
-108.0152303844561
 21
-9.341841627477084
 31
0.0
1001
DBPROPERTIES
1002
{
1000
PbHidd
1002
}
  0
LINE
  5
2BF
330
1F
100
AcDbEntity
  8
HIDDEN
100
AcDbLine
 10
-101.6713884829414
 20
-8.675076975772015
 30
0.0
 11
-101.6713884829414
 21
-8.675076975772015
 31
0.0
1001
DBPROPERTIES
1002
{
1000
PbHidd
1002
}
  0
ARC
  5
2C0
330
1F
100
AcDbEntity
  8
HIDDEN
100
AcDbCircle
 10
0.0
 20
0.0000000000000147
 30
0.0
 40
71.42857142857143
100
AcDbArc
 50
267.0000117086634
 51
270.0000187239684
1001
DBPROPERTIES
1002
{
1000
PbHidd
1002
}
  0
LINE
  5
2C1
330
1F
100
AcDbEntity
  8
HIDDEN
100
AcDbLine
 10
-3.73828258878174
 20
-71.33068105389812
 30
0.0
 11
-3.73828258878174
 21
-71.33068105389812
 31
0.0
1001
DBPROPERTIES
1002
{
1000
PbHidd
1002
}
  0
LINE
  5
2C2
330
1F
100
AcDbEntity
  8
HIDDEN
100
AcDbLine
 10
18.48707465018004
 20
-68.99470187779058
 30
0.0
 11
18.48707465018004
 21
-68.99470187779058
 31
0.0
1001
DBPROPERTIES
1002
{
1000
PbHidd
1002
}
  0
ARC
  5
2C3
330
1F
100
AcDbEntity
  8
HIDDEN
100
AcDbCircle
 10
0.0
 20
0.0000000000000147
 30
0.0
 40
71.42857142857143
100
AcDbArc
 50
278.9999824741038
 51
284.9999965047138
1001
DBPROPERTIES
1002
{
1000
PbHidd
1002
}
  0
LINE
  5
2C4
330
1F
100
AcDbEntity
  8
HIDDEN
100
AcDbLine
 10
11.17389036001648
 20
-70.54916718536697
 30
0.0
 11
11.17389036001648
 21
-70.54916718536697
 31
0.0
1001
DBPROPERTIES
1002
{
1000
PbHidd
1002
}
  0
LINE
  5
2C5
330
1F
100
AcDbEntity
  8
HIDDEN
100
AcDbLine
 10
-11.17389036001651
 20
-70.54916718536697
 30
0.0
 11
-11.17389036001651
 21
-70.54916718536697
 31
0.0
1001
DBPROPERTIES
1002
{
1000
PbHidd
1002
}
  0
ARC
  5
2C6
330
1F
100
AcDbEntity
  8
HIDDEN
100
AcDbCircle
 10
0.0
 20
0.0000000000000147
 30
0.0
 40
71.42857142857143
100
AcDbArc
 50
254.9999836474434
 51
260.9999976780534
1001
DBPROPERTIES
1002
{
1000
PbHidd
1002
}
  0
LINE
  5
2C7
330
1F
100
AcDbEntity
  8
HIDDEN
100
AcDbLine
 10
-18.48707465018007
 20
-68.99470187779058
 30
0.0
 11
-18.48707465018007
 21
-68.99470187779058
 31
0.0
1001
DBPROPERTIES
1002
{
1000
PbHidd
1002
}
  0
LINE
  5
2C8
330
1F
100
AcDbEntity
  8
HIDDEN
100
AcDbLine
 10
32.42789283853902
 20
-63.64332315631199
 30
0.0
 11
32.42789283853902
 21
-63.64332315631199
 31
0.0
1001
DBPROPERTIES
1002
{
1000
PbHidd
1002
}
  0
ARC
  5
2C9
330
1F
100
AcDbEntity
  8
HIDDEN
100
AcDbCircle
 10
0.0
 20
0.0000000000000147
 30
0.0
 40
71.42857142857143
100
AcDbArc
 50
291.0000105353237
 51
297.0000245659338
1001
DBPROPERTIES
1002
{
1000
PbHidd
1002
}
  0
LINE
  5
2CA
330
1F
100
AcDbEntity
  8
HIDDEN
100
AcDbLine
 10
25.59771068180713
 20
-66.68431617837155
 30
0.0
 11
25.59771068180713
 21
-66.68431617837155
 31
0.0
1001
DBPROPERTIES
1002
{
1000
PbHidd
1002
}
  0
LINE
  5
2CB
330
1F
100
AcDbEntity
  8
HIDDEN
100
AcDbLine
 10
-25.59771068180718
 20
-66.68431617837153
 30
0.0
 11
-25.59771068180718
 21
-66.68431617837153
 31
0.0
1001
DBPROPERTIES
1002
{
1000
PbHidd
1002
}
  0
ARC
  5
2CC
330
1F
100
AcDbEntity
  8
HIDDEN
100
AcDbCircle
 10
0.0
 20
0.0000000000000147
 30
0.0
 40
71.42857142857143
100
AcDbArc
 50
243.0000128820029
 51
249.0000269126129
1001
DBPROPERTIES
1002
{
1000
PbHidd
1002
}
  0
LINE
  5
2CD
330
1F
100
AcDbEntity
  8
HIDDEN
100
AcDbLine
 10
-32.42789283853907
 20
-63.64332315631198
 30
0.0
 11
-32.42789283853907
 21
-63.64332315631198
 31
0.0
1001
DBPROPERTIES
1002
{
1000
PbHidd
1002
}
  0
LINE
  5
2CE
330
1F
100
AcDbEntity
  8
HIDDEN
100
AcDbLine
 10
44.95145650355978
 20
-55.51042581835508
 30
0.0
 11
44.95145650355978
 21
-55.51042581835508
 31
0.0
1001
DBPROPERTIES
1002
{
1000
PbHidd
1002
}
  0
ARC
  5
2CF
330
1F
100
AcDbEntity
  8
HIDDEN
100
AcDbCircle
 10
0.0
 20
0.0000000000000147
 30
0.0
 40
71.42857142857143
100
AcDbArc
 50
302.9999813007643
 51
308.9999953313742
1001
DBPROPERTIES
1002
{
1000
PbHidd
1002
}
  0
LINE
  5
2D0
330
1F
100
AcDbEntity
  8
HIDDEN
100
AcDbLine
 10
38.90278821535903
 20
-59.90504056753029
 30
0.0
 11
38.90278821535903
 21
-59.90504056753029
 31
0.0
1001
DBPROPERTIES
1002
{
1000
PbHidd
1002
}
  0
LINE
  5
2D1
330
1F
100
AcDbEntity
  8
HIDDEN
100
AcDbLine
 10
-38.90278821535911
 20
-59.90504056753025
 30
0.0
 11
-38.90278821535911
 21
-59.90504056753025
 31
0.0
1001
DBPROPERTIES
1002
{
1000
PbHidd
1002
}
  0
ARC
  5
2D2
330
1F
100
AcDbEntity
  8
HIDDEN
100
AcDbCircle
 10
0.0
 20
0.0000000000000147
 30
0.0
 40
71.42857142857143
100
AcDbArc
 50
230.999984820783
 51
236.999998851393
1001
DBPROPERTIES
1002
{
1000
PbHidd
1002
}
  0
LINE
  5
2D3
330
1F
100
AcDbEntity
  8
HIDDEN
100
AcDbLine
 10
-44.95145650355984
 20
-55.51042581835503
 30
0.0
 11
-44.95145650355984
 21
-55.51042581835503
 31
0.0
1001
DBPROPERTIES
1002
{
1000
PbHidd
1002
}
  0
LINE
  5
2D4
330
1F
100
AcDbEntity
  8
HIDDEN
100
AcDbLine
 10
55.51042581835505
 20
-44.95145650355983
 30
0.0
 11
55.51042581835505
 21
-44.95145650355983
 31
0.0
1001
DBPROPERTIES
1002
{
1000
PbHidd
1002
}
  0
ARC
  5
2D5
330
1F
100
AcDbEntity
  8
HIDDEN
100
AcDbCircle
 10
0.0
 20
0.0000000000000147
 30
0.0
 40
71.42857142857143
100
AcDbArc
 50
315.0000093619842
 51
321.0000233925941
1001
DBPROPERTIES
1002
{
1000
PbHidd
1002
}
  0
LINE
  5
2D6
330
1F
100
AcDbEntity
  8
HIDDEN
100
AcDbLine
 10
50.50762722761052
 20
-50.50762722761055
 30
0.0
 11
50.50762722761052
 21
-50.50762722761055
 31
0.0
1001
DBPROPERTIES
1002
{
1000
PbHidd
1002
}
  0
LINE
  5
2D7
330
1F
100
AcDbEntity
  8
HIDDEN
100
AcDbLine
 10
-50.50762722761054
 20
-50.50762722761053
 30
0.0
 11
-50.50762722761054
 21
-50.50762722761053
 31
0.0
1001
DBPROPERTIES
1002
{
1000
PbHidd
1002
}
  0
ARC
  5
2D8
330
1F
100
AcDbEntity
  8
HIDDEN
100
AcDbCircle
 10
0.0
 20
0.0000000000000147
 30
0.0
 40
71.42857142857143
100
AcDbArc
 50
219.0000140553425
 51
225.0000280859525
1001
DBPROPERTIES
1002
{
1000
PbHidd
1002
}
  0
LINE
  5
2D9
330
1F
100
AcDbEntity
  8
HIDDEN
100
AcDbLine
 10
-55.51042581835507
 20
-44.9514565035598
 30
0.0
 11
-55.51042581835507
 21
-44.9514565035598
 31
0.0
1001
DBPROPERTIES
1002
{
1000
PbHidd
1002
}
  0
LINE
  5
2DA
330
1F
100
AcDbEntity
  8
HIDDEN
100
AcDbLine
 10
63.64332315631198
 20
-32.42789283853909
 30
0.0
 11
63.64332315631198
 21
-32.42789283853909
 31
0.0
1001
DBPROPERTIES
1002
{
1000
PbHidd
1002
}
  0
ARC
  5
2DB
330
1F
100
AcDbEntity
  8
HIDDEN
100
AcDbCircle
 10
0.0
 20
0.0000000000000147
 30
0.0
 40
71.42857142857143
100
AcDbArc
 50
326.9999801274246
 51
332.9999941580346
1001
DBPROPERTIES
1002
{
1000
PbHidd
1002
}
  0
LINE
  5
2DC
330
1F
100
AcDbEntity
  8
HIDDEN
100
AcDbLine
 10
59.90504056753026
 20
-38.90278821535911
 30
0.0
 11
59.90504056753026
 21
-38.90278821535911
 31
0.0
1001
DBPROPERTIES
1002
{
1000
PbHidd
1002
}
  0
LINE
  5
2DD
330
1F
100
AcDbEntity
  8
HIDDEN
100
AcDbLine
 10
-59.90504056753028
 20
-38.90278821535907
 30
0.0
 11
-59.90504056753028
 21
-38.90278821535907
 31
0.0
1001
DBPROPERTIES
1002
{
1000
PbHidd
1002
}
  0
ARC
  5
2DE
330
1F
100
AcDbEntity
  8
HIDDEN
100
AcDbCircle
 10
0.0
 20
0.0000000000000147
 30
0.0
 40
71.42857142857143
100
AcDbArc
 50
206.9999859941226
 51
213.0000000247326
1001
DBPROPERTIES
1002
{
1000
PbHidd
1002
}
  0
LINE
  5
2DF
330
1F
100
AcDbEntity
  8
HIDDEN
100
AcDbLine
 10
-63.64332315631199
 20
-32.42789283853905
 30
0.0
 11
-63.64332315631199
 21
-32.42789283853905
 31
0.0
1001
DBPROPERTIES
1002
{
1000
PbHidd
1002
}
  0
LINE
  5
2E0
330
1F
100
AcDbEntity
  8
HIDDEN
100
AcDbLine
 10
68.99470187779058
 20
-18.4870746501801
 30
0.0
 11
68.99470187779058
 21
-18.48707465018009
 31
0.0
1001
DBPROPERTIES
1002
{
1000
PbHidd
1002
}
  0
ARC
  5
2E1
330
1F
100
AcDbEntity
  8
HIDDEN
100
AcDbCircle
 10
0.0
 20
0.0000000000000147
 30
0.0
 40
71.42857142857143
100
AcDbArc
 50
339.0000081886445
 51
345.0000222192546
1001
DBPROPERTIES
1002
{
1000
PbHidd
1002
}
  0
LINE
  5
2E2
330
1F
100
AcDbEntity
  8
HIDDEN
100
AcDbLine
 10
66.68431617837155
 20
-25.5977106818072
 30
0.0
 11
66.68431617837155
 21
-25.5977106818072
 31
0.0
1001
DBPROPERTIES
1002
{
1000
PbHidd
1002
}
  0
LINE
  5
2E3
330
1F
100
AcDbEntity
  8
HIDDEN
100
AcDbLine
 10
-66.68431617837155
 20
-25.59771068180715
 30
0.0
 11
-66.68431617837155
 21
-25.59771068180715
 31
0.0
1001
DBPROPERTIES
1002
{
1000
PbHidd
1002
}
  0
ARC
  5
2E4
330
1F
100
AcDbEntity
  8
HIDDEN
100
AcDbCircle
 10
0.0
 20
0.0000000000000147
 30
0.0
 40
71.42857142857143
100
AcDbArc
 50
195.0000152286821
 51
200.9999719635126
1001
DBPROPERTIES
1002
{
1000
PbHidd
1002
}
  0
LINE
  5
2E5
330
1F
100
AcDbEntity
  8
HIDDEN
100
AcDbLine
 10
-68.99470187779059
 20
-18.48707465018003
 30
0.0
 11
-68.99470187779059
 21
-18.48707465018004
 31
0.0
1001
DBPROPERTIES
1002
{
1000
PbHidd
1002
}
  0
LINE
  5
2E6
330
1F
100
AcDbEntity
  8
HIDDEN
100
AcDbLine
 10
71.33068105389813
 20
-3.738282588781728
 30
0.0
 11
71.33068105389813
 21
-3.738282588781723
 31
0.0
1001
DBPROPERTIES
1002
{
1000
PbHidd
1002
}
  0
ARC
  5
2E7
330
1F
100
AcDbEntity
  8
HIDDEN
100
AcDbCircle
 10
0.0
 20
0.0000000000000147
 30
0.0
 40
71.42857142857143
100
AcDbArc
 50
350.9999789540851
 51
356.999992984695
1001
DBPROPERTIES
1002
{
1000
PbHidd
1002
}
  0
LINE
  5
2E8
330
1F
100
AcDbEntity
  8
HIDDEN
100
AcDbLine
 10
70.54916718536698
 20
-11.17389036001651
 30
0.0
 11
70.54916718536698
 21
-11.17389036001651
 31
0.0
1001
DBPROPERTIES
1002
{
1000
PbHidd
1002
}
  0
LINE
  5
2E9
330
1F
100
AcDbEntity
  8
HIDDEN
100
AcDbLine
 10
-70.549167185367
 20
-11.17389036001647
 30
0.0
 11
-70.549167185367
 21
-11.17389036001647
 31
0.0
1001
DBPROPERTIES
1002
{
1000
PbHidd
1002
}
  0
ARC
  5
2EA
330
1F
100
AcDbEntity
  8
HIDDEN
100
AcDbCircle
 10
0.0
 20
0.0000000000000147
 30
0.0
 40
71.42857142857143
100
AcDbArc
 50
182.9999871674622
 51
189.0000011980722
1001
DBPROPERTIES
1002
{
1000
PbHidd
1002
}
  0
LINE
  5
2EB
330
1F
100
AcDbEntity
  8
HIDDEN
100
AcDbLine
 10
-71.33068105389813
 20
-3.738282588781677
 30
0.0
 11
-71.33068105389813
 21
-3.738282588781682
 31
0.0
1001
DBPROPERTIES
1002
{
1000
PbHidd
1002
}
  0
LINE
  5
2EC
330
1F
100
AcDbEntity
  8
HIDDEN
100
AcDbLine
 10
70.54916718536698
 20
11.17389036001643
 30
0.0
 11
70.54916718536698
 21
11.17389036001643
 31
0.0
1001
DBPROPERTIES
1002
{
1000
PbHidd
1002
}
  0
ARC
  5
2ED
330
1F
100
AcDbEntity
  8
HIDDEN
100
AcDbCircle
 10
0.0
 20
0.0000000000000147
 30
0.0
 40
71.42857142857143
100
AcDbArc
 50
3.00000701530499
 51
9.000021045914972
1001
DBPROPERTIES
1002
{
1000
PbHidd
1002
}
  0
LINE
  5
2EE
330
1F
100
AcDbEntity
  8
HIDDEN
100
AcDbLine
 10
71.33068105389813
 20
3.738282588781643
 30
0.0
 11
71.33068105389813
 21
3.738282588781638
 31
0.0
1001
DBPROPERTIES
1002
{
1000
PbHidd
1002
}
  0
LINE
  5
2EF
330
1F
100
AcDbEntity
  8
HIDDEN
100
AcDbLine
 10
-71.33068105389813
 20
3.738282588781712
 30
0.0
 11
-71.33068105389813
 21
3.738282588781717
 31
0.0
1001
DBPROPERTIES
1002
{
1000
PbHidd
1002
}
  0
ARC
  5
2F0
330
1F
100
AcDbEntity
  8
HIDDEN
100
AcDbCircle
 10
0.0
 20
0.0000000000000147
 30
0.0
 40
71.42857142857143
100
AcDbArc
 50
170.9999988019279
 51
177.0000128325378
1001
DBPROPERTIES
1002
{
1000
PbHidd
1002
}
  0
LINE
  5
2F1
330
1F
100
AcDbEntity
  8
HIDDEN
100
AcDbLine
 10
-70.549167185367
 20
11.17389036001651
 30
0.0
 11
-70.549167185367
 21
11.1738903600165
 31
0.0
1001
DBPROPERTIES
1002
{
1000
PbHidd
1002
}
  0
LINE
  5
2F2
330
1F
100
AcDbEntity
  8
HIDDEN
100
AcDbLine
 10
66.68431617837157
 20
25.59771068180712
 30
0.0
 11
66.68431617837157
 21
25.59771068180713
 31
0.0
1001
DBPROPERTIES
1002
{
1000
PbHidd
1002
}
  0
ARC
  5
2F3
330
1F
100
AcDbEntity
  8
HIDDEN
100
AcDbCircle
 10
0.0
 20
0.0000000000000147
 30
0.0
 40
71.42857142857143
100
AcDbArc
 50
14.99997778074544
 51
20.99999181135542
1001
DBPROPERTIES
1002
{
1000
PbHidd
1002
}
  0
LINE
  5
2F4
330
1F
100
AcDbEntity
  8
HIDDEN
100
AcDbLine
 10
68.99470187779062
 20
18.48707465018001
 30
0.0
 11
68.99470187779062
 21
18.48707465018001
 31
0.0
1001
DBPROPERTIES
1002
{
1000
PbHidd
1002
}
  0
LINE
  5
2F5
330
1F
100
AcDbEntity
  8
HIDDEN
100
AcDbLine
 10
-68.99470187779059
 20
18.48707465018006
 30
0.0
 11
-68.99470187779059
 21
18.48707465018007
 31
0.0
1001
DBPROPERTIES
1002
{
1000
PbHidd
1002
}
  0
ARC
  5
2F6
330
1F
100
AcDbEntity
  8
HIDDEN
100
AcDbCircle
 10
0.0
 20
0.0000000000000147
 30
0.0
 40
71.42857142857143
100
AcDbArc
 50
159.0000280364874
 51
164.9999847713179
1001
DBPROPERTIES
1002
{
1000
PbHidd
1002
}
  0
LINE
  5
2F7
330
1F
100
AcDbEntity
  8
HIDDEN
100
AcDbLine
 10
-66.68431617837157
 20
25.59771068180717
 30
0.0
 11
-66.68431617837157
 21
25.59771068180716
 31
0.0
1001
DBPROPERTIES
1002
{
1000
PbHidd
1002
}
  0
LINE
  5
2F8
330
1F
100
AcDbEntity
  8
HIDDEN
100
AcDbLine
 10
59.90504056753031
 20
38.90278821535906
 30
0.0
 11
59.90504056753031
 21
38.90278821535906
 31
0.0
1001
DBPROPERTIES
1002
{
1000
PbHidd
1002
}
  0
ARC
  5
2F9
330
1F
100
AcDbEntity
  8
HIDDEN
100
AcDbCircle
 10
0.0
 20
0.0000000000000147
 30
0.0
 40
71.42857142857143
100
AcDbArc
 50
27.0000058419654
 51
33.00001987257539
1001
DBPROPERTIES
1002
{
1000
PbHidd
1002
}
  0
LINE
  5
2FA
330
1F
100
AcDbEntity
  8
HIDDEN
100
AcDbLine
 10
63.64332315631201
 20
32.42789283853904
 30
0.0
 11
63.64332315631201
 21
32.42789283853904
 31
0.0
1001
DBPROPERTIES
1002
{
1000
PbHidd
1002
}
  0
LINE
  5
2FB
330
1F
100
AcDbEntity
  8
HIDDEN
100
AcDbLine
 10
-63.64332315631199
 20
32.42789283853909
 30
0.0
 11
-63.64332315631199
 21
32.42789283853909
 31
0.0
1001
DBPROPERTIES
1002
{
1000
PbHidd
1002
}
  0
ARC
  5
2FC
330
1F
100
AcDbEntity
  8
HIDDEN
100
AcDbCircle
 10
0.0
 20
0.0000000000000147
 30
0.0
 40
71.42857142857143
100
AcDbArc
 50
146.9999999752674
 51
153.0000140058774
1001
DBPROPERTIES
1002
{
1000
PbHidd
1002
}
  0
LINE
  5
2FD
330
1F
100
AcDbEntity
  8
HIDDEN
100
AcDbLine
 10
-59.90504056753029
 20
38.9027882153591
 30
0.0
 11
-59.90504056753029
 21
38.9027882153591
 31
0.0
1001
DBPROPERTIES
1002
{
1000
PbHidd
1002
}
  0
LINE
  5
2FE
330
1F
100
AcDbEntity
  8
HIDDEN
100
AcDbLine
 10
50.50762722761059
 20
50.50762722761051
 30
0.0
 11
50.50762722761059
 21
50.50762722761051
 31
0.0
1001
DBPROPERTIES
1002
{
1000
PbHidd
1002
}
  0
ARC
  5
2FF
330
1F
100
AcDbEntity
  8
HIDDEN
100
AcDbCircle
 10
0.0
 20
0.0000000000000147
 30
0.0
 40
71.42857142857143
100
AcDbArc
 50
38.99997660740585
 51
44.99999063801582
1001
DBPROPERTIES
1002
{
1000
PbHidd
1002
}
  0
LINE
  5
300
330
1F
100
AcDbEntity
  8
HIDDEN
100
AcDbLine
 10
55.5104258183551
 20
44.95145650355978
 30
0.0
 11
55.5104258183551
 21
44.95145650355978
 31
0.0
1001
DBPROPERTIES
1002
{
1000
PbHidd
1002
}
  0
LINE
  5
301
330
1F
100
AcDbEntity
  8
HIDDEN
100
AcDbLine
 10
-55.51042581835507
 20
44.95145650355983
 30
0.0
 11
-55.51042581835507
 21
44.95145650355983
 31
0.0
1001
DBPROPERTIES
1002
{
1000
PbHidd
1002
}
  0
ARC
  5
302
330
1F
100
AcDbEntity
  8
HIDDEN
100
AcDbCircle
 10
0.0
 20
0.0000000000000147
 30
0.0
 40
71.42857142857143
100
AcDbArc
 50
134.9999719140475
 51
140.9999859446575
1001
DBPROPERTIES
1002
{
1000
PbHidd
1002
}
  0
LINE
  5
303
330
1F
100
AcDbEntity
  8
HIDDEN
100
AcDbLine
 10
-50.50762722761054
 20
50.50762722761055
 30
0.0
 11
-50.50762722761054
 21
50.50762722761055
 31
0.0
1001
DBPROPERTIES
1002
{
1000
PbHidd
1002
}
  0
LINE
  5
304
330
1F
100
AcDbEntity
  8
HIDDEN
100
AcDbLine
 10
38.90278821535913
 20
59.90504056753028
 30
0.0
 11
38.90278821535913
 21
59.90504056753028
 31
0.0
1001
DBPROPERTIES
1002
{
1000
PbHidd
1002
}
  0
ARC
  5
305
330
1F
100
AcDbEntity
  8
HIDDEN
100
AcDbCircle
 10
0.0
 20
0.0000000000000147
 30
0.0
 40
71.42857142857143
100
AcDbArc
 50
51.00000466862581
 51
57.0000186992358
1001
DBPROPERTIES
1002
{
1000
PbHidd
1002
}
  0
LINE
  5
306
330
1F
100
AcDbEntity
  8
HIDDEN
100
AcDbLine
 10
44.95145650355986
 20
55.51042581835505
 30
0.0
 11
44.95145650355986
 21
55.51042581835505
 31
0.0
1001
DBPROPERTIES
1002
{
1000
PbHidd
1002
}
  0
LINE
  5
307
330
1F
100
AcDbEntity
  8
HIDDEN
100
AcDbLine
 10
-44.95145650355983
 20
55.51042581835508
 30
0.0
 11
-44.95145650355983
 21
55.51042581835508
 31
0.0
1001
DBPROPERTIES
1002
{
1000
PbHidd
1002
}
  0
ARC
  5
308
330
1F
100
AcDbEntity
  8
HIDDEN
100
AcDbCircle
 10
0.0
 20
0.0000000000000147
 30
0.0
 40
71.42857142857143
100
AcDbArc
 50
123.000001148607
 51
129.000015179217
1001
DBPROPERTIES
1002
{
1000
PbHidd
1002
}
  0
LINE
  5
309
330
1F
100
AcDbEntity
  8
HIDDEN
100
AcDbLine
 10
-38.90278821535907
 20
59.90504056753031
 30
0.0
 11
-38.90278821535907
 21
59.90504056753031
 31
0.0
1001
DBPROPERTIES
1002
{
1000
PbHidd
1002
}
  0
LINE
  5
30A
330
1F
100
AcDbEntity
  8
HIDDEN
100
AcDbLine
 10
25.5977106818072
 20
66.68431617837157
 30
0.0
 11
25.5977106818072
 21
66.68431617837157
 31
0.0
1001
DBPROPERTIES
1002
{
1000
PbHidd
1002
}
  0
ARC
  5
30B
330
1F
100
AcDbEntity
  8
HIDDEN
100
AcDbCircle
 10
0.0
 20
0.0000000000000147
 30
0.0
 40
71.42857142857143
100
AcDbArc
 50
62.99997543406626
 51
68.99998946467625
1001
DBPROPERTIES
1002
{
1000
PbHidd
1002
}
  0
LINE
  5
30C
330
1F
100
AcDbEntity
  8
HIDDEN
100
AcDbLine
 10
32.42789283853909
 20
63.64332315631199
 30
0.0
 11
32.42789283853909
 21
63.64332315631199
 31
0.0
1001
DBPROPERTIES
1002
{
1000
PbHidd
1002
}
  0
LINE
  5
30D
330
1F
100
AcDbEntity
  8
HIDDEN
100
AcDbLine
 10
-32.42789283853904
 20
63.64332315631201
 30
0.0
 11
-32.42789283853904
 21
63.64332315631201
 31
0.0
1001
DBPROPERTIES
1002
{
1000
PbHidd
1002
}
  0
ARC
  5
30E
330
1F
100
AcDbEntity
  8
HIDDEN
100
AcDbCircle
 10
0.0
 20
0.0000000000000147
 30
0.0
 40
71.42857142857143
100
AcDbArc
 50
110.9999730873871
 51
116.9999871179971
1001
DBPROPERTIES
1002
{
1000
PbHidd
1002
}
  0
LINE
  5
30F
330
1F
100
AcDbEntity
  8
HIDDEN
100
AcDbLine
 10
-25.59771068180716
 20
66.68431617837157
 30
0.0
 11
-25.59771068180716
 21
66.68431617837157
 31
0.0
1001
DBPROPERTIES
1002
{
1000
PbHidd
1002
}
  0
LINE
  5
310
330
1F
100
AcDbEntity
  8
HIDDEN
100
AcDbLine
 10
11.17389036001655
 20
70.549167185367
 30
0.0
 11
11.17389036001655
 21
70.549167185367
 31
0.0
1001
DBPROPERTIES
1002
{
1000
PbHidd
1002
}
  0
ARC
  5
311
330
1F
100
AcDbEntity
  8
HIDDEN
100
AcDbCircle
 10
0.0
 20
0.0000000000000147
 30
0.0
 40
71.42857142857143
100
AcDbArc
 50
75.00000349528622
 51
81.0000175258962
1001
DBPROPERTIES
1002
{
1000
PbHidd
1002
}
  0
LINE
  5
312
330
1F
100
AcDbEntity
  8
HIDDEN
100
AcDbLine
 10
18.48707465018012
 20
68.99470187779059
 30
0.0
 11
18.48707465018012
 21
68.99470187779059
 31
0.0
1001
DBPROPERTIES
1002
{
1000
PbHidd
1002
}
  0
ARC
  5
313
330
1F
100
AcDbEntity
  8
HIDDEN
100
AcDbCircle
 10
0.0
 20
0.0000000000000147
 30
0.0
 40
71.42857142857143
100
AcDbArc
 50
99.00000232194662
 51
105.0000163525566
1001
DBPROPERTIES
1002
{
1000
PbHidd
1002
}
  0
LINE
  5
314
330
1F
100
AcDbEntity
  8
HIDDEN
100
AcDbLine
 10
-11.17389036001649
 20
70.549167185367
 30
0.0
 11
-11.17389036001649
 21
70.549167185367
 31
0.0
1001
DBPROPERTIES
1002
{
1000
PbHidd
1002
}
  0
LINE
  5
315
330
1F
100
AcDbEntity
  8
HIDDEN
100
AcDbLine
 10
-18.48707465018005
 20
68.99470187779062
 30
0.0
 11
-18.48707465018005
 21
68.99470187779062
 31
0.0
1001
DBPROPERTIES
1002
{
1000
PbHidd
1002
}
  0
ARC
  5
316
330
1F
100
AcDbEntity
  8
HIDDEN
100
AcDbCircle
 10
0.0
 20
0.0000000000000147
 30
0.0
 40
100.0
100
AcDbArc
 50
89.99998127603165
 51
99.00000232194662
1001
DBPROPERTIES
1002
{
1000
PbHidd
1002
}
  0
LINE
  5
317
330
1F
100
AcDbEntity
  8
HIDDEN
100
AcDbLine
 10
-11.17389036001648
 20
70.54916718536697
 30
0.0
 11
-15.64344650402307
 21
98.76883405951372
 31
0.0
1001
DBPROPERTIES
1002
{
1000
PbHidd
1002
}
  0
LINE
  5
318
330
1F
100
AcDbEntity
  8
HIDDEN
100
AcDbLine
 10
-25.88190451025206
 20
96.59258262890683
 30
0.0
 11
-18.48707465018005
 21
68.9947018777906
 31
0.0
1001
DBPROPERTIES
1002
{
1000
PbHidd
1002
}
  0
ARC
  5
319
330
1F
100
AcDbEntity
  8
HIDDEN
100
AcDbCircle
 10
0.0
 20
0.0000000000000147
 30
0.0
 40
100.0
100
AcDbArc
 50
105.0000163525566
 51
110.9999730873871
1001
DBPROPERTIES
1002
{
1000
PbHidd
1002
}
  0
LINE
  5
31A
330
1F
100
AcDbEntity
  8
HIDDEN
100
AcDbLine
 10
-25.59771068180715
 20
66.68431617837155
 30
0.0
 11
-35.83679495453
 21
93.35804264972012
 31
0.0
1001
DBPROPERTIES
1002
{
1000
PbHidd
1002
}
  0
LINE
  5
31B
330
1F
100
AcDbEntity
  8
HIDDEN
100
AcDbLine
 10
-45.39904997395466
 20
89.10065241883679
 30
0.0
 11
-32.42789283853904
 21
63.643323156312
 31
0.0
1001
DBPROPERTIES
1002
{
1000
PbHidd
1002
}
  0
ARC
  5
31C
330
1F
100
AcDbEntity
  8
HIDDEN
100
AcDbCircle
 10
0.0
 20
0.0000000000000147
 30
0.0
 40
100.0
100
AcDbArc
 50
116.9999871179971
 51
123.000001148607
1001
DBPROPERTIES
1002
{
1000
PbHidd
1002
}
  0
LINE
  5
31D
330
1F
100
AcDbEntity
  8
HIDDEN
100
AcDbLine
 10
-38.90278821535907
 20
59.90504056753028
 30
0.0
 11
-54.46390350150267
 21
83.86705679454236
 31
0.0
1001
DBPROPERTIES
1002
{
1000
PbHidd
1002
}
  0
LINE
  5
31E
330
1F
100
AcDbEntity
  8
HIDDEN
100
AcDbLine
 10
-62.93203910498369
 20
77.71459614569703
 30
0.0
 11
-44.95145650355979
 21
55.51042581835503
 31
0.0
1001
DBPROPERTIES
1002
{
1000
PbHidd
1002
}
  0
ARC
  5
31F
330
1F
100
AcDbEntity
  8
HIDDEN
100
AcDbCircle
 10
0.0
 20
0.0000000000000147
 30
0.0
 40
100.0
100
AcDbArc
 50
129.000015179217
 51
134.9999719140475
1001
DBPROPERTIES
1002
{
1000
PbHidd
1002
}
  0
LINE
  5
320
330
1F
100
AcDbEntity
  8
HIDDEN
100
AcDbLine
 10
-50.50762722761053
 20
50.50762722761054
 30
0.0
 11
-70.71067811865471
 21
70.71067811865473
 31
0.0
1001
DBPROPERTIES
1002
{
1000
PbHidd
1002
}
  0
LINE
  5
321
330
1F
100
AcDbEntity
  8
HIDDEN
100
AcDbLine
 10
-77.71459614569707
 20
62.93203910498373
 30
0.0
 11
-55.51042581835506
 21
44.95145650355981
 31
0.0
1001
DBPROPERTIES
1002
{
1000
PbHidd
1002
}
  0
ARC
  5
322
330
1F
100
AcDbEntity
  8
HIDDEN
100
AcDbCircle
 10
0.0
 20
0.0000000000000147
 30
0.0
 40
100.0
100
AcDbArc
 50
140.9999859446575
 51
146.9999999752674
1001
DBPROPERTIES
1002
{
1000
PbHidd
1002
}
  0
LINE
  5
323
330
1F
100
AcDbEntity
  8
HIDDEN
100
AcDbLine
 10
-59.90504056753026
 20
38.90278821535907
 30
0.0
 11
-83.86705679454234
 21
54.46390350150269
 31
0.0
1001
DBPROPERTIES
1002
{
1000
PbHidd
1002
}
  0
LINE
  5
324
330
1F
100
AcDbEntity
  8
HIDDEN
100
AcDbLine
 10
-89.1006524188367
 20
45.39904997395467
 30
0.0
 11
-63.64332315631195
 21
32.42789283853907
 31
0.0
1001
DBPROPERTIES
1002
{
1000
PbHidd
1002
}
  0
ARC
  5
325
330
1F
100
AcDbEntity
  8
HIDDEN
100
AcDbCircle
 10
0.0
 20
0.0000000000000147
 30
0.0
 40
100.0
100
AcDbArc
 50
153.0000140058774
 51
159.0000280364874
1001
DBPROPERTIES
1002
{
1000
PbHidd
1002
}
  0
LINE
  5
326
330
1F
100
AcDbEntity
  8
HIDDEN
100
AcDbLine
 10
-66.68431617837155
 20
25.59771068180716
 30
0.0
 11
-93.35804264972012
 21
35.83679495453001
 31
0.0
1001
DBPROPERTIES
1002
{
1000
PbHidd
1002
}
  0
LINE
  5
327
330
1F
100
AcDbEntity
  8
HIDDEN
100
AcDbLine
 10
-96.5925826289068
 20
25.88190451025208
 30
0.0
 11
-68.99470187779059
 21
18.48707465018006
 31
0.0
1001
DBPROPERTIES
1002
{
1000
PbHidd
1002
}
  0
ARC
  5
328
330
1F
100
AcDbEntity
  8
HIDDEN
100
AcDbCircle
 10
0.0
 20
0.0000000000000147
 30
0.0
 40
100.0
100
AcDbArc
 50
164.9999847713179
 51
170.9999988019279
1001
DBPROPERTIES
1002
{
1000
PbHidd
1002
}
  0
LINE
  5
329
330
1F
100
AcDbEntity
  8
HIDDEN
100
AcDbLine
 10
-70.54916718536694
 20
11.1738903600165
 30
0.0
 11
-98.7688340595137
 21
15.64344650402309
 31
0.0
1001
DBPROPERTIES
1002
{
1000
PbHidd
1002
}
  0
LINE
  5
32A
330
1F
100
AcDbEntity
  8
HIDDEN
100
AcDbLine
 10
-99.86295347545733
 20
5.233595624294398
 30
0.0
 11
-71.3306810538981
 21
3.738282588781713
 31
0.0
1001
DBPROPERTIES
1002
{
1000
PbHidd
1002
}
  0
ARC
  5
32B
330
1F
100
AcDbEntity
  8
HIDDEN
100
AcDbCircle
 10
0.0
 20
0.0000000000000147
 30
0.0
 40
100.0
100
AcDbArc
 50
177.0000128325378
 51
182.9999871674622
1001
DBPROPERTIES
1002
{
1000
PbHidd
1002
}
  0
LINE
  5
32C
330
1F
100
AcDbEntity
  8
HIDDEN
100
AcDbLine
 10
-71.3306810538981
 20
-3.738282588781678
 30
0.0
 11
-99.86295347545732
 21
-5.233595624294347
 31
0.0
1001
DBPROPERTIES
1002
{
1000
PbHidd
1002
}
  0
LINE
  5
32D
330
1F
100
AcDbEntity
  8
HIDDEN
100
AcDbLine
 10
-98.76883405951375
 20
-15.64344650402305
 30
0.0
 11
-70.54916718536698
 21
-11.17389036001647
 31
0.0
1001
DBPROPERTIES
1002
{
1000
PbHidd
1002
}
  0
ARC
  5
32E
330
1F
100
AcDbEntity
  8
HIDDEN
100
AcDbCircle
 10
0.0
 20
0.0000000000000147
 30
0.0
 40
100.0
100
AcDbArc
 50
189.0000011980722
 51
195.0000152286821
1001
DBPROPERTIES
1002
{
1000
PbHidd
1002
}
  0
LINE
  5
32F
330
1F
100
AcDbEntity
  8
HIDDEN
100
AcDbLine
 10
-68.99470187779055
 20
-18.48707465018002
 30
0.0
 11
-96.59258262890674
 21
-25.88190451025202
 31
0.0
1001
DBPROPERTIES
1002
{
1000
PbHidd
1002
}
  0
LINE
  5
330
330
1F
100
AcDbEntity
  8
HIDDEN
100
AcDbLine
 10
-93.35804264972012
 20
-35.83679495452999
 30
0.0
 11
-66.68431617837152
 21
-25.59771068180714
 31
0.0
1001
DBPROPERTIES
1002
{
1000
PbHidd
1002
}
  0
ARC
  5
331
330
1F
100
AcDbEntity
  8
HIDDEN
100
AcDbCircle
 10
0.0
 20
0.0000000000000147
 30
0.0
 40
100.0
100
AcDbArc
 50
200.9999719635126
 51
206.9999859941226
1001
DBPROPERTIES
1002
{
1000
PbHidd
1002
}
  0
LINE
  5
332
330
1F
100
AcDbEntity
  8
HIDDEN
100
AcDbLine
 10
-63.64332315631195
 20
-32.42789283853903
 30
0.0
 11
-89.10065241883672
 21
-45.39904997395463
 31
0.0
1001
DBPROPERTIES
1002
{
1000
PbHidd
1002
}
  0
LINE
  5
333
330
1F
100
AcDbEntity
  8
HIDDEN
100
AcDbLine
 10
-83.8670567945424
 20
-54.4639035015027
 30
0.0
 11
-59.90504056753029
 21
-38.90278821535907
 31
0.0
1001
DBPROPERTIES
1002
{
1000
PbHidd
1002
}
  0
ARC
  5
334
330
1F
100
AcDbEntity
  8
HIDDEN
100
AcDbCircle
 10
0.0
 20
0.0000000000000147
 30
0.0
 40
100.0
100
AcDbArc
 50
213.0000000247326
 51
219.0000140553425
1001
DBPROPERTIES
1002
{
1000
PbHidd
1002
}
  0
LINE
  5
335
330
1F
100
AcDbEntity
  8
HIDDEN
100
AcDbLine
 10
-55.51042581835505
 20
-44.95145650355978
 30
0.0
 11
-77.71459614569703
 21
-62.93203910498367
 31
0.0
1001
DBPROPERTIES
1002
{
1000
PbHidd
1002
}
  0
LINE
  5
336
330
1F
100
AcDbEntity
  8
HIDDEN
100
AcDbLine
 10
-70.7106781186547
 20
-70.71067811865467
 30
0.0
 11
-50.50762722761051
 21
-50.5076272276105
 31
0.0
1001
DBPROPERTIES
1002
{
1000
PbHidd
1002
}
  0
ARC
  5
337
330
1F
100
AcDbEntity
  8
HIDDEN
100
AcDbCircle
 10
0.0
 20
0.0000000000000147
 30
0.0
 40
100.0
100
AcDbArc
 50
225.0000280859525
 51
230.999984820783
1001
DBPROPERTIES
1002
{
1000
PbHidd
1002
}
  0
LINE
  5
338
330
1F
100
AcDbEntity
  8
HIDDEN
100
AcDbLine
 10
-44.95145650355981
 20
-55.51042581835499
 30
0.0
 11
-62.93203910498372
 21
-77.71459614569696
 31
0.0
1001
DBPROPERTIES
1002
{
1000
PbHidd
1002
}
  0
LINE
  5
339
330
1F
100
AcDbEntity
  8
HIDDEN
100
AcDbLine
 10
-54.46390350150271
 20
-83.86705679454231
 30
0.0
 11
-38.9027882153591
 21
-59.90504056753022
 31
0.0
1001
DBPROPERTIES
1002
{
1000
PbHidd
1002
}
  0
ARC
  5
33A
330
1F
100
AcDbEntity
  8
HIDDEN
100
AcDbCircle
 10
0.0
 20
0.0000000000000147
 30
0.0
 40
100.0
100
AcDbArc
 50
236.999998851393
 51
243.0000128820029
1001
DBPROPERTIES
1002
{
1000
PbHidd
1002
}
  0
LINE
  5
33B
330
1F
100
AcDbEntity
  8
HIDDEN
100
AcDbLine
 10
-32.42789283853905
 20
-63.64332315631194
 30
0.0
 11
-45.39904997395466
 21
-89.10065241883669
 31
0.0
1001
DBPROPERTIES
1002
{
1000
PbHidd
1002
}
  0
LINE
  5
33C
330
1F
100
AcDbEntity
  8
HIDDEN
100
AcDbLine
 10
-35.83679495453002
 20
-93.35804264972009
 30
0.0
 11
-25.59771068180716
 21
-66.6843161783715
 31
0.0
1001
DBPROPERTIES
1002
{
1000
PbHidd
1002
}
  0
ARC
  5
33D
330
1F
100
AcDbEntity
  8
HIDDEN
100
AcDbCircle
 10
0.0
 20
0.0000000000000147
 30
0.0
 40
100.0
100
AcDbArc
 50
249.0000269126129
 51
254.9999836474434
1001
DBPROPERTIES
1002
{
1000
PbHidd
1002
}
  0
LINE
  5
33E
330
1F
100
AcDbEntity
  8
HIDDEN
100
AcDbLine
 10
-18.48707465018006
 20
-68.99470187779053
 30
0.0
 11
-25.88190451025207
 21
-96.59258262890671
 31
0.0
1001
DBPROPERTIES
1002
{
1000
PbHidd
1002
}
  0
LINE
  5
33F
330
1F
100
AcDbEntity
  8
HIDDEN
100
AcDbLine
 10
-15.64344650402311
 20
-98.7688340595137
 30
0.0
 11
-11.17389036001651
 21
-70.54916718536694
 31
0.0
1001
DBPROPERTIES
1002
{
1000
PbHidd
1002
}
  0
ARC
  5
340
330
1F
100
AcDbEntity
  8
HIDDEN
100
AcDbCircle
 10
0.0
 20
0.0000000000000147
 30
0.0
 40
100.0
100
AcDbArc
 50
260.9999976780534
 51
267.0000117086634
1001
DBPROPERTIES
1002
{
1000
PbHidd
1002
}
  0
LINE
  5
341
330
1F
100
AcDbEntity
  8
HIDDEN
100
AcDbLine
 10
-3.738282588781738
 20
-71.33068105389809
 30
0.0
 11
-5.233595624294433
 21
-99.86295347545732
 31
0.0
1001
DBPROPERTIES
1002
{
1000
PbHidd
1002
}
  0
LINE
  5
342
330
1F
100
AcDbEntity
  8
HIDDEN
100
AcDbLine
 10
5.233595624294324
 20
-99.8629534754573
 30
0.0
 11
3.738282588781661
 21
-71.33068105389809
 31
0.0
1001
DBPROPERTIES
1002
{
1000
PbHidd
1002
}
  0
ARC
  5
343
330
1F
100
AcDbEntity
  8
HIDDEN
100
AcDbCircle
 10
0.0
 20
0.0000000000000147
 30
0.0
 40
100.0
100
AcDbArc
 50
273.0000257392733
 51
278.9999824741038
1001
DBPROPERTIES
1002
{
1000
PbHidd
1002
}
  0
LINE
  5
344
330
1F
100
AcDbEntity
  8
HIDDEN
100
AcDbLine
 10
11.17389036001647
 20
-70.54916718536694
 30
0.0
 11
15.64344650402305
 21
-98.76883405951367
 31
0.0
1001
DBPROPERTIES
1002
{
1000
PbHidd
1002
}
  0
LINE
  5
345
330
1F
100
AcDbEntity
  8
HIDDEN
100
AcDbLine
 10
25.88190451025203
 20
-96.59258262890675
 30
0.0
 11
18.48707465018003
 21
-68.99470187779056
 31
0.0
1001
DBPROPERTIES
1002
{
1000
PbHidd
1002
}
  0
ARC
  5
346
330
1F
100
AcDbEntity
  8
HIDDEN
100
AcDbCircle
 10
0.0
 20
0.0000000000000147
 30
0.0
 40
100.0
100
AcDbArc
 50
284.9999965047138
 51
291.0000105353237
1001
DBPROPERTIES
1002
{
1000
PbHidd
1002
}
  0
LINE
  5
347
330
1F
100
AcDbEntity
  8
HIDDEN
100
AcDbLine
 10
25.59771068180711
 20
-66.6843161783715
 30
0.0
 11
35.83679495452996
 21
-93.35804264972008
 31
0.0
1001
DBPROPERTIES
1002
{
1000
PbHidd
1002
}
  0
LINE
  5
348
330
1F
100
AcDbEntity
  8
HIDDEN
100
AcDbLine
 10
45.3990499739546
 20
-89.10065241883673
 30
0.0
 11
32.42789283853901
 21
-63.64332315631195
 31
0.0
1001
DBPROPERTIES
1002
{
1000
PbHidd
1002
}
  0
ARC
  5
349
330
1F
100
AcDbEntity
  8
HIDDEN
100
AcDbCircle
 10
0.0
 20
0.0000000000000147
 30
0.0
 40
100.0
100
AcDbArc
 50
297.0000245659338
 51
302.9999813007643
1001
DBPROPERTIES
1002
{
1000
PbHidd
1002
}
  0
LINE
  5
34A
330
1F
100
AcDbEntity
  8
HIDDEN
100
AcDbLine
 10
38.90278821535902
 20
-59.90504056753027
 30
0.0
 11
54.46390350150263
 21
-83.86705679454235
 31
0.0
1001
DBPROPERTIES
1002
{
1000
PbHidd
1002
}
  0
LINE
  5
34B
330
1F
100
AcDbEntity
  8
HIDDEN
100
AcDbLine
 10
62.93203910498366
 20
-77.71459614569704
 30
0.0
 11
44.95145650355975
 21
-55.51042581835505
 31
0.0
1001
DBPROPERTIES
1002
{
1000
PbHidd
1002
}
  0
ARC
  5
34C
330
1F
100
AcDbEntity
  8
HIDDEN
100
AcDbCircle
 10
0.0
 20
0.0000000000000147
 30
0.0
 40
100.0
100
AcDbArc
 50
308.9999953313742
 51
315.0000093619842
1001
DBPROPERTIES
1002
{
1000
PbHidd
1002
}
  0
LINE
  5
34D
330
1F
100
AcDbEntity
  8
HIDDEN
100
AcDbLine
 10
50.5076272276105
 20
-50.50762722761053
 30
0.0
 11
70.71067811865467
 21
-70.71067811865471
 31
0.0
1001
DBPROPERTIES
1002
{
1000
PbHidd
1002
}
  0
LINE
  5
34E
330
1F
100
AcDbEntity
  8
HIDDEN
100
AcDbLine
 10
77.71459614569699
 20
-62.93203910498372
 30
0.0
 11
55.51042581835502
 21
-44.95145650355981
 31
0.0
1001
DBPROPERTIES
1002
{
1000
PbHidd
1002
}
  0
ARC
  5
34F
330
1F
100
AcDbEntity
  8
HIDDEN
100
AcDbCircle
 10
0.0
 20
0.0000000000000147
 30
0.0
 40
100.0
100
AcDbArc
 50
321.0000233925941
 51
326.9999801274246
1001
DBPROPERTIES
1002
{
1000
PbHidd
1002
}
  0
LINE
  5
350
330
1F
100
AcDbEntity
  8
HIDDEN
100
AcDbLine
 10
59.90504056753025
 20
-38.9027882153591
 30
0.0
 11
83.86705679454235
 21
-54.46390350150274
 31
0.0
1001
DBPROPERTIES
1002
{
1000
PbHidd
1002
}
  0
LINE
  5
351
330
1F
100
AcDbEntity
  8
HIDDEN
100
AcDbLine
 10
89.10065241883673
 20
-45.3990499739547
 30
0.0
 11
63.64332315631196
 21
-32.42789283853908
 31
0.0
1001
DBPROPERTIES
1002
{
1000
PbHidd
1002
}
  0
ARC
  5
352
330
1F
100
AcDbEntity
  8
HIDDEN
100
AcDbCircle
 10
0.0
 20
0.0000000000000147
 30
0.0
 40
100.0
100
AcDbArc
 50
332.9999941580346
 51
339.0000081886445
1001
DBPROPERTIES
1002
{
1000
PbHidd
1002
}
  0
LINE
  5
353
330
1F
100
AcDbEntity
  8
HIDDEN
100
AcDbLine
 10
66.68431617837152
 20
-25.59771068180719
 30
0.0
 11
93.35804264972009
 21
-35.83679495453006
 31
0.0
1001
DBPROPERTIES
1002
{
1000
PbHidd
1002
}
  0
LINE
  5
354
330
1F
100
AcDbEntity
  8
HIDDEN
100
AcDbLine
 10
96.5925826289068
 20
-25.88190451025213
 30
0.0
 11
68.99470187779056
 21
-18.48707465018009
 31
0.0
1001
DBPROPERTIES
1002
{
1000
PbHidd
1002
}
  0
ARC
  5
355
330
1F
100
AcDbEntity
  8
HIDDEN
100
AcDbCircle
 10
0.0
 20
0.0000000000000147
 30
0.0
 40
100.0
100
AcDbArc
 50
345.0000222192546
 51
350.9999789540851
1001
DBPROPERTIES
1002
{
1000
PbHidd
1002
}
  0
LINE
  5
356
330
1F
100
AcDbEntity
  8
HIDDEN
100
AcDbLine
 10
70.54916718536694
 20
-11.17389036001651
 30
0.0
 11
98.7688340595137
 21
-15.6434465040231
 31
0.0
1001
DBPROPERTIES
1002
{
1000
PbHidd
1002
}
  0
LINE
  5
357
330
1F
100
AcDbEntity
  8
HIDDEN
100
AcDbLine
 10
99.86295347545733
 20
-5.233595624294412
 30
0.0
 11
71.3306810538981
 21
-3.738282588781724
 31
0.0
1001
DBPROPERTIES
1002
{
1000
PbHidd
1002
}
  0
ARC
  5
358
330
1F
100
AcDbEntity
  8
HIDDEN
100
AcDbCircle
 10
0.0
 20
0.0000000000000147
 30
0.0
 40
100.0
100
AcDbArc
 50
356.999992984695
 51
3.00000701530499
1001
DBPROPERTIES
1002
{
1000
PbHidd
1002
}
  0
LINE
  5
359
330
1F
100
AcDbEntity
  8
HIDDEN
100
AcDbLine
 10
71.3306810538981
 20
3.738282588781638
 30
0.0
 11
99.86295347545733
 21
5.233595624294293
 31
0.0
1001
DBPROPERTIES
1002
{
1000
PbHidd
1002
}
  0
LINE
  5
35A
330
1F
100
AcDbEntity
  8
HIDDEN
100
AcDbLine
 10
98.76883405951375
 20
15.643446504023
 30
0.0
 11
70.54916718536697
 21
11.17389036001643
 31
0.0
1001
DBPROPERTIES
1002
{
1000
PbHidd
1002
}
  0
ARC
  5
35B
330
1F
100
AcDbEntity
  8
HIDDEN
100
AcDbCircle
 10
0.0
 20
0.0000000000000147
 30
0.0
 40
100.0
100
AcDbArc
 50
9.000021045914972
 51
14.99997778074544
1001
DBPROPERTIES
1002
{
1000
PbHidd
1002
}
  0
LINE
  5
35C
330
1F
100
AcDbEntity
  8
HIDDEN
100
AcDbLine
 10
68.99470187779059
 20
18.48707465018001
 30
0.0
 11
96.5925826289068
 21
25.881904510252
 31
0.0
1001
DBPROPERTIES
1002
{
1000
PbHidd
1002
}
  0
LINE
  5
35D
330
1F
100
AcDbEntity
  8
HIDDEN
100
AcDbLine
 10
93.35804264972012
 20
35.83679495452995
 30
0.0
 11
66.68431617837155
 21
25.59771068180711
 31
0.0
1001
DBPROPERTIES
1002
{
1000
PbHidd
1002
}
  0
ARC
  5
35E
330
1F
100
AcDbEntity
  8
HIDDEN
100
AcDbCircle
 10
0.0
 20
0.0000000000000147
 30
0.0
 40
100.0
100
AcDbArc
 50
20.99999181135542
 51
27.0000058419654
1001
DBPROPERTIES
1002
{
1000
PbHidd
1002
}
  0
LINE
  5
35F
330
1F
100
AcDbEntity
  8
HIDDEN
100
AcDbLine
 10
63.64332315631195
 20
32.42789283853902
 30
0.0
 11
89.10065241883672
 21
45.39904997395461
 31
0.0
1001
DBPROPERTIES
1002
{
1000
PbHidd
1002
}
  0
LINE
  5
360
330
1F
100
AcDbEntity
  8
HIDDEN
100
AcDbLine
 10
83.86705679454238
 20
54.46390350150266
 30
0.0
 11
59.90504056753028
 21
38.90278821535905
 31
0.0
1001
DBPROPERTIES
1002
{
1000
PbHidd
1002
}
  0
ARC
  5
361
330
1F
100
AcDbEntity
  8
HIDDEN
100
AcDbCircle
 10
0.0
 20
0.0000000000000147
 30
0.0
 40
100.0
100
AcDbArc
 50
33.00001987257539
 51
38.99997660740585
1001
DBPROPERTIES
1002
{
1000
PbHidd
1002
}
  0
LINE
  5
362
330
1F
100
AcDbEntity
  8
HIDDEN
100
AcDbLine
 10
55.51042581835509
 20
44.95145650355977
 30
0.0
 11
77.71459614569712
 21
62.93203910498367
 31
0.0
1001
DBPROPERTIES
1002
{
1000
PbHidd
1002
}
  0
LINE
  5
363
330
1F
100
AcDbEntity
  8
HIDDEN
100
AcDbLine
 10
70.71067811865478
 20
70.71067811865467
 30
0.0
 11
50.50762722761056
 21
50.50762722761048
 31
0.0
1001
DBPROPERTIES
1002
{
1000
PbHidd
1002
}
  0
ARC
  5
364
330
1F
100
AcDbEntity
  8
HIDDEN
100
AcDbCircle
 10
0.0
 20
0.0000000000000147
 30
0.0
 40
100.0
100
AcDbArc
 50
44.99999063801582
 51
51.00000466862581
1001
DBPROPERTIES
1002
{
1000
PbHidd
1002
}
  0
LINE
  5
365
330
1F
100
AcDbEntity
  8
HIDDEN
100
AcDbLine
 10
44.95145650355983
 20
55.510425818355
 30
0.0
 11
62.93203910498374
 21
77.71459614569699
 31
0.0
1001
DBPROPERTIES
1002
{
1000
PbHidd
1002
}
  0
LINE
  5
366
330
1F
100
AcDbEntity
  8
HIDDEN
100
AcDbLine
 10
54.46390350150273
 20
83.86705679454232
 30
0.0
 11
38.9027882153591
 21
59.90504056753024
 31
0.0
1001
DBPROPERTIES
1002
{
1000
PbHidd
1002
}
  0
ARC
  5
367
330
1F
100
AcDbEntity
  8
HIDDEN
100
AcDbCircle
 10
0.0
 20
0.0000000000000147
 30
0.0
 40
100.0
100
AcDbArc
 50
57.0000186992358
 51
62.99997543406626
1001
DBPROPERTIES
1002
{
1000
PbHidd
1002
}
  0
LINE
  5
368
330
1F
100
AcDbEntity
  8
HIDDEN
100
AcDbLine
 10
32.42789283853908
 20
63.64332315631197
 30
0.0
 11
45.3990499739547
 21
89.10065241883675
 31
0.0
1001
DBPROPERTIES
1002
{
1000
PbHidd
1002
}
  0
LINE
  5
369
330
1F
100
AcDbEntity
  8
HIDDEN
100
AcDbLine
 10
35.83679495453006
 20
93.35804264972015
 30
0.0
 11
25.59771068180719
 21
66.68431617837155
 31
0.0
1001
DBPROPERTIES
1002
{
1000
PbHidd
1002
}
  0
ARC
  5
36A
330
1F
100
AcDbEntity
  8
HIDDEN
100
AcDbCircle
 10
0.0
 20
0.0000000000000147
 30
0.0
 40
100.0
100
AcDbArc
 50
68.99998946467625
 51
75.00000349528622
1001
DBPROPERTIES
1002
{
1000
PbHidd
1002
}
  0
LINE
  5
36B
330
1F
100
AcDbEntity
  8
HIDDEN
100
AcDbLine
 10
18.48707465018011
 20
68.99470187779056
 30
0.0
 11
25.88190451025215
 21
96.59258262890674
 31
0.0
1001
DBPROPERTIES
1002
{
1000
PbHidd
1002
}
  0
LINE
  5
36C
330
1F
100
AcDbEntity
  8
HIDDEN
100
AcDbLine
 10
15.64344650402317
 20
98.76883405951374
 30
0.0
 11
11.17389036001655
 21
70.54916718536698
 31
0.0
1001
DBPROPERTIES
1002
{
1000
PbHidd
1002
}
  0
LINE
  5
36D
330
1F
100
AcDbEntity
  8
HIDDEN
100
AcDbLine
 10
-15.64344650402308
 20
98.76883405951378
 30
0.0
 11
-15.64344650402308
 21
98.76883405951378
 31
0.0
1001
DBPROPERTIES
1002
{
1000
PbHidd
1002
}
  0
LINE
  5
36E
330
1F
100
AcDbEntity
  8
HIDDEN
100
AcDbLine
 10
6.50245926350563
 20
41.05491202407121
 30
0.0
 11
9.777154065014484
 21
61.7305212871961
 31
0.0
1001
DBPROPERTIES
1002
{
1000
PbHidd
1002
}
  0
LINE
  5
36F
330
1F
100
AcDbEntity
  8
HIDDEN
100
AcDbLine
 10
6.502459263505634
 20
41.05491202407121
 30
0.0
 11
6.502459263505634
 21
41.05491202407121
 31
0.0
1001
DBPROPERTIES
1002
{
1000
PbHidd
1002
}
  0
LINE
  5
370
330
1F
100
AcDbEntity
  8
HIDDEN
100
AcDbLine
 10
14.89616110276633
 20
38.80582639473367
 30
0.0
 11
22.39799684658129
 21
58.3487766560751
 31
0.0
1001
DBPROPERTIES
1002
{
1000
PbHidd
1002
}
  0
LINE
  5
371
330
1F
100
AcDbEntity
  8
HIDDEN
100
AcDbLine
 10
14.89616110276633
 20
38.80582639473367
 30
0.0
 11
14.89616110276633
 21
38.80582639473367
 31
0.0
1001
DBPROPERTIES
1002
{
1000
PbHidd
1002
}
  0
LINE
  5
372
330
1F
100
AcDbEntity
  8
HIDDEN
100
AcDbLine
 10
35.83679495453007
 20
93.35804264972018
 30
0.0
 11
35.83679495453007
 21
93.35804264972018
 31
0.0
1001
DBPROPERTIES
1002
{
1000
PbHidd
1002
}
  0
LINE
  5
373
330
1F
100
AcDbEntity
  8
HIDDEN
100
AcDbLine
 10
45.39904997395472
 20
89.10065241883679
 30
0.0
 11
45.39904997395472
 21
89.10065241883679
 31
0.0
1001
DBPROPERTIES
1002
{
1000
PbHidd
1002
}
  0
LINE
  5
374
330
1F
100
AcDbEntity
  8
HIDDEN
100
AcDbLine
 10
54.46390350150276
 20
83.86705679454238
 30
0.0
 11
54.46390350150276
 21
83.86705679454238
 31
0.0
1001
DBPROPERTIES
1002
{
1000
PbHidd
1002
}
  0
LINE
  5
375
330
1F
100
AcDbEntity
  8
HIDDEN
100
AcDbLine
 10
22.63882922212464
 20
34.86073994093142
 30
0.0
 11
34.03993968843923
 21
52.41691049658898
 31
0.0
1001
DBPROPERTIES
1002
{
1000
PbHidd
1002
}
  0
LINE
  5
376
330
1F
100
AcDbEntity
  8
HIDDEN
100
AcDbLine
 10
22.63882922212464
 20
34.86073994093143
 30
0.0
 11
22.63882922212464
 21
34.86073994093143
 31
0.0
1001
DBPROPERTIES
1002
{
1000
PbHidd
1002
}
  0
LINE
  5
377
330
1F
100
AcDbEntity
  8
HIDDEN
100
AcDbLine
 10
62.93203910498379
 20
77.71459614569706
 30
0.0
 11
62.93203910498379
 21
77.71459614569706
 31
0.0
1001
DBPROPERTIES
1002
{
1000
PbHidd
1002
}
  0
LINE
  5
378
330
1F
100
AcDbEntity
  8
HIDDEN
100
AcDbLine
 10
70.71067811865481
 20
70.71067811865471
 30
0.0
 11
70.71067811865481
 21
70.71067811865471
 31
0.0
1001
DBPROPERTIES
1002
{
1000
PbHidd
1002
}
  0
LINE
  5
379
330
1F
100
AcDbEntity
  8
HIDDEN
100
AcDbLine
 10
29.39207187132083
 20
29.39207187132079
 30
0.0
 11
44.19417382415925
 21
44.19417382415919
 31
0.0
1001
DBPROPERTIES
1002
{
1000
PbHidd
1002
}
  0
LINE
  5
37A
330
1F
100
AcDbEntity
  8
HIDDEN
100
AcDbLine
 10
29.39207187132085
 20
29.39207187132078
 30
0.0
 11
29.39207187132085
 21
29.39207187132078
 31
0.0
1001
DBPROPERTIES
1002
{
1000
PbHidd
1002
}
  0
LINE
  5
37B
330
1F
100
AcDbEntity
  8
HIDDEN
100
AcDbLine
 10
77.71459614569714
 20
62.93203910498369
 30
0.0
 11
77.71459614569714
 21
62.93203910498368
 31
0.0
1001
DBPROPERTIES
1002
{
1000
PbHidd
1002
}
  0
LINE
  5
37C
330
1F
100
AcDbEntity
  8
HIDDEN
100
AcDbLine
 10
83.86705679454242
 20
54.46390350150268
 30
0.0
 11
83.86705679454242
 21
54.46390350150269
 31
0.0
1001
DBPROPERTIES
1002
{
1000
PbHidd
1002
}
  0
LINE
  5
37D
330
1F
100
AcDbEntity
  8
HIDDEN
100
AcDbLine
 10
34.86073994093145
 20
22.63882922212461
 30
0.0
 11
52.416910496589
 21
34.03993968843918
 31
0.0
1001
DBPROPERTIES
1002
{
1000
PbHidd
1002
}
  0
LINE
  5
37E
330
1F
100
AcDbEntity
  8
HIDDEN
100
AcDbLine
 10
34.86073994093146
 20
22.6388292221246
 30
0.0
 11
34.86073994093146
 21
22.6388292221246
 31
0.0
1001
DBPROPERTIES
1002
{
1000
PbHidd
1002
}
  0
LINE
  5
37F
330
1F
100
AcDbEntity
  8
HIDDEN
100
AcDbLine
 10
89.10065241883679
 20
45.39904997395466
 30
0.0
 11
89.10065241883679
 21
45.39904997395465
 31
0.0
1001
DBPROPERTIES
1002
{
1000
PbHidd
1002
}
  0
LINE
  5
380
330
1F
100
AcDbEntity
  8
HIDDEN
100
AcDbLine
 10
93.35804264972019
 20
35.83679495452997
 30
0.0
 11
93.35804264972019
 21
35.83679495452998
 31
0.0
1001
DBPROPERTIES
1002
{
1000
PbHidd
1002
}
  0
LINE
  5
381
330
1F
100
AcDbEntity
  8
HIDDEN
100
AcDbLine
 10
38.80582639473367
 20
14.89616110276629
 30
0.0
 11
58.3487766560751
 21
22.39799684658123
 31
0.0
1001
DBPROPERTIES
1002
{
1000
PbHidd
1002
}
  0
LINE
  5
382
330
1F
100
AcDbEntity
  8
HIDDEN
100
AcDbLine
 10
38.80582639473368
 20
14.89616110276628
 30
0.0
 11
38.80582639473368
 21
14.89616110276628
 31
0.0
1001
DBPROPERTIES
1002
{
1000
PbHidd
1002
}
  0
LINE
  5
383
330
1F
100
AcDbEntity
  8
HIDDEN
100
AcDbLine
 10
96.59258262890685
 20
25.88190451025202
 30
0.0
 11
96.59258262890685
 21
25.88190451025201
 31
0.0
1001
DBPROPERTIES
1002
{
1000
PbHidd
1002
}
  0
LINE
  5
384
330
1F
100
AcDbEntity
  8
HIDDEN
100
AcDbLine
 10
98.76883405951378
 20
15.643446504023
 30
0.0
 11
98.76883405951378
 21
15.64344650402301
 31
0.0
1001
DBPROPERTIES
1002
{
1000
PbHidd
1002
}
  0
LINE
  5
385
330
1F
100
AcDbEntity
  8
HIDDEN
100
AcDbLine
 10
41.05491202407122
 20
6.50245926350556
 30
0.0
 11
61.7305212871961
 21
9.777154065014376
 31
0.0
1001
DBPROPERTIES
1002
{
1000
PbHidd
1002
}
  0
LINE
  5
386
330
1F
100
AcDbEntity
  8
HIDDEN
100
AcDbLine
 10
41.05491202407122
 20
6.502459263505557
 30
0.0
 11
41.05491202407122
 21
6.502459263505557
 31
0.0
1001
DBPROPERTIES
1002
{
1000
PbHidd
1002
}
  0
LINE
  5
387
330
1F
100
AcDbEntity
  8
HIDDEN
100
AcDbLine
 10
99.8629534754574
 20
5.2335956242943
 30
0.0
 11
99.8629534754574
 21
5.233595624294296
 31
0.0
1001
DBPROPERTIES
1002
{
1000
PbHidd
1002
}
  0
LINE
  5
388
330
1F
100
AcDbEntity
  8
HIDDEN
100
AcDbLine
 10
99.86295347545739
 20
-5.233595624294415
 30
0.0
 11
99.86295347545739
 21
-5.233595624294412
 31
0.0
1001
DBPROPERTIES
1002
{
1000
PbHidd
1002
}
  0
LINE
  5
389
330
1F
100
AcDbEntity
  8
HIDDEN
100
AcDbLine
 10
41.50970099463177
 20
-2.175431247831711
 30
0.0
 11
62.41434592216086
 21
-3.270997265184009
 31
0.0
1001
DBPROPERTIES
1002
{
1000
PbHidd
1002
}
  0
LINE
  5
38A
330
1F
100
AcDbEntity
  8
HIDDEN
100
AcDbLine
 10
41.50970099463177
 20
-2.175431247831713
 30
0.0
 11
41.50970099463177
 21
-2.175431247831713
 31
0.0
1001
DBPROPERTIES
1002
{
1000
PbHidd
1002
}
  0
LINE
  5
38B
330
1F
100
AcDbEntity
  8
HIDDEN
100
AcDbLine
 10
98.76883405951376
 20
-15.64344650402311
 30
0.0
 11
98.76883405951376
 21
-15.64344650402312
 31
0.0
1001
DBPROPERTIES
1002
{
1000
PbHidd
1002
}
  0
LINE
  5
38C
330
1F
100
AcDbEntity
  8
HIDDEN
100
AcDbLine
 10
96.59258262890681
 20
-25.88190451025214
 30
0.0
 11
96.59258262890681
 21
-25.88190451025213
 31
0.0
1001
DBPROPERTIES
1002
{
1000
PbHidd
1002
}
  0
LINE
  5
38D
330
1F
100
AcDbEntity
  8
HIDDEN
100
AcDbLine
 10
40.15031684608226
 20
-10.75824497476147
 30
0.0
 11
60.37036414306675
 21
-16.17619031890758
 31
0.0
1001
DBPROPERTIES
1002
{
1000
PbHidd
1002
}
  0
LINE
  5
38E
330
1F
100
AcDbEntity
  8
HIDDEN
100
AcDbLine
 10
40.15031684608226
 20
-10.75824497476147
 30
0.0
 11
40.15031684608226
 21
-10.75824497476147
 31
0.0
1001
DBPROPERTIES
1002
{
1000
PbHidd
1002
}
  0
LINE
  5
38F
330
1F
100
AcDbEntity
  8
HIDDEN
100
AcDbLine
 10
93.35804264972015
 20
-35.83679495453007
 30
0.0
 11
93.35804264972015
 21
-35.83679495453008
 31
0.0
1001
DBPROPERTIES
1002
{
1000
PbHidd
1002
}
  0
LINE
  5
390
330
1F
100
AcDbEntity
  8
HIDDEN
100
AcDbLine
 10
89.10065241883676
 20
-45.39904997395472
 30
0.0
 11
89.10065241883676
 21
-45.39904997395471
 31
0.0
1001
DBPROPERTIES
1002
{
1000
PbHidd
1002
}
  0
LINE
  5
391
330
1F
100
AcDbEntity
  8
HIDDEN
100
AcDbLine
 10
37.03617118876314
 20
-18.87087177250718
 30
0.0
 11
55.68790776177297
 21
-28.3744062337217
 31
0.0
1001
DBPROPERTIES
1002
{
1000
PbHidd
1002
}
  0
LINE
  5
392
330
1F
100
AcDbEntity
  8
HIDDEN
100
AcDbLine
 10
37.03617118876314
 20
-18.87087177250718
 30
0.0
 11
37.03617118876314
 21
-18.87087177250718
 31
0.0
1001
DBPROPERTIES
1002
{
1000
PbHidd
1002
}
  0
LINE
  5
393
330
1F
100
AcDbEntity
  8
HIDDEN
100
AcDbLine
 10
83.86705679454238
 20
-54.46390350150274
 30
0.0
 11
83.86705679454238
 21
-54.46390350150275
 31
0.0
1001
DBPROPERTIES
1002
{
1000
PbHidd
1002
}
  0
LINE
  5
394
330
1F
100
AcDbEntity
  8
HIDDEN
100
AcDbLine
 10
77.71459614569706
 20
-62.93203910498377
 30
0.0
 11
77.71459614569706
 21
-62.93203910498376
 31
0.0
1001
DBPROPERTIES
1002
{
1000
PbHidd
1002
}
  0
LINE
  5
395
330
1F
100
AcDbEntity
  8
HIDDEN
100
AcDbLine
 10
32.30336713122806
 20
-26.15875092130491
 30
0.0
 11
48.57162259106065
 21
-39.33252444061484
 31
0.0
1001
DBPROPERTIES
1002
{
1000
PbHidd
1002
}
  0
LINE
  5
396
330
1F
100
AcDbEntity
  8
HIDDEN
100
AcDbLine
 10
32.30336713122807
 20
-26.15875092130491
 30
0.0
 11
32.30336713122807
 21
-26.15875092130491
 31
0.0
1001
DBPROPERTIES
1002
{
1000
PbHidd
1002
}
  0
LINE
  5
397
330
1F
100
AcDbEntity
  8
HIDDEN
100
AcDbLine
 10
70.71067811865473
 20
-70.71067811865476
 30
0.0
 11
70.71067811865473
 21
-70.71067811865476
 31
0.0
1001
DBPROPERTIES
1002
{
1000
PbHidd
1002
}
  0
LINE
  5
398
330
1F
100
AcDbEntity
  8
HIDDEN
100
AcDbLine
 10
62.93203910498369
 20
-77.7145961456971
 30
0.0
 11
62.93203910498369
 21
-77.7145961456971
 31
0.0
1001
DBPROPERTIES
1002
{
1000
PbHidd
1002
}
  0
LINE
  5
399
330
1F
100
AcDbEntity
  8
HIDDEN
100
AcDbLine
 10
26.15875092130488
 20
-32.30336713122808
 30
0.0
 11
39.3325244406148
 21
-48.57162259106067
 31
0.0
1001
DBPROPERTIES
1002
{
1000
PbHidd
1002
}
  0
LINE
  5
39A
330
1F
100
AcDbEntity
  8
HIDDEN
100
AcDbLine
 10
26.15875092130488
 20
-32.30336713122809
 30
0.0
 11
26.15875092130488
 21
-32.30336713122809
 31
0.0
1001
DBPROPERTIES
1002
{
1000
PbHidd
1002
}
  0
LINE
  5
39B
330
1F
100
AcDbEntity
  8
HIDDEN
100
AcDbLine
 10
54.46390350150266
 20
-83.8670567945424
 30
0.0
 11
54.46390350150266
 21
-83.8670567945424
 31
0.0
1001
DBPROPERTIES
1002
{
1000
PbHidd
1002
}
  0
LINE
  5
39C
330
1F
100
AcDbEntity
  8
HIDDEN
100
AcDbLine
 10
45.39904997395463
 20
-89.10065241883677
 30
0.0
 11
45.39904997395463
 21
-89.10065241883677
 31
0.0
1001
DBPROPERTIES
1002
{
1000
PbHidd
1002
}
  0
LINE
  5
39D
330
1F
100
AcDbEntity
  8
HIDDEN
100
AcDbLine
 10
18.87087177250714
 20
-37.03617118876316
 30
0.0
 11
28.37440623372164
 21
-55.68790776177298
 31
0.0
1001
DBPROPERTIES
1002
{
1000
PbHidd
1002
}
  0
LINE
  5
39E
330
1F
100
AcDbEntity
  8
HIDDEN
100
AcDbLine
 10
18.87087177250714
 20
-37.03617118876316
 30
0.0
 11
18.87087177250714
 21
-37.03617118876316
 31
0.0
1001
DBPROPERTIES
1002
{
1000
PbHidd
1002
}
  0
LINE
  5
39F
330
1F
100
AcDbEntity
  8
HIDDEN
100
AcDbLine
 10
35.83679495452999
 20
-93.35804264972016
 30
0.0
 11
35.83679495452999
 21
-93.35804264972016
 31
0.0
1001
DBPROPERTIES
1002
{
1000
PbHidd
1002
}
  0
LINE
  5
3A0
330
1F
100
AcDbEntity
  8
HIDDEN
100
AcDbLine
 10
25.88190451025205
 20
-96.59258262890681
 30
0.0
 11
25.88190451025205
 21
-96.59258262890681
 31
0.0
1001
DBPROPERTIES
1002
{
1000
PbHidd
1002
}
  0
LINE
  5
3A1
330
1F
100
AcDbEntity
  8
HIDDEN
100
AcDbLine
 10
10.75824497476144
 20
-40.15031684608226
 30
0.0
 11
16.17619031890753
 21
-60.37036414306674
 31
0.0
1001
DBPROPERTIES
1002
{
1000
PbHidd
1002
}
  0
LINE
  5
3A2
330
1F
100
AcDbEntity
  8
HIDDEN
100
AcDbLine
 10
10.75824497476143
 20
-40.15031684608226
 30
0.0
 11
10.75824497476143
 21
-40.15031684608226
 31
0.0
1001
DBPROPERTIES
1002
{
1000
PbHidd
1002
}
  0
LINE
  5
3A3
330
1F
100
AcDbEntity
  8
HIDDEN
100
AcDbLine
 10
15.64344650402306
 20
-98.76883405951375
 30
0.0
 11
15.64344650402306
 21
-98.76883405951375
 31
0.0
1001
DBPROPERTIES
1002
{
1000
PbHidd
1002
}
  0
LINE
  5
3A4
330
1F
100
AcDbEntity
  8
HIDDEN
100
AcDbLine
 10
5.233595624294328
 20
-99.86295347545737
 30
0.0
 11
5.233595624294328
 21
-99.86295347545737
 31
0.0
1001
DBPROPERTIES
1002
{
1000
PbHidd
1002
}
  0
LINE
  5
3A5
330
1F
100
AcDbEntity
  8
HIDDEN
100
AcDbLine
 10
2.175431247831675
 20
-41.50970099463177
 30
0.0
 11
3.270997265183954
 21
-62.41434592216083
 31
0.0
1001
DBPROPERTIES
1002
{
1000
PbHidd
1002
}
  0
LINE
  5
3A6
330
1F
100
AcDbEntity
  8
HIDDEN
100
AcDbLine
 10
2.175431247831674
 20
-41.50970099463177
 30
0.0
 11
2.175431247831674
 21
-41.50970099463177
 31
0.0
1001
DBPROPERTIES
1002
{
1000
PbHidd
1002
}
  0
LINE
  5
3A7
330
1F
100
AcDbEntity
  8
HIDDEN
100
AcDbLine
 10
-5.233595624294435
 20
-99.86295347545736
 30
0.0
 11
-5.233595624294435
 21
-99.86295347545736
 31
0.0
1001
DBPROPERTIES
1002
{
1000
PbHidd
1002
}
  0
LINE
  5
3A8
330
1F
100
AcDbEntity
  8
HIDDEN
100
AcDbLine
 10
-15.64344650402312
 20
-98.76883405951375
 30
0.0
 11
-15.64344650402312
 21
-98.76883405951375
 31
0.0
1001
DBPROPERTIES
1002
{
1000
PbHidd
1002
}
  0
LINE
  5
3A9
330
1F
100
AcDbEntity
  8
HIDDEN
100
AcDbLine
 10
-6.502459263505608
 20
-41.05491202407121
 30
0.0
 11
-9.777154065014447
 21
-61.73052128719608
 31
0.0
1001
DBPROPERTIES
1002
{
1000
PbHidd
1002
}
  0
LINE
  5
3AA
330
1F
100
AcDbEntity
  8
HIDDEN
100
AcDbLine
 10
-6.502459263505611
 20
-41.05491202407121
 30
0.0
 11
-6.502459263505611
 21
-41.05491202407121
 31
0.0
1001
DBPROPERTIES
1002
{
1000
PbHidd
1002
}
  0
LINE
  5
3AB
330
1F
100
AcDbEntity
  8
HIDDEN
100
AcDbLine
 10
-25.8819045102521
 20
-96.5925826289068
 30
0.0
 11
-25.8819045102521
 21
-96.5925826289068
 31
0.0
1001
DBPROPERTIES
1002
{
1000
PbHidd
1002
}
  0
LINE
  5
3AC
330
1F
100
AcDbEntity
  8
HIDDEN
100
AcDbLine
 10
-35.83679495453004
 20
-93.35804264972015
 30
0.0
 11
-35.83679495453004
 21
-93.35804264972015
 31
0.0
1001
DBPROPERTIES
1002
{
1000
PbHidd
1002
}
  0
LINE
  5
3AD
330
1F
100
AcDbEntity
  8
HIDDEN
100
AcDbLine
 10
-14.89616110276632
 20
-38.80582639473366
 30
0.0
 11
-22.39799684658127
 21
-58.34877665607507
 31
0.0
1001
DBPROPERTIES
1002
{
1000
PbHidd
1002
}
  0
LINE
  5
3AE
330
1F
100
AcDbEntity
  8
HIDDEN
100
AcDbLine
 10
-14.89616110276632
 20
-38.80582639473367
 30
0.0
 11
-14.89616110276632
 21
-38.80582639473367
 31
0.0
1001
DBPROPERTIES
1002
{
1000
PbHidd
1002
}
  0
LINE
  5
3AF
330
1F
100
AcDbEntity
  8
HIDDEN
100
AcDbLine
 10
-45.3990499739547
 20
-89.10065241883676
 30
0.0
 11
-45.3990499739547
 21
-89.10065241883676
 31
0.0
1001
DBPROPERTIES
1002
{
1000
PbHidd
1002
}
  0
LINE
  5
3B0
330
1F
100
AcDbEntity
  8
HIDDEN
100
AcDbLine
 10
-54.46390350150275
 20
-83.86705679454236
 30
0.0
 11
-54.46390350150275
 21
-83.86705679454236
 31
0.0
1001
DBPROPERTIES
1002
{
1000
PbHidd
1002
}
  0
LINE
  5
3B1
330
1F
100
AcDbEntity
  8
HIDDEN
100
AcDbLine
 10
-22.63882922212464
 20
-34.86073994093142
 30
0.0
 11
-34.03993968843922
 21
-52.41691049658895
 31
0.0
1001
DBPROPERTIES
1002
{
1000
PbHidd
1002
}
  0
LINE
  5
3B2
330
1F
100
AcDbEntity
  8
HIDDEN
100
AcDbLine
 10
-22.63882922212464
 20
-34.86073994093143
 30
0.0
 11
-22.63882922212464
 21
-34.86073994093143
 31
0.0
1001
DBPROPERTIES
1002
{
1000
PbHidd
1002
}
  0
LINE
  5
3B3
330
1F
100
AcDbEntity
  8
HIDDEN
100
AcDbLine
 10
-62.93203910498378
 20
-77.71459614569703
 30
0.0
 11
-62.93203910498378
 21
-77.71459614569703
 31
0.0
1001
DBPROPERTIES
1002
{
1000
PbHidd
1002
}
  0
LINE
  5
3B4
330
1F
100
AcDbEntity
  8
HIDDEN
100
AcDbLine
 10
-70.71067811865476
 20
-70.71067811865473
 30
0.0
 11
-70.71067811865476
 21
-70.71067811865473
 31
0.0
1001
DBPROPERTIES
1002
{
1000
PbHidd
1002
}
  0
LINE
  5
3B5
330
1F
100
AcDbEntity
  8
HIDDEN
100
AcDbLine
 10
-29.39207187132082
 20
-29.3920718713208
 30
0.0
 11
-44.19417382415921
 21
-44.19417382415919
 31
0.0
1001
DBPROPERTIES
1002
{
1000
PbHidd
1002
}
  0
LINE
  5
3B6
330
1F
100
AcDbEntity
  8
HIDDEN
100
AcDbLine
 10
-29.39207187132082
 20
-29.3920718713208
 30
0.0
 11
-29.39207187132082
 21
-29.3920718713208
 31
0.0
1001
DBPROPERTIES
1002
{
1000
PbHidd
1002
}
  0
LINE
  5
3B7
330
1F
100
AcDbEntity
  8
HIDDEN
100
AcDbLine
 10
-77.71459614569707
 20
-62.9320391049837
 30
0.0
 11
-77.71459614569707
 21
-62.93203910498371
 31
0.0
1001
DBPROPERTIES
1002
{
1000
PbHidd
1002
}
  0
LINE
  5
3B8
330
1F
100
AcDbEntity
  8
HIDDEN
100
AcDbLine
 10
-83.8670567945424
 20
-54.46390350150269
 30
0.0
 11
-83.8670567945424
 21
-54.46390350150268
 31
0.0
1001
DBPROPERTIES
1002
{
1000
PbHidd
1002
}
  0
LINE
  5
3B9
330
1F
100
AcDbEntity
  8
HIDDEN
100
AcDbLine
 10
-34.86073994093145
 20
-22.63882922212461
 30
0.0
 11
-52.416910496589
 21
-34.03993968843918
 31
0.0
1001
DBPROPERTIES
1002
{
1000
PbHidd
1002
}
  0
LINE
  5
3BA
330
1F
100
AcDbEntity
  8
HIDDEN
100
AcDbLine
 10
-34.86073994093146
 20
-22.63882922212461
 30
0.0
 11
-34.86073994093146
 21
-22.63882922212461
 31
0.0
1001
DBPROPERTIES
1002
{
1000
PbHidd
1002
}
  0
LINE
  5
3BB
330
1F
100
AcDbEntity
  8
HIDDEN
100
AcDbLine
 10
-89.10065241883677
 20
-45.39904997395465
 30
0.0
 11
-89.10065241883677
 21
-45.39904997395466
 31
0.0
1001
DBPROPERTIES
1002
{
1000
PbHidd
1002
}
  0
LINE
  5
3BC
330
1F
100
AcDbEntity
  8
HIDDEN
100
AcDbLine
 10
-93.35804264972018
 20
-35.83679495453001
 30
0.0
 11
-93.35804264972018
 21
-35.83679495453
 31
0.0
1001
DBPROPERTIES
1002
{
1000
PbHidd
1002
}
  0
LINE
  5
3BD
330
1F
100
AcDbEntity
  8
HIDDEN
100
AcDbLine
 10
-38.80582639473367
 20
-14.8961611027663
 30
0.0
 11
-58.3487766560751
 21
-22.39799684658125
 31
0.0
1001
DBPROPERTIES
1002
{
1000
PbHidd
1002
}
  0
LINE
  5
3BE
330
1F
100
AcDbEntity
  8
HIDDEN
100
AcDbLine
 10
-38.80582639473368
 20
-14.8961611027663
 30
0.0
 11
-38.80582639473368
 21
-14.8961611027663
 31
0.0
1001
DBPROPERTIES
1002
{
1000
PbHidd
1002
}
  0
LINE
  5
3BF
330
1F
100
AcDbEntity
  8
HIDDEN
100
AcDbLine
 10
-96.59258262890683
 20
-25.88190451025204
 30
0.0
 11
-96.59258262890683
 21
-25.88190451025205
 31
0.0
1001
DBPROPERTIES
1002
{
1000
PbHidd
1002
}
  0
LINE
  5
3C0
330
1F
100
AcDbEntity
  8
HIDDEN
100
AcDbLine
 10
-98.76883405951378
 20
-15.64344650402306
 30
0.0
 11
-98.76883405951378
 21
-15.64344650402306
 31
0.0
1001
DBPROPERTIES
1002
{
1000
PbHidd
1002
}
  0
LINE
  5
3C1
330
1F
100
AcDbEntity
  8
HIDDEN
100
AcDbLine
 10
-41.05491202407121
 20
-6.502459263505584
 30
0.0
 11
-61.7305212871961
 21
-9.777154065014411
 31
0.0
1001
DBPROPERTIES
1002
{
1000
PbHidd
1002
}
  0
LINE
  5
3C2
330
1F
100
AcDbEntity
  8
HIDDEN
100
AcDbLine
 10
-41.05491202407121
 20
-6.502459263505579
 30
0.0
 11
-41.05491202407121
 21
-6.502459263505579
 31
0.0
1001
DBPROPERTIES
1002
{
1000
PbHidd
1002
}
  0
LINE
  5
3C3
330
1F
100
AcDbEntity
  8
HIDDEN
100
AcDbLine
 10
-99.86295347545739
 20
-5.233595624294347
 30
0.0
 11
-99.86295347545739
 21
-5.233595624294351
 31
0.0
1001
DBPROPERTIES
1002
{
1000
PbHidd
1002
}
  0
LINE
  5
3C4
330
1F
100
AcDbEntity
  8
HIDDEN
100
AcDbLine
 10
-99.86295347545739
 20
5.233595624294401
 30
0.0
 11
-99.86295347545739
 21
5.233595624294405
 31
0.0
1001
DBPROPERTIES
1002
{
1000
PbHidd
1002
}
  0
LINE
  5
3C5
330
1F
100
AcDbEntity
  8
HIDDEN
100
AcDbLine
 10
-41.50970099463176
 20
2.175431247831704
 30
0.0
 11
-62.41434592216085
 21
3.270997265184
 31
0.0
1001
DBPROPERTIES
1002
{
1000
PbHidd
1002
}
  0
LINE
  5
3C6
330
1F
100
AcDbEntity
  8
HIDDEN
100
AcDbLine
 10
-41.50970099463176
 20
2.175431247831708
 30
0.0
 11
-41.50970099463176
 21
2.175431247831708
 31
0.0
1001
DBPROPERTIES
1002
{
1000
PbHidd
1002
}
  0
LINE
  5
3C7
330
1F
100
AcDbEntity
  8
HIDDEN
100
AcDbLine
 10
-98.76883405951378
 20
15.64344650402311
 30
0.0
 11
-98.76883405951378
 21
15.6434465040231
 31
0.0
1001
DBPROPERTIES
1002
{
1000
PbHidd
1002
}
  0
LINE
  5
3C8
330
1F
100
AcDbEntity
  8
HIDDEN
100
AcDbLine
 10
-96.59258262890683
 20
25.88190451025209
 30
0.0
 11
-96.59258262890683
 21
25.8819045102521
 31
0.0
1001
DBPROPERTIES
1002
{
1000
PbHidd
1002
}
  0
LINE
  5
3C9
330
1F
100
AcDbEntity
  8
HIDDEN
100
AcDbLine
 10
-40.15031684608226
 20
10.75824497476145
 30
0.0
 11
-60.37036414306677
 21
16.17619031890755
 31
0.0
1001
DBPROPERTIES
1002
{
1000
PbHidd
1002
}
  0
LINE
  5
3CA
330
1F
100
AcDbEntity
  8
HIDDEN
100
AcDbLine
 10
-40.15031684608226
 20
10.75824497476145
 30
0.0
 11
-40.15031684608226
 21
10.75824497476145
 31
0.0
1001
DBPROPERTIES
1002
{
1000
PbHidd
1002
}
  0
LINE
  5
3CB
330
1F
100
AcDbEntity
  8
HIDDEN
100
AcDbLine
 10
-93.35804264972018
 20
35.83679495453005
 30
0.0
 11
-93.35804264972018
 21
35.83679495453004
 31
0.0
1001
DBPROPERTIES
1002
{
1000
PbHidd
1002
}
  0
LINE
  5
3CC
330
1F
100
AcDbEntity
  8
HIDDEN
100
AcDbLine
 10
-89.10065241883677
 20
45.39904997395471
 30
0.0
 11
-89.10065241883677
 21
45.39904997395472
 31
0.0
1001
DBPROPERTIES
1002
{
1000
PbHidd
1002
}
  0
LINE
  5
3CD
330
1F
100
AcDbEntity
  8
HIDDEN
100
AcDbLine
 10
-37.03617118876313
 20
18.87087177250717
 30
0.0
 11
-55.68790776177298
 21
28.37440623372169
 31
0.0
1001
DBPROPERTIES
1002
{
1000
PbHidd
1002
}
  0
LINE
  5
3CE
330
1F
100
AcDbEntity
  8
HIDDEN
100
AcDbLine
 10
-37.03617118876314
 20
18.87087177250717
 30
0.0
 11
-37.03617118876314
 21
18.87087177250717
 31
0.0
1001
DBPROPERTIES
1002
{
1000
PbHidd
1002
}
  0
LINE
  5
3CF
330
1F
100
AcDbEntity
  8
HIDDEN
100
AcDbLine
 10
-83.8670567945424
 20
54.46390350150274
 30
0.0
 11
-83.8670567945424
 21
54.46390350150273
 31
0.0
1001
DBPROPERTIES
1002
{
1000
PbHidd
1002
}
  0
LINE
  5
3D0
330
1F
100
AcDbEntity
  8
HIDDEN
100
AcDbLine
 10
-77.71459614569709
 20
62.93203910498376
 30
0.0
 11
-77.71459614569709
 21
62.93203910498377
 31
0.0
1001
DBPROPERTIES
1002
{
1000
PbHidd
1002
}
  0
LINE
  5
3D1
330
1F
100
AcDbEntity
  8
HIDDEN
100
AcDbLine
 10
-32.30336713122809
 20
26.1587509213049
 30
0.0
 11
-48.57162259106069
 21
39.33252444061485
 31
0.0
1001
DBPROPERTIES
1002
{
1000
PbHidd
1002
}
  0
LINE
  5
3D2
330
1F
100
AcDbEntity
  8
HIDDEN
100
AcDbLine
 10
-32.30336713122808
 20
26.15875092130491
 30
0.0
 11
-32.30336713122808
 21
26.15875092130491
 31
0.0
1001
DBPROPERTIES
1002
{
1000
PbHidd
1002
}
  0
LINE
  5
3D3
330
1F
100
AcDbEntity
  8
HIDDEN
100
AcDbLine
 10
-70.71067811865474
 20
70.71067811865476
 30
0.0
 11
-70.71067811865474
 21
70.71067811865476
 31
0.0
1001
DBPROPERTIES
1002
{
1000
PbHidd
1002
}
  0
LINE
  5
3D4
330
1F
100
AcDbEntity
  8
HIDDEN
100
AcDbLine
 10
-62.93203910498374
 20
77.7145961456971
 30
0.0
 11
-62.93203910498374
 21
77.7145961456971
 31
0.0
1001
DBPROPERTIES
1002
{
1000
PbHidd
1002
}
  0
LINE
  5
3D5
330
1F
100
AcDbEntity
  8
HIDDEN
100
AcDbLine
 10
-26.15875092130489
 20
32.30336713122808
 30
0.0
 11
-39.33252444061483
 21
48.57162259106068
 31
0.0
1001
DBPROPERTIES
1002
{
1000
PbHidd
1002
}
  0
LINE
  5
3D6
330
1F
100
AcDbEntity
  8
HIDDEN
100
AcDbLine
 10
-26.15875092130489
 20
32.30336713122808
 30
0.0
 11
-26.15875092130489
 21
32.30336713122808
 31
0.0
1001
DBPROPERTIES
1002
{
1000
PbHidd
1002
}
  0
LINE
  5
3D7
330
1F
100
AcDbEntity
  8
HIDDEN
100
AcDbLine
 10
-54.46390350150271
 20
83.8670567945424
 30
0.0
 11
-54.46390350150271
 21
83.8670567945424
 31
0.0
1001
DBPROPERTIES
1002
{
1000
PbHidd
1002
}
  0
LINE
  5
3D8
330
1F
100
AcDbEntity
  8
HIDDEN
100
AcDbLine
 10
-45.39904997395467
 20
89.1006524188368
 30
0.0
 11
-45.39904997395467
 21
89.1006524188368
 31
0.0
1001
DBPROPERTIES
1002
{
1000
PbHidd
1002
}
  0
LINE
  5
3D9
330
1F
100
AcDbEntity
  8
HIDDEN
100
AcDbLine
 10
-18.87087177250715
 20
37.03617118876316
 30
0.0
 11
-28.37440623372166
 21
55.687907761773
 31
0.0
1001
DBPROPERTIES
1002
{
1000
PbHidd
1002
}
  0
LINE
  5
3DA
330
1F
100
AcDbEntity
  8
HIDDEN
100
AcDbLine
 10
-18.87087177250715
 20
37.03617118876316
 30
0.0
 11
-18.87087177250715
 21
37.03617118876316
 31
0.0
1001
DBPROPERTIES
1002
{
1000
PbHidd
1002
}
  0
LINE
  5
3DB
330
1F
100
AcDbEntity
  8
HIDDEN
100
AcDbLine
 10
-35.83679495453001
 20
93.35804264972019
 30
0.0
 11
-35.83679495453001
 21
93.35804264972019
 31
0.0
1001
DBPROPERTIES
1002
{
1000
PbHidd
1002
}
  0
LINE
  5
3DC
330
1F
100
AcDbEntity
  8
HIDDEN
100
AcDbLine
 10
-25.88190451025206
 20
96.59258262890685
 30
0.0
 11
-25.88190451025206
 21
96.59258262890685
 31
0.0
1001
DBPROPERTIES
1002
{
1000
PbHidd
1002
}
  0
LINE
  5
3DD
330
1F
100
AcDbEntity
  8
HIDDEN
100
AcDbLine
 10
-10.75824497476144
 20
40.15031684608226
 30
0.0
 11
-16.17619031890754
 21
60.37036414306678
 31
0.0
1001
DBPROPERTIES
1002
{
1000
PbHidd
1002
}
  0
LINE
  5
3DE
330
1F
100
AcDbEntity
  8
HIDDEN
100
AcDbLine
 10
-10.75824497476144
 20
40.15031684608226
 30
0.0
 11
-10.75824497476144
 21
40.15031684608226
 31
0.0
1001
DBPROPERTIES
1002
{
1000
PbHidd
1002
}
  0
LINE
  5
3DF
330
1F
100
AcDbEntity
  8
HIDDEN
100
AcDbLine
 10
25.88190451025217
 20
96.59258262890681
 30
0.0
 11
25.88190451025217
 21
96.59258262890681
 31
0.0
1001
DBPROPERTIES
1002
{
1000
PbHidd
1002
}
  0
ARC
  5
3E0
330
1F
100
AcDbEntity
  8
HIDDEN
100
AcDbCircle
 10
0.0
 20
0.0
 30
0.0
 40
41.56666666666666
100
AcDbArc
 50
75.00000349528622
 51
81.0000175258962
1001
DBPROPERTIES
1002
{
1000
PbHidd
1002
}
  0
ARC
  5
3E1
330
1F
100
AcDbEntity
  8
HIDDEN
100
AcDbCircle
 10
0.0
 20
0.0000000000000198
 30
0.0
 40
89.0
100
AcDbArc
 50
81.0000175258962
 51
99.00000232194662
1001
DBPROPERTIES
1002
{
1000
PbHidd
1002
}
  0
ARC
  5
3E2
330
1F
100
AcDbEntity
  8
HIDDEN
100
AcDbCircle
 10
0.0
 20
0.0000000000000198
 30
0.0
 40
89.0
100
AcDbArc
 50
68.99998946467625
 51
75.00000349528622
1001
DBPROPERTIES
1002
{
1000
PbHidd
1002
}
  0
ARC
  5
3E3
330
1F
100
AcDbEntity
  8
HIDDEN
100
AcDbCircle
 10
0.0
 20
0.0000000000000198
 30
0.0
 40
89.0
100
AcDbArc
 50
57.0000186992358
 51
62.99997543406626
1001
DBPROPERTIES
1002
{
1000
PbHidd
1002
}
  0
ARC
  5
3E4
330
1F
100
AcDbEntity
  8
HIDDEN
100
AcDbCircle
 10
0.0
 20
0.0000000000000198
 30
0.0
 40
89.0
100
AcDbArc
 50
44.99999063801582
 51
51.00000466862581
1001
DBPROPERTIES
1002
{
1000
PbHidd
1002
}
  0
ARC
  5
3E5
330
1F
100
AcDbEntity
  8
HIDDEN
100
AcDbCircle
 10
0.0
 20
0.0000000000000198
 30
0.0
 40
89.0
100
AcDbArc
 50
33.00001987257539
 51
38.99997660740585
1001
DBPROPERTIES
1002
{
1000
PbHidd
1002
}
  0
ARC
  5
3E6
330
1F
100
AcDbEntity
  8
HIDDEN
100
AcDbCircle
 10
0.0
 20
0.0000000000000198
 30
0.0
 40
89.0
100
AcDbArc
 50
20.99999181135542
 51
27.0000058419654
1001
DBPROPERTIES
1002
{
1000
PbHidd
1002
}
  0
ARC
  5
3E7
330
1F
100
AcDbEntity
  8
HIDDEN
100
AcDbCircle
 10
0.0
 20
0.0000000000000198
 30
0.0
 40
89.0
100
AcDbArc
 50
9.000021045914972
 51
14.99997778074544
1001
DBPROPERTIES
1002
{
1000
PbHidd
1002
}
  0
ARC
  5
3E8
330
1F
100
AcDbEntity
  8
HIDDEN
100
AcDbCircle
 10
0.0
 20
0.0000000000000198
 30
0.0
 40
89.0
100
AcDbArc
 50
0.0
 51
3.00000701530499
1001
DBPROPERTIES
1002
{
1000
PbHidd
1002
}
  0
ARC
  5
3E9
330
1F
100
AcDbEntity
  8
HIDDEN
100
AcDbCircle
 10
0.0
 20
0.0000000000000198
 30
0.0
 40
89.0
100
AcDbArc
 50
345.0000222192546
 51
350.9999789540851
1001
DBPROPERTIES
1002
{
1000
PbHidd
1002
}
  0
ARC
  5
3EA
330
1F
100
AcDbEntity
  8
HIDDEN
100
AcDbCircle
 10
0.0
 20
0.0000000000000198
 30
0.0
 40
89.0
100
AcDbArc
 50
332.9999941580346
 51
339.0000081886445
1001
DBPROPERTIES
1002
{
1000
PbHidd
1002
}
  0
ARC
  5
3EB
330
1F
100
AcDbEntity
  8
HIDDEN
100
AcDbCircle
 10
0.0
 20
0.0000000000000198
 30
0.0
 40
89.0
100
AcDbArc
 50
321.0000233925941
 51
326.9999801274246
1001
DBPROPERTIES
1002
{
1000
PbHidd
1002
}
  0
ARC
  5
3EC
330
1F
100
AcDbEntity
  8
HIDDEN
100
AcDbCircle
 10
0.0
 20
0.0000000000000198
 30
0.0
 40
89.0
100
AcDbArc
 50
308.9999953313742
 51
315.0000093619842
1001
DBPROPERTIES
1002
{
1000
PbHidd
1002
}
  0
ARC
  5
3ED
330
1F
100
AcDbEntity
  8
HIDDEN
100
AcDbCircle
 10
0.0
 20
0.0000000000000198
 30
0.0
 40
89.0
100
AcDbArc
 50
297.0000245659338
 51
302.9999813007643
1001
DBPROPERTIES
1002
{
1000
PbHidd
1002
}
  0
ARC
  5
3EE
330
1F
100
AcDbEntity
  8
HIDDEN
100
AcDbCircle
 10
0.0
 20
0.0000000000000198
 30
0.0
 40
89.0
100
AcDbArc
 50
284.9999965047138
 51
291.0000105353237
1001
DBPROPERTIES
1002
{
1000
PbHidd
1002
}
  0
ARC
  5
3EF
330
1F
100
AcDbEntity
  8
HIDDEN
100
AcDbCircle
 10
0.0
 20
0.0000000000000198
 30
0.0
 40
89.0
100
AcDbArc
 50
273.0000257392733
 51
278.9999824741038
1001
DBPROPERTIES
1002
{
1000
PbHidd
1002
}
  0
ARC
  5
3F0
330
1F
100
AcDbEntity
  8
HIDDEN
100
AcDbCircle
 10
0.0
 20
0.0000000000000198
 30
0.0
 40
89.0
100
AcDbArc
 50
260.9999976780534
 51
267.0000117086634
1001
DBPROPERTIES
1002
{
1000
PbHidd
1002
}
  0
ARC
  5
3F1
330
1F
100
AcDbEntity
  8
HIDDEN
100
AcDbCircle
 10
0.0
 20
0.0000000000000198
 30
0.0
 40
89.0
100
AcDbArc
 50
249.0000269126129
 51
254.9999836474434
1001
DBPROPERTIES
1002
{
1000
PbHidd
1002
}
  0
ARC
  5
3F2
330
1F
100
AcDbEntity
  8
HIDDEN
100
AcDbCircle
 10
0.0
 20
0.0000000000000198
 30
0.0
 40
89.0
100
AcDbArc
 50
236.999998851393
 51
243.0000128820029
1001
DBPROPERTIES
1002
{
1000
PbHidd
1002
}
  0
ARC
  5
3F3
330
1F
100
AcDbEntity
  8
HIDDEN
100
AcDbCircle
 10
0.0
 20
0.0000000000000198
 30
0.0
 40
89.0
100
AcDbArc
 50
225.0000280859525
 51
230.999984820783
1001
DBPROPERTIES
1002
{
1000
PbHidd
1002
}
  0
ARC
  5
3F4
330
1F
100
AcDbEntity
  8
HIDDEN
100
AcDbCircle
 10
0.0
 20
0.0000000000000198
 30
0.0
 40
89.0
100
AcDbArc
 50
213.0000000247326
 51
219.0000140553425
1001
DBPROPERTIES
1002
{
1000
PbHidd
1002
}
  0
ARC
  5
3F5
330
1F
100
AcDbEntity
  8
HIDDEN
100
AcDbCircle
 10
0.0
 20
0.0000000000000198
 30
0.0
 40
89.0
100
AcDbArc
 50
200.9999719635126
 51
206.9999859941226
1001
DBPROPERTIES
1002
{
1000
PbHidd
1002
}
  0
ARC
  5
3F6
330
1F
100
AcDbEntity
  8
HIDDEN
100
AcDbCircle
 10
0.0
 20
0.0000000000000198
 30
0.0
 40
89.0
100
AcDbArc
 50
189.0000011980722
 51
195.0000152286821
1001
DBPROPERTIES
1002
{
1000
PbHidd
1002
}
  0
ARC
  5
3F7
330
1F
100
AcDbEntity
  8
HIDDEN
100
AcDbCircle
 10
0.0
 20
0.0000000000000198
 30
0.0
 40
89.0
100
AcDbArc
 50
177.0000128325378
 51
180.0000198478428
1001
DBPROPERTIES
1002
{
1000
PbHidd
1002
}
  0
ARC
  5
3F8
330
1F
100
AcDbEntity
  8
HIDDEN
100
AcDbCircle
 10
0.0
 20
0.0000000000000198
 30
0.0
 40
89.0
100
AcDbArc
 50
164.9999847713179
 51
170.9999988019279
1001
DBPROPERTIES
1002
{
1000
PbHidd
1002
}
  0
ARC
  5
3F9
330
1F
100
AcDbEntity
  8
HIDDEN
100
AcDbCircle
 10
0.0
 20
0.0000000000000198
 30
0.0
 40
89.0
100
AcDbArc
 50
153.0000140058774
 51
159.0000280364874
1001
DBPROPERTIES
1002
{
1000
PbHidd
1002
}
  0
ARC
  5
3FA
330
1F
100
AcDbEntity
  8
HIDDEN
100
AcDbCircle
 10
0.0
 20
0.0000000000000198
 30
0.0
 40
89.0
100
AcDbArc
 50
140.9999859446575
 51
146.9999999752674
1001
DBPROPERTIES
1002
{
1000
PbHidd
1002
}
  0
ARC
  5
3FB
330
1F
100
AcDbEntity
  8
HIDDEN
100
AcDbCircle
 10
0.0
 20
0.0000000000000198
 30
0.0
 40
89.0
100
AcDbArc
 50
129.000015179217
 51
134.9999719140475
1001
DBPROPERTIES
1002
{
1000
PbHidd
1002
}
  0
ARC
  5
3FC
330
1F
100
AcDbEntity
  8
HIDDEN
100
AcDbCircle
 10
0.0
 20
0.0000000000000198
 30
0.0
 40
89.0
100
AcDbArc
 50
116.9999871179971
 51
123.000001148607
1001
DBPROPERTIES
1002
{
1000
PbHidd
1002
}
  0
ARC
  5
3FD
330
1F
100
AcDbEntity
  8
HIDDEN
100
AcDbCircle
 10
0.0
 20
0.0000000000000198
 30
0.0
 40
89.0
100
AcDbArc
 50
105.0000163525566
 51
110.9999730873871
1001
DBPROPERTIES
1002
{
1000
PbHidd
1002
}
  0
ARC
  5
3FE
330
1F
100
AcDbEntity
  8
HIDDEN
100
AcDbCircle
 10
0.0
 20
0.0
 30
0.0
 40
41.56666666666665
100
AcDbArc
 50
62.99997543406626
 51
68.99998946467625
1001
DBPROPERTIES
1002
{
1000
PbHidd
1002
}
  0
ARC
  5
3FF
330
1F
100
AcDbEntity
  8
HIDDEN
100
AcDbCircle
 10
0.0
 20
0.0
 30
0.0
 40
41.56666666666666
100
AcDbArc
 50
51.00000466862581
 51
57.0000186992358
1001
DBPROPERTIES
1002
{
1000
PbHidd
1002
}
  0
ARC
  5
400
330
1F
100
AcDbEntity
  8
HIDDEN
100
AcDbCircle
 10
0.0
 20
0.0
 30
0.0
 40
41.56666666666666
100
AcDbArc
 50
38.99997660740585
 51
44.99999063801582
1001
DBPROPERTIES
1002
{
1000
PbHidd
1002
}
  0
ARC
  5
401
330
1F
100
AcDbEntity
  8
HIDDEN
100
AcDbCircle
 10
0.0
 20
0.0
 30
0.0
 40
41.56666666666666
100
AcDbArc
 50
27.0000058419654
 51
33.00001987257539
1001
DBPROPERTIES
1002
{
1000
PbHidd
1002
}
  0
ARC
  5
402
330
1F
100
AcDbEntity
  8
HIDDEN
100
AcDbCircle
 10
0.0
 20
0.0
 30
0.0
 40
41.56666666666665
100
AcDbArc
 50
14.99997778074544
 51
20.99999181135542
1001
DBPROPERTIES
1002
{
1000
PbHidd
1002
}
  0
ARC
  5
403
330
1F
100
AcDbEntity
  8
HIDDEN
100
AcDbCircle
 10
0.0
 20
0.0
 30
0.0
 40
41.56666666666666
100
AcDbArc
 50
3.00000701530499
 51
9.000021045914972
1001
DBPROPERTIES
1002
{
1000
PbHidd
1002
}
  0
ARC
  5
404
330
1F
100
AcDbEntity
  8
HIDDEN
100
AcDbCircle
 10
0.0
 20
0.0
 30
0.0
 40
41.56666666666665
100
AcDbArc
 50
350.9999789540851
 51
356.999992984695
1001
DBPROPERTIES
1002
{
1000
PbHidd
1002
}
  0
ARC
  5
405
330
1F
100
AcDbEntity
  8
HIDDEN
100
AcDbCircle
 10
0.0
 20
0.0
 30
0.0
 40
41.56666666666666
100
AcDbArc
 50
339.0000081886445
 51
345.0000222192546
1001
DBPROPERTIES
1002
{
1000
PbHidd
1002
}
  0
ARC
  5
406
330
1F
100
AcDbEntity
  8
HIDDEN
100
AcDbCircle
 10
0.0
 20
0.0
 30
0.0
 40
41.56666666666666
100
AcDbArc
 50
326.9999801274246
 51
332.9999941580346
1001
DBPROPERTIES
1002
{
1000
PbHidd
1002
}
  0
ARC
  5
407
330
1F
100
AcDbEntity
  8
HIDDEN
100
AcDbCircle
 10
0.0
 20
0.0
 30
0.0
 40
41.56666666666666
100
AcDbArc
 50
315.0000093619842
 51
321.0000233925941
1001
DBPROPERTIES
1002
{
1000
PbHidd
1002
}
  0
ARC
  5
408
330
1F
100
AcDbEntity
  8
HIDDEN
100
AcDbCircle
 10
0.0
 20
0.0
 30
0.0
 40
41.56666666666665
100
AcDbArc
 50
302.9999813007643
 51
308.9999953313742
1001
DBPROPERTIES
1002
{
1000
PbHidd
1002
}
  0
ARC
  5
409
330
1F
100
AcDbEntity
  8
HIDDEN
100
AcDbCircle
 10
0.0
 20
0.0
 30
0.0
 40
41.56666666666666
100
AcDbArc
 50
291.0000105353237
 51
297.0000245659338
1001
DBPROPERTIES
1002
{
1000
PbHidd
1002
}
  0
ARC
  5
40A
330
1F
100
AcDbEntity
  8
HIDDEN
100
AcDbCircle
 10
0.0
 20
0.0
 30
0.0
 40
41.56666666666666
100
AcDbArc
 50
278.9999824741038
 51
284.9999965047138
1001
DBPROPERTIES
1002
{
1000
PbHidd
1002
}
  0
ARC
  5
40B
330
1F
100
AcDbEntity
  8
HIDDEN
100
AcDbCircle
 10
0.0
 20
0.0
 30
0.0
 40
41.56666666666665
100
AcDbArc
 50
267.0000117086634
 51
273.0000257392733
1001
DBPROPERTIES
1002
{
1000
PbHidd
1002
}
  0
ARC
  5
40C
330
1F
100
AcDbEntity
  8
HIDDEN
100
AcDbCircle
 10
0.0
 20
0.0
 30
0.0
 40
41.56666666666666
100
AcDbArc
 50
254.9999836474434
 51
260.9999976780534
1001
DBPROPERTIES
1002
{
1000
PbHidd
1002
}
  0
ARC
  5
40D
330
1F
100
AcDbEntity
  8
HIDDEN
100
AcDbCircle
 10
0.0
 20
0.0
 30
0.0
 40
41.56666666666665
100
AcDbArc
 50
243.0000128820029
 51
249.0000269126129
1001
DBPROPERTIES
1002
{
1000
PbHidd
1002
}
  0
ARC
  5
40E
330
1F
100
AcDbEntity
  8
HIDDEN
100
AcDbCircle
 10
0.0
 20
0.0
 30
0.0
 40
41.56666666666666
100
AcDbArc
 50
230.999984820783
 51
236.999998851393
1001
DBPROPERTIES
1002
{
1000
PbHidd
1002
}
  0
ARC
  5
40F
330
1F
100
AcDbEntity
  8
HIDDEN
100
AcDbCircle
 10
0.0
 20
0.0
 30
0.0
 40
41.56666666666666
100
AcDbArc
 50
219.0000140553425
 51
225.0000280859525
1001
DBPROPERTIES
1002
{
1000
PbHidd
1002
}
  0
ARC
  5
410
330
1F
100
AcDbEntity
  8
HIDDEN
100
AcDbCircle
 10
0.0
 20
0.0
 30
0.0
 40
41.56666666666666
100
AcDbArc
 50
206.9999859941226
 51
213.0000000247326
1001
DBPROPERTIES
1002
{
1000
PbHidd
1002
}
  0
ARC
  5
411
330
1F
100
AcDbEntity
  8
HIDDEN
100
AcDbCircle
 10
0.0
 20
0.0
 30
0.0
 40
41.56666666666666
100
AcDbArc
 50
195.0000152286821
 51
200.9999719635126
1001
DBPROPERTIES
1002
{
1000
PbHidd
1002
}
  0
ARC
  5
412
330
1F
100
AcDbEntity
  8
HIDDEN
100
AcDbCircle
 10
0.0
 20
0.0
 30
0.0
 40
41.56666666666666
100
AcDbArc
 50
182.9999871674622
 51
189.0000011980722
1001
DBPROPERTIES
1002
{
1000
PbHidd
1002
}
  0
ARC
  5
413
330
1F
100
AcDbEntity
  8
HIDDEN
100
AcDbCircle
 10
0.0
 20
0.0
 30
0.0
 40
41.56666666666665
100
AcDbArc
 50
170.9999988019279
 51
177.0000128325378
1001
DBPROPERTIES
1002
{
1000
PbHidd
1002
}
  0
ARC
  5
414
330
1F
100
AcDbEntity
  8
HIDDEN
100
AcDbCircle
 10
0.0
 20
0.0
 30
0.0
 40
41.56666666666666
100
AcDbArc
 50
159.0000280364874
 51
164.9999847713179
1001
DBPROPERTIES
1002
{
1000
PbHidd
1002
}
  0
ARC
  5
415
330
1F
100
AcDbEntity
  8
HIDDEN
100
AcDbCircle
 10
0.0
 20
0.0
 30
0.0
 40
41.56666666666665
100
AcDbArc
 50
146.9999999752674
 51
153.0000140058774
1001
DBPROPERTIES
1002
{
1000
PbHidd
1002
}
  0
ARC
  5
416
330
1F
100
AcDbEntity
  8
HIDDEN
100
AcDbCircle
 10
0.0
 20
0.0
 30
0.0
 40
41.56666666666666
100
AcDbArc
 50
134.9999719140475
 51
140.9999859446575
1001
DBPROPERTIES
1002
{
1000
PbHidd
1002
}
  0
ARC
  5
417
330
1F
100
AcDbEntity
  8
HIDDEN
100
AcDbCircle
 10
0.0
 20
0.0
 30
0.0
 40
41.56666666666665
100
AcDbArc
 50
123.000001148607
 51
129.000015179217
1001
DBPROPERTIES
1002
{
1000
PbHidd
1002
}
  0
ARC
  5
418
330
1F
100
AcDbEntity
  8
HIDDEN
100
AcDbCircle
 10
0.0
 20
0.0
 30
0.0
 40
41.56666666666666
100
AcDbArc
 50
110.9999730873871
 51
116.9999871179971
1001
DBPROPERTIES
1002
{
1000
PbHidd
1002
}
  0
ARC
  5
419
330
1F
100
AcDbEntity
  8
HIDDEN
100
AcDbCircle
 10
0.0
 20
0.0
 30
0.0
 40
41.56666666666666
100
AcDbArc
 50
99.00000232194662
 51
105.0000163525566
1001
DBPROPERTIES
1002
{
1000
PbHidd
1002
}
  0
ARC
  5
41A
330
1F
100
AcDbEntity
  8
HIDDEN
100
AcDbCircle
 10
0.0
 20
0.0
 30
0.0
 40
81.9672131147541
100
AcDbArc
 50
270.0000187239684
 51
89.99998127603165
1001
DBPROPERTIES
1002
{
1000
PbHidd
1002
}
  0
LINE
  5
41B
330
1F
100
AcDbEntity
  8
THICK
100
AcDbLine
 10
-69.72707224828177
 20
42.44857124857955
 30
0.0
 11
-160.2212794034705
 21
155.9247178094188
 31
0.0
1001
DBPROPERTIES
1002
{
1000
PbThick
1002
}
  0
LINE
  5
41C
330
1F
100
AcDbEntity
  8
THICK
100
AcDbLine
 10
-114.1514174869476
 20
192.6642067173327
 30
0.0
 11
-24.11869341755371
 21
79.76674164258245
 31
0.0
1001
DBPROPERTIES
1002
{
1000
PbThick
1002
}
  0
ELLIPSE
  5
41D
330
1F
100
AcDbEntity
  8
THICK
100
AcDbEllipse
 10
-73.71309953705145
 20
94.70152562995352
 30
0.0
 11
-68.58387820446066
 21
86.00146307148329
 31
0.0
210
0.0
220
0.0
230
1.0
 40
0.7071067811865475
 41
0.0
 42
0.3884862281828485
1001
DBPROPERTIES
1002
{
1000
PbThick
1002
}
  0
ELLIPSE
  5
41E
330
1F
100
AcDbEntity
  8
THICK
100
AcDbEllipse
 10
-73.71309953705145
 20
94.70152562995352
 30
0.0
 11
-68.58387820446066
 21
86.00146307148329
 31
0.0
210
0.0
220
0.0
230
1.0
 40
0.7071067811865475
 41
-0.3884862281828485
 42
0.0
1001
DBPROPERTIES
1002
{
1000
PbThick
1002
}
  0
LINE
  5
41F
330
1F
100
AcDbEntity
  8
HIDDEN
100
AcDbLine
 10
-25.56684451471667
 20
79.31444323705958
 30
0.0
 11
-115.2570941729441
 21
191.7824589835427
 31
0.0
1001
DBPROPERTIES
1002
{
1000
PbHidd
1002
}
  0
LINE
  5
420
330
1F
100
AcDbEntity
  8
HIDDEN
100
AcDbLine
 10
-115.2570941729441
 20
191.7824589835427
 30
0.0
 11
-114.1514174869476
 21
192.6642067173327
 31
0.0
1001
DBPROPERTIES
1002
{
1000
PbHidd
1002
}
  0
LINE
  5
421
330
1F
100
AcDbEntity
  8
THICK
100
AcDbLine
 10
-71.00566465509164
 20
41.78365297044787
 30
0.0
 11
-161.3269560894671
 21
155.0429700756288
 31
0.0
1001
DBPROPERTIES
1002
{
1000
PbThick
1002
}
  0
LINE
  5
422
330
1F
100
AcDbEntity
  8
THICK
100
AcDbLine
 10
-161.3269560894671
 20
155.0429700756288
 30
0.0
 11
-160.2212794034705
 21
155.9247178094187
 31
0.0
1001
DBPROPERTIES
1002
{
1000
PbThick
1002
}
  0
ELLIPSE
  5
423
330
1F
100
AcDbEntity
  8
HIDDEN
100
AcDbEllipse
 10
-74.818776223048
 20
93.81977789616359
 30
0.0
 11
68.58387820446066
 21
-86.00146307148329
 31
0.0
210
0.0
220
0.0
230
1.0
 40
0.7071067811865475
 41
2.753106425406945
 42
3.141592653589793
1001
DBPROPERTIES
1002
{
1000
PbHidd
1002
}
  0
ELLIPSE
  5
424
330
1F
100
AcDbEntity
  8
THICK
100
AcDbEllipse
 10
-74.818776223048
 20
93.81977789616359
 30
0.0
 11
68.58387820446066
 21
-86.00146307148329
 31
0.0
210
0.0
220
0.0
230
1.0
 40
0.7071067811865475
 41
3.141592653589793
 42
3.530078881772642
1001
DBPROPERTIES
1002
{
1000
PbThick
1002
}
  0
ARC
  5
425
330
1F
100
AcDbEntity
  8
THICK
100
AcDbCircle
 10
0.0
 20
0.0
 30
0.0
 40
72.33333333333333
100
AcDbArc
 50
180.0000198478428
 51
0.0
1001
DBPROPERTIES
1002
{
1000
PbThick
1002
}
  0
LINE
  5
426
330
1F
100
AcDbEntity
  8
THICK
100
AcDbLine
 10
-80.3297348022461
 20
-22.17157363891602
 30
0.0
 11
-80.22432708740234
 21
-22.52841567993164
 31
0.0
1001
DBPROPERTIES
1002
{
1000
PbThick
1002
}
  0
LINE
  5
427
330
1F
100
AcDbEntity
  8
THICK
100
AcDbLine
 10
-80.22432708740234
 20
-22.52841567993164
 30
0.0
 11
-80.10275268554688
 21
-22.89208984375
 31
0.0
1001
DBPROPERTIES
1002
{
1000
PbThick
1002
}
  0
LINE
  5
428
330
1F
100
AcDbEntity
  8
THICK
100
AcDbLine
 10
-80.10275268554688
 20
-22.89208984375
 30
0.0
 11
-79.96495056152344
 21
-23.26045799255371
 31
0.0
1001
DBPROPERTIES
1002
{
1000
PbThick
1002
}
  0
LINE
  5
429
330
1F
100
AcDbEntity
  8
THICK
100
AcDbLine
 10
-79.96495056152344
 20
-23.26045799255371
 30
0.0
 11
-79.81094360351562
 21
-23.63141250610352
 31
0.0
1001
DBPROPERTIES
1002
{
1000
PbThick
1002
}
  0
LINE
  5
42A
330
1F
100
AcDbEntity
  8
THICK
100
AcDbLine
 10
-79.81094360351562
 20
-23.63141250610352
 30
0.0
 11
-79.6412582397461
 21
-24.0029411315918
 31
0.0
1001
DBPROPERTIES
1002
{
1000
PbThick
1002
}
  0
LINE
  5
42B
330
1F
100
AcDbEntity
  8
THICK
100
AcDbLine
 10
-79.6412582397461
 20
-24.0029411315918
 30
0.0
 11
-79.45662689208984
 21
-24.37306976318359
 31
0.0
1001
DBPROPERTIES
1002
{
1000
PbThick
1002
}
  0
LINE
  5
42C
330
1F
100
AcDbEntity
  8
THICK
100
AcDbLine
 10
-79.45662689208984
 20
-24.37306976318359
 30
0.0
 11
-79.25779724121094
 21
-24.73986434936523
 31
0.0
1001
DBPROPERTIES
1002
{
1000
PbThick
1002
}
  0
LINE
  5
42D
330
1F
100
AcDbEntity
  8
THICK
100
AcDbLine
 10
-79.25779724121094
 20
-24.73986434936523
 30
0.0
 11
-79.0460205078125
 21
-25.10153388977051
 31
0.0
1001
DBPROPERTIES
1002
{
1000
PbThick
1002
}
  0
LINE
  5
42E
330
1F
100
AcDbEntity
  8
THICK
100
AcDbLine
 10
-79.0460205078125
 20
-25.10153388977051
 30
0.0
 11
-78.82274627685547
 21
-25.45630645751953
 31
0.0
1001
DBPROPERTIES
1002
{
1000
PbThick
1002
}
  0
LINE
  5
42F
330
1F
100
AcDbEntity
  8
THICK
100
AcDbLine
 10
-78.82274627685547
 20
-25.45630645751953
 30
0.0
 11
-78.58946228027344
 21
-25.80241584777832
 31
0.0
1001
DBPROPERTIES
1002
{
1000
PbThick
1002
}
  0
LINE
  5
430
330
1F
100
AcDbEntity
  8
THICK
100
AcDbLine
 10
-78.58946228027344
 20
-25.80241584777832
 30
0.0
 11
-78.34809875488281
 21
-26.13824081420898
 31
0.0
1001
DBPROPERTIES
1002
{
1000
PbThick
1002
}
  0
LINE
  5
431
330
1F
100
AcDbEntity
  8
THICK
100
AcDbLine
 10
-78.34809875488281
 20
-26.13824081420898
 30
0.0
 11
-78.10079193115234
 21
-26.46223068237305
 31
0.0
1001
DBPROPERTIES
1002
{
1000
PbThick
1002
}
  0
LINE
  5
432
330
1F
100
AcDbEntity
  8
THICK
100
AcDbLine
 10
-78.10079193115234
 20
-26.46223068237305
 30
0.0
 11
-77.84649658203125
 21
-26.77668952941895
 31
0.0
1001
DBPROPERTIES
1002
{
1000
PbThick
1002
}
  0
LINE
  5
433
330
1F
100
AcDbEntity
  8
THICK
100
AcDbLine
 10
-77.84649658203125
 20
-26.77668952941895
 30
0.0
 11
-77.57522583007812
 21
-27.09385108947754
 31
0.0
1001
DBPROPERTIES
1002
{
1000
PbThick
1002
}
  0
LINE
  5
434
330
1F
100
AcDbEntity
  8
THICK
100
AcDbLine
 10
-77.57522583007812
 20
-27.09385108947754
 30
0.0
 11
-77.2867431640625
 21
-27.41291427612305
 31
0.0
1001
DBPROPERTIES
1002
{
1000
PbThick
1002
}
  0
LINE
  5
435
330
1F
100
AcDbEntity
  8
THICK
100
AcDbLine
 10
-77.2867431640625
 20
-27.41291427612305
 30
0.0
 11
-76.98186492919922
 21
-27.73179054260254
 31
0.0
1001
DBPROPERTIES
1002
{
1000
PbThick
1002
}
  0
LINE
  5
436
330
1F
100
AcDbEntity
  8
THICK
100
AcDbLine
 10
-76.98186492919922
 20
-27.73179054260254
 30
0.0
 11
-76.66175079345703
 21
-28.04856872558594
 31
0.0
1001
DBPROPERTIES
1002
{
1000
PbThick
1002
}
  0
LINE
  5
437
330
1F
100
AcDbEntity
  8
THICK
100
AcDbLine
 10
-76.66175079345703
 20
-28.04856872558594
 30
0.0
 11
-76.7309799194336
 21
-28.28979873657227
 31
0.0
1001
DBPROPERTIES
1002
{
1000
PbThick
1002
}
  0
LINE
  5
438
330
1F
100
AcDbEntity
  8
THICK
100
AcDbLine
 10
-76.7309799194336
 20
-28.28979873657227
 30
0.0
 11
-76.79047393798828
 21
-28.52973556518555
 31
0.0
1001
DBPROPERTIES
1002
{
1000
PbThick
1002
}
  0
LINE
  5
439
330
1F
100
AcDbEntity
  8
THICK
100
AcDbLine
 10
-76.79047393798828
 20
-28.52973556518555
 30
0.0
 11
-76.84053039550781
 21
-28.76736640930176
 31
0.0
1001
DBPROPERTIES
1002
{
1000
PbThick
1002
}
  0
LINE
  5
43A
330
1F
100
AcDbEntity
  8
THICK
100
AcDbLine
 10
-76.84053039550781
 20
-28.76736640930176
 30
0.0
 11
-76.88152313232422
 21
-29.00166320800781
 31
0.0
1001
DBPROPERTIES
1002
{
1000
PbThick
1002
}
  0
LINE
  5
43B
330
1F
100
AcDbEntity
  8
THICK
100
AcDbLine
 10
-76.88152313232422
 20
-29.00166320800781
 30
0.0
 11
-76.91401672363281
 21
-29.2317008972168
 31
0.0
1001
DBPROPERTIES
1002
{
1000
PbThick
1002
}
  0
LINE
  5
43C
330
1F
100
AcDbEntity
  8
THICK
100
AcDbLine
 10
-76.91401672363281
 20
-29.2317008972168
 30
0.0
 11
-76.9390869140625
 21
-29.46278190612793
 31
0.0
1001
DBPROPERTIES
1002
{
1000
PbThick
1002
}
  0
LINE
  5
43D
330
1F
100
AcDbEntity
  8
HIDDEN
100
AcDbLine
 10
-76.9390869140625
 20
-29.46278190612793
 30
0.0
 11
-77.26898193359375
 21
-29.06497192382812
 31
0.0
1001
DBPROPERTIES
1002
{
1000
PbHidd
1002
}
  0
LINE
  5
43E
330
1F
100
AcDbEntity
  8
HIDDEN
100
AcDbLine
 10
-77.26898193359375
 20
-29.06497192382812
 30
0.0
 11
-77.5910415649414
 21
-28.6479606628418
 31
0.0
1001
DBPROPERTIES
1002
{
1000
PbHidd
1002
}
  0
LINE
  5
43F
330
1F
100
AcDbEntity
  8
HIDDEN
100
AcDbLine
 10
-77.5910415649414
 20
-28.6479606628418
 30
0.0
 11
-77.90143585205078
 21
-28.21406745910645
 31
0.0
1001
DBPROPERTIES
1002
{
1000
PbHidd
1002
}
  0
LINE
  5
440
330
1F
100
AcDbEntity
  8
HIDDEN
100
AcDbLine
 10
-77.90143585205078
 20
-28.21406745910645
 30
0.0
 11
-78.19622802734375
 21
-27.76652717590332
 31
0.0
1001
DBPROPERTIES
1002
{
1000
PbHidd
1002
}
  0
LINE
  5
441
330
1F
100
AcDbEntity
  8
HIDDEN
100
AcDbLine
 10
-78.19622802734375
 20
-27.76652717590332
 30
0.0
 11
-78.47222900390625
 21
-27.30885314941406
 31
0.0
1001
DBPROPERTIES
1002
{
1000
PbHidd
1002
}
  0
LINE
  5
442
330
1F
100
AcDbEntity
  8
HIDDEN
100
AcDbLine
 10
-78.47222900390625
 20
-27.30885314941406
 30
0.0
 11
-78.7265396118164
 21
-26.84458351135254
 31
0.0
1001
DBPROPERTIES
1002
{
1000
PbHidd
1002
}
  0
LINE
  5
443
330
1F
100
AcDbEntity
  8
HIDDEN
100
AcDbLine
 10
-78.7265396118164
 20
-26.84458351135254
 30
0.0
 11
-78.95720672607422
 21
-26.37752151489258
 31
0.0
1001
DBPROPERTIES
1002
{
1000
PbHidd
1002
}
  0
LINE
  5
444
330
1F
100
AcDbEntity
  8
HIDDEN
100
AcDbLine
 10
-78.95720672607422
 20
-26.37752151489258
 30
0.0
 11
-79.16263580322266
 21
-25.91162872314453
 31
0.0
1001
DBPROPERTIES
1002
{
1000
PbHidd
1002
}
  0
LINE
  5
445
330
1F
100
AcDbEntity
  8
HIDDEN
100
AcDbLine
 10
-79.16263580322266
 20
-25.91162872314453
 30
0.0
 11
-79.34191131591797
 21
-25.45102310180664
 31
0.0
1001
DBPROPERTIES
1002
{
1000
PbHidd
1002
}
  0
LINE
  5
446
330
1F
100
AcDbEntity
  8
HIDDEN
100
AcDbLine
 10
-79.34191131591797
 20
-25.45102310180664
 30
0.0
 11
-79.49493408203125
 21
-25.0
 31
0.0
1001
DBPROPERTIES
1002
{
1000
PbHidd
1002
}
  0
LINE
  5
447
330
1F
100
AcDbEntity
  8
THICK
100
AcDbLine
 10
-32.75033569335938
 20
-76.62805938720703
 30
0.0
 11
-32.40562438964844
 21
-76.76814270019531
 31
0.0
1001
DBPROPERTIES
1002
{
1000
PbThick
1002
}
  0
LINE
  5
448
330
1F
100
AcDbEntity
  8
THICK
100
AcDbLine
 10
-32.40562438964844
 20
-76.76814270019531
 30
0.0
 11
-32.04549407958984
 21
-76.89984130859375
 31
0.0
1001
DBPROPERTIES
1002
{
1000
PbThick
1002
}
  0
LINE
  5
449
330
1F
100
AcDbEntity
  8
THICK
100
AcDbLine
 10
-32.04549407958984
 20
-76.89984130859375
 30
0.0
 11
-31.67157363891602
 21
-77.02177429199219
 31
0.0
1001
DBPROPERTIES
1002
{
1000
PbThick
1002
}
  0
LINE
  5
44A
330
1F
100
AcDbEntity
  8
THICK
100
AcDbLine
 10
-31.67157363891602
 20
-77.02177429199219
 30
0.0
 11
-31.28552627563477
 21
-77.13265228271484
 31
0.0
1001
DBPROPERTIES
1002
{
1000
PbThick
1002
}
  0
LINE
  5
44B
330
1F
100
AcDbEntity
  8
THICK
100
AcDbLine
 10
-31.28552627563477
 20
-77.13265228271484
 30
0.0
 11
-30.88925743103027
 21
-77.23163604736328
 31
0.0
1001
DBPROPERTIES
1002
{
1000
PbThick
1002
}
  0
LINE
  5
44C
330
1F
100
AcDbEntity
  8
THICK
100
AcDbLine
 10
-30.88925743103027
 20
-77.23163604736328
 30
0.0
 11
-30.48476028442383
 21
-77.31805419921875
 31
0.0
1001
DBPROPERTIES
1002
{
1000
PbThick
1002
}
  0
LINE
  5
44D
330
1F
100
AcDbEntity
  8
THICK
100
AcDbLine
 10
-30.48476028442383
 20
-77.31805419921875
 30
0.0
 11
-30.07402610778809
 21
-77.39129638671875
 31
0.0
1001
DBPROPERTIES
1002
{
1000
PbThick
1002
}
  0
LINE
  5
44E
330
1F
100
AcDbEntity
  8
THICK
100
AcDbLine
 10
-30.07402610778809
 20
-77.39129638671875
 30
0.0
 11
-29.65921974182129
 21
-77.45121765136719
 31
0.0
1001
DBPROPERTIES
1002
{
1000
PbThick
1002
}
  0
LINE
  5
44F
330
1F
100
AcDbEntity
  8
THICK
100
AcDbLine
 10
-29.65921974182129
 20
-77.45121765136719
 30
0.0
 11
-29.24263572692871
 21
-77.49784851074219
 31
0.0
1001
DBPROPERTIES
1002
{
1000
PbThick
1002
}
  0
LINE
  5
450
330
1F
100
AcDbEntity
  8
THICK
100
AcDbLine
 10
-29.24263572692871
 20
-77.49784851074219
 30
0.0
 11
-28.82658958435059
 21
-77.53125762939453
 31
0.0
1001
DBPROPERTIES
1002
{
1000
PbThick
1002
}
  0
LINE
  5
451
330
1F
100
AcDbEntity
  8
THICK
100
AcDbLine
 10
-28.82658958435059
 20
-77.53125762939453
 30
0.0
 11
-28.41354179382324
 21
-77.55194091796875
 31
0.0
1001
DBPROPERTIES
1002
{
1000
PbThick
1002
}
  0
LINE
  5
452
330
1F
100
AcDbEntity
  8
THICK
100
AcDbLine
 10
-28.41354179382324
 20
-77.55194091796875
 30
0.0
 11
-28.00604057312012
 21
-77.56058502197266
 31
0.0
1001
DBPROPERTIES
1002
{
1000
PbThick
1002
}
  0
LINE
  5
453
330
1F
100
AcDbEntity
  8
THICK
100
AcDbLine
 10
-28.00604057312012
 20
-77.56058502197266
 30
0.0
 11
-27.60163688659668
 21
-77.55783081054688
 31
0.0
1001
DBPROPERTIES
1002
{
1000
PbThick
1002
}
  0
LINE
  5
454
330
1F
100
AcDbEntity
  8
THICK
100
AcDbLine
 10
-27.60163688659668
 20
-77.55783081054688
 30
0.0
 11
-27.18453407287598
 21
-77.54349517822266
 31
0.0
1001
DBPROPERTIES
1002
{
1000
PbThick
1002
}
  0
LINE
  5
455
330
1F
100
AcDbEntity
  8
THICK
100
AcDbLine
 10
-27.18453407287598
 20
-77.54349517822266
 30
0.0
 11
-26.75521850585938
 21
-77.51688385009766
 31
0.0
1001
DBPROPERTIES
1002
{
1000
PbThick
1002
}
  0
LINE
  5
456
330
1F
100
AcDbEntity
  8
THICK
100
AcDbLine
 10
-26.75521850585938
 20
-77.51688385009766
 30
0.0
 11
-26.31582069396973
 21
-77.47733306884766
 31
0.0
1001
DBPROPERTIES
1002
{
1000
PbThick
1002
}
  0
LINE
  5
457
330
1F
100
AcDbEntity
  8
THICK
100
AcDbLine
 10
-26.31582069396973
 20
-77.47733306884766
 30
0.0
 11
-25.86856460571289
 21
-77.42456817626953
 31
0.0
1001
DBPROPERTIES
1002
{
1000
PbThick
1002
}
  0
LINE
  5
458
330
1F
100
AcDbEntity
  8
THICK
100
AcDbLine
 10
-25.86856460571289
 20
-77.42456817626953
 30
0.0
 11
-25.72312927246094
 21
-77.62909698486328
 31
0.0
1001
DBPROPERTIES
1002
{
1000
PbThick
1002
}
  0
LINE
  5
459
330
1F
100
AcDbEntity
  8
THICK
100
AcDbLine
 10
-25.72312927246094
 20
-77.62909698486328
 30
0.0
 11
-25.5726318359375
 21
-77.82521057128906
 31
0.0
1001
DBPROPERTIES
1002
{
1000
PbThick
1002
}
  0
LINE
  5
45A
330
1F
100
AcDbEntity
  8
THICK
100
AcDbLine
 10
-25.5726318359375
 20
-77.82521057128906
 30
0.0
 11
-25.41805267333984
 21
-78.01250457763672
 31
0.0
1001
DBPROPERTIES
1002
{
1000
PbThick
1002
}
  0
LINE
  5
45B
330
1F
100
AcDbEntity
  8
THICK
100
AcDbLine
 10
-25.41805267333984
 20
-78.01250457763672
 30
0.0
 11
-25.26044845581055
 21
-78.1906509399414
 31
0.0
1001
DBPROPERTIES
1002
{
1000
PbThick
1002
}
  0
LINE
  5
45C
330
1F
100
AcDbEntity
  8
THICK
100
AcDbLine
 10
-25.26044845581055
 20
-78.1906509399414
 30
0.0
 11
-25.1008415222168
 21
-78.35946655273438
 31
0.0
1001
DBPROPERTIES
1002
{
1000
PbThick
1002
}
  0
LINE
  5
45D
330
1F
100
AcDbEntity
  8
THICK
100
AcDbLine
 10
-25.1008415222168
 20
-78.35946655273438
 30
0.0
 11
-24.9358024597168
 21
-78.52313995361328
 31
0.0
1001
DBPROPERTIES
1002
{
1000
PbThick
1002
}
  0
LINE
  5
45E
330
1F
100
AcDbEntity
  8
HIDDEN
100
AcDbLine
 10
-24.9358024597168
 20
-78.52313995361328
 30
0.0
 11
-25.45251274108887
 21
-78.53303527832031
 31
0.0
1001
DBPROPERTIES
1002
{
1000
PbHidd
1002
}
  0
LINE
  5
45F
330
1F
100
AcDbEntity
  8
HIDDEN
100
AcDbLine
 10
-25.45251274108887
 20
-78.53303527832031
 30
0.0
 11
-25.97934532165527
 21
-78.52482604980469
 31
0.0
1001
DBPROPERTIES
1002
{
1000
PbHidd
1002
}
  0
LINE
  5
460
330
1F
100
AcDbEntity
  8
HIDDEN
100
AcDbLine
 10
-25.97934532165527
 20
-78.52482604980469
 30
0.0
 11
-26.51210594177246
 21
-78.49697875976562
 31
0.0
1001
DBPROPERTIES
1002
{
1000
PbHidd
1002
}
  0
LINE
  5
461
330
1F
100
AcDbEntity
  8
HIDDEN
100
AcDbLine
 10
-26.51210594177246
 20
-78.49697875976562
 30
0.0
 11
-27.04580497741699
 21
-78.44841766357422
 31
0.0
1001
DBPROPERTIES
1002
{
1000
PbHidd
1002
}
  0
LINE
  5
462
330
1F
100
AcDbEntity
  8
HIDDEN
100
AcDbLine
 10
-27.04580497741699
 20
-78.44841766357422
 30
0.0
 11
-27.57571601867676
 21
-78.37885284423828
 31
0.0
1001
DBPROPERTIES
1002
{
1000
PbHidd
1002
}
  0
LINE
  5
463
330
1F
100
AcDbEntity
  8
HIDDEN
100
AcDbLine
 10
-27.57571601867676
 20
-78.37885284423828
 30
0.0
 11
-28.09725189208984
 21
-78.2882080078125
 31
0.0
1001
DBPROPERTIES
1002
{
1000
PbHidd
1002
}
  0
LINE
  5
464
330
1F
100
AcDbEntity
  8
HIDDEN
100
AcDbLine
 10
-28.09725189208984
 20
-78.2882080078125
 30
0.0
 11
-28.60623741149902
 21
-78.1773452758789
 31
0.0
1001
DBPROPERTIES
1002
{
1000
PbHidd
1002
}
  0
LINE
  5
465
330
1F
100
AcDbEntity
  8
HIDDEN
100
AcDbLine
 10
-28.60623741149902
 20
-78.1773452758789
 30
0.0
 11
-29.09856796264648
 21
-78.04747772216797
 31
0.0
1001
DBPROPERTIES
1002
{
1000
PbHidd
1002
}
  0
LINE
  5
466
330
1F
100
AcDbEntity
  8
HIDDEN
100
AcDbLine
 10
-29.09856796264648
 20
-78.04747772216797
 30
0.0
 11
-29.57045936584473
 21
-77.90045928955078
 31
0.0
1001
DBPROPERTIES
1002
{
1000
PbHidd
1002
}
  0
LINE
  5
467
330
1F
100
AcDbEntity
  8
HIDDEN
100
AcDbLine
 10
-29.57045936584473
 20
-77.90045928955078
 30
0.0
 11
-30.01849365234375
 21
-77.73888397216797
 31
0.0
1001
DBPROPERTIES
1002
{
1000
PbHidd
1002
}
  0
LINE
  5
468
330
1F
100
AcDbEntity
  8
THICK
100
AcDbLine
 10
39.49073028564453
 20
-73.3820571899414
 30
0.0
 11
39.8151741027832
 21
-73.19989013671875
 31
0.0
1001
DBPROPERTIES
1002
{
1000
PbThick
1002
}
  0
LINE
  5
469
330
1F
100
AcDbEntity
  8
THICK
100
AcDbLine
 10
39.8151741027832
 20
-73.19989013671875
 30
0.0
 11
40.14267730712891
 21
-73.00044250488281
 31
0.0
1001
DBPROPERTIES
1002
{
1000
PbThick
1002
}
  0
LINE
  5
46A
330
1F
100
AcDbEntity
  8
THICK
100
AcDbLine
 10
40.14267730712891
 20
-73.00044250488281
 30
0.0
 11
40.47114562988281
 21
-72.78412628173828
 31
0.0
1001
DBPROPERTIES
1002
{
1000
PbThick
1002
}
  0
LINE
  5
46B
330
1F
100
AcDbEntity
  8
THICK
100
AcDbLine
 10
40.47114562988281
 20
-72.78412628173828
 30
0.0
 11
40.79853057861328
 21
-72.55142974853516
 31
0.0
1001
DBPROPERTIES
1002
{
1000
PbThick
1002
}
  0
LINE
  5
46C
330
1F
100
AcDbEntity
  8
THICK
100
AcDbLine
 10
40.79853057861328
 20
-72.55142974853516
 30
0.0
 11
41.12298583984375
 21
-72.30332946777344
 31
0.0
1001
DBPROPERTIES
1002
{
1000
PbThick
1002
}
  0
LINE
  5
46D
330
1F
100
AcDbEntity
  8
THICK
100
AcDbLine
 10
41.12298583984375
 20
-72.30332946777344
 30
0.0
 11
41.4427490234375
 21
-72.04096221923828
 31
0.0
1001
DBPROPERTIES
1002
{
1000
PbThick
1002
}
  0
LINE
  5
46E
330
1F
100
AcDbEntity
  8
THICK
100
AcDbLine
 10
41.4427490234375
 20
-72.04096221923828
 30
0.0
 11
41.756103515625
 21
-71.7655029296875
 31
0.0
1001
DBPROPERTIES
1002
{
1000
PbThick
1002
}
  0
LINE
  5
46F
330
1F
100
AcDbEntity
  8
THICK
100
AcDbLine
 10
41.756103515625
 20
-71.7655029296875
 30
0.0
 11
42.06158065795898
 21
-71.47856140136719
 31
0.0
1001
DBPROPERTIES
1002
{
1000
PbThick
1002
}
  0
LINE
  5
470
330
1F
100
AcDbEntity
  8
THICK
100
AcDbLine
 10
42.06158065795898
 20
-71.47856140136719
 30
0.0
 11
42.35777282714844
 21
-71.18193054199219
 31
0.0
1001
DBPROPERTIES
1002
{
1000
PbThick
1002
}
  0
LINE
  5
471
330
1F
100
AcDbEntity
  8
THICK
100
AcDbLine
 10
42.35777282714844
 20
-71.18193054199219
 30
0.0
 11
42.64329528808594
 21
-70.87748718261719
 31
0.0
1001
DBPROPERTIES
1002
{
1000
PbThick
1002
}
  0
LINE
  5
472
330
1F
100
AcDbEntity
  8
THICK
100
AcDbLine
 10
42.64329528808594
 20
-70.87748718261719
 30
0.0
 11
42.9169921875
 21
-70.56744384765625
 31
0.0
1001
DBPROPERTIES
1002
{
1000
PbThick
1002
}
  0
LINE
  5
473
330
1F
100
AcDbEntity
  8
THICK
100
AcDbLine
 10
42.9169921875
 20
-70.56744384765625
 30
0.0
 11
43.17782592773438
 21
-70.25424194335938
 31
0.0
1001
DBPROPERTIES
1002
{
1000
PbThick
1002
}
  0
LINE
  5
474
330
1F
100
AcDbEntity
  8
THICK
100
AcDbLine
 10
43.17782592773438
 20
-70.25424194335938
 30
0.0
 11
43.42781448364258
 21
-69.93634796142578
 31
0.0
1001
DBPROPERTIES
1002
{
1000
PbThick
1002
}
  0
LINE
  5
475
330
1F
100
AcDbEntity
  8
THICK
100
AcDbLine
 10
43.42781448364258
 20
-69.93634796142578
 30
0.0
 11
43.67666244506836
 21
-69.60130310058594
 31
0.0
1001
DBPROPERTIES
1002
{
1000
PbThick
1002
}
  0
LINE
  5
476
330
1F
100
AcDbEntity
  8
THICK
100
AcDbLine
 10
43.67666244506836
 20
-69.60130310058594
 30
0.0
 11
43.92353439331055
 21
-69.24906158447266
 31
0.0
1001
DBPROPERTIES
1002
{
1000
PbThick
1002
}
  0
LINE
  5
477
330
1F
100
AcDbEntity
  8
THICK
100
AcDbLine
 10
43.92353439331055
 20
-69.24906158447266
 30
0.0
 11
44.16657257080078
 21
-68.88086700439453
 31
0.0
1001
DBPROPERTIES
1002
{
1000
PbThick
1002
}
  0
LINE
  5
478
330
1F
100
AcDbEntity
  8
THICK
100
AcDbLine
 10
44.16657257080078
 20
-68.88086700439453
 30
0.0
 11
44.4041748046875
 21
-68.49828338623047
 31
0.0
1001
DBPROPERTIES
1002
{
1000
PbThick
1002
}
  0
LINE
  5
479
330
1F
100
AcDbEntity
  8
THICK
100
AcDbLine
 10
44.4041748046875
 20
-68.49828338623047
 30
0.0
 11
44.65476226806641
 21
-68.5121078491211
 31
0.0
1001
DBPROPERTIES
1002
{
1000
PbThick
1002
}
  0
LINE
  5
47A
330
1F
100
AcDbEntity
  8
THICK
100
AcDbLine
 10
44.65476226806641
 20
-68.5121078491211
 30
0.0
 11
44.90192413330078
 21
-68.51671600341797
 31
0.0
1001
DBPROPERTIES
1002
{
1000
PbThick
1002
}
  0
LINE
  5
47B
330
1F
100
AcDbEntity
  8
THICK
100
AcDbLine
 10
44.90192413330078
 20
-68.51671600341797
 30
0.0
 11
45.14473342895508
 21
-68.51263427734375
 31
0.0
1001
DBPROPERTIES
1002
{
1000
PbThick
1002
}
  0
LINE
  5
47C
330
1F
100
AcDbEntity
  8
THICK
100
AcDbLine
 10
45.14473342895508
 20
-68.51263427734375
 30
0.0
 11
45.38227844238281
 21
-68.5004653930664
 31
0.0
1001
DBPROPERTIES
1002
{
1000
PbThick
1002
}
  0
LINE
  5
47D
330
1F
100
AcDbEntity
  8
THICK
100
AcDbLine
 10
45.38227844238281
 20
-68.5004653930664
 30
0.0
 11
45.6137809753418
 21
-68.48095703125
 31
0.0
1001
DBPROPERTIES
1002
{
1000
PbThick
1002
}
  0
LINE
  5
47E
330
1F
100
AcDbEntity
  8
THICK
100
AcDbLine
 10
45.6137809753418
 20
-68.48095703125
 30
0.0
 11
45.84464645385742
 21
-68.45397186279297
 31
0.0
1001
DBPROPERTIES
1002
{
1000
PbThick
1002
}
  0
LINE
  5
47F
330
1F
100
AcDbEntity
  8
HIDDEN
100
AcDbLine
 10
45.84464645385742
 20
-68.45397186279297
 30
0.0
 11
45.49401092529297
 21
-68.9095458984375
 31
0.0
1001
DBPROPERTIES
1002
{
1000
PbHidd
1002
}
  0
LINE
  5
480
330
1F
100
AcDbEntity
  8
HIDDEN
100
AcDbLine
 10
45.49401092529297
 20
-68.9095458984375
 30
0.0
 11
45.11824798583984
 21
-69.36043548583984
 31
0.0
1001
DBPROPERTIES
1002
{
1000
PbHidd
1002
}
  0
LINE
  5
481
330
1F
100
AcDbEntity
  8
HIDDEN
100
AcDbLine
 10
45.11824798583984
 20
-69.36043548583984
 30
0.0
 11
44.71953964233398
 21
-69.80061340332031
 31
0.0
1001
DBPROPERTIES
1002
{
1000
PbHidd
1002
}
  0
LINE
  5
482
330
1F
100
AcDbEntity
  8
HIDDEN
100
AcDbLine
 10
44.71953964233398
 20
-69.80061340332031
 30
0.0
 11
44.30121612548828
 21
-70.22411346435547
 31
0.0
1001
DBPROPERTIES
1002
{
1000
PbHidd
1002
}
  0
LINE
  5
483
330
1F
100
AcDbEntity
  8
HIDDEN
100
AcDbLine
 10
44.30121612548828
 20
-70.22411346435547
 30
0.0
 11
43.86704635620117
 21
-70.625732421875
 31
0.0
1001
DBPROPERTIES
1002
{
1000
PbHidd
1002
}
  0
LINE
  5
484
330
1F
100
AcDbEntity
  8
HIDDEN
100
AcDbLine
 10
43.86704635620117
 20
-70.625732421875
 30
0.0
 11
43.42115783691406
 21
-71.0010757446289
 31
0.0
1001
DBPROPERTIES
1002
{
1000
PbHidd
1002
}
  0
LINE
  5
485
330
1F
100
AcDbEntity
  8
HIDDEN
100
AcDbLine
 10
43.42115783691406
 20
-71.0010757446289
 30
0.0
 11
42.96829223632812
 21
-71.3467025756836
 31
0.0
1001
DBPROPERTIES
1002
{
1000
PbHidd
1002
}
  0
LINE
  5
486
330
1F
100
AcDbEntity
  8
HIDDEN
100
AcDbLine
 10
42.96829223632812
 20
-71.3467025756836
 30
0.0
 11
42.51351547241211
 21
-71.65979766845703
 31
0.0
1001
DBPROPERTIES
1002
{
1000
PbHidd
1002
}
  0
LINE
  5
487
330
1F
100
AcDbEntity
  8
HIDDEN
100
AcDbLine
 10
42.51351547241211
 20
-71.65979766845703
 30
0.0
 11
42.06248474121094
 21
-71.93880462646484
 31
0.0
1001
DBPROPERTIES
1002
{
1000
PbHidd
1002
}
  0
LINE
  5
488
330
1F
100
AcDbEntity
  8
THICK
100
AcDbLine
 10
81.99446868896484
 20
-14.87786769866943
 30
0.0
 11
82.05432891845703
 21
-14.51062774658203
 31
0.0
1001
DBPROPERTIES
1002
{
1000
PbThick
1002
}
  0
LINE
  5
489
330
1F
100
AcDbEntity
  8
THICK
100
AcDbLine
 10
82.05432891845703
 20
-14.51062774658203
 30
0.0
 11
82.10259246826172
 21
-14.13022422790527
 31
0.0
1001
DBPROPERTIES
1002
{
1000
PbThick
1002
}
  0
LINE
  5
48A
330
1F
100
AcDbEntity
  8
THICK
100
AcDbLine
 10
82.10259246826172
 20
-14.13022422790527
 30
0.0
 11
82.13826751708984
 21
-13.73854446411133
 31
0.0
1001
DBPROPERTIES
1002
{
1000
PbThick
1002
}
  0
LINE
  5
48B
330
1F
100
AcDbEntity
  8
THICK
100
AcDbLine
 10
82.13826751708984
 20
-13.73854446411133
 30
0.0
 11
82.16046142578125
 21
-13.33750247955322
 31
0.0
1001
DBPROPERTIES
1002
{
1000
PbThick
1002
}
  0
LINE
  5
48C
330
1F
100
AcDbEntity
  8
THICK
100
AcDbLine
 10
82.16046142578125
 20
-13.33750247955322
 30
0.0
 11
82.16878509521484
 21
-12.92914485931396
 31
0.0
1001
DBPROPERTIES
1002
{
1000
PbThick
1002
}
  0
LINE
  5
48D
330
1F
100
AcDbEntity
  8
THICK
100
AcDbLine
 10
82.16878509521484
 20
-12.92914485931396
 30
0.0
 11
82.16302490234375
 21
-12.51555919647217
 31
0.0
1001
DBPROPERTIES
1002
{
1000
PbThick
1002
}
  0
LINE
  5
48E
330
1F
100
AcDbEntity
  8
THICK
100
AcDbLine
 10
82.16302490234375
 20
-12.51555919647217
 30
0.0
 11
82.14303588867188
 21
-12.09882354736328
 31
0.0
1001
DBPROPERTIES
1002
{
1000
PbThick
1002
}
  0
LINE
  5
48F
330
1F
100
AcDbEntity
  8
THICK
100
AcDbLine
 10
82.14303588867188
 20
-12.09882354736328
 30
0.0
 11
82.1091537475586
 21
-11.6810827255249
 31
0.0
1001
DBPROPERTIES
1002
{
1000
PbThick
1002
}
  0
LINE
  5
490
330
1F
100
AcDbEntity
  8
THICK
100
AcDbLine
 10
82.1091537475586
 20
-11.6810827255249
 30
0.0
 11
82.06192016601562
 21
-11.26456832885742
 31
0.0
1001
DBPROPERTIES
1002
{
1000
PbThick
1002
}
  0
LINE
  5
491
330
1F
100
AcDbEntity
  8
THICK
100
AcDbLine
 10
82.06192016601562
 20
-11.26456832885742
 30
0.0
 11
82.00190734863281
 21
-10.85151767730713
 31
0.0
1001
DBPROPERTIES
1002
{
1000
PbThick
1002
}
  0
LINE
  5
492
330
1F
100
AcDbEntity
  8
THICK
100
AcDbLine
 10
82.00190734863281
 20
-10.85151767730713
 30
0.0
 11
81.93016052246094
 21
-10.4442253112793
 31
0.0
1001
DBPROPERTIES
1002
{
1000
PbThick
1002
}
  0
LINE
  5
493
330
1F
100
AcDbEntity
  8
THICK
100
AcDbLine
 10
81.93016052246094
 20
-10.4442253112793
 30
0.0
 11
81.84790802001953
 21
-10.04501724243164
 31
0.0
1001
DBPROPERTIES
1002
{
1000
PbThick
1002
}
  0
LINE
  5
494
330
1F
100
AcDbEntity
  8
THICK
100
AcDbLine
 10
81.84790802001953
 20
-10.04501724243164
 30
0.0
 11
81.75523376464844
 21
-9.65136432647705
 31
0.0
1001
DBPROPERTIES
1002
{
1000
PbThick
1002
}
  0
LINE
  5
495
330
1F
100
AcDbEntity
  8
THICK
100
AcDbLine
 10
81.75523376464844
 20
-9.65136432647705
 30
0.0
 11
81.64844512939453
 21
-9.24791145324707
 31
0.0
1001
DBPROPERTIES
1002
{
1000
PbThick
1002
}
  0
LINE
  5
496
330
1F
100
AcDbEntity
  8
THICK
100
AcDbLine
 10
81.64844512939453
 20
-9.24791145324707
 30
0.0
 11
81.52696990966797
 21
-8.835280418395996
 31
0.0
1001
DBPROPERTIES
1002
{
1000
PbThick
1002
}
  0
LINE
  5
497
330
1F
100
AcDbEntity
  8
THICK
100
AcDbLine
 10
81.52696990966797
 20
-8.835280418395996
 30
0.0
 11
81.39064025878906
 21
-8.41569995880127
 31
0.0
1001
DBPROPERTIES
1002
{
1000
PbThick
1002
}
  0
LINE
  5
498
330
1F
100
AcDbEntity
  8
THICK
100
AcDbLine
 10
81.39064025878906
 20
-8.41569995880127
 30
0.0
 11
81.23966979980469
 21
-7.991398334503174
 31
0.0
1001
DBPROPERTIES
1002
{
1000
PbThick
1002
}
  0
LINE
  5
499
330
1F
100
AcDbEntity
  8
THICK
100
AcDbLine
 10
81.23966979980469
 20
-7.991398334503174
 30
0.0
 11
81.40670776367188
 21
-7.804098129272461
 31
0.0
1001
DBPROPERTIES
1002
{
1000
PbThick
1002
}
  0
LINE
  5
49A
330
1F
100
AcDbEntity
  8
THICK
100
AcDbLine
 10
81.40670776367188
 20
-7.804098129272461
 30
0.0
 11
81.56441497802734
 21
-7.613734245300293
 31
0.0
1001
DBPROPERTIES
1002
{
1000
PbThick
1002
}
  0
LINE
  5
49B
330
1F
100
AcDbEntity
  8
THICK
100
AcDbLine
 10
81.56441497802734
 20
-7.613734245300293
 30
0.0
 11
81.71261596679688
 21
-7.421354293823242
 31
0.0
1001
DBPROPERTIES
1002
{
1000
PbThick
1002
}
  0
LINE
  5
49C
330
1F
100
AcDbEntity
  8
THICK
100
AcDbLine
 10
81.71261596679688
 20
-7.421354293823242
 30
0.0
 11
81.85122680664062
 21
-7.228058815002441
 31
0.0
1001
DBPROPERTIES
1002
{
1000
PbThick
1002
}
  0
LINE
  5
49D
330
1F
100
AcDbEntity
  8
THICK
100
AcDbLine
 10
81.85122680664062
 20
-7.228058815002441
 30
0.0
 11
81.98029327392578
 21
-7.034888744354248
 31
0.0
1001
DBPROPERTIES
1002
{
1000
PbThick
1002
}
  0
LINE
  5
49E
330
1F
100
AcDbEntity
  8
THICK
100
AcDbLine
 10
81.98029327392578
 20
-7.034888744354248
 30
0.0
 11
82.10314178466797
 21
-6.837567329406738
 31
0.0
1001
DBPROPERTIES
1002
{
1000
PbThick
1002
}
  0
LINE
  5
49F
330
1F
100
AcDbEntity
  8
HIDDEN
100
AcDbLine
 10
82.10314178466797
 20
-6.837567329406738
 30
0.0
 11
82.2406997680664
 21
-7.395745754241943
 31
0.0
1001
DBPROPERTIES
1002
{
1000
PbHidd
1002
}
  0
LINE
  5
4A0
330
1F
100
AcDbEntity
  8
HIDDEN
100
AcDbLine
 10
82.2406997680664
 20
-7.395745754241943
 30
0.0
 11
82.35894012451172
 21
-7.970658302307129
 31
0.0
1001
DBPROPERTIES
1002
{
1000
PbHidd
1002
}
  0
LINE
  5
4A1
330
1F
100
AcDbEntity
  8
HIDDEN
100
AcDbLine
 10
82.35894012451172
 20
-7.970658302307129
 30
0.0
 11
82.4544906616211
 21
-8.55682373046875
 31
0.0
1001
DBPROPERTIES
1002
{
1000
PbHidd
1002
}
  0
LINE
  5
4A2
330
1F
100
AcDbEntity
  8
HIDDEN
100
AcDbLine
 10
82.4544906616211
 20
-8.55682373046875
 30
0.0
 11
82.5247802734375
 21
-9.147933959960938
 31
0.0
1001
DBPROPERTIES
1002
{
1000
PbHidd
1002
}
  0
LINE
  5
4A3
330
1F
100
AcDbEntity
  8
HIDDEN
100
AcDbLine
 10
82.5247802734375
 20
-9.147933959960938
 30
0.0
 11
82.56807708740234
 21
-9.737784385681152
 31
0.0
1001
DBPROPERTIES
1002
{
1000
PbHidd
1002
}
  0
LINE
  5
4A4
330
1F
100
AcDbEntity
  8
HIDDEN
100
AcDbLine
 10
82.56807708740234
 20
-9.737784385681152
 30
0.0
 11
82.58352661132812
 21
-10.32041549682617
 31
0.0
1001
DBPROPERTIES
1002
{
1000
PbHidd
1002
}
  0
LINE
  5
4A5
330
1F
100
AcDbEntity
  8
HIDDEN
100
AcDbLine
 10
82.58352661132812
 20
-10.32041549682617
 30
0.0
 11
82.5713882446289
 21
-10.88997745513916
 31
0.0
1001
DBPROPERTIES
1002
{
1000
PbHidd
1002
}
  0
LINE
  5
4A6
330
1F
100
AcDbEntity
  8
HIDDEN
100
AcDbLine
 10
82.5713882446289
 20
-10.88997745513916
 30
0.0
 11
82.53263092041016
 21
-11.440749168396
 31
0.0
1001
DBPROPERTIES
1002
{
1000
PbHidd
1002
}
  0
LINE
  5
4A7
330
1F
100
AcDbEntity
  8
HIDDEN
100
AcDbLine
 10
82.53263092041016
 20
-11.440749168396
 30
0.0
 11
82.46955108642578
 21
-11.9673376083374
 31
0.0
1001
DBPROPERTIES
1002
{
1000
PbHidd
1002
}
  0
LINE
  5
4A8
330
1F
100
AcDbEntity
  8
THICK
100
AcDbLine
 10
-10.28648907234407
 20
80.9810715409927
 30
0.0
 11
22.01051952952442
 21
222.483511810813
 31
0.0
1001
DBPROPERTIES
1002
{
1000
PbThick
1002
}
  0
LINE
  5
4A9
330
1F
100
AcDbEntity
  8
THICK
100
AcDbLine
 10
79.4586976855086
 20
209.3713400311069
 30
0.0
 11
47.32639049006244
 21
68.5905037714884
 31
0.0
1001
DBPROPERTIES
1002
{
1000
PbThick
1002
}
  0
ELLIPSE
  5
4AA
330
1F
100
AcDbEntity
  8
THICK
100
AcDbEllipse
 10
28.08126835050138
 20
116.6766573391059
 30
0.0
 11
24.47730273519461
 21
107.2420703400006
 31
0.0
210
0.0
220
0.0
230
1.0
 40
0.7071067811865475
 41
0.0
 42
0.3884862281828485
1001
DBPROPERTIES
1002
{
1000
PbThick
1002
}
  0
ELLIPSE
  5
4AB
330
1F
100
AcDbEntity
  8
THICK
100
AcDbEllipse
 10
28.08126835050138
 20
116.6766573391059
 30
0.0
 11
24.47730273519461
 21
107.2420703400006
 31
0.0
210
0.0
220
0.0
230
1.0
 40
0.7071067811865475
 41
-0.3884862281828484
 42
0.0
1001
DBPROPERTIES
1002
{
1000
PbThick
1002
}
  0
LINE
  5
4AC
330
1F
100
AcDbEntity
  8
HIDDEN
100
AcDbLine
 10
46.06986191652293
 20
69.44071044738055
 30
0.0
 11
78.07994140976498
 21
209.6860321538198
 31
0.0
1001
DBPROPERTIES
1002
{
1000
PbHidd
1002
}
  0
LINE
  5
4AD
330
1F
100
AcDbEntity
  8
HIDDEN
100
AcDbLine
 10
78.07994140976501
 20
209.68603215382
 30
0.0
 11
79.45869768550864
 21
209.371340031107
 31
0.0
1001
DBPROPERTIES
1002
{
1000
PbHidd
1002
}
  0
LINE
  5
4AE
330
1F
100
AcDbEntity
  8
THICK
100
AcDbLine
 10
-11.60353244183582
 20
81.56614557239665
 30
0.0
 11
20.6317632537808
 21
222.798203933526
 31
0.0
1001
DBPROPERTIES
1002
{
1000
PbThick
1002
}
  0
LINE
  5
4AF
330
1F
100
AcDbEntity
  8
THICK
100
AcDbLine
 10
20.63176325378084
 20
222.7982039335261
 30
0.0
 11
22.01051952952445
 21
222.4835118108132
 31
0.0
1001
DBPROPERTIES
1002
{
1000
PbThick
1002
}
  0
ELLIPSE
  5
4B0
330
1F
100
AcDbEntity
  8
HIDDEN
100
AcDbEllipse
 10
26.70251207475776
 20
116.9913494618188
 30
0.0
 11
-24.47730273519461
 21
-107.2420703400006
 31
0.0
210
0.0
220
0.0
230
1.0
 40
0.7071067811865475
 41
2.753106425406945
 42
3.141592653589793
1001
DBPROPERTIES
1002
{
1000
PbHidd
1002
}
  0
ELLIPSE
  5
4B1
330
1F
100
AcDbEntity
  8
THICK
100
AcDbEllipse
 10
26.70251207475776
 20
116.9913494618188
 30
0.0
 11
-24.47730273519461
 21
-107.2420703400006
 31
0.0
210
0.0
220
0.0
230
1.0
 40
0.7071067811865475
 41
3.141592653589793
 42
3.530078881772642
1001
DBPROPERTIES
1002
{
1000
PbThick
1002
}
  0
LINE
  5
4B2
330
1F
100
AcDbEntity
  8
THICK
100
AcDbLine
 10
56.90003018120603
 20
58.53317325022341
 30
0.0
 11
187.6679483240123
 21
121.5076835820994
 31
0.0
1001
DBPROPERTIES
1002
{
1000
PbThick
1002
}
  0
LINE
  5
4B3
330
1F
100
AcDbEntity
  8
THICK
100
AcDbLine
 10
213.234792838729
 20
68.41758390445216
 30
0.0
 11
83.13373707622983
 21
5.764217569169638
 31
0.0
1001
DBPROPERTIES
1002
{
1000
PbThick
1002
}
  0
ELLIPSE
  5
4B4
330
1F
100
AcDbEntity
  8
THICK
100
AcDbEllipse
 10
108.7298684166435
 20
50.79188630184341
 30
0.0
 11
99.10657546926609
 21
47.72721130293137
 31
0.0
210
0.0
220
0.0
230
1.0
 40
0.7071067811865476
 41
0.0
 42
0.3884862281828486
1001
DBPROPERTIES
1002
{
1000
PbThick
1002
}
  0
ELLIPSE
  5
4B5
330
1F
100
AcDbEntity
  8
THICK
100
AcDbEllipse
 10
108.7298684166435
 20
50.79188630184341
 30
0.0
 11
99.10657546926609
 21
47.72721130293137
 31
0.0
210
0.0
220
0.0
230
1.0
 40
0.7071067811865476
 41
-0.3884862281828487
 42
0.0
1001
DBPROPERTIES
1002
{
1000
PbThick
1002
}
  0
LINE
  5
4B6
330
1F
100
AcDbEntity
  8
HIDDEN
100
AcDbLine
 10
83.01502267070083
 20
7.276706358474442
 30
0.0
 11
212.6211885703758
 21
69.6917462967157
 31
0.0
1001
DBPROPERTIES
1002
{
1000
PbHidd
1002
}
  0
LINE
  5
4B7
330
1F
100
AcDbEntity
  8
HIDDEN
100
AcDbLine
 10
212.6211885703759
 20
69.69174629671576
 30
0.0
 11
213.2347928387291
 21
68.41758390445223
 31
0.0
1001
DBPROPERTIES
1002
{
1000
PbHidd
1002
}
  0
LINE
  5
4B8
330
1F
100
AcDbEntity
  8
THICK
100
AcDbLine
 10
56.53629636904837
 20
59.92766691218057
 30
0.0
 11
187.0543440556591
 21
122.781845974363
 31
0.0
1001
DBPROPERTIES
1002
{
1000
PbThick
1002
}
  0
LINE
  5
4B9
330
1F
100
AcDbEntity
  8
THICK
100
AcDbLine
 10
187.0543440556593
 20
122.781845974363
 30
0.0
 11
187.6679483240125
 21
121.5076835820995
 31
0.0
1001
DBPROPERTIES
1002
{
1000
PbThick
1002
}
  0
ELLIPSE
  5
4BA
330
1F
100
AcDbEntity
  8
HIDDEN
100
AcDbEllipse
 10
108.1162641482903
 20
52.06604869410694
 30
0.0
 11
-99.10657546926609
 21
-47.72721130293137
 31
0.0
210
0.0
220
0.0
230
1.0
 40
0.7071067811865476
 41
2.753106425406945
 42
3.141592653589793
1001
DBPROPERTIES
1002
{
1000
PbHidd
1002
}
  0
ELLIPSE
  5
4BB
330
1F
100
AcDbEntity
  8
THICK
100
AcDbEllipse
 10
108.1162641482903
 20
52.06604869410694
 30
0.0
 11
-99.10657546926609
 21
-47.72721130293137
 31
0.0
210
0.0
220
0.0
230
1.0
 40
0.7071067811865476
 41
3.141592653589793
 42
3.530078881772642
1001
DBPROPERTIES
1002
{
1000
PbThick
1002
}
  0
LINE
  5
4BC
330
1F
100
AcDbEntity
  8
THICK
100
AcDbLine
 10
81.23966615921631
 20
-7.991398357103236
 30
0.0
 11
212.0075843020226
 21
-70.96590868897931
 31
0.0
1001
DBPROPERTIES
1002
{
1000
PbThick
1002
}
  0
LINE
  5
4BD
330
1F
100
AcDbEntity
  8
THICK
100
AcDbLine
 10
186.4407397873059
 20
-124.0560083666266
 30
0.0
 11
56.33968402480676
 21
-61.40264203134399
 31
0.0
1001
DBPROPERTIES
1002
{
1000
PbThick
1002
}
  0
ELLIPSE
  5
4BE
330
1F
100
AcDbEntity
  8
THICK
100
AcDbEllipse
 10
107.5026598799371
 20
-53.34021108637053
 30
0.0
 11
99.1065754692661
 21
-47.72721130293141
 31
0.0
210
0.0
220
0.0
230
1.0
 40
0.7071067811865476
 41
0.0
 42
0.3884862281828484
1001
DBPROPERTIES
1002
{
1000
PbThick
1002
}
  0
ELLIPSE
  5
4BF
330
1F
100
AcDbEntity
  8
THICK
100
AcDbEllipse
 10
107.5026598799371
 20
-53.34021108637053
 30
0.0
 11
99.1065754692661
 21
-47.72721130293141
 31
0.0
210
0.0
220
0.0
230
1.0
 40
0.7071067811865476
 41
-0.3884862281828487
 42
0.0
1001
DBPROPERTIES
1002
{
1000
PbThick
1002
}
  0
LINE
  5
4C0
330
1F
100
AcDbEntity
  8
HIDDEN
100
AcDbLine
 10
57.44817815598414
 20
-60.36680603612172
 30
0.0
 11
187.0543440556591
 21
-122.781845974363
 31
0.0
1001
DBPROPERTIES
1002
{
1000
PbHidd
1002
}
  0
LINE
  5
4C1
330
1F
100
AcDbEntity
  8
HIDDEN
100
AcDbLine
 10
187.0543440556592
 20
-122.7818459743631
 30
0.0
 11
186.440739787306
 21
-124.0560083666266
 31
0.0
1001
DBPROPERTIES
1002
{
1000
PbHidd
1002
}
  0
LINE
  5
4C2
330
1F
100
AcDbEntity
  8
THICK
100
AcDbLine
 10
82.10314088376504
 20
-6.837567234533331
 30
0.0
 11
212.6211885703758
 21
-69.69174629671576
 31
0.0
1001
DBPROPERTIES
1002
{
1000
PbThick
1002
}
  0
LINE
  5
4C3
330
1F
100
AcDbEntity
  8
THICK
100
AcDbLine
 10
212.6211885703759
 20
-69.69174629671583
 30
0.0
 11
212.0075843020227
 21
-70.96590868897937
 31
0.0
1001
DBPROPERTIES
1002
{
1000
PbThick
1002
}
  0
ELLIPSE
  5
4C4
330
1F
100
AcDbEntity
  8
HIDDEN
100
AcDbEllipse
 10
108.1162641482903
 20
-52.066048694107
 30
0.0
 11
-99.1065754692661
 21
47.72721130293141
 31
0.0
210
0.0
220
0.0
230
1.0
 40
0.7071067811865476
 41
2.753106425406945
 42
3.141592653589793
1001
DBPROPERTIES
1002
{
1000
PbHidd
1002
}
  0
ELLIPSE
  5
4C5
330
1F
100
AcDbEntity
  8
THICK
100
AcDbEllipse
 10
108.1162641482903
 20
-52.066048694107
 30
0.0
 11
-99.1065754692661
 21
47.72721130293141
 31
0.0
210
0.0
220
0.0
230
1.0
 40
0.7071067811865476
 41
3.141592653589793
 42
3.530078881772642
1001
DBPROPERTIES
1002
{
1000
PbThick
1002
}
  0
LINE
  5
4C6
330
1F
100
AcDbEntity
  8
THICK
100
AcDbLine
 10
44.40417653215283
 20
-68.49828400671242
 30
0.0
 11
76.70118513402127
 21
-210.0007242765328
 31
0.0
1001
DBPROPERTIES
1002
{
1000
PbThick
1002
}
  0
LINE
  5
4C7
330
1F
100
AcDbEntity
  8
THICK
100
AcDbLine
 10
19.25300697803711
 20
-223.112896056239
 30
0.0
 11
-12.87930021740901
 21
-82.33205979662043
 31
0.0
1001
DBPROPERTIES
1002
{
1000
PbThick
1002
}
  0
ELLIPSE
  5
4C8
330
1F
100
AcDbEntity
  8
THICK
100
AcDbEllipse
 10
25.32375579901409
 20
-117.3060415845318
 30
0.0
 11
24.47730273519457
 21
-107.2420703400006
 31
0.0
210
0.0
220
0.0
230
1.0
 40
0.7071067811865476
 41
0.0
 42
0.3884862281828483
1001
DBPROPERTIES
1002
{
1000
PbThick
1002
}
  0
ELLIPSE
  5
4C9
330
1F
100
AcDbEntity
  8
THICK
100
AcDbEllipse
 10
25.32375579901409
 20
-117.3060415845318
 30
0.0
 11
24.47730273519457
 21
-107.2420703400006
 31
0.0
210
0.0
220
0.0
230
1.0
 40
0.7071067811865476
 41
-0.3884862281828486
 42
0.0
1001
DBPROPERTIES
1002
{
1000
PbThick
1002
}
  0
LINE
  5
4CA
330
1F
100
AcDbEntity
  8
HIDDEN
100
AcDbLine
 10
-11.37831623946128
 20
-82.5528822270867
 30
0.0
 11
20.63176325378073
 21
-222.798203933526
 31
0.0
1001
DBPROPERTIES
1002
{
1000
PbHidd
1002
}
  0
LINE
  5
4CB
330
1F
100
AcDbEntity
  8
HIDDEN
100
AcDbLine
 10
20.63176325378076
 20
-222.7982039335261
 30
0.0
 11
19.25300697803714
 21
-223.1128960562391
 31
0.0
1001
DBPROPERTIES
1002
{
1000
PbHidd
1002
}
  0
LINE
  5
4CC
330
1F
100
AcDbEntity
  8
THICK
100
AcDbLine
 10
45.84464571414833
 20
-68.45397379269049
 30
0.0
 11
78.0799414097649
 21
-209.6860321538198
 31
0.0
1001
DBPROPERTIES
1002
{
1000
PbThick
1002
}
  0
LINE
  5
4CD
330
1F
100
AcDbEntity
  8
THICK
100
AcDbLine
 10
78.07994140976494
 20
-209.68603215382
 30
0.0
 11
76.70118513402132
 21
-210.0007242765329
 31
0.0
1001
DBPROPERTIES
1002
{
1000
PbThick
1002
}
  0
ELLIPSE
  5
4CE
330
1F
100
AcDbEntity
  8
HIDDEN
100
AcDbEllipse
 10
26.70251207475771
 20
-116.9913494618188
 30
0.0
 11
-24.47730273519457
 21
107.2420703400006
 31
0.0
210
0.0
220
0.0
230
1.0
 40
0.7071067811865476
 41
2.753106425406945
 42
3.141592653589793
1001
DBPROPERTIES
1002
{
1000
PbHidd
1002
}
  0
ELLIPSE
  5
4CF
330
1F
100
AcDbEntity
  8
THICK
100
AcDbEllipse
 10
26.70251207475771
 20
-116.9913494618188
 30
0.0
 11
-24.47730273519457
 21
107.2420703400006
 31
0.0
210
0.0
220
0.0
230
1.0
 40
0.7071067811865476
 41
3.141592653589793
 42
3.530078881772642
1001
DBPROPERTIES
1002
{
1000
PbThick
1002
}
  0
LINE
  5
4D0
330
1F
100
AcDbEntity
  8
THICK
100
AcDbLine
 10
-25.86856370375195
 20
-77.42456468891358
 30
0.0
 11
-116.3627708589408
 21
-190.9007112497528
 31
0.0
1001
DBPROPERTIES
1002
{
1000
PbThick
1002
}
  0
LINE
  5
4D1
330
1F
100
AcDbEntity
  8
THICK
100
AcDbLine
 10
-162.4326327754637
 20
-154.1612223418388
 30
0.0
 11
-72.39990870606977
 21
-41.26375726708861
 31
0.0
1001
DBPROPERTIES
1002
{
1000
PbThick
1002
}
  0
ELLIPSE
  5
4D2
330
1F
100
AcDbEntity
  8
THICK
100
AcDbEllipse
 10
-75.92445290904459
 20
-92.93803016237362
 30
0.0
 11
-68.58387820446072
 21
-86.00146307148327
 31
0.0
210
0.0
220
0.0
230
1.0
 40
0.7071067811865475
 41
0.0
 42
0.3884862281828485
1001
DBPROPERTIES
1002
{
1000
PbThick
1002
}
  0
ELLIPSE
  5
4D3
330
1F
100
AcDbEntity
  8
THICK
100
AcDbEllipse
 10
-75.92445290904459
 20
-92.93803016237362
 30
0.0
 11
-68.58387820446072
 21
-86.00146307148327
 31
0.0
210
0.0
220
0.0
230
1.0
 40
0.7071067811865475
 41
-0.3884862281828487
 42
0.0
1001
DBPROPERTIES
1002
{
1000
PbThick
1002
}
  0
LINE
  5
4D4
330
1F
100
AcDbEntity
  8
HIDDEN
100
AcDbLine
 10
-71.63670643123962
 20
-42.57495432914562
 30
0.0
 11
-161.3269560894671
 21
-155.0429700756288
 31
0.0
1001
DBPROPERTIES
1002
{
1000
PbHidd
1002
}
  0
LINE
  5
4D5
330
1F
100
AcDbEntity
  8
HIDDEN
100
AcDbLine
 10
-161.3269560894671
 20
-155.0429700756287
 30
0.0
 11
-162.4326327754637
 21
-154.1612223418388
 31
0.0
1001
DBPROPERTIES
1002
{
1000
PbHidd
1002
}
  0
LINE
  5
4D6
330
1F
100
AcDbEntity
  8
THICK
100
AcDbLine
 10
-24.93580273856872
 20
-78.52314187836177
 30
0.0
 11
-115.2570941729442
 21
-191.7824589835427
 31
0.0
1001
DBPROPERTIES
1002
{
1000
PbThick
1002
}
  0
LINE
  5
4D7
330
1F
100
AcDbEntity
  8
THICK
100
AcDbLine
 10
-115.2570941729442
 20
-191.7824589835427
 30
0.0
 11
-116.3627708589408
 21
-190.9007112497528
 31
0.0
1001
DBPROPERTIES
1002
{
1000
PbThick
1002
}
  0
ELLIPSE
  5
4D8
330
1F
100
AcDbEntity
  8
HIDDEN
100
AcDbEllipse
 10
-74.81877622304803
 20
-93.81977789616356
 30
0.0
 11
68.58387820446072
 21
86.00146307148327
 31
0.0
210
0.0
220
0.0
230
1.0
 40
0.7071067811865475
 41
2.753106425406945
 42
3.141592653589793
1001
DBPROPERTIES
1002
{
1000
PbHidd
1002
}
  0
ELLIPSE
  5
4D9
330
1F
100
AcDbEntity
  8
THICK
100
AcDbEllipse
 10
-74.81877622304803
 20
-93.81977789616356
 30
0.0
 11
68.58387820446072
 21
86.00146307148327
 31
0.0
210
0.0
220
0.0
230
1.0
 40
0.7071067811865475
 41
-3.141592653589793
 42
-2.753106425406945
1001
DBPROPERTIES
1002
{
1000
PbThick
1002
}
  0
LINE
  5
4DA
330
1F
100
AcDbEntity
  8
THICK
100
AcDbLine
 10
-76.66174784819752
 20
-28.04856898706637
 30
0.0
 11
-221.8031870271697
 21
-28.04856898706636
 31
0.0
1001
DBPROPERTIES
1002
{
1000
PbThick
1002
}
  0
LINE
  5
4DB
330
1F
100
AcDbEntity
  8
THICK
100
AcDbLine
 10
-221.8031870271697
 20
30.87699611181258
 30
0.0
 11
-77.40190925006667
 21
30.87699611181257
 31
0.0
1001
DBPROPERTIES
1002
{
1000
PbThick
1002
}
  0
ELLIPSE
  5
4DC
330
1F
100
AcDbEntity
  8
THICK
100
AcDbEllipse
 10
-120.0
 20
1.414213562373107
 30
0.0
 11
-110.0
 21
6.735334946023074E-15
 31
0.0
210
0.0
220
0.0
230
1.0
 40
0.7071067811865475
 41
0.0
 42
0.3884862281828484
1001
DBPROPERTIES
1002
{
1000
PbThick
1002
}
  0
ELLIPSE
  5
4DD
330
1F
100
AcDbEntity
  8
THICK
100
AcDbEllipse
 10
-120.0
 20
1.414213562373107
 30
0.0
 11
-110.0
 21
6.735334946023074E-15
 31
0.0
210
0.0
220
0.0
230
1.0
 40
0.7071067811865475
 41
-0.3884862281828485
 42
0.0
1001
DBPROPERTIES
1002
{
1000
PbThick
1002
}
  0
LINE
  5
4DE
330
1F
100
AcDbEntity
  8
HIDDEN
100
AcDbLine
 10
-77.95119555779044
 20
29.46278254943948
 30
0.0
 11
-221.8031870271697
 21
29.46278254943949
 31
0.0
1001
DBPROPERTIES
1002
{
1000
PbHidd
1002
}
  0
LINE
  5
4DF
330
1F
100
AcDbEntity
  8
HIDDEN
100
AcDbLine
 10
-221.8031870271697
 20
29.46278254943949
 30
0.0
 11
-221.8031870271697
 21
30.87699611181258
 31
0.0
1001
DBPROPERTIES
1002
{
1000
PbHidd
1002
}
  0
LINE
  5
4E0
330
1F
100
AcDbEntity
  8
THICK
100
AcDbLine
 10
-76.93908313146571
 20
-29.46278254943947
 30
0.0
 11
-221.8031870271697
 21
-29.46278254943946
 31
0.0
1001
DBPROPERTIES
1002
{
1000
PbThick
1002
}
  0
LINE
  5
4E1
330
1F
100
AcDbEntity
  8
THICK
100
AcDbLine
 10
-221.8031870271697
 20
-29.46278254943946
 30
0.0
 11
-221.8031870271697
 21
-28.04856898706636
 31
0.0
1001
DBPROPERTIES
1002
{
1000
PbThick
1002
}
  0
ELLIPSE
  5
4E2
330
1F
100
AcDbEntity
  8
HIDDEN
100
AcDbEllipse
 10
-120.0
 20
0.0000000000000121
 30
0.0
 11
110.0
 21
-6.735334946023074E-15
 31
0.0
210
0.0
220
0.0
230
1.0
 40
0.7071067811865475
 41
2.753106425406945
 42
3.141592653589793
1001
DBPROPERTIES
1002
{
1000
PbHidd
1002
}
  0
ELLIPSE
  5
4E3
330
1F
100
AcDbEntity
  8
THICK
100
AcDbEllipse
 10
-120.0
 20
0.0000000000000121
 30
0.0
 11
110.0
 21
-6.735334946023074E-15
 31
0.0
210
0.0
220
0.0
230
1.0
 40
0.7071067811865475
 41
3.141592653589793
 42
3.530078881772642
1001
DBPROPERTIES
1002
{
1000
PbThick
1002
}
  0
ARC
  5
4E4
330
1F
100
AcDbEntity
  8
HIDDEN
100
AcDbCircle
 10
0.0
 20
0.0
 30
0.0
 40
286.5
100
AcDbArc
 50
89.99998127603165
 51
179.9999801521572
1001
DBPROPERTIES
1002
{
1000
PbHidd
1002
}
  0
ARC
  5
4E5
330
1F
100
AcDbEntity
  8
HIDDEN
100
AcDbCircle
 10
0.0
 20
0.0
 30
0.0
 40
286.5
100
AcDbArc
 50
0.0
 51
89.99998127603165
1001
DBPROPERTIES
1002
{
1000
PbHidd
1002
}
  0
ARC
  5
4E6
330
1F
100
AcDbEntity
  8
THICK
100
AcDbCircle
 10
0.0000000000000007
 20
0.0000000000000013
 30
0.0
 40
297.5
100
AcDbArc
 50
180.0000198478428
 51
270.0000187239684
1001
DBPROPERTIES
1002
{
1000
PbThick
1002
}
  0
ARC
  5
4E7
330
1F
100
AcDbEntity
  8
THICK
100
AcDbCircle
 10
0.0000000000000007
 20
0.0000000000000013
 30
0.0
 40
297.5
100
AcDbArc
 50
270.0000187239684
 51
0.0
1001
DBPROPERTIES
1002
{
1000
PbThick
1002
}
  0
ARC
  5
4E8
330
1F
100
AcDbEntity
  8
THICK
100
AcDbCircle
 10
0.0000000000000007
 20
0.0000000000000013
 30
0.0
 40
297.5
100
AcDbArc
 50
0.0
 51
89.99998127603165
1001
DBPROPERTIES
1002
{
1000
PbThick
1002
}
  0
ARC
  5
4E9
330
1F
100
AcDbEntity
  8
HIDDEN
100
AcDbCircle
 10
0.0
 20
0.0
 30
0.0
 40
252.0
100
AcDbArc
 50
270.0000187239684
 51
89.99998127603165
1001
DBPROPERTIES
1002
{
1000
PbHidd
1002
}
  0
ARC
  5
4EA
330
1F
100
AcDbEntity
  8
HIDDEN
100
AcDbCircle
 10
0.0
 20
0.0
 30
0.0
 40
252.0
100
AcDbArc
 50
89.99998127603165
 51
270.0000187239684
1001
DBPROPERTIES
1002
{
1000
PbHidd
1002
}
  0
ARC
  5
4EB
330
1F
100
AcDbEntity
  8
THICK
100
AcDbCircle
 10
0.0000000000000007
 20
0.0000000000000013
 30
0.0
 40
297.5
100
AcDbArc
 50
89.99998127603165
 51
180.0000198478428
1001
DBPROPERTIES
1002
{
1000
PbThick
1002
}
  0
ARC
  5
4EC
330
1F
100
AcDbEntity
  8
HIDDEN
100
AcDbCircle
 10
0.0
 20
0.0
 30
0.0
 40
286.5
100
AcDbArc
 50
179.9999801521572
 51
0.0
1001
DBPROPERTIES
1002
{
1000
PbHidd
1002
}
  0
LINE
  5
4ED
330
1F
100
AcDbEntity
  8
THICK
100
AcDbLine
 10
-142.296978640257
 20
180.7029879847117
 30
0.0
 11
-143.4026521809253
 21
179.8212427592374
 31
0.0
1001
DBPROPERTIES
1002
{
1000
PbThick
1002
}
  0
LINE
  5
4EE
330
1F
100
AcDbEntity
  8
THICK
100
AcDbLine
 10
52.55857128792772
 20
223.9187276329484
 30
0.0
 11
51.17981479503207
 21
224.2334198052249
 31
0.0
1001
DBPROPERTIES
1002
{
1000
PbThick
1002
}
  0
LINE
  5
4EF
330
1F
100
AcDbEntity
  8
THICK
100
AcDbLine
 10
207.836444189448
 20
98.51909697447077
 30
0.0
 11
207.2228398528547
 21
99.7932595084363
 31
0.0
1001
DBPROPERTIES
1002
{
1000
PbThick
1002
}
  0
LINE
  5
4F0
330
1F
100
AcDbEntity
  8
THICK
100
AcDbLine
 10
206.6092355162614
 20
-101.0674220424019
 30
0.0
 11
207.2228398528547
 21
-99.79325950843638
 31
0.0
1001
DBPROPERTIES
1002
{
1000
PbThick
1002
}
  0
LINE
  5
4F1
330
1F
100
AcDbEntity
  8
THICK
100
AcDbLine
 10
49.80105845990644
 20
-224.5481119414913
 30
0.0
 11
51.17981479503201
 21
-224.2334198052248
 31
0.0
1001
DBPROPERTIES
1002
{
1000
PbThick
1002
}
  0
LINE
  5
4F2
330
1F
100
AcDbEntity
  8
THICK
100
AcDbLine
 10
-144.5083303851409
 20
-178.9394938147081
 30
0.0
 11
-143.4026521809253
 21
-179.8212427592373
 31
0.0
1001
DBPROPERTIES
1002
{
1000
PbThick
1002
}
  0
LINE
  5
4F3
330
1F
100
AcDbEntity
  8
THICK
100
AcDbLine
 10
-230.0
 20
1.414214313030259
 30
0.0
 11
-230.0
 21
0.0000000000000188
 31
0.0
1001
DBPROPERTIES
1002
{
1000
PbThick
1002
}
  0
ENDSEC
  0
SECTION
  2
OBJECTS
  0
DICTIONARY
  5
C
330
0
100
AcDbDictionary
  3
ACAD_GROUP
350
D
  3
ACAD_LAYOUT
350
1A
  3
ACAD_MATERIAL
350
43
  3
ACAD_MLEADERSTYLE
350
6B
  3
ACAD_MLINESTYLE
350
17
  3
ACAD_PLOTSETTINGS
350
19
  3
ACAD_SCALELIST
350
47
  3
ACAD_VISUALSTYLE
350
2A
  3
ACDBVARIABLEDICTIONARY
350
4F4
1001
ACAD
1000
TREAT_AS_HARD
1070
     0
  0
DICTIONARY
  5
D
102
{ACAD_REACTORS
330
C
102
}
330
C
100
AcDbDictionary
1001
ACAD
1000
TREAT_AS_HARD
1070
     0
  0
DICTIONARY
  5
1A
102
{ACAD_REACTORS
330
C
102
}
330
C
100
AcDbDictionary
1001
ACAD
1000
TREAT_AS_HARD
1070
     0
  0
DICTIONARY
  5
43
102
{ACAD_REACTORS
330
C
102
}
330
C
100
AcDbDictionary
  3
BYBLOCK
350
45
  3
BYLAYER
350
44
  3
GLOBAL
350
46
1001
ACAD
1000
TREAT_AS_HARD
1070
     0
  0
DICTIONARY
  5
6B
102
{ACAD_REACTORS
330
C
102
}
330
C
100
AcDbDictionary
  3
STANDARD
350
6C
1001
ACAD
1000
TREAT_AS_HARD
1070
     0
  0
DICTIONARY
  5
17
102
{ACAD_REACTORS
330
C
102
}
330
C
100
AcDbDictionary
  3
STANDARD
350
18
1001
ACAD
1000
TREAT_AS_HARD
1070
     0
  0
DICTIONARY
  5
19
102
{ACAD_REACTORS
330
C
102
}
330
C
100
AcDbDictionary
1001
ACAD
1000
TREAT_AS_HARD
1070
     0
  0
DICTIONARY
  5
47
102
{ACAD_REACTORS
330
C
102
}
330
C
100
AcDbDictionary
  3
A0
350
48
  3
A1
350
49
  3
A2
350
4A
  3
A3
350
4B
  3
A4
350
4C
  3
A5
350
4D
  3
A6
350
4E
  3
A7
350
4F
  3
A8
350
50
  3
A9
350
51
  3
B0
350
52
  3
B1
350
53
  3
B2
350
54
  3
B3
350
55
  3
B4
350
56
  3
B5
350
57
  3
B6
350
58
  3
B7
350
59
  3
B8
350
5A
  3
B9
350
5B
  3
C0
350
5C
  3
C1
350
5D
  3
C2
350
5E
  3
C3
350
5F
  3
C4
350
60
  3
C5
350
61
  3
C6
350
62
  3
C7
350
63
  3
C8
350
64
  3
C9
350
65
  3
D0
350
66
  3
D1
350
67
  3
D2
350
68
1001
ACAD
1000
TREAT_AS_HARD
1070
     0
  0
DICTIONARY
  5
2A
102
{ACAD_REACTORS
330
C
102
}
330
C
100
AcDbDictionary
  3
2DWIREFRAME
350
2F
  3
BASIC
350
32
  3
BRIGHTEN
350
36
  3
COLORCHANGE
350
3A
  3
CONCEPTUAL
350
34
  3
DIM
350
35
  3
EDGECOLOROFF
350
3D
  3
FACEPATTERN
350
39
  3
FLAT
350
2B
  3
FLATWITHEDGES
350
2C
  3
GOURAUD
350
2D
  3
GOURAUDWITHEDGES
350
2E
  3
HIDDEN
350
31
  3
JITTEROFF
350
3B
  3
LINEPATTERN
350
38
  3
OVERHANGOFF
350
3C
  3
REALISTIC
350
33
  3
SHADED
350
42
  3
SHADED_WITH_EDGES
350
41
  3
SHADES_OF_GRAY
350
3E
  3
SKETCHY
350
3F
  3
THICKEN
350
37
  3
WIREFRAME
350
30
  3
X-RAY
350
40
1001
ACAD
1000
TREAT_AS_HARD
1070
     0
  0
DICTIONARY
  5
4F4
102
{ACAD_REACTORS
330
C
102
}
330
C
100
AcDbDictionary
  3
CANNOSCALE
350
4FF
  3
CENTEREXE
350
4FB
  3
CENTERLTYPEFILE
350
4FC
  3
CMLEADERSTYLE
350
4F6
  3
CTABLESTYLE
350
4F5
  3
DIMASSOC
350
4FD
  3
HIDETEXT
350
4FE
  3
MSLTSCALE
350
500
  3
PSOLHEIGHT
350
4F8
  3
PSOLWIDTH
350
4F7
1001
ACAD
1000
TREAT_AS_HARD
1070
     0
  0
MATERIAL
  5
45
102
{ACAD_REACTORS
330
43
102
}
102
{ACAD_XDICTIONARY
360
503
102
}
330
43
100
AcDbMaterial
  1
BYBLOCK
  0
MATERIAL
  5
44
102
{ACAD_REACTORS
330
43
102
}
102
{ACAD_XDICTIONARY
360
501
102
}
330
43
100
AcDbMaterial
  1
BYLAYER
  0
MATERIAL
  5
46
102
{ACAD_REACTORS
330
43
102
}
102
{ACAD_XDICTIONARY
360
505
102
}
330
43
100
AcDbMaterial
  1
GLOBAL
  0
ACAD_PROXY_OBJECT
  5
6C
102
{ACAD_REACTORS
330
6B
102
}
330
6B
100
AcDbZombieObject
 90
      499
 91
      505
 93
      610
310
40901902A4063FBFFFFFE0000000000000020400000000000020404214DD185B99185C990000000000000104090141901A00000000000004100000000000000041025764000000000000039000
340
14
340
0
340
11
340
0
 94
        0
1001
ACAD_MLEADERVER
1070
     2
  0
MLINESTYLE
  5
18
102
{ACAD_REACTORS
330
17
102
}
330
17
100
AcDbMlineStyle
  2
Standard
 70
     0
  3

 62
   256
 51
90.0
 52
90.0
 71
     2
 49
0.5
 62
   256
  6
BYLAYER
 49
-0.5
 62
   256
  6
BYLAYER
  0
ACAD_PROXY_OBJECT
  5
48
102
{ACAD_REACTORS
330
47
102
}
330
47
100
AcDbZombieObject
 90
      499
 91
      503
 93
       41
310
903313A31580
  0
ACAD_PROXY_OBJECT
  5
49
102
{ACAD_REACTORS
330
47
102
}
330
47
100
AcDbZombieObject
 90
      499
 91
      503
 93
      105
310
903313A324000000000000004000
  0
ACAD_PROXY_OBJECT
  5
4A
102
{ACAD_REACTORS
330
47
102
}
330
47
100
AcDbZombieObject
 90
      499
 91
      503
 93
      105
310
903313A344000000000000104000
  0
ACAD_PROXY_OBJECT
  5
4B
102
{ACAD_REACTORS
330
47
102
}
330
47
100
AcDbZombieObject
 90
      499
 91
      503
 93
      105
310
903313A354000000000000144000
  0
ACAD_PROXY_OBJECT
  5
4C
102
{ACAD_REACTORS
330
47
102
}
330
47
100
AcDbZombieObject
 90
      499
 91
      503
 93
      105
310
903313A384000000000000204000
  0
ACAD_PROXY_OBJECT
  5
4D
102
{ACAD_REACTORS
330
47
102
}
330
47
100
AcDbZombieObject
 90
      499
 91
      503
 93
      113
310
904313A31304000000000000244000
  0
ACAD_PROXY_OBJECT
  5
4E
102
{ACAD_REACTORS
330
47
102
}
330
47
100
AcDbZombieObject
 90
      499
 91
      503
 93
      113
310
904313A31364000000000000304000
  0
ACAD_PROXY_OBJECT
  5
4F
102
{ACAD_REACTORS
330
47
102
}
330
47
100
AcDbZombieObject
 90
      499
 91
      503
 93
      113
310
904313A32304000000000000344000
  0
ACAD_PROXY_OBJECT
  5
50
102
{ACAD_REACTORS
330
47
102
}
330
47
100
AcDbZombieObject
 90
      499
 91
      503
 93
      113
310
904313A333040000000000003E4000
  0
ACAD_PROXY_OBJECT
  5
51
102
{ACAD_REACTORS
330
47
102
}
330
47
100
AcDbZombieObject
 90
      499
 91
      503
 93
      113
310
904313A34304000000000000444000
  0
ACAD_PROXY_OBJECT
  5
52
102
{ACAD_REACTORS
330
47
102
}
330
47
100
AcDbZombieObject
 90
      499
 91
      503
 93
      113
310
904313A35304000000000000494000
  0
ACAD_PROXY_OBJECT
  5
53
102
{ACAD_REACTORS
330
47
102
}
330
47
100
AcDbZombieObject
 90
      499
 91
      503
 93
      121
310
905313A3130304000000000000594000
  0
ACAD_PROXY_OBJECT
  5
54
102
{ACAD_REACTORS
330
47
102
}
330
47
100
AcDbZombieObject
 90
      499
 91
      503
 93
      105
310
903323A310000000000000010100
  0
ACAD_PROXY_OBJECT
  5
55
102
{ACAD_REACTORS
330
47
102
}
330
47
100
AcDbZombieObject
 90
      499
 91
      503
 93
      105
310
903343A310000000000000410100
  0
ACAD_PROXY_OBJECT
  5
56
102
{ACAD_REACTORS
330
47
102
}
330
47
100
AcDbZombieObject
 90
      499
 91
      503
 93
      105
310
903383A310000000000000810100
  0
ACAD_PROXY_OBJECT
  5
57
102
{ACAD_REACTORS
330
47
102
}
330
47
100
AcDbZombieObject
 90
      499
 91
      503
 93
      113
310
90431303A310000000000000910100
  0
ACAD_PROXY_OBJECT
  5
58
102
{ACAD_REACTORS
330
47
102
}
330
47
100
AcDbZombieObject
 90
      499
 91
      503
 93
      121
310
9053130303A310000000000001650100
  0
ACAD_PROXY_OBJECT
  5
59
102
{ACAD_REACTORS
330
47
102
}
330
47
100
AcDbZombieObject
 90
      499
 91
      503
 93
      257
310
90E312F31323822203D2031272D3022000000000000200FC000000000000284000
  0
ACAD_PROXY_OBJECT
  5
5A
102
{ACAD_REACTORS
330
47
102
}
330
47
100
AcDbZombieObject
 90
      499
 91
      503
 93
      249
310
90D312F363422203D2031272D3022000000000000240FC000000000000284000
  0
ACAD_PROXY_OBJECT
  5
5B
102
{ACAD_REACTORS
330
47
102
}
330
47
100
AcDbZombieObject
 90
      499
 91
      503
 93
      249
310
90D312F333222203D2031272D3022000000000000280FC000000000000284000
  0
ACAD_PROXY_OBJECT
  5
5C
102
{ACAD_REACTORS
330
47
102
}
330
47
100
AcDbZombieObject
 90
      499
 91
      503
 93
      249
310
90D312F313622203D2031272D30220000000000002C0FC000000000000284000
  0
ACAD_PROXY_OBJECT
  5
5D
102
{ACAD_REACTORS
330
47
102
}
330
47
100
AcDbZombieObject
 90
      499
 91
      503
 93
      249
310
90D332F333222203D2031272D30220000000000002E0FC000000000000284000
  0
ACAD_PROXY_OBJECT
  5
5E
102
{ACAD_REACTORS
330
47
102
}
330
47
100
AcDbZombieObject
 90
      499
 91
      503
 93
      241
310
90C312F3822203D2031272D3022000000000000300FC000000000000284000
  0
ACAD_PROXY_OBJECT
  5
5F
102
{ACAD_REACTORS
330
47
102
}
330
47
100
AcDbZombieObject
 90
      499
 91
      503
 93
      249
310
90D332F313622203D2031272D3022000000000000320FC000000000000284000
  0
ACAD_PROXY_OBJECT
  5
60
102
{ACAD_REACTORS
330
47
102
}
330
47
100
AcDbZombieObject
 90
      499
 91
      503
 93
      241
310
90C312F3422203D2031272D3022000000000000340FC000000000000284000
  0
ACAD_PROXY_OBJECT
  5
61
102
{ACAD_REACTORS
330
47
102
}
330
47
100
AcDbZombieObject
 90
      499
 91
      503
 93
      241
310
90C332F3822203D2031272D3022000000000000360FC000000000000284000
  0
ACAD_PROXY_OBJECT
  5
62
102
{ACAD_REACTORS
330
47
102
}
330
47
100
AcDbZombieObject
 90
      499
 91
      503
 93
      241
310
90C312F3222203D2031272D3022000000000000380FC000000000000284000
  0
ACAD_PROXY_OBJECT
  5
63
102
{ACAD_REACTORS
330
47
102
}
330
47
100
AcDbZombieObject
 90
      499
 91
      503
 93
      241
310
90C332F3422203D2031272D30220000000000003A0FC000000000000284000
  0
ACAD_PROXY_OBJECT
  5
64
102
{ACAD_REACTORS
330
47
102
}
330
47
100
AcDbZombieObject
 90
      499
 91
      503
 93
      161
310
90A3122203D2031272D30224000000000000284000
  0
ACAD_PROXY_OBJECT
  5
65
102
{ACAD_REACTORS
330
47
102
}
330
47
100
AcDbZombieObject
 90
      499
 91
      503
 93
      257
310
90E312D312F3222203D2031272D30220000000000003E0FC000000000000284000
  0
ACAD_PROXY_OBJECT
  5
66
102
{ACAD_REACTORS
330
47
102
}
330
47
100
AcDbZombieObject
 90
      499
 91
      503
 93
      225
310
90A3322203D2031272D302200000000000002100000000000000284000
  0
ACAD_PROXY_OBJECT
  5
67
102
{ACAD_REACTORS
330
47
102
}
330
47
100
AcDbZombieObject
 90
      499
 91
      503
 93
      225
310
90A3622203D2031272D302200000000000006100000000000000284000
  0
ACAD_PROXY_OBJECT
  5
68
102
{ACAD_REACTORS
330
47
102
}
330
47
100
AcDbZombieObject
 90
      499
 91
      503
 93
      249
310
90D31272D3022203D2031272D30220000000000000A100000000000000284000
  0
ACAD_PROXY_OBJECT
  5
2F
102
{ACAD_REACTORS
330
2A
102
}
330
2A
100
AcDbZombieObject
 90
      499
 91
      501
 93
      436
310
42CC9915DA5C99599C985B595049028333333333333E33F0000000000000F90107901411070040501600405405064090741402480A0340
1001
ACAD
1000
AcDbSavedByObjectVersion
1070
     0
  0
ACAD_PROXY_OBJECT
  5
32
102
{ACAD_REACTORS
330
2A
102
}
330
2A
100
AcDbZombieObject
 90
      499
 91
      501
 93
      388
310
4150985CDA58D07406404333333333333E33F0000000000000F90107A41107004050150841D405064090741402480A0350
1001
ACAD
1000
AcDbSavedByObjectVersion
1070
     0
  0
ACAD_PROXY_OBJECT
  5
36
102
{ACAD_REACTORS
330
2A
102
}
330
2A
100
AcDbZombieObject
 90
      499
 91
      501
 93
      428
310
42109C9A59DA1D195B90C409028333333333333E33F0000000000000F9010790141107004050150841D405064090741402480A029950
1001
ACAD
1000
AcDbSavedByObjectVersion
1070
     0
  0
ACAD_PROXY_OBJECT
  5
3A
102
{ACAD_REACTORS
330
2A
102
}
330
2A
100
AcDbZombieObject
 90
      499
 91
      501
 93
      452
310
42D0DBDB1BDC90DA185B99D95104090240C333333333333E33F0000000000000F90108901411070040501508421405064090741402480A0350
1001
ACAD
1000
AcDbSavedByObjectVersion
1070
     0
  0
ACAD_PROXY_OBJECT
  5
34
102
{ACAD_REACTORS
330
2A
102
}
330
2A
100
AcDbZombieObject
 90
      499
 91
      501
 93
      500
310
4290DBDB98D95C1D1D585B10940D028333333333333E33F0000000000000F90107902409070040501000000000018199010841D405064090740C02480A0340
1001
ACAD
1000
AcDbSavedByObjectVersion
1070
     0
  0
ACAD_PROXY_OBJECT
  5
35
102
{ACAD_REACTORS
330
2A
102
}
330
2A
100
AcDbZombieObject
 90
      499
 91
      501
 93
      412
310
40D11A5B50B409028333333333333E33F0000000000000F9010790141107004050150841D405064090741402480A02677FFFFFD0
1001
ACAD
1000
AcDbSavedByObjectVersion
1070
     0
  0
ACAD_PROXY_OBJECT
  5
3D
102
{ACAD_REACTORS
330
2A
102
}
330
2A
100
AcDbZombieObject
 90
      499
 91
      501
 93
      452
310
43115919D950DBDB1BDC93D999916409028333333333333E33F0000000000000F9010790141107004050150841D405064090741402480A0350
1001
ACAD
1000
AcDbSavedByObjectVersion
1070
     0
  0
ACAD_PROXY_OBJECT
  5
39
102
{ACAD_REACTORS
330
2A
102
}
330
2A
100
AcDbZombieObject
 90
      499
 91
      501
 93
      444
310
42D19858D95C185D1D195C9B90F409028333333333333E33F0000000000000F9010790141107004050150841D405064090741402480A0350
1001
ACAD
1000
AcDbSavedByObjectVersion
1070
     0
  0
ACAD_PROXY_OBJECT
  5
2B
102
{ACAD_REACTORS
330
2A
102
}
330
2A
100
AcDbZombieObject
 90
      499
 91
      501
 93
      380
310
41119B185D240901404333333333333E33F0000000000000F9010740A907004050150841D405064090741402480A1B50
1001
ACAD
1000
AcDbSavedByObjectVersion
1070
     0
  0
ACAD_PROXY_OBJECT
  5
2C
102
{ACAD_REACTORS
330
2A
102
}
330
2A
100
AcDbZombieObject
 90
      499
 91
      501
 93
      468
310
43519B185D15DA5D1A115919D95CD0140901404333333333333E33F0000000000000F90107409019070040501600405405064090741402480A1B50
1001
ACAD
1000
AcDbSavedByObjectVersion
1070
     0
  0
ACAD_PROXY_OBJECT
  5
2D
102
{ACAD_REACTORS
330
2A
102
}
330
2A
100
AcDbZombieObject
 90
      499
 91
      501
 93
      404
310
41D1DBDD5C985D5910240902404333333333333E33F0000000000000F9010740A9070040501641D405064090741402480A1B50
1001
ACAD
1000
AcDbSavedByObjectVersion
1070
     0
  0
ACAD_PROXY_OBJECT
  5
2E
102
{ACAD_REACTORS
330
2A
102
}
330
2A
100
AcDbZombieObject
 90
      499
 91
      501
 93
      492
310
4411DBDD5C985D5915DA5D1A115919D95CD0340902404333333333333E33F0000000000000F90107409019070040501600405405064090741402480A1B50
1001
ACAD
1000
AcDbSavedByObjectVersion
1070
     0
  0
ACAD_PROXY_OBJECT
  5
31
102
{ACAD_REACTORS
330
2A
102
}
330
2A
100
AcDbZombieObject
 90
      499
 91
      501
 93
      476
310
41921A5919195B90640502408333333333333E33F0000000000000F901079024090700405020000000000001110200405405064090740C02480A0340
1001
ACAD
1000
AcDbSavedByObjectVersion
1070
     0
  0
ACAD_PROXY_OBJECT
  5
3B
102
{ACAD_REACTORS
330
2A
102
}
330
2A
100
AcDbZombieObject
 90
      499
 91
      501
 93
      428
310
42529A5D1D195C93D999914409028333333333333E33F0000000000000F9010790141107004050150A41D405064090741402480A0350
1001
ACAD
1000
AcDbSavedByObjectVersion
1070
     0
  0
ACAD_PROXY_OBJECT
  5
38
102
{ACAD_REACTORS
330
2A
102
}
330
2A
100
AcDbZombieObject
 90
      499
 91
      501
 93
      444
310
42D31A5B995C185D1D195C9B90E409028333333333333E33F0000000000000F9010790141107004050750841D405064090741402483A0350
1001
ACAD
1000
AcDbSavedByObjectVersion
1070
     0
  0
ACAD_PROXY_OBJECT
  5
3C
102
{ACAD_REACTORS
330
2A
102
}
330
2A
100
AcDbZombieObject
 90
      499
 91
      501
 93
      444
310
42D3DD995C9A185B99D3D999915409028333333333333E33F0000000000000F9010790141107004050150941D405064090741402480A0350
1001
ACAD
1000
AcDbSavedByObjectVersion
1070
     0
  0
ACAD_PROXY_OBJECT
  5
33
102
{ACAD_REACTORS
330
2A
102
}
330
2A
100
AcDbZombieObject
 90
      499
 91
      501
 93
      428
310
425499585B1A5CDD1A58D08409038333333333333E33F0000000000000F9010740A907004050150800405405064090740C02480A1B40
1001
ACAD
1000
AcDbSavedByObjectVersion
1070
     0
  0
ACAD_PROXY_OBJECT
  5
42
102
{ACAD_REACTORS
330
2A
102
}
330
2A
100
AcDbZombieObject
 90
      499
 91
      501
 93
      420
310
4194DA1859195911B40902404333333333333E33F0000000000000F9010740A41107004050150800405405064090840C02480A0B40
1001
ACAD
1000
AcDbSavedByObjectVersion
1070
     0
  0
ACAD_PROXY_OBJECT
  5
41
102
{ACAD_REACTORS
330
2A
102
}
330
2A
100
AcDbZombieObject
 90
      499
 91
      501
 93
      516
310
4454DA18591959081DDA5D1A08195919D95CD1A40902404333333333333E33F0000000000000F901074090142907004050250800405405064090740C02480A0B40
1001
ACAD
1000
AcDbSavedByObjectVersion
1070
     0
  0
ACAD_PROXY_OBJECT
  5
3E
102
{ACAD_REACTORS
330
2A
102
}
330
2A
100
AcDbZombieObject
 90
      499
 91
      501
 93
      532
310
4394DA1859195CC81BD98811DC985E5174090240C333333333333E33F0000000000000F901079024090741D01000000000000111010841D405064090740C02480A0340
1001
ACAD
1000
AcDbSavedByObjectVersion
1070
     0
  0
ACAD_PROXY_OBJECT
  5
3F
102
{ACAD_REACTORS
330
2A
102
}
330
2A
100
AcDbZombieObject
 90
      499
 91
      501
 93
      476
310
41D4DAD95D18DA1E51840502408333333333333E33F0000000000000F901079024090741D01000000000000111010B41D405064090741802480A0340
1001
ACAD
1000
AcDbSavedByObjectVersion
1070
     0
  0
ACAD_PROXY_OBJECT
  5
37
102
{ACAD_REACTORS
330
2A
102
}
330
2A
100
AcDbZombieObject
 90
      499
 91
      501
 93
      412
310
41D51A1A58DAD95B90D409028333333333333E33F0000000000000F9010790141107004050150C41D405064090741402480A0350
1001
ACAD
1000
AcDbSavedByObjectVersion
1070
     0
  0
ACAD_PROXY_OBJECT
  5
30
102
{ACAD_REACTORS
330
2A
102
}
330
2A
100
AcDbZombieObject
 90
      499
 91
      501
 93
      420
310
4255DA5C99599C985B595059028333333333333E33F0000000000000F90107901411070040501600405405064090740C02480A0340
1001
ACAD
1000
AcDbSavedByObjectVersion
1070
     0
  0
ACAD_PROXY_OBJECT
  5
40
102
{ACAD_REACTORS
330
2A
102
}
330
2A
100
AcDbZombieObject
 90
      499
 91
      501
 93
      404
310
41560B54985E51940902404000000000000E03F0000000000000F9010740501907004050150841D405064090740C02480A1B40
1001
ACAD
1000
AcDbSavedByObjectVersion
1070
     0
  0
DICTIONARYVAR
  5
4FF
102
{ACAD_REACTORS
330
4F4
102
}
330
4F4
100
DictionaryVariables
280
     0
  1
1:1
  0
DICTIONARYVAR
  5
4FB
102
{ACAD_REACTORS
330
4F4
102
}
330
4F4
100
DictionaryVariables
280
     0
  1
3.500000
  0
DICTIONARYVAR
  5
4FC
102
{ACAD_REACTORS
330
4F4
102
}
330
4F4
100
DictionaryVariables
280
     0
  1
acadiso.lin
  0
DICTIONARYVAR
  5
4F6
102
{ACAD_REACTORS
330
4F4
102
}
330
4F4
100
DictionaryVariables
280
     0
  1
Standard
  0
DICTIONARYVAR
  5
4F5
102
{ACAD_REACTORS
330
4F4
102
}
330
4F4
100
DictionaryVariables
280
     0
  1
Standard
  0
DICTIONARYVAR
  5
4FD
102
{ACAD_REACTORS
330
4F4
102
}
330
4F4
100
DictionaryVariables
280
     0
  1
2
  0
DICTIONARYVAR
  5
4FE
102
{ACAD_REACTORS
330
4F4
102
}
330
4F4
100
DictionaryVariables
280
     0
  1
1
  0
DICTIONARYVAR
  5
500
102
{ACAD_REACTORS
330
4F4
102
}
330
4F4
100
DictionaryVariables
280
     0
  1
1
  0
DICTIONARYVAR
  5
4F8
102
{ACAD_REACTORS
330
4F4
102
}
330
4F4
100
DictionaryVariables
280
     0
  1
80.000000
  0
DICTIONARYVAR
  5
4F7
102
{ACAD_REACTORS
330
4F4
102
}
330
4F4
100
DictionaryVariables
280
     0
  1
5.000000
  0
DICTIONARY
  5
503
330
45
100
AcDbDictionary
  3
ACAD_XREC_ROUNDTRIP
360
504
1001
ACAD
1000
TREAT_AS_HARD
1070
     1
  0
DICTIONARY
  5
501
330
44
100
AcDbDictionary
  3
ACAD_XREC_ROUNDTRIP
360
502
1001
ACAD
1000
TREAT_AS_HARD
1070
     1
  0
DICTIONARY
  5
505
330
46
100
AcDbDictionary
  3
ACAD_XREC_ROUNDTRIP
360
506
1001
ACAD
1000
TREAT_AS_HARD
1070
     1
  0
XRECORD
  5
504
102
{ACAD_REACTORS
330
503
102
}
330
503
100
AcDbXrecord
102
MATERIAL
148
0.0
149
0.0
149
0.0
 93
        0
 94
      127
282
     0
 72
     1
 77
     1
171
     1
175
     1
179
     1
273
     0
  0
XRECORD
  5
502
102
{ACAD_REACTORS
330
501
102
}
330
501
100
AcDbXrecord
102
MATERIAL
148
0.0
149
0.0
149
0.0
 93
        0
 94
      127
282
     0
 72
     1
 77
     1
171
     1
175
     1
179
     1
273
     0
  0
XRECORD
  5
506
102
{ACAD_REACTORS
330
505
102
}
330
505
100
AcDbXrecord
102
MATERIAL
148
0.0
149
0.0
149
0.0
 93
        0
 94
      127
282
     0
 72
     1
 77
     1
171
     1
175
     1
179
     1
273
     0
  0
ENDSEC
  0
EOF
