  0
SECTION
  2
HEADER
  9
$ACADVER
  1
AC1012
  9
$DWGCODEPAGE
  3
ansi_1252
  9
$INSBASE
 10
0.0
 20
0.0
 30
0.0
  9
$EXTMIN
 10
1.000000000000000E+20
 20
1.000000000000000E+20
 30
1.000000000000000E+20
  9
$EXTMAX
 10
-1.000000000000000E+20
 20
-1.000000000000000E+20
 30
-1.000000000000000E+20
  9
$LIMMIN
 10
0.0
 20
0.0
  9
$LIMMAX
 10
420.0
 20
297.0
  9
$ORTHOMODE
 70
     0
  9
$REGENMODE
 70
     1
  9
$FILLMODE
 70
     1
  9
$QTEXTMODE
 70
     0
  9
$MIRRTEXT
 70
     1
  9
$DRAGMODE
 70
     2
  9
$LTSCALE
 40
1.0
  9
$OSMODE
 70
    37
  9
$ATTMODE
 70
     1
  9
$TEXTSIZE
 40
2.5
  9
$TRACEWID
 40
1.0
  9
$TEXTSTYLE
  7
STANDARD
  9
$CLAYER
  8
0
  9
$CELTYPE
  6
BYLAYER
  9
$CECOLOR
 62
   256
  9
$CELTSCALE
 40
1.0
  9
$DELOBJ
 70
     1
  9
$DISPSILH
 70
     0
  9
$DIMSCALE
 40
1.0
  9
$DIMASZ
 40
2.5
  9
$DIMEXO
 40
0.625
  9
$DIMDLI
 40
3.75
  9
$DIMRND
 40
0.0
  9
$DIMDLE
 40
0.0
  9
$DIMEXE
 40
1.25
  9
$DIMTP
 40
0.0
  9
$DIMTM
 40
0.0
  9
$DIMTXT
 40
2.5
  9
$DIMCEN
 40
2.5
  9
$DIMTSZ
 40
0.0
  9
$DIMTOL
 70
     0
  9
$DIMLIM
 70
     0
  9
$DIMTIH
 70
     0
  9
$DIMTOH
 70
     0
  9
$DIMSE1
 70
     0
  9
$DIMSE2
 70
     0
  9
$DIMTAD
 70
     1
  9
$DIMZIN
 70
     8
  9
$DIMBLK
  1

  9
$DIMASO
 70
     1
  9
$DIMSHO
 70
     1
  9
$DIMPOST
  1

  9
$DIMAPOST
  1

  9
$DIMALT
 70
     0
  9
$DIMALTD
 70
     3
  9
$DIMALTF
 40
0.03937007874016
  9
$DIMLFAC
 40
1.0
  9
$DIMTOFL
 70
     1
  9
$DIMTVP
 40
0.0
  9
$DIMTIX
 70
     0
  9
$DIMSOXD
 70
     0
  9
$DIMSAH
 70
     0
  9
$DIMBLK1
  1

  9
$DIMBLK2
  1

  9
$DIMSTYLE
  2
ISO-25
  9
$DIMCLRD
 70
     0
  9
$DIMCLRE
 70
     0
  9
$DIMCLRT
 70
     0
  9
$DIMTFAC
 40
1.0
  9
$DIMGAP
 40
0.625
  9
$DIMJUST
 70
     0
  9
$DIMSD1
 70
     0
  9
$DIMSD2
 70
     0
  9
$DIMTOLJ
 70
     0
  9
$DIMTZIN
 70
     8
  9
$DIMALTZ
 70
     0
  9
$DIMALTTZ
 70
     0
  9
$DIMFIT
 70
     3
  9
$DIMUPT
 70
     0
  9
$DIMUNIT
 70
     2
  9
$DIMDEC
 70
     2
  9
$DIMTDEC
 70
     2
  9
$DIMALTU
 70
     2
  9
$DIMALTTD
 70
     3
  9
$DIMTXSTY
  7
STANDARD
  9
$DIMAUNIT
 70
     0
  9
$LUNITS
 70
     2
  9
$LUPREC
 70
     4
  9
$SKETCHINC
 40
1.0
  9
$FILLETRAD
 40
10.0
  9
$AUNITS
 70
     0
  9
$AUPREC
 70
     0
  9
$MENU
  1
.
  9
$ELEVATION
 40
0.0
  9
$PELEVATION
 40
0.0
  9
$THICKNESS
 40
0.0
  9
$LIMCHECK
 70
     0
  9
$CHAMFERA
 40
0.0
  9
$CHAMFERB
 40
0.0
  9
$CHAMFERC
 40
0.0
  9
$CHAMFERD
 40
0.0
  9
$SKPOLY
 70
     0
  9
$TDCREATE
 40
2458001.488476783
  9
$TDUPDATE
 40
2458001.488479132
  9
$TDINDWG
 40
0.0000000116
  9
$TDUSRTIMER
 40
0.0000000116
  9
$USRTIMER
 70
     1
  9
$ANGBASE
 50
0.0
  9
$ANGDIR
 70
     0
  9
$PDMODE
 70
     0
  9
$PDSIZE
 40
0.0
  9
$PLINEWID
 40
0.0
  9
$COORDS
 70
     1
  9
$SPLFRAME
 70
     0
  9
$SPLINETYPE
 70
     6
  9
$SPLINESEGS
 70
     8
  9
$ATTDIA
 70
     0
  9
$ATTREQ
 70
     1
  9
$HANDLING
 70
     1
  9
$HANDSEED
  5
499
  9
$SURFTAB1
 70
     6
  9
$SURFTAB2
 70
     6
  9
$SURFTYPE
 70
     6
  9
$SURFU
 70
     6
  9
$SURFV
 70
     6
  9
$UCSNAME
  2

  9
$UCSORG
 10
0.0
 20
0.0
 30
0.0
  9
$UCSXDIR
 10
1.0
 20
0.0
 30
0.0
  9
$UCSYDIR
 10
0.0
 20
1.0
 30
0.0
  9
$PUCSNAME
  2

  9
$PUCSORG
 10
0.0
 20
0.0
 30
0.0
  9
$PUCSXDIR
 10
1.0
 20
0.0
 30
0.0
  9
$PUCSYDIR
 10
0.0
 20
1.0
 30
0.0
  9
$USERI1
 70
     0
  9
$USERI2
 70
     0
  9
$USERI3
 70
     0
  9
$USERI4
 70
     0
  9
$USERI5
 70
     0
  9
$USERR1
 40
0.0
  9
$USERR2
 40
0.0
  9
$USERR3
 40
0.0
  9
$USERR4
 40
0.0
  9
$USERR5
 40
0.0
  9
$WORLDVIEW
 70
     1
  9
$SHADEDGE
 70
     3
  9
$SHADEDIF
 70
    70
  9
$TILEMODE
 70
     1
  9
$MAXACTVP
 70
    64
  9
$PINSBASE
 10
0.0
 20
0.0
 30
0.0
  9
$PLIMCHECK
 70
     0
  9
$PEXTMIN
 10
1.000000000000000E+20
 20
1.000000000000000E+20
 30
1.000000000000000E+20
  9
$PEXTMAX
 10
-1.000000000000000E+20
 20
-1.000000000000000E+20
 30
-1.000000000000000E+20
  9
$PLIMMIN
 10
0.0
 20
0.0
  9
$PLIMMAX
 10
420.0
 20
297.0
  9
$UNITMODE
 70
     0
  9
$VISRETAIN
 70
     1
  9
$PLINEGEN
 70
     0
  9
$PSLTSCALE
 70
     1
  9
$TREEDEPTH
 70
  3020
  9
$PICKSTYLE
 70
     1
  9
$CMLSTYLE
  2
STANDARD
  9
$CMLJUST
 70
     0
  9
$CMLSCALE
 40
20.0
  9
$SAVEIMAGES
 70
     1
  0
ENDSEC
  0
SECTION
  2
CLASSES
  0
CLASS
  1
ACDBDICTIONARYWDFLT
  2
AcDbDictionaryWithDefault
  3
ObjectDBX Classes
 90
    32768
280
     0
281
     0
  0
CLASS
  1
VISUALSTYLE
  2
AcDbVisualStyle
  3
ObjectDBX Classes
 90
     4095
280
     0
281
     0
  0
CLASS
  1
MATERIAL
  2
AcDbMaterial
  3
ObjectDBX Classes
 90
     1153
280
     0
281
     0
  0
CLASS
  1
SCALE
  2
AcDbScale
  3
ObjectDBX Classes
 90
     1153
280
     0
281
     0
  0
CLASS
  1
TABLESTYLE
  2
AcDbTableStyle
  3
ObjectDBX Classes
 90
     4095
280
     0
281
     0
  0
CLASS
  1
MLEADERSTYLE
  2
AcDbMLeaderStyle
  3
ACDB_MLEADERSTYLE_CLASS
 90
     4095
280
     0
281
     0
  0
CLASS
  1
SUN
  2
AcDbSun
  3
SCENEOE
 90
     1153
280
     0
281
     0
  0
CLASS
  1
DICTIONARYVAR
  2
AcDbDictionaryVar
  3
ObjectDBX Classes
 90
        0
280
     0
281
     0
  0
CLASS
  1
XRECORD
  2
AcDbXrecord
  3
ObjectDBX Classes
 90
    32768
280
     0
281
     0
  0
CLASS
  1
LWPOLYLINE
  2
AcDbPolyline
  3
ObjectDBX Classes
 90
    32768
280
     0
281
     1
  0
CLASS
  1
HATCH
  2
AcDbHatch
  3
ObjectDBX Classes
 90
    32768
280
     0
281
     1
  0
CLASS
  1
ACDBPLACEHOLDER
  2
AcDbPlaceHolder
  3
ObjectDBX Classes
 90
        0
280
     0
281
     0
  0
CLASS
  1
LAYOUT
  2
AcDbLayout
  3
ObjectDBX Classes
 90
        0
280
     0
281
     0
  0
ENDSEC
  0
SECTION
  2
TABLES
  0
TABLE
  2
VPORT
  5
8
330
0
100
AcDbSymbolTable
 70
     1
  0
VPORT
  5
29
330
8
100
AcDbSymbolTableRecord
100
AcDbViewportTableRecord
  2
*ACTIVE
 70
     0
 10
0.0
 20
0.0
 11
1.0
 21
1.0
 12
-0.0000000000000568
 22
-39.99999999999994
 13
0.0
 23
0.0
 14
10.0
 24
10.0
 15
10.0
 25
10.0
 16
0.0
 26
0.0
 36
1.0
 17
0.0
 27
0.0
 37
0.0
 40
958.8000000000002
 41
1.085106382978723
 42
50.0
 43
0.0
 44
0.0
 50
0.0
 51
0.0
 71
     0
 72
   100
 73
     1
 74
     3
 75
     0
 76
     0
 77
     0
 78
     0
  0
ENDTAB
  0
TABLE
  2
LTYPE
  5
5
330
0
100
AcDbSymbolTable
 70
     1
  0
LTYPE
  5
14
330
5
100
AcDbSymbolTableRecord
100
AcDbLinetypeTableRecord
  2
BYBLOCK
 70
     0
  3

 72
    65
 73
     0
 40
0.0
  0
LTYPE
  5
15
330
5
100
AcDbSymbolTableRecord
100
AcDbLinetypeTableRecord
  2
BYLAYER
 70
     0
  3

 72
    65
 73
     0
 40
0.0
  0
LTYPE
  5
16
330
5
100
AcDbSymbolTableRecord
100
AcDbLinetypeTableRecord
  2
CONTINUOUS
 70
     0
  3
Solid line
 72
    65
 73
     0
 40
0.0
  0
ENDTAB
  0
TABLE
  2
LAYER
  5
2
330
0
100
AcDbSymbolTable
 70
     4
  0
LAYER
  5
10
330
2
100
AcDbSymbolTableRecord
100
AcDbLayerTableRecord
  2
0
 70
     0
 62
     7
  6
CONTINUOUS
  0
LAYER
  5
6E
330
2
100
AcDbSymbolTableRecord
100
AcDbLayerTableRecord
  2
THICK
 70
     0
 62
     7
  6
CONTINUOUS
  0
LAYER
  5
6F
330
2
100
AcDbSymbolTableRecord
100
AcDbLayerTableRecord
  2
HIDDEN
 70
     0
 62
     7
  6
CONTINUOUS
  0
LAYER
  5
70
330
2
100
AcDbSymbolTableRecord
100
AcDbLayerTableRecord
  2
HASHLINES
 70
     0
 62
     7
  6
CONTINUOUS
  0
ENDTAB
  0
TABLE
  2
STYLE
  5
3
330
0
100
AcDbSymbolTable
 70
     1
  0
STYLE
  5
11
330
3
100
AcDbSymbolTableRecord
100
AcDbTextStyleTableRecord
  2
STANDARD
 70
     0
 40
0.0
 41
1.0
 50
0.0
 71
     0
 42
2.5
  3
txt
  4

  0
ENDTAB
  0
TABLE
  2
VIEW
  5
6
330
0
100
AcDbSymbolTable
 70
     0
  0
ENDTAB
  0
TABLE
  2
UCS
  5
7
330
0
100
AcDbSymbolTable
 70
     0
  0
ENDTAB
  0
TABLE
  2
APPID
  5
9
330
0
100
AcDbSymbolTable
 70
     3
  0
APPID
  5
12
330
9
100
AcDbSymbolTableRecord
100
AcDbRegAppTableRecord
  2
ACAD
 70
     0
  0
APPID
  5
71
330
9
100
AcDbSymbolTableRecord
100
AcDbRegAppTableRecord
  2
DBPROPERTIES
 70
     0
  0
APPID
  5
498
330
9
100
AcDbSymbolTableRecord
100
AcDbRegAppTableRecord
  2
ACAD_MLEADERVER
 70
     0
  0
ENDTAB
  0
TABLE
  2
DIMSTYLE
  5
A
330
0
100
AcDbSymbolTable
 70
     1
  0
DIMSTYLE
105
27
330
A
100
AcDbSymbolTableRecord
100
AcDbDimStyleTableRecord
  2
ISO-25
 70
     0
  3

  4

  5

  6

  7

 40
1.0
 41
2.5
 42
0.625
 43
3.75
 44
1.25
 45
0.0
 46
0.0
 47
0.0
 48
0.0
140
2.5
141
2.5
142
0.0
143
0.03937007874016
144
1.0
145
0.0
146
1.0
147
0.625
 71
     0
 72
     0
 73
     0
 74
     0
 75
     0
 76
     0
 77
     1
 78
     8
170
     0
171
     3
172
     1
173
     0
174
     0
175
     0
176
     0
177
     0
178
     0
270
     2
271
     2
272
     2
273
     2
274
     3
340
11
275
     0
280
     0
281
     0
282
     0
283
     0
284
     8
285
     0
286
     0
287
     3
288
     0
  0
ENDTAB
  0
TABLE
  2
BLOCK_RECORD
  5
1
330
0
100
AcDbSymbolTable
 70
     0
  0
BLOCK_RECORD
  5
1F
330
1
100
AcDbSymbolTableRecord
100
AcDbBlockTableRecord
  2
*MODEL_SPACE
  0
BLOCK_RECORD
  5
1B
330
1
100
AcDbSymbolTableRecord
100
AcDbBlockTableRecord
  2
*PAPER_SPACE
  0
ENDTAB
  0
ENDSEC
  0
SECTION
  2
BLOCKS
  0
BLOCK
  5
20
330
1F
100
AcDbEntity
  8
0
100
AcDbBlockBegin
  2
*MODEL_SPACE
 70
     0
 10
0.0
 20
0.0
 30
0.0
  3
*MODEL_SPACE
  1

  0
ENDBLK
  5
21
330
1F
100
AcDbEntity
  8
0
100
AcDbBlockEnd
  0
BLOCK
  5
1C
330
1B
100
AcDbEntity
 67
     1
  8
0
100
AcDbBlockBegin
  2
*PAPER_SPACE
 70
     0
 10
0.0
 20
0.0
 30
0.0
  3
*PAPER_SPACE
  1

  0
ENDBLK
  5
1D
330
1B
100
AcDbEntity
 67
     1
  8
0
100
AcDbBlockEnd
  0
ENDSEC
  0
SECTION
  2
ENTITIES
  0
LINE
  5
72
330
1F
100
AcDbEntity
  8
HIDDEN
100
AcDbLine
 10
-422.0000000000001
 20
430.0
 30
0.0
 11
-421.9999999999999
 21
430.0
 31
0.0
1001
DBPROPERTIES
1002
{
1000
PbHidd
1002
}
  0
LINE
  5
73
330
1F
100
AcDbEntity
  8
THICK
100
AcDbLine
 10
422.0
 20
430.0
 30
0.0
 11
-422.0000000000001
 21
430.0
 31
0.0
1001
DBPROPERTIES
1002
{
1000
PbThick
1002
}
  0
LINE
  5
74
330
1F
100
AcDbEntity
  8
HIDDEN
100
AcDbLine
 10
422.0000000000001
 20
430.0
 30
0.0
 11
422.0
 21
430.0
 31
0.0
1001
DBPROPERTIES
1002
{
1000
PbHidd
1002
}
  0
LINE
  5
75
330
1F
100
AcDbEntity
  8
THICK
100
AcDbLine
 10
485.0
 20
250.0
 30
0.0
 11
430.0
 21
250.0
 31
0.0
1001
DBPROPERTIES
1002
{
1000
PbThick
1002
}
  0
LINE
  5
76
330
1F
100
AcDbEntity
  8
THICK
100
AcDbLine
 10
430.0
 20
-250.0
 30
0.0
 11
485.0
 21
-250.0
 31
0.0
1001
DBPROPERTIES
1002
{
1000
PbThick
1002
}
  0
LINE
  5
77
330
1F
100
AcDbEntity
  8
THICK
100
AcDbLine
 10
-485.0
 20
250.0
 30
0.0
 11
-430.0
 21
250.0
 31
0.0
1001
DBPROPERTIES
1002
{
1000
PbThick
1002
}
  0
LINE
  5
78
330
1F
100
AcDbEntity
  8
THICK
100
AcDbLine
 10
-485.0
 20
-250.0
 30
0.0
 11
-485.0
 21
250.0
 31
0.0
1001
DBPROPERTIES
1002
{
1000
PbThick
1002
}
  0
LINE
  5
79
330
1F
100
AcDbEntity
  8
THICK
100
AcDbLine
 10
-430.0
 20
-250.0
 30
0.0
 11
-485.0
 21
-250.0
 31
0.0
1001
DBPROPERTIES
1002
{
1000
PbThick
1002
}
  0
LINE
  5
7A
330
1F
100
AcDbEntity
  8
HIDDEN
100
AcDbLine
 10
422.0
 20
246.0
 30
0.0
 11
485.0
 21
246.0
 31
0.0
1001
DBPROPERTIES
1002
{
1000
PbHidd
1002
}
  0
LINE
  5
7B
330
1F
100
AcDbEntity
  8
HIDDEN
100
AcDbLine
 10
485.0
 20
-246.0
 30
0.0
 11
422.0
 21
-246.0
 31
0.0
1001
DBPROPERTIES
1002
{
1000
PbHidd
1002
}
  0
LINE
  5
7C
330
1F
100
AcDbEntity
  8
HIDDEN
100
AcDbLine
 10
-422.0
 20
246.0
 30
0.0
 11
-485.0
 21
246.0
 31
0.0
1001
DBPROPERTIES
1002
{
1000
PbHidd
1002
}
  0
LINE
  5
7D
330
1F
100
AcDbEntity
  8
HIDDEN
100
AcDbLine
 10
-485.0
 20
-246.0
 30
0.0
 11
-422.0
 21
-246.0
 31
0.0
1001
DBPROPERTIES
1002
{
1000
PbHidd
1002
}
  0
LINE
  5
7E
330
1F
100
AcDbEntity
  8
HIDDEN
100
AcDbLine
 10
-352.0
 20
344.0
 30
0.0
 11
-344.0
 21
344.0
 31
0.0
1001
DBPROPERTIES
1002
{
1000
PbHidd
1002
}
  0
LINE
  5
7F
330
1F
100
AcDbEntity
  8
HIDDEN
100
AcDbLine
 10
-352.0
 20
-344.0
 30
0.0
 11
-352.0
 21
344.0
 31
0.0
1001
DBPROPERTIES
1002
{
1000
PbHidd
1002
}
  0
LINE
  5
80
330
1F
100
AcDbEntity
  8
HIDDEN
100
AcDbLine
 10
-344.0
 20
-344.0
 30
0.0
 11
-352.0
 21
-344.0
 31
0.0
1001
DBPROPERTIES
1002
{
1000
PbHidd
1002
}
  0
LINE
  5
81
330
1F
100
AcDbEntity
  8
THICK
100
AcDbLine
 10
-344.0
 20
-262.4787362770868
 30
0.0
 11
-8.0
 21
-262.4787362770868
 31
0.0
1001
DBPROPERTIES
1002
{
1000
PbThick
1002
}
  0
LINE
  5
82
330
1F
100
AcDbEntity
  8
HIDDEN
100
AcDbLine
 10
-8.0
 20
-344.0
 30
0.0
 11
-8.00000000000001
 21
-299.9999939659226
 31
0.0
1001
DBPROPERTIES
1002
{
1000
PbHidd
1002
}
  0
LINE
  5
83
330
1F
100
AcDbEntity
  8
THICK
100
AcDbLine
 10
-8.00000000000001
 20
-299.9999939659226
 30
0.0
 11
-8.000000000000014
 21
-262.4787362770869
 31
0.0
1001
DBPROPERTIES
1002
{
1000
PbThick
1002
}
  0
LINE
  5
84
330
1F
100
AcDbEntity
  8
THICK
100
AcDbLine
 10
0.0
 20
344.0
 30
0.0
 11
-0.0000000000000103
 21
-299.9999997845363
 31
0.0
1001
DBPROPERTIES
1002
{
1000
PbThick
1002
}
  0
LINE
  5
85
330
1F
100
AcDbEntity
  8
HIDDEN
100
AcDbLine
 10
-0.0000000000000103
 20
-299.9999997845363
 30
0.0
 11
0.0
 21
-344.0
 31
0.0
1001
DBPROPERTIES
1002
{
1000
PbHidd
1002
}
  0
LINE
  5
86
330
1F
100
AcDbEntity
  8
THICK
100
AcDbLine
 10
-8.0
 20
344.0
 30
0.0
 11
-8.00000000000002
 21
138.328
 31
0.0
1001
DBPROPERTIES
1002
{
1000
PbThick
1002
}
  0
LINE
  5
87
330
1F
100
AcDbEntity
  8
THICK
100
AcDbLine
 10
-8.000000000000028
 20
138.328
 30
0.0
 11
-344.0
 21
138.328
 31
0.0
1001
DBPROPERTIES
1002
{
1000
PbThick
1002
}
  0
LINE
  5
88
330
1F
100
AcDbEntity
  8
THICK
100
AcDbLine
 10
-8.0
 20
-256.8014171129155
 30
0.0
 11
-344.0
 21
-256.8014171129155
 31
0.0
1001
DBPROPERTIES
1002
{
1000
PbThick
1002
}
  0
LINE
  5
89
330
1F
100
AcDbEntity
  8
THICK
100
AcDbLine
 10
-344.0000000000001
 20
130.36
 30
0.0
 11
-8.000000000000028
 21
130.36
 31
0.0
1001
DBPROPERTIES
1002
{
1000
PbThick
1002
}
  0
LINE
  5
8A
330
1F
100
AcDbEntity
  8
THICK
100
AcDbLine
 10
-8.000000000000014
 20
-256.8014171129155
 30
0.0
 11
-8.00000000000002
 21
130.36
 31
0.0
1001
DBPROPERTIES
1002
{
1000
PbThick
1002
}
  0
LINE
  5
8B
330
1F
100
AcDbEntity
  8
HIDDEN
100
AcDbLine
 10
-346.0
 20
296.0
 30
0.0
 11
-346.0000000000001
 21
-0.0000000000000181
 31
0.0
1001
DBPROPERTIES
1002
{
1000
PbHidd
1002
}
  0
LINE
  5
8C
330
1F
100
AcDbEntity
  8
THICK
100
AcDbLine
 10
-342.0
 20
269.4646275451631
 30
0.0
 11
-343.9999999999998
 21
269.4646275451631
 31
0.0
1001
DBPROPERTIES
1002
{
1000
PbThick
1002
}
  0
LINE
  5
8D
330
1F
100
AcDbEntity
  8
THICK
100
AcDbLine
 10
-343.9999999999999
 20
273.6873816300253
 30
0.0
 11
-341.9999999999999
 21
273.6873816300253
 31
0.0
1001
DBPROPERTIES
1002
{
1000
PbThick
1002
}
  0
LINE
  5
8E
330
1F
100
AcDbEntity
  8
THICK
100
AcDbLine
 10
-342.0
 20
199.768
 30
0.0
 11
-343.9999999999999
 21
199.768
 31
0.0
1001
DBPROPERTIES
1002
{
1000
PbThick
1002
}
  0
LINE
  5
8F
330
1F
100
AcDbEntity
  8
HIDDEN
100
AcDbLine
 10
-342.0000000000001
 20
191.7999999999999
 30
0.0
 11
-342.0000000000001
 21
199.768
 31
0.0
1001
DBPROPERTIES
1002
{
1000
PbHidd
1002
}
  0
LINE
  5
90
330
1F
100
AcDbEntity
  8
HIDDEN
100
AcDbLine
 10
-344.0000000000001
 20
191.8
 30
0.0
 11
-341.9999999999999
 21
191.8
 31
0.0
1001
DBPROPERTIES
1002
{
1000
PbHidd
1002
}
  0
LINE
  5
91
330
1F
100
AcDbEntity
  8
HIDDEN
100
AcDbLine
 10
-422.0
 20
249.6585365853659
 30
0.0
 11
-422.0000000000001
 21
0.0000000000000505
 31
0.0
1001
DBPROPERTIES
1002
{
1000
PbHidd
1002
}
  0
LINE
  5
92
330
1F
100
AcDbEntity
  8
THICK
100
AcDbLine
 10
215.0
 20
0.0000000000000098
 30
0.0
 11
215.0
 21
-27.83882181415009
 31
0.0
1001
DBPROPERTIES
1002
{
1000
PbThick
1002
}
  0
LINE
  5
93
330
1F
100
AcDbEntity
  8
THICK
100
AcDbLine
 10
205.0
 20
-5.945535182952881
 30
0.0
 11
205.4303131103516
 21
-5.936792373657227
 31
0.0
1001
DBPROPERTIES
1002
{
1000
PbThick
1002
}
  0
LINE
  5
94
330
1F
100
AcDbEntity
  8
THICK
100
AcDbLine
 10
205.4303131103516
 20
-5.936792373657227
 30
0.0
 11
205.8731079101562
 21
-5.909634113311768
 31
0.0
1001
DBPROPERTIES
1002
{
1000
PbThick
1002
}
  0
LINE
  5
95
330
1F
100
AcDbEntity
  8
THICK
100
AcDbLine
 10
205.8731079101562
 20
-5.909634113311768
 30
0.0
 11
206.3218536376953
 21
-5.862986087799072
 31
0.0
1001
DBPROPERTIES
1002
{
1000
PbThick
1002
}
  0
LINE
  5
96
330
1F
100
AcDbEntity
  8
THICK
100
AcDbLine
 10
206.3218536376953
 20
-5.862986087799072
 30
0.0
 11
206.7702331542969
 21
-5.796984195709229
 31
0.0
1001
DBPROPERTIES
1002
{
1000
PbThick
1002
}
  0
LINE
  5
97
330
1F
100
AcDbEntity
  8
THICK
100
AcDbLine
 10
206.7702331542969
 20
-5.796984195709229
 30
0.0
 11
207.2122344970703
 21
-5.712358474731445
 31
0.0
1001
DBPROPERTIES
1002
{
1000
PbThick
1002
}
  0
LINE
  5
98
330
1F
100
AcDbEntity
  8
THICK
100
AcDbLine
 10
207.2122344970703
 20
-5.712358474731445
 30
0.0
 11
207.6422271728516
 21
-5.610978126525879
 31
0.0
1001
DBPROPERTIES
1002
{
1000
PbThick
1002
}
  0
LINE
  5
99
330
1F
100
AcDbEntity
  8
THICK
100
AcDbLine
 10
207.6422271728516
 20
-5.610978126525879
 30
0.0
 11
208.0546875
 21
-5.495298385620117
 31
0.0
1001
DBPROPERTIES
1002
{
1000
PbThick
1002
}
  0
LINE
  5
9A
330
1F
100
AcDbEntity
  8
THICK
100
AcDbLine
 10
208.0546875
 20
-5.495298385620117
 30
0.0
 11
208.4447631835938
 21
-5.368712902069092
 31
0.0
1001
DBPROPERTIES
1002
{
1000
PbThick
1002
}
  0
LINE
  5
9B
330
1F
100
AcDbEntity
  8
THICK
100
AcDbLine
 10
208.4447631835938
 20
-5.368712902069092
 30
0.0
 11
208.8265991210938
 21
-5.227720260620117
 31
0.0
1001
DBPROPERTIES
1002
{
1000
PbThick
1002
}
  0
LINE
  5
9C
330
1F
100
AcDbEntity
  8
THICK
100
AcDbLine
 10
208.8265991210938
 20
-5.227720260620117
 30
0.0
 11
209.2086181640625
 21
-5.06902551651001
 31
0.0
1001
DBPROPERTIES
1002
{
1000
PbThick
1002
}
  0
LINE
  5
9D
330
1F
100
AcDbEntity
  8
THICK
100
AcDbLine
 10
209.2086181640625
 20
-5.06902551651001
 30
0.0
 11
209.5862731933594
 21
-4.893575668334961
 31
0.0
1001
DBPROPERTIES
1002
{
1000
PbThick
1002
}
  0
LINE
  5
9E
330
1F
100
AcDbEntity
  8
THICK
100
AcDbLine
 10
209.5862731933594
 20
-4.893575668334961
 30
0.0
 11
209.9556732177734
 21
-4.703018665313721
 31
0.0
1001
DBPROPERTIES
1002
{
1000
PbThick
1002
}
  0
LINE
  5
9F
330
1F
100
AcDbEntity
  8
THICK
100
AcDbLine
 10
209.9556732177734
 20
-4.703018665313721
 30
0.0
 11
210.3132476806641
 21
-4.499310970306396
 31
0.0
1001
DBPROPERTIES
1002
{
1000
PbThick
1002
}
  0
LINE
  5
A0
330
1F
100
AcDbEntity
  8
THICK
100
AcDbLine
 10
210.3132476806641
 20
-4.499310970306396
 30
0.0
 11
210.6560363769531
 21
-4.2847900390625
 31
0.0
1001
DBPROPERTIES
1002
{
1000
PbThick
1002
}
  0
LINE
  5
A1
330
1F
100
AcDbEntity
  8
THICK
100
AcDbLine
 10
210.6560363769531
 20
-4.2847900390625
 30
0.0
 11
210.9814147949219
 21
-4.062247753143311
 31
0.0
1001
DBPROPERTIES
1002
{
1000
PbThick
1002
}
  0
LINE
  5
A2
330
1F
100
AcDbEntity
  8
THICK
100
AcDbLine
 10
210.9814147949219
 20
-4.062247753143311
 30
0.0
 11
211.2870788574219
 21
-3.834702253341675
 31
0.0
1001
DBPROPERTIES
1002
{
1000
PbThick
1002
}
  0
LINE
  5
A3
330
1F
100
AcDbEntity
  8
THICK
100
AcDbLine
 10
211.2870788574219
 20
-3.834702253341675
 30
0.0
 11
211.5713348388672
 21
-3.60559344291687
 31
0.0
1001
DBPROPERTIES
1002
{
1000
PbThick
1002
}
  0
LINE
  5
A4
330
1F
100
AcDbEntity
  8
THICK
100
AcDbLine
 10
211.5713348388672
 20
-3.60559344291687
 30
0.0
 11
211.8407592773438
 21
-3.371063232421875
 31
0.0
1001
DBPROPERTIES
1002
{
1000
PbThick
1002
}
  0
LINE
  5
A5
330
1F
100
AcDbEntity
  8
THICK
100
AcDbLine
 10
211.8407592773438
 20
-3.371063232421875
 30
0.0
 11
212.1046142578125
 21
-3.123370885848999
 31
0.0
1001
DBPROPERTIES
1002
{
1000
PbThick
1002
}
  0
LINE
  5
A6
330
1F
100
AcDbEntity
  8
THICK
100
AcDbLine
 10
212.1046142578125
 20
-3.123370885848999
 30
0.0
 11
212.3607330322266
 21
-2.863883972167969
 31
0.0
1001
DBPROPERTIES
1002
{
1000
PbThick
1002
}
  0
LINE
  5
A7
330
1F
100
AcDbEntity
  8
THICK
100
AcDbLine
 10
212.3607330322266
 20
-2.863883972167969
 30
0.0
 11
212.6070556640625
 21
-2.594122171401978
 31
0.0
1001
DBPROPERTIES
1002
{
1000
PbThick
1002
}
  0
LINE
  5
A8
330
1F
100
AcDbEntity
  8
THICK
100
AcDbLine
 10
212.6070556640625
 20
-2.594122171401978
 30
0.0
 11
212.8421478271484
 21
-2.315873861312866
 31
0.0
1001
DBPROPERTIES
1002
{
1000
PbThick
1002
}
  0
LINE
  5
A9
330
1F
100
AcDbEntity
  8
THICK
100
AcDbLine
 10
212.8421478271484
 20
-2.315873861312866
 30
0.0
 11
213.0646209716797
 21
-2.030970811843872
 31
0.0
1001
DBPROPERTIES
1002
{
1000
PbThick
1002
}
  0
LINE
  5
AA
330
1F
100
AcDbEntity
  8
THICK
100
AcDbLine
 10
213.0646209716797
 20
-2.030970811843872
 30
0.0
 11
213.2734375
 21
-1.741300344467163
 31
0.0
1001
DBPROPERTIES
1002
{
1000
PbThick
1002
}
  0
LINE
  5
AB
330
1F
100
AcDbEntity
  8
THICK
100
AcDbLine
 10
213.2734375
 20
-1.741300344467163
 30
0.0
 11
213.4679870605469
 21
-1.44894552230835
 31
0.0
1001
DBPROPERTIES
1002
{
1000
PbThick
1002
}
  0
LINE
  5
AC
330
1F
100
AcDbEntity
  8
THICK
100
AcDbLine
 10
213.4679870605469
 20
-1.44894552230835
 30
0.0
 11
213.6476440429688
 21
-1.156026244163513
 31
0.0
1001
DBPROPERTIES
1002
{
1000
PbThick
1002
}
  0
LINE
  5
AD
330
1F
100
AcDbEntity
  8
THICK
100
AcDbLine
 10
213.6476440429688
 20
-1.156026244163513
 30
0.0
 11
213.8121795654297
 21
-0.8647598624229431
 31
0.0
1001
DBPROPERTIES
1002
{
1000
PbThick
1002
}
  0
LINE
  5
AE
330
1F
100
AcDbEntity
  8
THICK
100
AcDbLine
 10
213.8121795654297
 20
-0.8647598624229431
 30
0.0
 11
213.9615936279297
 21
-0.5774564743041992
 31
0.0
1001
DBPROPERTIES
1002
{
1000
PbThick
1002
}
  0
LINE
  5
AF
330
1F
100
AcDbEntity
  8
THICK
100
AcDbLine
 10
213.9615936279297
 20
-0.5774564743041992
 30
0.0
 11
214.0976715087891
 21
-0.2927660048007965
 31
0.0
1001
DBPROPERTIES
1002
{
1000
PbThick
1002
}
  0
LINE
  5
B0
330
1F
100
AcDbEntity
  8
THICK
100
AcDbLine
 10
214.0976715087891
 20
-0.2927660048007965
 30
0.0
 11
214.2258758544922
 21
0.0000000000000078
 31
0.0
1001
DBPROPERTIES
1002
{
1000
PbThick
1002
}
  0
LINE
  5
B1
330
1F
100
AcDbEntity
  8
THICK
100
AcDbLine
 10
205.0
 20
-5.945535386584399
 30
0.0
 11
205.0
 21
-22.09623650709427
 31
0.0
1001
DBPROPERTIES
1002
{
1000
PbThick
1002
}
  0
LINE
  5
B2
330
1F
100
AcDbEntity
  8
THICK
100
AcDbLine
 10
214.2258758544922
 20
-25.91350555419922
 30
0.0
 11
214.0976715087891
 21
-25.72553825378418
 31
0.0
1001
DBPROPERTIES
1002
{
1000
PbThick
1002
}
  0
LINE
  5
B3
330
1F
100
AcDbEntity
  8
THICK
100
AcDbLine
 10
214.0976715087891
 20
-25.72553825378418
 30
0.0
 11
213.9615936279297
 21
-25.54275512695312
 31
0.0
1001
DBPROPERTIES
1002
{
1000
PbThick
1002
}
  0
LINE
  5
B4
330
1F
100
AcDbEntity
  8
THICK
100
AcDbLine
 10
213.9615936279297
 20
-25.54275512695312
 30
0.0
 11
213.8121795654297
 21
-25.35829544067383
 31
0.0
1001
DBPROPERTIES
1002
{
1000
PbThick
1002
}
  0
LINE
  5
B5
330
1F
100
AcDbEntity
  8
THICK
100
AcDbLine
 10
213.8121795654297
 20
-25.35829544067383
 30
0.0
 11
213.6476440429688
 21
-25.17129135131836
 31
0.0
1001
DBPROPERTIES
1002
{
1000
PbThick
1002
}
  0
LINE
  5
B6
330
1F
100
AcDbEntity
  8
THICK
100
AcDbLine
 10
213.6476440429688
 20
-25.17129135131836
 30
0.0
 11
213.4679870605469
 21
-24.98322486877441
 31
0.0
1001
DBPROPERTIES
1002
{
1000
PbThick
1002
}
  0
LINE
  5
B7
330
1F
100
AcDbEntity
  8
THICK
100
AcDbLine
 10
213.4679870605469
 20
-24.98322486877441
 30
0.0
 11
213.2734375
 21
-24.7955207824707
 31
0.0
1001
DBPROPERTIES
1002
{
1000
PbThick
1002
}
  0
LINE
  5
B8
330
1F
100
AcDbEntity
  8
THICK
100
AcDbLine
 10
213.2734375
 20
-24.7955207824707
 30
0.0
 11
213.0646209716797
 21
-24.60954093933105
 31
0.0
1001
DBPROPERTIES
1002
{
1000
PbThick
1002
}
  0
LINE
  5
B9
330
1F
100
AcDbEntity
  8
THICK
100
AcDbLine
 10
213.0646209716797
 20
-24.60954093933105
 30
0.0
 11
212.8421478271484
 21
-24.42662239074707
 31
0.0
1001
DBPROPERTIES
1002
{
1000
PbThick
1002
}
  0
LINE
  5
BA
330
1F
100
AcDbEntity
  8
THICK
100
AcDbLine
 10
212.8421478271484
 20
-24.42662239074707
 30
0.0
 11
212.6070556640625
 21
-24.24797630310059
 31
0.0
1001
DBPROPERTIES
1002
{
1000
PbThick
1002
}
  0
LINE
  5
BB
330
1F
100
AcDbEntity
  8
THICK
100
AcDbLine
 10
212.6070556640625
 20
-24.24797630310059
 30
0.0
 11
212.3607330322266
 21
-24.07477760314941
 31
0.0
1001
DBPROPERTIES
1002
{
1000
PbThick
1002
}
  0
LINE
  5
BC
330
1F
100
AcDbEntity
  8
THICK
100
AcDbLine
 10
212.3607330322266
 20
-24.07477760314941
 30
0.0
 11
212.1046142578125
 21
-23.90817832946777
 31
0.0
1001
DBPROPERTIES
1002
{
1000
PbThick
1002
}
  0
LINE
  5
BD
330
1F
100
AcDbEntity
  8
THICK
100
AcDbLine
 10
212.1046142578125
 20
-23.90817832946777
 30
0.0
 11
211.8407592773438
 21
-23.74914932250977
 31
0.0
1001
DBPROPERTIES
1002
{
1000
PbThick
1002
}
  0
LINE
  5
BE
330
1F
100
AcDbEntity
  8
THICK
100
AcDbLine
 10
211.8407592773438
 20
-23.74914932250977
 30
0.0
 11
211.5713348388672
 21
-23.59857177734375
 31
0.0
1001
DBPROPERTIES
1002
{
1000
PbThick
1002
}
  0
LINE
  5
BF
330
1F
100
AcDbEntity
  8
THICK
100
AcDbLine
 10
211.5713348388672
 20
-23.59857177734375
 30
0.0
 11
211.2870788574219
 21
-23.45147514343262
 31
0.0
1001
DBPROPERTIES
1002
{
1000
PbThick
1002
}
  0
LINE
  5
C0
330
1F
100
AcDbEntity
  8
THICK
100
AcDbLine
 10
211.2870788574219
 20
-23.45147514343262
 30
0.0
 11
210.9814147949219
 21
-23.30538177490234
 31
0.0
1001
DBPROPERTIES
1002
{
1000
PbThick
1002
}
  0
LINE
  5
C1
330
1F
100
AcDbEntity
  8
THICK
100
AcDbLine
 10
210.9814147949219
 20
-23.30538177490234
 30
0.0
 11
210.6560363769531
 21
-23.16250038146973
 31
0.0
1001
DBPROPERTIES
1002
{
1000
PbThick
1002
}
  0
LINE
  5
C2
330
1F
100
AcDbEntity
  8
THICK
100
AcDbLine
 10
210.6560363769531
 20
-23.16250038146973
 30
0.0
 11
210.3132476806641
 21
-23.02477073669434
 31
0.0
1001
DBPROPERTIES
1002
{
1000
PbThick
1002
}
  0
LINE
  5
C3
330
1F
100
AcDbEntity
  8
THICK
100
AcDbLine
 10
210.3132476806641
 20
-23.02477073669434
 30
0.0
 11
209.9556732177734
 21
-22.89398193359375
 31
0.0
1001
DBPROPERTIES
1002
{
1000
PbThick
1002
}
  0
LINE
  5
C4
330
1F
100
AcDbEntity
  8
THICK
100
AcDbLine
 10
209.9556732177734
 20
-22.89398193359375
 30
0.0
 11
209.5862731933594
 21
-22.77163696289062
 31
0.0
1001
DBPROPERTIES
1002
{
1000
PbThick
1002
}
  0
LINE
  5
C5
330
1F
100
AcDbEntity
  8
THICK
100
AcDbLine
 10
209.5862731933594
 20
-22.77163696289062
 30
0.0
 11
209.2086181640625
 21
-22.65899085998535
 31
0.0
1001
DBPROPERTIES
1002
{
1000
PbThick
1002
}
  0
LINE
  5
C6
330
1F
100
AcDbEntity
  8
THICK
100
AcDbLine
 10
209.2086181640625
 20
-22.65899085998535
 30
0.0
 11
208.8265991210938
 21
-22.55710220336914
 31
0.0
1001
DBPROPERTIES
1002
{
1000
PbThick
1002
}
  0
LINE
  5
C7
330
1F
100
AcDbEntity
  8
THICK
100
AcDbLine
 10
208.8265991210938
 20
-22.55710220336914
 30
0.0
 11
208.4447631835938
 21
-22.46657943725586
 31
0.0
1001
DBPROPERTIES
1002
{
1000
PbThick
1002
}
  0
LINE
  5
C8
330
1F
100
AcDbEntity
  8
THICK
100
AcDbLine
 10
208.4447631835938
 20
-22.46657943725586
 30
0.0
 11
208.0546875
 21
-22.38530731201172
 31
0.0
1001
DBPROPERTIES
1002
{
1000
PbThick
1002
}
  0
LINE
  5
C9
330
1F
100
AcDbEntity
  8
THICK
100
AcDbLine
 10
208.0546875
 20
-22.38530731201172
 30
0.0
 11
207.6422271728516
 21
-22.31103515625
 31
0.0
1001
DBPROPERTIES
1002
{
1000
PbThick
1002
}
  0
LINE
  5
CA
330
1F
100
AcDbEntity
  8
THICK
100
AcDbLine
 10
207.6422271728516
 20
-22.31103515625
 30
0.0
 11
207.2122344970703
 21
-22.24594497680664
 31
0.0
1001
DBPROPERTIES
1002
{
1000
PbThick
1002
}
  0
LINE
  5
CB
330
1F
100
AcDbEntity
  8
THICK
100
AcDbLine
 10
207.2122344970703
 20
-22.24594497680664
 30
0.0
 11
206.7702331542969
 21
-22.19161224365234
 31
0.0
1001
DBPROPERTIES
1002
{
1000
PbThick
1002
}
  0
LINE
  5
CC
330
1F
100
AcDbEntity
  8
THICK
100
AcDbLine
 10
206.7702331542969
 20
-22.19161224365234
 30
0.0
 11
206.3218536376953
 21
-22.14923667907715
 31
0.0
1001
DBPROPERTIES
1002
{
1000
PbThick
1002
}
  0
LINE
  5
CD
330
1F
100
AcDbEntity
  8
THICK
100
AcDbLine
 10
206.3218536376953
 20
-22.14923667907715
 30
0.0
 11
205.8731079101562
 21
-22.11928749084473
 31
0.0
1001
DBPROPERTIES
1002
{
1000
PbThick
1002
}
  0
LINE
  5
CE
330
1F
100
AcDbEntity
  8
THICK
100
AcDbLine
 10
205.8731079101562
 20
-22.11928749084473
 30
0.0
 11
205.4303131103516
 21
-22.10185050964355
 31
0.0
1001
DBPROPERTIES
1002
{
1000
PbThick
1002
}
  0
LINE
  5
CF
330
1F
100
AcDbEntity
  8
THICK
100
AcDbLine
 10
205.4303131103516
 20
-22.10185050964355
 30
0.0
 11
205.0
 21
-22.09623718261719
 31
0.0
1001
DBPROPERTIES
1002
{
1000
PbThick
1002
}
  0
LINE
  5
D0
330
1F
100
AcDbEntity
  8
THICK
100
AcDbLine
 10
205.0
 20
-33.40531539916992
 30
0.0
 11
205.4303131103516
 21
-33.3942985534668
 31
0.0
1001
DBPROPERTIES
1002
{
1000
PbThick
1002
}
  0
LINE
  5
D1
330
1F
100
AcDbEntity
  8
THICK
100
AcDbLine
 10
205.4303131103516
 20
-33.3942985534668
 30
0.0
 11
205.8731079101562
 21
-33.36007690429688
 31
0.0
1001
DBPROPERTIES
1002
{
1000
PbThick
1002
}
  0
LINE
  5
D2
330
1F
100
AcDbEntity
  8
THICK
100
AcDbLine
 10
205.8731079101562
 20
-33.36007690429688
 30
0.0
 11
206.3218536376953
 21
-33.30130004882812
 31
0.0
1001
DBPROPERTIES
1002
{
1000
PbThick
1002
}
  0
LINE
  5
D3
330
1F
100
AcDbEntity
  8
THICK
100
AcDbLine
 10
206.3218536376953
 20
-33.30130004882812
 30
0.0
 11
206.7702331542969
 21
-33.21813201904297
 31
0.0
1001
DBPROPERTIES
1002
{
1000
PbThick
1002
}
  0
LINE
  5
D4
330
1F
100
AcDbEntity
  8
THICK
100
AcDbLine
 10
206.7702331542969
 20
-33.21813201904297
 30
0.0
 11
207.2122344970703
 21
-33.11149597167969
 31
0.0
1001
DBPROPERTIES
1002
{
1000
PbThick
1002
}
  0
LINE
  5
D5
330
1F
100
AcDbEntity
  8
THICK
100
AcDbLine
 10
207.2122344970703
 20
-33.11149597167969
 30
0.0
 11
207.6422271728516
 21
-32.98374938964844
 31
0.0
1001
DBPROPERTIES
1002
{
1000
PbThick
1002
}
  0
LINE
  5
D6
330
1F
100
AcDbEntity
  8
THICK
100
AcDbLine
 10
207.6422271728516
 20
-32.98374938964844
 30
0.0
 11
208.0546875
 21
-32.83798599243164
 31
0.0
1001
DBPROPERTIES
1002
{
1000
PbThick
1002
}
  0
LINE
  5
D7
330
1F
100
AcDbEntity
  8
THICK
100
AcDbLine
 10
208.0546875
 20
-32.83798599243164
 30
0.0
 11
208.4447631835938
 21
-32.6784782409668
 31
0.0
1001
DBPROPERTIES
1002
{
1000
PbThick
1002
}
  0
LINE
  5
D8
330
1F
100
AcDbEntity
  8
THICK
100
AcDbLine
 10
208.4447631835938
 20
-32.6784782409668
 30
0.0
 11
208.8265991210938
 21
-32.50081634521484
 31
0.0
1001
DBPROPERTIES
1002
{
1000
PbThick
1002
}
  0
LINE
  5
D9
330
1F
100
AcDbEntity
  8
THICK
100
AcDbLine
 10
208.8265991210938
 20
-32.50081634521484
 30
0.0
 11
209.2086181640625
 21
-32.30084991455078
 31
0.0
1001
DBPROPERTIES
1002
{
1000
PbThick
1002
}
  0
LINE
  5
DA
330
1F
100
AcDbEntity
  8
THICK
100
AcDbLine
 10
209.2086181640625
 20
-32.30084991455078
 30
0.0
 11
209.5862731933594
 21
-32.07976913452148
 31
0.0
1001
DBPROPERTIES
1002
{
1000
PbThick
1002
}
  0
LINE
  5
DB
330
1F
100
AcDbEntity
  8
THICK
100
AcDbLine
 10
209.5862731933594
 20
-32.07976913452148
 30
0.0
 11
209.9556732177734
 21
-31.83965492248535
 31
0.0
1001
DBPROPERTIES
1002
{
1000
PbThick
1002
}
  0
LINE
  5
DC
330
1F
100
AcDbEntity
  8
THICK
100
AcDbLine
 10
209.9556732177734
 20
-31.83965492248535
 30
0.0
 11
210.3132476806641
 21
-31.58296775817871
 31
0.0
1001
DBPROPERTIES
1002
{
1000
PbThick
1002
}
  0
LINE
  5
DD
330
1F
100
AcDbEntity
  8
THICK
100
AcDbLine
 10
210.3132476806641
 20
-31.58296775817871
 30
0.0
 11
210.6560363769531
 21
-31.31265640258789
 31
0.0
1001
DBPROPERTIES
1002
{
1000
PbThick
1002
}
  0
LINE
  5
DE
330
1F
100
AcDbEntity
  8
THICK
100
AcDbLine
 10
210.6560363769531
 20
-31.31265640258789
 30
0.0
 11
210.9814147949219
 21
-31.03223609924316
 31
0.0
1001
DBPROPERTIES
1002
{
1000
PbThick
1002
}
  0
LINE
  5
DF
330
1F
100
AcDbEntity
  8
THICK
100
AcDbLine
 10
210.9814147949219
 20
-31.03223609924316
 30
0.0
 11
211.2870788574219
 21
-30.74551200866699
 31
0.0
1001
DBPROPERTIES
1002
{
1000
PbThick
1002
}
  0
LINE
  5
E0
330
1F
100
AcDbEntity
  8
THICK
100
AcDbLine
 10
211.2870788574219
 20
-30.74551200866699
 30
0.0
 11
211.5713348388672
 21
-30.45681762695312
 31
0.0
1001
DBPROPERTIES
1002
{
1000
PbThick
1002
}
  0
LINE
  5
E1
330
1F
100
AcDbEntity
  8
THICK
100
AcDbLine
 10
211.5713348388672
 20
-30.45681762695312
 30
0.0
 11
211.8407592773438
 21
-30.16129302978516
 31
0.0
1001
DBPROPERTIES
1002
{
1000
PbThick
1002
}
  0
LINE
  5
E2
330
1F
100
AcDbEntity
  8
THICK
100
AcDbLine
 10
211.8407592773438
 20
-30.16129302978516
 30
0.0
 11
212.1046142578125
 21
-29.84918212890625
 31
0.0
1001
DBPROPERTIES
1002
{
1000
PbThick
1002
}
  0
LINE
  5
E3
330
1F
100
AcDbEntity
  8
THICK
100
AcDbLine
 10
212.1046142578125
 20
-29.84918212890625
 30
0.0
 11
212.3607330322266
 21
-29.52220916748047
 31
0.0
1001
DBPROPERTIES
1002
{
1000
PbThick
1002
}
  0
LINE
  5
E4
330
1F
100
AcDbEntity
  8
THICK
100
AcDbLine
 10
212.3607330322266
 20
-29.52220916748047
 30
0.0
 11
212.6070556640625
 21
-29.18228912353516
 31
0.0
1001
DBPROPERTIES
1002
{
1000
PbThick
1002
}
  0
LINE
  5
E5
330
1F
100
AcDbEntity
  8
THICK
100
AcDbLine
 10
212.6070556640625
 20
-29.18228912353516
 30
0.0
 11
212.8421478271484
 21
-28.8316764831543
 31
0.0
1001
DBPROPERTIES
1002
{
1000
PbThick
1002
}
  0
LINE
  5
E6
330
1F
100
AcDbEntity
  8
THICK
100
AcDbLine
 10
212.8421478271484
 20
-28.8316764831543
 30
0.0
 11
213.0646209716797
 21
-28.47267723083496
 31
0.0
1001
DBPROPERTIES
1002
{
1000
PbThick
1002
}
  0
LINE
  5
E7
330
1F
100
AcDbEntity
  8
THICK
100
AcDbLine
 10
213.0646209716797
 20
-28.47267723083496
 30
0.0
 11
213.2734375
 21
-28.1076717376709
 31
0.0
1001
DBPROPERTIES
1002
{
1000
PbThick
1002
}
  0
LINE
  5
E8
330
1F
100
AcDbEntity
  8
THICK
100
AcDbLine
 10
213.2734375
 20
-28.1076717376709
 30
0.0
 11
213.4679870605469
 21
-27.73928260803223
 31
0.0
1001
DBPROPERTIES
1002
{
1000
PbThick
1002
}
  0
LINE
  5
E9
330
1F
100
AcDbEntity
  8
THICK
100
AcDbLine
 10
213.4679870605469
 20
-27.73928260803223
 30
0.0
 11
213.6476440429688
 21
-27.37018394470215
 31
0.0
1001
DBPROPERTIES
1002
{
1000
PbThick
1002
}
  0
LINE
  5
EA
330
1F
100
AcDbEntity
  8
THICK
100
AcDbLine
 10
213.6476440429688
 20
-27.37018394470215
 30
0.0
 11
213.8121795654297
 21
-27.00316619873047
 31
0.0
1001
DBPROPERTIES
1002
{
1000
PbThick
1002
}
  0
LINE
  5
EB
330
1F
100
AcDbEntity
  8
THICK
100
AcDbLine
 10
213.8121795654297
 20
-27.00316619873047
 30
0.0
 11
213.9615936279297
 21
-26.64114189147949
 31
0.0
1001
DBPROPERTIES
1002
{
1000
PbThick
1002
}
  0
LINE
  5
EC
330
1F
100
AcDbEntity
  8
THICK
100
AcDbLine
 10
213.9615936279297
 20
-26.64114189147949
 30
0.0
 11
214.0976715087891
 21
-26.28241157531738
 31
0.0
1001
DBPROPERTIES
1002
{
1000
PbThick
1002
}
  0
LINE
  5
ED
330
1F
100
AcDbEntity
  8
THICK
100
AcDbLine
 10
214.0976715087891
 20
-26.28241157531738
 30
0.0
 11
214.2258758544922
 21
-25.91350555419922
 31
0.0
1001
DBPROPERTIES
1002
{
1000
PbThick
1002
}
  0
LINE
  5
EE
330
1F
100
AcDbEntity
  8
THICK
100
AcDbLine
 10
205.0
 20
-33.40531685164336
 30
0.0
 11
205.0
 21
-47.97507481792615
 31
0.0
1001
DBPROPERTIES
1002
{
1000
PbThick
1002
}
  0
LINE
  5
EF
330
1F
100
AcDbEntity
  8
THICK
100
AcDbLine
 10
209.0806274414062
 20
-48.15676879882812
 30
0.0
 11
208.7109832763672
 21
-48.12403106689453
 31
0.0
1001
DBPROPERTIES
1002
{
1000
PbThick
1002
}
  0
LINE
  5
F0
330
1F
100
AcDbEntity
  8
THICK
100
AcDbLine
 10
208.7109832763672
 20
-48.12403106689453
 30
0.0
 11
208.3423614501953
 21
-48.09496307373047
 31
0.0
1001
DBPROPERTIES
1002
{
1000
PbThick
1002
}
  0
LINE
  5
F1
330
1F
100
AcDbEntity
  8
THICK
100
AcDbLine
 10
208.3423614501953
 20
-48.09496307373047
 30
0.0
 11
207.9595947265625
 21
-48.06842041015625
 31
0.0
1001
DBPROPERTIES
1002
{
1000
PbThick
1002
}
  0
LINE
  5
F2
330
1F
100
AcDbEntity
  8
THICK
100
AcDbLine
 10
207.9595947265625
 20
-48.06842041015625
 30
0.0
 11
207.5568542480469
 21
-48.04429626464844
 31
0.0
1001
DBPROPERTIES
1002
{
1000
PbThick
1002
}
  0
LINE
  5
F3
330
1F
100
AcDbEntity
  8
THICK
100
AcDbLine
 10
207.5568542480469
 20
-48.04429626464844
 30
0.0
 11
207.1387329101562
 21
-48.02323913574219
 31
0.0
1001
DBPROPERTIES
1002
{
1000
PbThick
1002
}
  0
LINE
  5
F4
330
1F
100
AcDbEntity
  8
THICK
100
AcDbLine
 10
207.1387329101562
 20
-48.02323913574219
 30
0.0
 11
206.7102661132812
 21
-48.00573348999023
 31
0.0
1001
DBPROPERTIES
1002
{
1000
PbThick
1002
}
  0
LINE
  5
F5
330
1F
100
AcDbEntity
  8
THICK
100
AcDbLine
 10
206.7102661132812
 20
-48.00573348999023
 30
0.0
 11
206.2765655517578
 21
-47.99210357666016
 31
0.0
1001
DBPROPERTIES
1002
{
1000
PbThick
1002
}
  0
LINE
  5
F6
330
1F
100
AcDbEntity
  8
THICK
100
AcDbLine
 10
206.2765655517578
 20
-47.99210357666016
 30
0.0
 11
205.8431091308594
 21
-47.98247909545898
 31
0.0
1001
DBPROPERTIES
1002
{
1000
PbThick
1002
}
  0
LINE
  5
F7
330
1F
100
AcDbEntity
  8
THICK
100
AcDbLine
 10
205.8431091308594
 20
-47.98247909545898
 30
0.0
 11
205.4156188964844
 21
-47.97687911987305
 31
0.0
1001
DBPROPERTIES
1002
{
1000
PbThick
1002
}
  0
LINE
  5
F8
330
1F
100
AcDbEntity
  8
THICK
100
AcDbLine
 10
205.4156188964844
 20
-47.97687911987305
 30
0.0
 11
205.0
 21
-47.97507476806641
 31
0.0
1001
DBPROPERTIES
1002
{
1000
PbThick
1002
}
  0
LINE
  5
F9
330
1F
100
AcDbEntity
  8
THICK
100
AcDbLine
 10
209.0806274414062
 20
-48.15676879882812
 30
0.0
 11
209.6765289306641
 21
-47.61706161499023
 31
0.0
1001
DBPROPERTIES
1002
{
1000
PbThick
1002
}
  0
LINE
  5
FA
330
1F
100
AcDbEntity
  8
THICK
100
AcDbLine
 10
209.6765289306641
 20
-47.61706161499023
 30
0.0
 11
210.2456207275391
 21
-47.00717926025391
 31
0.0
1001
DBPROPERTIES
1002
{
1000
PbThick
1002
}
  0
LINE
  5
FB
330
1F
100
AcDbEntity
  8
THICK
100
AcDbLine
 10
210.2456207275391
 20
-47.00717926025391
 30
0.0
 11
210.7805480957031
 21
-46.33756256103516
 31
0.0
1001
DBPROPERTIES
1002
{
1000
PbThick
1002
}
  0
LINE
  5
FC
330
1F
100
AcDbEntity
  8
THICK
100
AcDbLine
 10
210.7805480957031
 20
-46.33756256103516
 30
0.0
 11
211.2636108398438
 21
-45.63955307006836
 31
0.0
1001
DBPROPERTIES
1002
{
1000
PbThick
1002
}
  0
LINE
  5
FD
330
1F
100
AcDbEntity
  8
THICK
100
AcDbLine
 10
211.2636108398438
 20
-45.63955307006836
 30
0.0
 11
211.6841888427734
 21
-44.94861602783203
 31
0.0
1001
DBPROPERTIES
1002
{
1000
PbThick
1002
}
  0
LINE
  5
FE
330
1F
100
AcDbEntity
  8
THICK
100
AcDbLine
 10
211.6841888427734
 20
-44.94861602783203
 30
0.0
 11
212.0688781738281
 21
-44.23511505126953
 31
0.0
1001
DBPROPERTIES
1002
{
1000
PbThick
1002
}
  0
LINE
  5
FF
330
1F
100
AcDbEntity
  8
THICK
100
AcDbLine
 10
212.0688781738281
 20
-44.23511505126953
 30
0.0
 11
212.4320678710938
 21
-43.47707748413086
 31
0.0
1001
DBPROPERTIES
1002
{
1000
PbThick
1002
}
  0
LINE
  5
100
330
1F
100
AcDbEntity
  8
THICK
100
AcDbLine
 10
212.4320678710938
 20
-43.47707748413086
 30
0.0
 11
212.7676696777344
 21
-42.68869400024414
 31
0.0
1001
DBPROPERTIES
1002
{
1000
PbThick
1002
}
  0
LINE
  5
101
330
1F
100
AcDbEntity
  8
THICK
100
AcDbLine
 10
212.7676696777344
 20
-42.68869400024414
 30
0.0
 11
213.0714721679688
 21
-41.88499069213867
 31
0.0
1001
DBPROPERTIES
1002
{
1000
PbThick
1002
}
  0
LINE
  5
102
330
1F
100
AcDbEntity
  8
THICK
100
AcDbLine
 10
213.0714721679688
 20
-41.88499069213867
 30
0.0
 11
213.3417510986328
 21
-41.08184432983398
 31
0.0
1001
DBPROPERTIES
1002
{
1000
PbThick
1002
}
  0
LINE
  5
103
330
1F
100
AcDbEntity
  8
THICK
100
AcDbLine
 10
213.3417510986328
 20
-41.08184432983398
 30
0.0
 11
213.5781097412109
 21
-40.29569244384766
 31
0.0
1001
DBPROPERTIES
1002
{
1000
PbThick
1002
}
  0
LINE
  5
104
330
1F
100
AcDbEntity
  8
THICK
100
AcDbLine
 10
213.5781097412109
 20
-40.29569244384766
 30
0.0
 11
213.7847290039062
 21
-39.52580261230469
 31
0.0
1001
DBPROPERTIES
1002
{
1000
PbThick
1002
}
  0
LINE
  5
105
330
1F
100
AcDbEntity
  8
THICK
100
AcDbLine
 10
213.7847290039062
 20
-39.52580261230469
 30
0.0
 11
213.9773559570312
 21
-38.72030258178711
 31
0.0
1001
DBPROPERTIES
1002
{
1000
PbThick
1002
}
  0
LINE
  5
106
330
1F
100
AcDbEntity
  8
THICK
100
AcDbLine
 10
213.9773559570312
 20
-38.72030258178711
 30
0.0
 11
214.1536712646484
 21
-37.88655471801758
 31
0.0
1001
DBPROPERTIES
1002
{
1000
PbThick
1002
}
  0
LINE
  5
107
330
1F
100
AcDbEntity
  8
THICK
100
AcDbLine
 10
214.1536712646484
 20
-37.88655471801758
 30
0.0
 11
214.3110504150391
 21
-37.03904342651367
 31
0.0
1001
DBPROPERTIES
1002
{
1000
PbThick
1002
}
  0
LINE
  5
108
330
1F
100
AcDbEntity
  8
THICK
100
AcDbLine
 10
214.3110504150391
 20
-37.03904342651367
 30
0.0
 11
214.4479217529297
 21
-36.19240951538086
 31
0.0
1001
DBPROPERTIES
1002
{
1000
PbThick
1002
}
  0
LINE
  5
109
330
1F
100
AcDbEntity
  8
THICK
100
AcDbLine
 10
214.4479217529297
 20
-36.19240951538086
 30
0.0
 11
214.5645294189453
 21
-35.36161804199219
 31
0.0
1001
DBPROPERTIES
1002
{
1000
PbThick
1002
}
  0
LINE
  5
10A
330
1F
100
AcDbEntity
  8
THICK
100
AcDbLine
 10
214.5645294189453
 20
-35.36161804199219
 30
0.0
 11
214.6613616943359
 21
-34.5616569519043
 31
0.0
1001
DBPROPERTIES
1002
{
1000
PbThick
1002
}
  0
LINE
  5
10B
330
1F
100
AcDbEntity
  8
THICK
100
AcDbLine
 10
214.6613616943359
 20
-34.5616569519043
 30
0.0
 11
214.7431793212891
 21
-33.7685661315918
 31
0.0
1001
DBPROPERTIES
1002
{
1000
PbThick
1002
}
  0
LINE
  5
10C
330
1F
100
AcDbEntity
  8
THICK
100
AcDbLine
 10
214.7431793212891
 20
-33.7685661315918
 30
0.0
 11
214.8137664794922
 21
-32.95427322387695
 31
0.0
1001
DBPROPERTIES
1002
{
1000
PbThick
1002
}
  0
LINE
  5
10D
330
1F
100
AcDbEntity
  8
THICK
100
AcDbLine
 10
214.8137664794922
 20
-32.95427322387695
 30
0.0
 11
214.8728485107422
 21
-32.12261199951172
 31
0.0
1001
DBPROPERTIES
1002
{
1000
PbThick
1002
}
  0
LINE
  5
10E
330
1F
100
AcDbEntity
  8
THICK
100
AcDbLine
 10
214.8728485107422
 20
-32.12261199951172
 30
0.0
 11
214.9201965332031
 21
-31.27742195129395
 31
0.0
1001
DBPROPERTIES
1002
{
1000
PbThick
1002
}
  0
LINE
  5
10F
330
1F
100
AcDbEntity
  8
THICK
100
AcDbLine
 10
214.9201965332031
 20
-31.27742195129395
 30
0.0
 11
214.9561157226562
 21
-30.42257118225098
 31
0.0
1001
DBPROPERTIES
1002
{
1000
PbThick
1002
}
  0
LINE
  5
110
330
1F
100
AcDbEntity
  8
THICK
100
AcDbLine
 10
214.9561157226562
 20
-30.42257118225098
 30
0.0
 11
214.9810180664062
 21
-29.56194114685059
 31
0.0
1001
DBPROPERTIES
1002
{
1000
PbThick
1002
}
  0
LINE
  5
111
330
1F
100
AcDbEntity
  8
THICK
100
AcDbLine
 10
214.9810180664062
 20
-29.56194114685059
 30
0.0
 11
214.995361328125
 21
-28.69940567016602
 31
0.0
1001
DBPROPERTIES
1002
{
1000
PbThick
1002
}
  0
LINE
  5
112
330
1F
100
AcDbEntity
  8
THICK
100
AcDbLine
 10
214.995361328125
 20
-28.69940567016602
 30
0.0
 11
215.0
 21
-27.83882141113281
 31
0.0
1001
DBPROPERTIES
1002
{
1000
PbThick
1002
}
  0
LINE
  5
113
330
1F
100
AcDbEntity
  8
THICK
100
AcDbLine
 10
215.0
 20
80.0
 30
0.0
 11
215.0
 21
0.0000000000000098
 31
0.0
1001
DBPROPERTIES
1002
{
1000
PbThick
1002
}
  0
LINE
  5
114
330
1F
100
AcDbEntity
  8
HIDDEN
100
AcDbLine
 10
205.0
 20
5.945535182952881
 30
0.0
 11
205.4303131103516
 21
5.936792373657227
 31
0.0
1001
DBPROPERTIES
1002
{
1000
PbHidd
1002
}
  0
LINE
  5
115
330
1F
100
AcDbEntity
  8
HIDDEN
100
AcDbLine
 10
205.4303131103516
 20
5.936792373657227
 30
0.0
 11
205.8731079101562
 21
5.909634113311768
 31
0.0
1001
DBPROPERTIES
1002
{
1000
PbHidd
1002
}
  0
LINE
  5
116
330
1F
100
AcDbEntity
  8
HIDDEN
100
AcDbLine
 10
205.8731079101562
 20
5.909634113311768
 30
0.0
 11
206.3218536376953
 21
5.862986087799072
 31
0.0
1001
DBPROPERTIES
1002
{
1000
PbHidd
1002
}
  0
LINE
  5
117
330
1F
100
AcDbEntity
  8
HIDDEN
100
AcDbLine
 10
206.3218536376953
 20
5.862986087799072
 30
0.0
 11
206.7702331542969
 21
5.796984195709229
 31
0.0
1001
DBPROPERTIES
1002
{
1000
PbHidd
1002
}
  0
LINE
  5
118
330
1F
100
AcDbEntity
  8
HIDDEN
100
AcDbLine
 10
206.7702331542969
 20
5.796984195709229
 30
0.0
 11
207.2122344970703
 21
5.712358474731445
 31
0.0
1001
DBPROPERTIES
1002
{
1000
PbHidd
1002
}
  0
LINE
  5
119
330
1F
100
AcDbEntity
  8
HIDDEN
100
AcDbLine
 10
207.2122344970703
 20
5.712358474731445
 30
0.0
 11
207.6422271728516
 21
5.610978126525879
 31
0.0
1001
DBPROPERTIES
1002
{
1000
PbHidd
1002
}
  0
LINE
  5
11A
330
1F
100
AcDbEntity
  8
HIDDEN
100
AcDbLine
 10
207.6422271728516
 20
5.610978126525879
 30
0.0
 11
208.0546875
 21
5.495298385620117
 31
0.0
1001
DBPROPERTIES
1002
{
1000
PbHidd
1002
}
  0
LINE
  5
11B
330
1F
100
AcDbEntity
  8
HIDDEN
100
AcDbLine
 10
208.0546875
 20
5.495298385620117
 30
0.0
 11
208.4447631835938
 21
5.368712902069092
 31
0.0
1001
DBPROPERTIES
1002
{
1000
PbHidd
1002
}
  0
LINE
  5
11C
330
1F
100
AcDbEntity
  8
HIDDEN
100
AcDbLine
 10
208.4447631835938
 20
5.368712902069092
 30
0.0
 11
208.8265991210938
 21
5.227720260620117
 31
0.0
1001
DBPROPERTIES
1002
{
1000
PbHidd
1002
}
  0
LINE
  5
11D
330
1F
100
AcDbEntity
  8
HIDDEN
100
AcDbLine
 10
208.8265991210938
 20
5.227720260620117
 30
0.0
 11
209.2086181640625
 21
5.06902551651001
 31
0.0
1001
DBPROPERTIES
1002
{
1000
PbHidd
1002
}
  0
LINE
  5
11E
330
1F
100
AcDbEntity
  8
HIDDEN
100
AcDbLine
 10
209.2086181640625
 20
5.06902551651001
 30
0.0
 11
209.5862731933594
 21
4.893575668334961
 31
0.0
1001
DBPROPERTIES
1002
{
1000
PbHidd
1002
}
  0
LINE
  5
11F
330
1F
100
AcDbEntity
  8
HIDDEN
100
AcDbLine
 10
209.5862731933594
 20
4.893575668334961
 30
0.0
 11
209.9556732177734
 21
4.703018665313721
 31
0.0
1001
DBPROPERTIES
1002
{
1000
PbHidd
1002
}
  0
LINE
  5
120
330
1F
100
AcDbEntity
  8
HIDDEN
100
AcDbLine
 10
209.9556732177734
 20
4.703018665313721
 30
0.0
 11
210.3132476806641
 21
4.499310970306396
 31
0.0
1001
DBPROPERTIES
1002
{
1000
PbHidd
1002
}
  0
LINE
  5
121
330
1F
100
AcDbEntity
  8
HIDDEN
100
AcDbLine
 10
210.3132476806641
 20
4.499310970306396
 30
0.0
 11
210.6560363769531
 21
4.2847900390625
 31
0.0
1001
DBPROPERTIES
1002
{
1000
PbHidd
1002
}
  0
LINE
  5
122
330
1F
100
AcDbEntity
  8
HIDDEN
100
AcDbLine
 10
210.6560363769531
 20
4.2847900390625
 30
0.0
 11
210.9814147949219
 21
4.062247753143311
 31
0.0
1001
DBPROPERTIES
1002
{
1000
PbHidd
1002
}
  0
LINE
  5
123
330
1F
100
AcDbEntity
  8
HIDDEN
100
AcDbLine
 10
210.9814147949219
 20
4.062247753143311
 30
0.0
 11
211.2870788574219
 21
3.834702253341675
 31
0.0
1001
DBPROPERTIES
1002
{
1000
PbHidd
1002
}
  0
LINE
  5
124
330
1F
100
AcDbEntity
  8
HIDDEN
100
AcDbLine
 10
211.2870788574219
 20
3.834702253341675
 30
0.0
 11
211.5713348388672
 21
3.60559344291687
 31
0.0
1001
DBPROPERTIES
1002
{
1000
PbHidd
1002
}
  0
LINE
  5
125
330
1F
100
AcDbEntity
  8
HIDDEN
100
AcDbLine
 10
211.5713348388672
 20
3.60559344291687
 30
0.0
 11
211.8407592773438
 21
3.371063232421875
 31
0.0
1001
DBPROPERTIES
1002
{
1000
PbHidd
1002
}
  0
LINE
  5
126
330
1F
100
AcDbEntity
  8
HIDDEN
100
AcDbLine
 10
211.8407592773438
 20
3.371063232421875
 30
0.0
 11
212.1046142578125
 21
3.123370885848999
 31
0.0
1001
DBPROPERTIES
1002
{
1000
PbHidd
1002
}
  0
LINE
  5
127
330
1F
100
AcDbEntity
  8
HIDDEN
100
AcDbLine
 10
212.1046142578125
 20
3.123370885848999
 30
0.0
 11
212.3607330322266
 21
2.863883972167969
 31
0.0
1001
DBPROPERTIES
1002
{
1000
PbHidd
1002
}
  0
LINE
  5
128
330
1F
100
AcDbEntity
  8
HIDDEN
100
AcDbLine
 10
212.3607330322266
 20
2.863883972167969
 30
0.0
 11
212.6070556640625
 21
2.594122171401978
 31
0.0
1001
DBPROPERTIES
1002
{
1000
PbHidd
1002
}
  0
LINE
  5
129
330
1F
100
AcDbEntity
  8
HIDDEN
100
AcDbLine
 10
212.6070556640625
 20
2.594122171401978
 30
0.0
 11
212.8421478271484
 21
2.315873861312866
 31
0.0
1001
DBPROPERTIES
1002
{
1000
PbHidd
1002
}
  0
LINE
  5
12A
330
1F
100
AcDbEntity
  8
HIDDEN
100
AcDbLine
 10
212.8421478271484
 20
2.315873861312866
 30
0.0
 11
213.0646209716797
 21
2.030970811843872
 31
0.0
1001
DBPROPERTIES
1002
{
1000
PbHidd
1002
}
  0
LINE
  5
12B
330
1F
100
AcDbEntity
  8
HIDDEN
100
AcDbLine
 10
213.0646209716797
 20
2.030970811843872
 30
0.0
 11
213.2734375
 21
1.741300344467163
 31
0.0
1001
DBPROPERTIES
1002
{
1000
PbHidd
1002
}
  0
LINE
  5
12C
330
1F
100
AcDbEntity
  8
HIDDEN
100
AcDbLine
 10
213.2734375
 20
1.741300344467163
 30
0.0
 11
213.4679870605469
 21
1.44894552230835
 31
0.0
1001
DBPROPERTIES
1002
{
1000
PbHidd
1002
}
  0
LINE
  5
12D
330
1F
100
AcDbEntity
  8
HIDDEN
100
AcDbLine
 10
213.4679870605469
 20
1.44894552230835
 30
0.0
 11
213.6476440429688
 21
1.156026244163513
 31
0.0
1001
DBPROPERTIES
1002
{
1000
PbHidd
1002
}
  0
LINE
  5
12E
330
1F
100
AcDbEntity
  8
HIDDEN
100
AcDbLine
 10
213.6476440429688
 20
1.156026244163513
 30
0.0
 11
213.8121795654297
 21
0.8647598624229431
 31
0.0
1001
DBPROPERTIES
1002
{
1000
PbHidd
1002
}
  0
LINE
  5
12F
330
1F
100
AcDbEntity
  8
HIDDEN
100
AcDbLine
 10
213.8121795654297
 20
0.8647598624229431
 30
0.0
 11
213.9615936279297
 21
0.5774564743041992
 31
0.0
1001
DBPROPERTIES
1002
{
1000
PbHidd
1002
}
  0
LINE
  5
130
330
1F
100
AcDbEntity
  8
HIDDEN
100
AcDbLine
 10
213.9615936279297
 20
0.5774564743041992
 30
0.0
 11
214.0976715087891
 21
0.2927660048007965
 31
0.0
1001
DBPROPERTIES
1002
{
1000
PbHidd
1002
}
  0
LINE
  5
131
330
1F
100
AcDbEntity
  8
HIDDEN
100
AcDbLine
 10
214.0976715087891
 20
0.2927660048007965
 30
0.0
 11
214.2258758544922
 21
-0.0000000000000243
 31
0.0
1001
DBPROPERTIES
1002
{
1000
PbHidd
1002
}
  0
LINE
  5
132
330
1F
100
AcDbEntity
  8
HIDDEN
100
AcDbLine
 10
205.0
 20
5.945535386584411
 30
0.0
 11
205.0
 21
22.09623650709428
 31
0.0
1001
DBPROPERTIES
1002
{
1000
PbHidd
1002
}
  0
LINE
  5
133
330
1F
100
AcDbEntity
  8
HIDDEN
100
AcDbLine
 10
214.2258758544922
 20
25.91350555419922
 30
0.0
 11
214.0976715087891
 21
25.72553825378418
 31
0.0
1001
DBPROPERTIES
1002
{
1000
PbHidd
1002
}
  0
LINE
  5
134
330
1F
100
AcDbEntity
  8
HIDDEN
100
AcDbLine
 10
214.0976715087891
 20
25.72553825378418
 30
0.0
 11
213.9615936279297
 21
25.54275512695312
 31
0.0
1001
DBPROPERTIES
1002
{
1000
PbHidd
1002
}
  0
LINE
  5
135
330
1F
100
AcDbEntity
  8
HIDDEN
100
AcDbLine
 10
213.9615936279297
 20
25.54275512695312
 30
0.0
 11
213.8121795654297
 21
25.35829544067383
 31
0.0
1001
DBPROPERTIES
1002
{
1000
PbHidd
1002
}
  0
LINE
  5
136
330
1F
100
AcDbEntity
  8
HIDDEN
100
AcDbLine
 10
213.8121795654297
 20
25.35829544067383
 30
0.0
 11
213.6476440429688
 21
25.17129135131836
 31
0.0
1001
DBPROPERTIES
1002
{
1000
PbHidd
1002
}
  0
LINE
  5
137
330
1F
100
AcDbEntity
  8
HIDDEN
100
AcDbLine
 10
213.6476440429688
 20
25.17129135131836
 30
0.0
 11
213.4679870605469
 21
24.98322486877441
 31
0.0
1001
DBPROPERTIES
1002
{
1000
PbHidd
1002
}
  0
LINE
  5
138
330
1F
100
AcDbEntity
  8
HIDDEN
100
AcDbLine
 10
213.4679870605469
 20
24.98322486877441
 30
0.0
 11
213.2734375
 21
24.7955207824707
 31
0.0
1001
DBPROPERTIES
1002
{
1000
PbHidd
1002
}
  0
LINE
  5
139
330
1F
100
AcDbEntity
  8
HIDDEN
100
AcDbLine
 10
213.2734375
 20
24.7955207824707
 30
0.0
 11
213.0646209716797
 21
24.60954093933105
 31
0.0
1001
DBPROPERTIES
1002
{
1000
PbHidd
1002
}
  0
LINE
  5
13A
330
1F
100
AcDbEntity
  8
HIDDEN
100
AcDbLine
 10
213.0646209716797
 20
24.60954093933105
 30
0.0
 11
212.8421478271484
 21
24.42662239074707
 31
0.0
1001
DBPROPERTIES
1002
{
1000
PbHidd
1002
}
  0
LINE
  5
13B
330
1F
100
AcDbEntity
  8
HIDDEN
100
AcDbLine
 10
212.8421478271484
 20
24.42662239074707
 30
0.0
 11
212.6070556640625
 21
24.24797630310059
 31
0.0
1001
DBPROPERTIES
1002
{
1000
PbHidd
1002
}
  0
LINE
  5
13C
330
1F
100
AcDbEntity
  8
HIDDEN
100
AcDbLine
 10
212.6070556640625
 20
24.24797630310059
 30
0.0
 11
212.3607330322266
 21
24.07477760314941
 31
0.0
1001
DBPROPERTIES
1002
{
1000
PbHidd
1002
}
  0
LINE
  5
13D
330
1F
100
AcDbEntity
  8
HIDDEN
100
AcDbLine
 10
212.3607330322266
 20
24.07477760314941
 30
0.0
 11
212.1046142578125
 21
23.90817832946777
 31
0.0
1001
DBPROPERTIES
1002
{
1000
PbHidd
1002
}
  0
LINE
  5
13E
330
1F
100
AcDbEntity
  8
HIDDEN
100
AcDbLine
 10
212.1046142578125
 20
23.90817832946777
 30
0.0
 11
211.8407592773438
 21
23.74914932250977
 31
0.0
1001
DBPROPERTIES
1002
{
1000
PbHidd
1002
}
  0
LINE
  5
13F
330
1F
100
AcDbEntity
  8
HIDDEN
100
AcDbLine
 10
211.8407592773438
 20
23.74914932250977
 30
0.0
 11
211.5713348388672
 21
23.59857177734375
 31
0.0
1001
DBPROPERTIES
1002
{
1000
PbHidd
1002
}
  0
LINE
  5
140
330
1F
100
AcDbEntity
  8
HIDDEN
100
AcDbLine
 10
211.5713348388672
 20
23.59857177734375
 30
0.0
 11
211.2870788574219
 21
23.45147514343262
 31
0.0
1001
DBPROPERTIES
1002
{
1000
PbHidd
1002
}
  0
LINE
  5
141
330
1F
100
AcDbEntity
  8
HIDDEN
100
AcDbLine
 10
211.2870788574219
 20
23.45147514343262
 30
0.0
 11
210.9814147949219
 21
23.30538177490234
 31
0.0
1001
DBPROPERTIES
1002
{
1000
PbHidd
1002
}
  0
LINE
  5
142
330
1F
100
AcDbEntity
  8
HIDDEN
100
AcDbLine
 10
210.9814147949219
 20
23.30538177490234
 30
0.0
 11
210.6560363769531
 21
23.16250038146973
 31
0.0
1001
DBPROPERTIES
1002
{
1000
PbHidd
1002
}
  0
LINE
  5
143
330
1F
100
AcDbEntity
  8
HIDDEN
100
AcDbLine
 10
210.6560363769531
 20
23.16250038146973
 30
0.0
 11
210.3132476806641
 21
23.02477073669434
 31
0.0
1001
DBPROPERTIES
1002
{
1000
PbHidd
1002
}
  0
LINE
  5
144
330
1F
100
AcDbEntity
  8
HIDDEN
100
AcDbLine
 10
210.3132476806641
 20
23.02477073669434
 30
0.0
 11
209.9556732177734
 21
22.89398193359375
 31
0.0
1001
DBPROPERTIES
1002
{
1000
PbHidd
1002
}
  0
LINE
  5
145
330
1F
100
AcDbEntity
  8
HIDDEN
100
AcDbLine
 10
209.9556732177734
 20
22.89398193359375
 30
0.0
 11
209.5862731933594
 21
22.77163696289062
 31
0.0
1001
DBPROPERTIES
1002
{
1000
PbHidd
1002
}
  0
LINE
  5
146
330
1F
100
AcDbEntity
  8
HIDDEN
100
AcDbLine
 10
209.5862731933594
 20
22.77163696289062
 30
0.0
 11
209.2086181640625
 21
22.65899085998535
 31
0.0
1001
DBPROPERTIES
1002
{
1000
PbHidd
1002
}
  0
LINE
  5
147
330
1F
100
AcDbEntity
  8
HIDDEN
100
AcDbLine
 10
209.2086181640625
 20
22.65899085998535
 30
0.0
 11
208.8265991210938
 21
22.55710220336914
 31
0.0
1001
DBPROPERTIES
1002
{
1000
PbHidd
1002
}
  0
LINE
  5
148
330
1F
100
AcDbEntity
  8
HIDDEN
100
AcDbLine
 10
208.8265991210938
 20
22.55710220336914
 30
0.0
 11
208.4447631835938
 21
22.46657943725586
 31
0.0
1001
DBPROPERTIES
1002
{
1000
PbHidd
1002
}
  0
LINE
  5
149
330
1F
100
AcDbEntity
  8
HIDDEN
100
AcDbLine
 10
208.4447631835938
 20
22.46657943725586
 30
0.0
 11
208.0546875
 21
22.38530731201172
 31
0.0
1001
DBPROPERTIES
1002
{
1000
PbHidd
1002
}
  0
LINE
  5
14A
330
1F
100
AcDbEntity
  8
HIDDEN
100
AcDbLine
 10
208.0546875
 20
22.38530731201172
 30
0.0
 11
207.6422271728516
 21
22.31103515625
 31
0.0
1001
DBPROPERTIES
1002
{
1000
PbHidd
1002
}
  0
LINE
  5
14B
330
1F
100
AcDbEntity
  8
HIDDEN
100
AcDbLine
 10
207.6422271728516
 20
22.31103515625
 30
0.0
 11
207.2122344970703
 21
22.24594497680664
 31
0.0
1001
DBPROPERTIES
1002
{
1000
PbHidd
1002
}
  0
LINE
  5
14C
330
1F
100
AcDbEntity
  8
HIDDEN
100
AcDbLine
 10
207.2122344970703
 20
22.24594497680664
 30
0.0
 11
206.7702331542969
 21
22.19161224365234
 31
0.0
1001
DBPROPERTIES
1002
{
1000
PbHidd
1002
}
  0
LINE
  5
14D
330
1F
100
AcDbEntity
  8
HIDDEN
100
AcDbLine
 10
206.7702331542969
 20
22.19161224365234
 30
0.0
 11
206.3218536376953
 21
22.14923667907715
 31
0.0
1001
DBPROPERTIES
1002
{
1000
PbHidd
1002
}
  0
LINE
  5
14E
330
1F
100
AcDbEntity
  8
HIDDEN
100
AcDbLine
 10
206.3218536376953
 20
22.14923667907715
 30
0.0
 11
205.8731079101562
 21
22.11928749084473
 31
0.0
1001
DBPROPERTIES
1002
{
1000
PbHidd
1002
}
  0
LINE
  5
14F
330
1F
100
AcDbEntity
  8
HIDDEN
100
AcDbLine
 10
205.8731079101562
 20
22.11928749084473
 30
0.0
 11
205.4303131103516
 21
22.10185050964355
 31
0.0
1001
DBPROPERTIES
1002
{
1000
PbHidd
1002
}
  0
LINE
  5
150
330
1F
100
AcDbEntity
  8
HIDDEN
100
AcDbLine
 10
205.4303131103516
 20
22.10185050964355
 30
0.0
 11
205.0
 21
22.09623718261719
 31
0.0
1001
DBPROPERTIES
1002
{
1000
PbHidd
1002
}
  0
LINE
  5
151
330
1F
100
AcDbEntity
  8
HIDDEN
100
AcDbLine
 10
205.0
 20
33.40531539916992
 30
0.0
 11
205.4303131103516
 21
33.3942985534668
 31
0.0
1001
DBPROPERTIES
1002
{
1000
PbHidd
1002
}
  0
LINE
  5
152
330
1F
100
AcDbEntity
  8
HIDDEN
100
AcDbLine
 10
205.4303131103516
 20
33.3942985534668
 30
0.0
 11
205.8731079101562
 21
33.36007690429688
 31
0.0
1001
DBPROPERTIES
1002
{
1000
PbHidd
1002
}
  0
LINE
  5
153
330
1F
100
AcDbEntity
  8
HIDDEN
100
AcDbLine
 10
205.8731079101562
 20
33.36007690429688
 30
0.0
 11
206.3218536376953
 21
33.30130004882812
 31
0.0
1001
DBPROPERTIES
1002
{
1000
PbHidd
1002
}
  0
LINE
  5
154
330
1F
100
AcDbEntity
  8
HIDDEN
100
AcDbLine
 10
206.3218536376953
 20
33.30130004882812
 30
0.0
 11
206.7702331542969
 21
33.21813201904297
 31
0.0
1001
DBPROPERTIES
1002
{
1000
PbHidd
1002
}
  0
LINE
  5
155
330
1F
100
AcDbEntity
  8
HIDDEN
100
AcDbLine
 10
206.7702331542969
 20
33.21813201904297
 30
0.0
 11
207.2122344970703
 21
33.11149597167969
 31
0.0
1001
DBPROPERTIES
1002
{
1000
PbHidd
1002
}
  0
LINE
  5
156
330
1F
100
AcDbEntity
  8
HIDDEN
100
AcDbLine
 10
207.2122344970703
 20
33.11149597167969
 30
0.0
 11
207.6422271728516
 21
32.98374938964844
 31
0.0
1001
DBPROPERTIES
1002
{
1000
PbHidd
1002
}
  0
LINE
  5
157
330
1F
100
AcDbEntity
  8
HIDDEN
100
AcDbLine
 10
207.6422271728516
 20
32.98374938964844
 30
0.0
 11
208.0546875
 21
32.83798599243164
 31
0.0
1001
DBPROPERTIES
1002
{
1000
PbHidd
1002
}
  0
LINE
  5
158
330
1F
100
AcDbEntity
  8
HIDDEN
100
AcDbLine
 10
208.0546875
 20
32.83798599243164
 30
0.0
 11
208.4447631835938
 21
32.6784782409668
 31
0.0
1001
DBPROPERTIES
1002
{
1000
PbHidd
1002
}
  0
LINE
  5
159
330
1F
100
AcDbEntity
  8
HIDDEN
100
AcDbLine
 10
208.4447631835938
 20
32.6784782409668
 30
0.0
 11
208.8265991210938
 21
32.50081634521484
 31
0.0
1001
DBPROPERTIES
1002
{
1000
PbHidd
1002
}
  0
LINE
  5
15A
330
1F
100
AcDbEntity
  8
HIDDEN
100
AcDbLine
 10
208.8265991210938
 20
32.50081634521484
 30
0.0
 11
209.2086181640625
 21
32.30084991455078
 31
0.0
1001
DBPROPERTIES
1002
{
1000
PbHidd
1002
}
  0
LINE
  5
15B
330
1F
100
AcDbEntity
  8
HIDDEN
100
AcDbLine
 10
209.2086181640625
 20
32.30084991455078
 30
0.0
 11
209.5862731933594
 21
32.07976913452148
 31
0.0
1001
DBPROPERTIES
1002
{
1000
PbHidd
1002
}
  0
LINE
  5
15C
330
1F
100
AcDbEntity
  8
HIDDEN
100
AcDbLine
 10
209.5862731933594
 20
32.07976913452148
 30
0.0
 11
209.9556732177734
 21
31.83965492248535
 31
0.0
1001
DBPROPERTIES
1002
{
1000
PbHidd
1002
}
  0
LINE
  5
15D
330
1F
100
AcDbEntity
  8
HIDDEN
100
AcDbLine
 10
209.9556732177734
 20
31.83965492248535
 30
0.0
 11
210.3132476806641
 21
31.58296775817871
 31
0.0
1001
DBPROPERTIES
1002
{
1000
PbHidd
1002
}
  0
LINE
  5
15E
330
1F
100
AcDbEntity
  8
HIDDEN
100
AcDbLine
 10
210.3132476806641
 20
31.58296775817871
 30
0.0
 11
210.6560363769531
 21
31.31265640258789
 31
0.0
1001
DBPROPERTIES
1002
{
1000
PbHidd
1002
}
  0
LINE
  5
15F
330
1F
100
AcDbEntity
  8
HIDDEN
100
AcDbLine
 10
210.6560363769531
 20
31.31265640258789
 30
0.0
 11
210.9814147949219
 21
31.03223609924316
 31
0.0
1001
DBPROPERTIES
1002
{
1000
PbHidd
1002
}
  0
LINE
  5
160
330
1F
100
AcDbEntity
  8
HIDDEN
100
AcDbLine
 10
210.9814147949219
 20
31.03223609924316
 30
0.0
 11
211.2870788574219
 21
30.74551200866699
 31
0.0
1001
DBPROPERTIES
1002
{
1000
PbHidd
1002
}
  0
LINE
  5
161
330
1F
100
AcDbEntity
  8
HIDDEN
100
AcDbLine
 10
211.2870788574219
 20
30.74551200866699
 30
0.0
 11
211.5713348388672
 21
30.45681762695312
 31
0.0
1001
DBPROPERTIES
1002
{
1000
PbHidd
1002
}
  0
LINE
  5
162
330
1F
100
AcDbEntity
  8
HIDDEN
100
AcDbLine
 10
211.5713348388672
 20
30.45681762695312
 30
0.0
 11
211.8407592773438
 21
30.16129302978516
 31
0.0
1001
DBPROPERTIES
1002
{
1000
PbHidd
1002
}
  0
LINE
  5
163
330
1F
100
AcDbEntity
  8
HIDDEN
100
AcDbLine
 10
211.8407592773438
 20
30.16129302978516
 30
0.0
 11
212.1046142578125
 21
29.84918212890625
 31
0.0
1001
DBPROPERTIES
1002
{
1000
PbHidd
1002
}
  0
LINE
  5
164
330
1F
100
AcDbEntity
  8
HIDDEN
100
AcDbLine
 10
212.1046142578125
 20
29.84918212890625
 30
0.0
 11
212.3607330322266
 21
29.52220916748047
 31
0.0
1001
DBPROPERTIES
1002
{
1000
PbHidd
1002
}
  0
LINE
  5
165
330
1F
100
AcDbEntity
  8
HIDDEN
100
AcDbLine
 10
212.3607330322266
 20
29.52220916748047
 30
0.0
 11
212.6070556640625
 21
29.18228912353516
 31
0.0
1001
DBPROPERTIES
1002
{
1000
PbHidd
1002
}
  0
LINE
  5
166
330
1F
100
AcDbEntity
  8
HIDDEN
100
AcDbLine
 10
212.6070556640625
 20
29.18228912353516
 30
0.0
 11
212.8421478271484
 21
28.8316764831543
 31
0.0
1001
DBPROPERTIES
1002
{
1000
PbHidd
1002
}
  0
LINE
  5
167
330
1F
100
AcDbEntity
  8
HIDDEN
100
AcDbLine
 10
212.8421478271484
 20
28.8316764831543
 30
0.0
 11
213.0646209716797
 21
28.47267723083496
 31
0.0
1001
DBPROPERTIES
1002
{
1000
PbHidd
1002
}
  0
LINE
  5
168
330
1F
100
AcDbEntity
  8
HIDDEN
100
AcDbLine
 10
213.0646209716797
 20
28.47267723083496
 30
0.0
 11
213.2734375
 21
28.1076717376709
 31
0.0
1001
DBPROPERTIES
1002
{
1000
PbHidd
1002
}
  0
LINE
  5
169
330
1F
100
AcDbEntity
  8
HIDDEN
100
AcDbLine
 10
213.2734375
 20
28.1076717376709
 30
0.0
 11
213.4679870605469
 21
27.73928260803223
 31
0.0
1001
DBPROPERTIES
1002
{
1000
PbHidd
1002
}
  0
LINE
  5
16A
330
1F
100
AcDbEntity
  8
HIDDEN
100
AcDbLine
 10
213.4679870605469
 20
27.73928260803223
 30
0.0
 11
213.6476440429688
 21
27.37018394470215
 31
0.0
1001
DBPROPERTIES
1002
{
1000
PbHidd
1002
}
  0
LINE
  5
16B
330
1F
100
AcDbEntity
  8
HIDDEN
100
AcDbLine
 10
213.6476440429688
 20
27.37018394470215
 30
0.0
 11
213.8121795654297
 21
27.00316619873047
 31
0.0
1001
DBPROPERTIES
1002
{
1000
PbHidd
1002
}
  0
LINE
  5
16C
330
1F
100
AcDbEntity
  8
HIDDEN
100
AcDbLine
 10
213.8121795654297
 20
27.00316619873047
 30
0.0
 11
213.9615936279297
 21
26.64114189147949
 31
0.0
1001
DBPROPERTIES
1002
{
1000
PbHidd
1002
}
  0
LINE
  5
16D
330
1F
100
AcDbEntity
  8
HIDDEN
100
AcDbLine
 10
213.9615936279297
 20
26.64114189147949
 30
0.0
 11
214.0976715087891
 21
26.28241157531738
 31
0.0
1001
DBPROPERTIES
1002
{
1000
PbHidd
1002
}
  0
LINE
  5
16E
330
1F
100
AcDbEntity
  8
HIDDEN
100
AcDbLine
 10
214.0976715087891
 20
26.28241157531738
 30
0.0
 11
214.2258758544922
 21
25.91350555419922
 31
0.0
1001
DBPROPERTIES
1002
{
1000
PbHidd
1002
}
  0
LINE
  5
16F
330
1F
100
AcDbEntity
  8
HIDDEN
100
AcDbLine
 10
205.0
 20
33.40531685164337
 30
0.0
 11
205.0
 21
47.97507481792619
 31
0.0
1001
DBPROPERTIES
1002
{
1000
PbHidd
1002
}
  0
LINE
  5
170
330
1F
100
AcDbEntity
  8
HIDDEN
100
AcDbLine
 10
214.2258758544922
 20
49.2904167175293
 30
0.0
 11
214.0976715087891
 21
49.22564697265625
 31
0.0
1001
DBPROPERTIES
1002
{
1000
PbHidd
1002
}
  0
LINE
  5
171
330
1F
100
AcDbEntity
  8
HIDDEN
100
AcDbLine
 10
214.0976715087891
 20
49.22564697265625
 30
0.0
 11
213.9615936279297
 21
49.16266250610352
 31
0.0
1001
DBPROPERTIES
1002
{
1000
PbHidd
1002
}
  0
LINE
  5
172
330
1F
100
AcDbEntity
  8
HIDDEN
100
AcDbLine
 10
213.9615936279297
 20
49.16266250610352
 30
0.0
 11
213.8121795654297
 21
49.09910202026367
 31
0.0
1001
DBPROPERTIES
1002
{
1000
PbHidd
1002
}
  0
LINE
  5
173
330
1F
100
AcDbEntity
  8
HIDDEN
100
AcDbLine
 10
213.8121795654297
 20
49.09910202026367
 30
0.0
 11
213.6476440429688
 21
49.03466796875
 31
0.0
1001
DBPROPERTIES
1002
{
1000
PbHidd
1002
}
  0
LINE
  5
174
330
1F
100
AcDbEntity
  8
HIDDEN
100
AcDbLine
 10
213.6476440429688
 20
49.03466796875
 30
0.0
 11
213.4679870605469
 21
48.96986389160156
 31
0.0
1001
DBPROPERTIES
1002
{
1000
PbHidd
1002
}
  0
LINE
  5
175
330
1F
100
AcDbEntity
  8
HIDDEN
100
AcDbLine
 10
213.4679870605469
 20
48.96986389160156
 30
0.0
 11
213.2734375
 21
48.90518569946289
 31
0.0
1001
DBPROPERTIES
1002
{
1000
PbHidd
1002
}
  0
LINE
  5
176
330
1F
100
AcDbEntity
  8
HIDDEN
100
AcDbLine
 10
213.2734375
 20
48.90518569946289
 30
0.0
 11
213.0646209716797
 21
48.84110260009766
 31
0.0
1001
DBPROPERTIES
1002
{
1000
PbHidd
1002
}
  0
LINE
  5
177
330
1F
100
AcDbEntity
  8
HIDDEN
100
AcDbLine
 10
213.0646209716797
 20
48.84110260009766
 30
0.0
 11
212.8421478271484
 21
48.77807235717773
 31
0.0
1001
DBPROPERTIES
1002
{
1000
PbHidd
1002
}
  0
LINE
  5
178
330
1F
100
AcDbEntity
  8
HIDDEN
100
AcDbLine
 10
212.8421478271484
 20
48.77807235717773
 30
0.0
 11
212.6070556640625
 21
48.71651458740234
 31
0.0
1001
DBPROPERTIES
1002
{
1000
PbHidd
1002
}
  0
LINE
  5
179
330
1F
100
AcDbEntity
  8
HIDDEN
100
AcDbLine
 10
212.6070556640625
 20
48.71651458740234
 30
0.0
 11
212.3607330322266
 21
48.65683364868164
 31
0.0
1001
DBPROPERTIES
1002
{
1000
PbHidd
1002
}
  0
LINE
  5
17A
330
1F
100
AcDbEntity
  8
HIDDEN
100
AcDbLine
 10
212.3607330322266
 20
48.65683364868164
 30
0.0
 11
212.1046142578125
 21
48.59942626953125
 31
0.0
1001
DBPROPERTIES
1002
{
1000
PbHidd
1002
}
  0
LINE
  5
17B
330
1F
100
AcDbEntity
  8
HIDDEN
100
AcDbLine
 10
212.1046142578125
 20
48.59942626953125
 30
0.0
 11
211.8407592773438
 21
48.54462814331055
 31
0.0
1001
DBPROPERTIES
1002
{
1000
PbHidd
1002
}
  0
LINE
  5
17C
330
1F
100
AcDbEntity
  8
HIDDEN
100
AcDbLine
 10
211.8407592773438
 20
48.54462814331055
 30
0.0
 11
211.5713348388672
 21
48.49274444580078
 31
0.0
1001
DBPROPERTIES
1002
{
1000
PbHidd
1002
}
  0
LINE
  5
17D
330
1F
100
AcDbEntity
  8
HIDDEN
100
AcDbLine
 10
211.5713348388672
 20
48.49274444580078
 30
0.0
 11
211.2870788574219
 21
48.44205856323242
 31
0.0
1001
DBPROPERTIES
1002
{
1000
PbHidd
1002
}
  0
LINE
  5
17E
330
1F
100
AcDbEntity
  8
HIDDEN
100
AcDbLine
 10
211.2870788574219
 20
48.44205856323242
 30
0.0
 11
210.9814147949219
 21
48.39171600341797
 31
0.0
1001
DBPROPERTIES
1002
{
1000
PbHidd
1002
}
  0
LINE
  5
17F
330
1F
100
AcDbEntity
  8
HIDDEN
100
AcDbLine
 10
210.9814147949219
 20
48.39171600341797
 30
0.0
 11
210.6560363769531
 21
48.34248352050781
 31
0.0
1001
DBPROPERTIES
1002
{
1000
PbHidd
1002
}
  0
LINE
  5
180
330
1F
100
AcDbEntity
  8
HIDDEN
100
AcDbLine
 10
210.6560363769531
 20
48.34248352050781
 30
0.0
 11
210.3132476806641
 21
48.29502487182617
 31
0.0
1001
DBPROPERTIES
1002
{
1000
PbHidd
1002
}
  0
LINE
  5
181
330
1F
100
AcDbEntity
  8
HIDDEN
100
AcDbLine
 10
210.3132476806641
 20
48.29502487182617
 30
0.0
 11
209.9556732177734
 21
48.24995803833008
 31
0.0
1001
DBPROPERTIES
1002
{
1000
PbHidd
1002
}
  0
LINE
  5
182
330
1F
100
AcDbEntity
  8
HIDDEN
100
AcDbLine
 10
209.9556732177734
 20
48.24995803833008
 30
0.0
 11
209.5862731933594
 21
48.20780181884766
 31
0.0
1001
DBPROPERTIES
1002
{
1000
PbHidd
1002
}
  0
LINE
  5
183
330
1F
100
AcDbEntity
  8
HIDDEN
100
AcDbLine
 10
209.5862731933594
 20
48.20780181884766
 30
0.0
 11
209.2086181640625
 21
48.16898727416992
 31
0.0
1001
DBPROPERTIES
1002
{
1000
PbHidd
1002
}
  0
LINE
  5
184
330
1F
100
AcDbEntity
  8
HIDDEN
100
AcDbLine
 10
209.2086181640625
 20
48.16898727416992
 30
0.0
 11
208.8265991210938
 21
48.13387680053711
 31
0.0
1001
DBPROPERTIES
1002
{
1000
PbHidd
1002
}
  0
LINE
  5
185
330
1F
100
AcDbEntity
  8
HIDDEN
100
AcDbLine
 10
208.8265991210938
 20
48.13387680053711
 30
0.0
 11
208.4447631835938
 21
48.10268783569336
 31
0.0
1001
DBPROPERTIES
1002
{
1000
PbHidd
1002
}
  0
LINE
  5
186
330
1F
100
AcDbEntity
  8
HIDDEN
100
AcDbLine
 10
208.4447631835938
 20
48.10268783569336
 30
0.0
 11
208.0546875
 21
48.07468032836914
 31
0.0
1001
DBPROPERTIES
1002
{
1000
PbHidd
1002
}
  0
LINE
  5
187
330
1F
100
AcDbEntity
  8
HIDDEN
100
AcDbLine
 10
208.0546875
 20
48.07468032836914
 30
0.0
 11
207.6422271728516
 21
48.04909133911133
 31
0.0
1001
DBPROPERTIES
1002
{
1000
PbHidd
1002
}
  0
LINE
  5
188
330
1F
100
AcDbEntity
  8
HIDDEN
100
AcDbLine
 10
207.6422271728516
 20
48.04909133911133
 30
0.0
 11
207.2122344970703
 21
48.02666091918945
 31
0.0
1001
DBPROPERTIES
1002
{
1000
PbHidd
1002
}
  0
LINE
  5
189
330
1F
100
AcDbEntity
  8
HIDDEN
100
AcDbLine
 10
207.2122344970703
 20
48.02666091918945
 30
0.0
 11
206.7702331542969
 21
48.00793838500977
 31
0.0
1001
DBPROPERTIES
1002
{
1000
PbHidd
1002
}
  0
LINE
  5
18A
330
1F
100
AcDbEntity
  8
HIDDEN
100
AcDbLine
 10
206.7702331542969
 20
48.00793838500977
 30
0.0
 11
206.3218536376953
 21
47.99333572387695
 31
0.0
1001
DBPROPERTIES
1002
{
1000
PbHidd
1002
}
  0
LINE
  5
18B
330
1F
100
AcDbEntity
  8
HIDDEN
100
AcDbLine
 10
206.3218536376953
 20
47.99333572387695
 30
0.0
 11
205.8731079101562
 21
47.98301696777344
 31
0.0
1001
DBPROPERTIES
1002
{
1000
PbHidd
1002
}
  0
LINE
  5
18C
330
1F
100
AcDbEntity
  8
HIDDEN
100
AcDbLine
 10
205.8731079101562
 20
47.98301696777344
 30
0.0
 11
205.4303131103516
 21
47.97700881958008
 31
0.0
1001
DBPROPERTIES
1002
{
1000
PbHidd
1002
}
  0
LINE
  5
18D
330
1F
100
AcDbEntity
  8
HIDDEN
100
AcDbLine
 10
205.4303131103516
 20
47.97700881958008
 30
0.0
 11
205.0
 21
47.97507476806641
 31
0.0
1001
DBPROPERTIES
1002
{
1000
PbHidd
1002
}
  0
LINE
  5
18E
330
1F
100
AcDbEntity
  8
HIDDEN
100
AcDbLine
 10
205.0
 20
57.59515380859375
 30
0.0
 11
205.4303131103516
 21
57.58294296264648
 31
0.0
1001
DBPROPERTIES
1002
{
1000
PbHidd
1002
}
  0
LINE
  5
18F
330
1F
100
AcDbEntity
  8
HIDDEN
100
AcDbLine
 10
205.4303131103516
 20
57.58294296264648
 30
0.0
 11
205.8731079101562
 21
57.54500579833984
 31
0.0
1001
DBPROPERTIES
1002
{
1000
PbHidd
1002
}
  0
LINE
  5
190
330
1F
100
AcDbEntity
  8
HIDDEN
100
AcDbLine
 10
205.8731079101562
 20
57.54500579833984
 30
0.0
 11
206.3218536376953
 21
57.4798469543457
 31
0.0
1001
DBPROPERTIES
1002
{
1000
PbHidd
1002
}
  0
LINE
  5
191
330
1F
100
AcDbEntity
  8
HIDDEN
100
AcDbLine
 10
206.3218536376953
 20
57.4798469543457
 30
0.0
 11
206.7702331542969
 21
57.38765716552734
 31
0.0
1001
DBPROPERTIES
1002
{
1000
PbHidd
1002
}
  0
LINE
  5
192
330
1F
100
AcDbEntity
  8
HIDDEN
100
AcDbLine
 10
206.7702331542969
 20
57.38765716552734
 30
0.0
 11
207.2122344970703
 21
57.26945114135742
 31
0.0
1001
DBPROPERTIES
1002
{
1000
PbHidd
1002
}
  0
LINE
  5
193
330
1F
100
AcDbEntity
  8
HIDDEN
100
AcDbLine
 10
207.2122344970703
 20
57.26945114135742
 30
0.0
 11
207.6422271728516
 21
57.12784194946289
 31
0.0
1001
DBPROPERTIES
1002
{
1000
PbHidd
1002
}
  0
LINE
  5
194
330
1F
100
AcDbEntity
  8
HIDDEN
100
AcDbLine
 10
207.6422271728516
 20
57.12784194946289
 30
0.0
 11
208.0546875
 21
56.96626281738281
 31
0.0
1001
DBPROPERTIES
1002
{
1000
PbHidd
1002
}
  0
LINE
  5
195
330
1F
100
AcDbEntity
  8
HIDDEN
100
AcDbLine
 10
208.0546875
 20
56.96626281738281
 30
0.0
 11
208.4447631835938
 21
56.78944778442383
 31
0.0
1001
DBPROPERTIES
1002
{
1000
PbHidd
1002
}
  0
LINE
  5
196
330
1F
100
AcDbEntity
  8
HIDDEN
100
AcDbLine
 10
208.4447631835938
 20
56.78944778442383
 30
0.0
 11
208.8265991210938
 21
56.59250640869141
 31
0.0
1001
DBPROPERTIES
1002
{
1000
PbHidd
1002
}
  0
LINE
  5
197
330
1F
100
AcDbEntity
  8
HIDDEN
100
AcDbLine
 10
208.8265991210938
 20
56.59250640869141
 30
0.0
 11
209.2086181640625
 21
56.37084197998047
 31
0.0
1001
DBPROPERTIES
1002
{
1000
PbHidd
1002
}
  0
LINE
  5
198
330
1F
100
AcDbEntity
  8
HIDDEN
100
AcDbLine
 10
209.2086181640625
 20
56.37084197998047
 30
0.0
 11
209.5862731933594
 21
56.12577438354492
 31
0.0
1001
DBPROPERTIES
1002
{
1000
PbHidd
1002
}
  0
LINE
  5
199
330
1F
100
AcDbEntity
  8
HIDDEN
100
AcDbLine
 10
209.5862731933594
 20
56.12577438354492
 30
0.0
 11
209.9556732177734
 21
55.85960388183594
 31
0.0
1001
DBPROPERTIES
1002
{
1000
PbHidd
1002
}
  0
LINE
  5
19A
330
1F
100
AcDbEntity
  8
HIDDEN
100
AcDbLine
 10
209.9556732177734
 20
55.85960388183594
 30
0.0
 11
210.3132476806641
 21
55.5750617980957
 31
0.0
1001
DBPROPERTIES
1002
{
1000
PbHidd
1002
}
  0
LINE
  5
19B
330
1F
100
AcDbEntity
  8
HIDDEN
100
AcDbLine
 10
210.3132476806641
 20
55.5750617980957
 30
0.0
 11
210.6560363769531
 21
55.27542114257812
 31
0.0
1001
DBPROPERTIES
1002
{
1000
PbHidd
1002
}
  0
LINE
  5
19C
330
1F
100
AcDbEntity
  8
HIDDEN
100
AcDbLine
 10
210.6560363769531
 20
55.27542114257812
 30
0.0
 11
210.9814147949219
 21
54.96457290649414
 31
0.0
1001
DBPROPERTIES
1002
{
1000
PbHidd
1002
}
  0
LINE
  5
19D
330
1F
100
AcDbEntity
  8
HIDDEN
100
AcDbLine
 10
210.9814147949219
 20
54.96457290649414
 30
0.0
 11
211.2870788574219
 21
54.64673614501953
 31
0.0
1001
DBPROPERTIES
1002
{
1000
PbHidd
1002
}
  0
LINE
  5
19E
330
1F
100
AcDbEntity
  8
HIDDEN
100
AcDbLine
 10
211.2870788574219
 20
54.64673614501953
 30
0.0
 11
211.5713348388672
 21
54.32671737670898
 31
0.0
1001
DBPROPERTIES
1002
{
1000
PbHidd
1002
}
  0
LINE
  5
19F
330
1F
100
AcDbEntity
  8
HIDDEN
100
AcDbLine
 10
211.5713348388672
 20
54.32671737670898
 30
0.0
 11
211.8407592773438
 21
53.99912643432617
 31
0.0
1001
DBPROPERTIES
1002
{
1000
PbHidd
1002
}
  0
LINE
  5
1A0
330
1F
100
AcDbEntity
  8
HIDDEN
100
AcDbLine
 10
211.8407592773438
 20
53.99912643432617
 30
0.0
 11
212.1046142578125
 21
53.65314865112305
 31
0.0
1001
DBPROPERTIES
1002
{
1000
PbHidd
1002
}
  0
LINE
  5
1A1
330
1F
100
AcDbEntity
  8
HIDDEN
100
AcDbLine
 10
212.1046142578125
 20
53.65314865112305
 30
0.0
 11
212.3607330322266
 21
53.29069519042969
 31
0.0
1001
DBPROPERTIES
1002
{
1000
PbHidd
1002
}
  0
LINE
  5
1A2
330
1F
100
AcDbEntity
  8
HIDDEN
100
AcDbLine
 10
212.3607330322266
 20
53.29069519042969
 30
0.0
 11
212.6070556640625
 21
52.91389083862305
 31
0.0
1001
DBPROPERTIES
1002
{
1000
PbHidd
1002
}
  0
LINE
  5
1A3
330
1F
100
AcDbEntity
  8
HIDDEN
100
AcDbLine
 10
212.6070556640625
 20
52.91389083862305
 30
0.0
 11
212.8421478271484
 21
52.52523422241211
 31
0.0
1001
DBPROPERTIES
1002
{
1000
PbHidd
1002
}
  0
LINE
  5
1A4
330
1F
100
AcDbEntity
  8
HIDDEN
100
AcDbLine
 10
212.8421478271484
 20
52.52523422241211
 30
0.0
 11
213.0646209716797
 21
52.12728118896484
 31
0.0
1001
DBPROPERTIES
1002
{
1000
PbHidd
1002
}
  0
LINE
  5
1A5
330
1F
100
AcDbEntity
  8
HIDDEN
100
AcDbLine
 10
213.0646209716797
 20
52.12728118896484
 30
0.0
 11
213.2734375
 21
51.7226676940918
 31
0.0
1001
DBPROPERTIES
1002
{
1000
PbHidd
1002
}
  0
LINE
  5
1A6
330
1F
100
AcDbEntity
  8
HIDDEN
100
AcDbLine
 10
213.2734375
 20
51.7226676940918
 30
0.0
 11
213.4679870605469
 21
51.31430816650391
 31
0.0
1001
DBPROPERTIES
1002
{
1000
PbHidd
1002
}
  0
LINE
  5
1A7
330
1F
100
AcDbEntity
  8
HIDDEN
100
AcDbLine
 10
213.4679870605469
 20
51.31430816650391
 30
0.0
 11
213.6476440429688
 21
50.90515518188477
 31
0.0
1001
DBPROPERTIES
1002
{
1000
PbHidd
1002
}
  0
LINE
  5
1A8
330
1F
100
AcDbEntity
  8
HIDDEN
100
AcDbLine
 10
213.6476440429688
 20
50.90515518188477
 30
0.0
 11
213.8121795654297
 21
50.49831390380859
 31
0.0
1001
DBPROPERTIES
1002
{
1000
PbHidd
1002
}
  0
LINE
  5
1A9
330
1F
100
AcDbEntity
  8
HIDDEN
100
AcDbLine
 10
213.8121795654297
 20
50.49831390380859
 30
0.0
 11
213.9615936279297
 21
50.09700775146484
 31
0.0
1001
DBPROPERTIES
1002
{
1000
PbHidd
1002
}
  0
LINE
  5
1AA
330
1F
100
AcDbEntity
  8
HIDDEN
100
AcDbLine
 10
213.9615936279297
 20
50.09700775146484
 30
0.0
 11
214.0976715087891
 21
49.6993522644043
 31
0.0
1001
DBPROPERTIES
1002
{
1000
PbHidd
1002
}
  0
LINE
  5
1AB
330
1F
100
AcDbEntity
  8
HIDDEN
100
AcDbLine
 10
214.0976715087891
 20
49.6993522644043
 30
0.0
 11
214.2258758544922
 21
49.2904167175293
 31
0.0
1001
DBPROPERTIES
1002
{
1000
PbHidd
1002
}
  0
LINE
  5
1AC
330
1F
100
AcDbEntity
  8
HIDDEN
100
AcDbLine
 10
205.0
 20
57.59515315473507
 30
0.0
 11
205.0
 21
69.1577785435782
 31
0.0
1001
DBPROPERTIES
1002
{
1000
PbHidd
1002
}
  0
LINE
  5
1AD
330
1F
100
AcDbEntity
  8
HIDDEN
100
AcDbLine
 10
205.0
 20
76.14717102050781
 30
0.0
 11
205.4303131103516
 21
76.13496398925781
 31
0.0
1001
DBPROPERTIES
1002
{
1000
PbHidd
1002
}
  0
LINE
  5
1AE
330
1F
100
AcDbEntity
  8
HIDDEN
100
AcDbLine
 10
205.4303131103516
 20
76.13496398925781
 30
0.0
 11
205.8731079101562
 21
76.09703063964844
 31
0.0
1001
DBPROPERTIES
1002
{
1000
PbHidd
1002
}
  0
LINE
  5
1AF
330
1F
100
AcDbEntity
  8
HIDDEN
100
AcDbLine
 10
205.8731079101562
 20
76.09703063964844
 30
0.0
 11
206.3218536376953
 21
76.03186798095703
 31
0.0
1001
DBPROPERTIES
1002
{
1000
PbHidd
1002
}
  0
LINE
  5
1B0
330
1F
100
AcDbEntity
  8
HIDDEN
100
AcDbLine
 10
206.3218536376953
 20
76.03186798095703
 30
0.0
 11
206.7702331542969
 21
75.9396743774414
 31
0.0
1001
DBPROPERTIES
1002
{
1000
PbHidd
1002
}
  0
LINE
  5
1B1
330
1F
100
AcDbEntity
  8
HIDDEN
100
AcDbLine
 10
206.7702331542969
 20
75.9396743774414
 30
0.0
 11
207.2122344970703
 21
75.82147216796875
 31
0.0
1001
DBPROPERTIES
1002
{
1000
PbHidd
1002
}
  0
LINE
  5
1B2
330
1F
100
AcDbEntity
  8
HIDDEN
100
AcDbLine
 10
207.2122344970703
 20
75.82147216796875
 30
0.0
 11
207.6422271728516
 21
75.67986297607422
 31
0.0
1001
DBPROPERTIES
1002
{
1000
PbHidd
1002
}
  0
LINE
  5
1B3
330
1F
100
AcDbEntity
  8
HIDDEN
100
AcDbLine
 10
207.6422271728516
 20
75.67986297607422
 30
0.0
 11
208.0546875
 21
75.51828002929688
 31
0.0
1001
DBPROPERTIES
1002
{
1000
PbHidd
1002
}
  0
LINE
  5
1B4
330
1F
100
AcDbEntity
  8
HIDDEN
100
AcDbLine
 10
208.0546875
 20
75.51828002929688
 30
0.0
 11
208.4447631835938
 21
75.34146881103516
 31
0.0
1001
DBPROPERTIES
1002
{
1000
PbHidd
1002
}
  0
LINE
  5
1B5
330
1F
100
AcDbEntity
  8
HIDDEN
100
AcDbLine
 10
208.4447631835938
 20
75.34146881103516
 30
0.0
 11
208.8265991210938
 21
75.14453125
 31
0.0
1001
DBPROPERTIES
1002
{
1000
PbHidd
1002
}
  0
LINE
  5
1B6
330
1F
100
AcDbEntity
  8
HIDDEN
100
AcDbLine
 10
208.8265991210938
 20
75.14453125
 30
0.0
 11
209.2086181640625
 21
74.92286682128906
 31
0.0
1001
DBPROPERTIES
1002
{
1000
PbHidd
1002
}
  0
LINE
  5
1B7
330
1F
100
AcDbEntity
  8
HIDDEN
100
AcDbLine
 10
209.2086181640625
 20
74.92286682128906
 30
0.0
 11
209.5862731933594
 21
74.67779541015625
 31
0.0
1001
DBPROPERTIES
1002
{
1000
PbHidd
1002
}
  0
LINE
  5
1B8
330
1F
100
AcDbEntity
  8
HIDDEN
100
AcDbLine
 10
209.5862731933594
 20
74.67779541015625
 30
0.0
 11
209.9556732177734
 21
74.41162109375
 31
0.0
1001
DBPROPERTIES
1002
{
1000
PbHidd
1002
}
  0
LINE
  5
1B9
330
1F
100
AcDbEntity
  8
HIDDEN
100
AcDbLine
 10
209.9556732177734
 20
74.41162109375
 30
0.0
 11
210.3132476806641
 21
74.12708282470703
 31
0.0
1001
DBPROPERTIES
1002
{
1000
PbHidd
1002
}
  0
LINE
  5
1BA
330
1F
100
AcDbEntity
  8
HIDDEN
100
AcDbLine
 10
210.3132476806641
 20
74.12708282470703
 30
0.0
 11
210.6560363769531
 21
73.82743835449219
 31
0.0
1001
DBPROPERTIES
1002
{
1000
PbHidd
1002
}
  0
LINE
  5
1BB
330
1F
100
AcDbEntity
  8
HIDDEN
100
AcDbLine
 10
210.6560363769531
 20
73.82743835449219
 30
0.0
 11
210.9814147949219
 21
73.51659393310547
 31
0.0
1001
DBPROPERTIES
1002
{
1000
PbHidd
1002
}
  0
LINE
  5
1BC
330
1F
100
AcDbEntity
  8
HIDDEN
100
AcDbLine
 10
210.9814147949219
 20
73.51659393310547
 30
0.0
 11
211.2870788574219
 21
73.19876098632812
 31
0.0
1001
DBPROPERTIES
1002
{
1000
PbHidd
1002
}
  0
LINE
  5
1BD
330
1F
100
AcDbEntity
  8
HIDDEN
100
AcDbLine
 10
211.2870788574219
 20
73.19876098632812
 30
0.0
 11
211.5713348388672
 21
72.87873840332031
 31
0.0
1001
DBPROPERTIES
1002
{
1000
PbHidd
1002
}
  0
LINE
  5
1BE
330
1F
100
AcDbEntity
  8
HIDDEN
100
AcDbLine
 10
211.5713348388672
 20
72.87873840332031
 30
0.0
 11
211.8407592773438
 21
72.5511474609375
 31
0.0
1001
DBPROPERTIES
1002
{
1000
PbHidd
1002
}
  0
LINE
  5
1BF
330
1F
100
AcDbEntity
  8
HIDDEN
100
AcDbLine
 10
211.8407592773438
 20
72.5511474609375
 30
0.0
 11
212.1046142578125
 21
72.20516967773438
 31
0.0
1001
DBPROPERTIES
1002
{
1000
PbHidd
1002
}
  0
LINE
  5
1C0
330
1F
100
AcDbEntity
  8
HIDDEN
100
AcDbLine
 10
212.1046142578125
 20
72.20516967773438
 30
0.0
 11
212.3607330322266
 21
71.84272003173828
 31
0.0
1001
DBPROPERTIES
1002
{
1000
PbHidd
1002
}
  0
LINE
  5
1C1
330
1F
100
AcDbEntity
  8
HIDDEN
100
AcDbLine
 10
212.3607330322266
 20
71.84272003173828
 30
0.0
 11
212.6070556640625
 21
71.46591186523438
 31
0.0
1001
DBPROPERTIES
1002
{
1000
PbHidd
1002
}
  0
LINE
  5
1C2
330
1F
100
AcDbEntity
  8
HIDDEN
100
AcDbLine
 10
212.6070556640625
 20
71.46591186523438
 30
0.0
 11
212.8421478271484
 21
71.07725524902344
 31
0.0
1001
DBPROPERTIES
1002
{
1000
PbHidd
1002
}
  0
LINE
  5
1C3
330
1F
100
AcDbEntity
  8
HIDDEN
100
AcDbLine
 10
212.8421478271484
 20
71.07725524902344
 30
0.0
 11
213.0646209716797
 21
70.6792984008789
 31
0.0
1001
DBPROPERTIES
1002
{
1000
PbHidd
1002
}
  0
LINE
  5
1C4
330
1F
100
AcDbEntity
  8
HIDDEN
100
AcDbLine
 10
213.0646209716797
 20
70.6792984008789
 30
0.0
 11
213.2734375
 21
70.27468872070312
 31
0.0
1001
DBPROPERTIES
1002
{
1000
PbHidd
1002
}
  0
LINE
  5
1C5
330
1F
100
AcDbEntity
  8
HIDDEN
100
AcDbLine
 10
213.2734375
 20
70.27468872070312
 30
0.0
 11
213.4679870605469
 21
69.86632537841797
 31
0.0
1001
DBPROPERTIES
1002
{
1000
PbHidd
1002
}
  0
LINE
  5
1C6
330
1F
100
AcDbEntity
  8
HIDDEN
100
AcDbLine
 10
213.4679870605469
 20
69.86632537841797
 30
0.0
 11
213.6476440429688
 21
69.4571762084961
 31
0.0
1001
DBPROPERTIES
1002
{
1000
PbHidd
1002
}
  0
LINE
  5
1C7
330
1F
100
AcDbEntity
  8
HIDDEN
100
AcDbLine
 10
213.6476440429688
 20
69.4571762084961
 30
0.0
 11
213.8121795654297
 21
69.05033874511719
 31
0.0
1001
DBPROPERTIES
1002
{
1000
PbHidd
1002
}
  0
LINE
  5
1C8
330
1F
100
AcDbEntity
  8
HIDDEN
100
AcDbLine
 10
213.8121795654297
 20
69.05033874511719
 30
0.0
 11
213.9615936279297
 21
68.64903259277344
 31
0.0
1001
DBPROPERTIES
1002
{
1000
PbHidd
1002
}
  0
LINE
  5
1C9
330
1F
100
AcDbEntity
  8
HIDDEN
100
AcDbLine
 10
213.9615936279297
 20
68.64903259277344
 30
0.0
 11
214.0976715087891
 21
68.25137329101562
 31
0.0
1001
DBPROPERTIES
1002
{
1000
PbHidd
1002
}
  0
LINE
  5
1CA
330
1F
100
AcDbEntity
  8
HIDDEN
100
AcDbLine
 10
214.0976715087891
 20
68.25137329101562
 30
0.0
 11
214.2258758544922
 21
67.84243774414062
 31
0.0
1001
DBPROPERTIES
1002
{
1000
PbHidd
1002
}
  0
LINE
  5
1CB
330
1F
100
AcDbEntity
  8
HIDDEN
100
AcDbLine
 10
205.0
 20
76.14717457801292
 30
0.0
 11
205.0
 21
83.57083705480822
 31
0.0
1001
DBPROPERTIES
1002
{
1000
PbHidd
1002
}
  0
LINE
  5
1CC
330
1F
100
AcDbEntity
  8
HIDDEN
100
AcDbLine
 10
205.0
 20
87.24537658691406
 30
0.0
 11
205.4303131103516
 21
87.23435974121094
 31
0.0
1001
DBPROPERTIES
1002
{
1000
PbHidd
1002
}
  0
LINE
  5
1CD
330
1F
100
AcDbEntity
  8
HIDDEN
100
AcDbLine
 10
205.4303131103516
 20
87.23435974121094
 30
0.0
 11
205.8731079101562
 21
87.20014190673828
 31
0.0
1001
DBPROPERTIES
1002
{
1000
PbHidd
1002
}
  0
LINE
  5
1CE
330
1F
100
AcDbEntity
  8
HIDDEN
100
AcDbLine
 10
205.8731079101562
 20
87.20014190673828
 30
0.0
 11
206.3218536376953
 21
87.14136505126953
 31
0.0
1001
DBPROPERTIES
1002
{
1000
PbHidd
1002
}
  0
LINE
  5
1CF
330
1F
100
AcDbEntity
  8
HIDDEN
100
AcDbLine
 10
206.3218536376953
 20
87.14136505126953
 30
0.0
 11
206.7702331542969
 21
87.05819702148438
 31
0.0
1001
DBPROPERTIES
1002
{
1000
PbHidd
1002
}
  0
LINE
  5
1D0
330
1F
100
AcDbEntity
  8
HIDDEN
100
AcDbLine
 10
206.7702331542969
 20
87.05819702148438
 30
0.0
 11
207.2122344970703
 21
86.9515609741211
 31
0.0
1001
DBPROPERTIES
1002
{
1000
PbHidd
1002
}
  0
LINE
  5
1D1
330
1F
100
AcDbEntity
  8
HIDDEN
100
AcDbLine
 10
207.2122344970703
 20
86.9515609741211
 30
0.0
 11
207.6422271728516
 21
86.82381439208984
 31
0.0
1001
DBPROPERTIES
1002
{
1000
PbHidd
1002
}
  0
LINE
  5
1D2
330
1F
100
AcDbEntity
  8
HIDDEN
100
AcDbLine
 10
207.6422271728516
 20
86.82381439208984
 30
0.0
 11
208.0546875
 21
86.67804718017578
 31
0.0
1001
DBPROPERTIES
1002
{
1000
PbHidd
1002
}
  0
LINE
  5
1D3
330
1F
100
AcDbEntity
  8
HIDDEN
100
AcDbLine
 10
208.0546875
 20
86.67804718017578
 30
0.0
 11
208.4447631835938
 21
86.51853942871094
 31
0.0
1001
DBPROPERTIES
1002
{
1000
PbHidd
1002
}
  0
LINE
  5
1D4
330
1F
100
AcDbEntity
  8
HIDDEN
100
AcDbLine
 10
208.4447631835938
 20
86.51853942871094
 30
0.0
 11
208.8265991210938
 21
86.34088134765625
 31
0.0
1001
DBPROPERTIES
1002
{
1000
PbHidd
1002
}
  0
LINE
  5
1D5
330
1F
100
AcDbEntity
  8
HIDDEN
100
AcDbLine
 10
208.8265991210938
 20
86.34088134765625
 30
0.0
 11
209.2086181640625
 21
86.14091491699219
 31
0.0
1001
DBPROPERTIES
1002
{
1000
PbHidd
1002
}
  0
LINE
  5
1D6
330
1F
100
AcDbEntity
  8
HIDDEN
100
AcDbLine
 10
209.2086181640625
 20
86.14091491699219
 30
0.0
 11
209.5862731933594
 21
85.91983032226562
 31
0.0
1001
DBPROPERTIES
1002
{
1000
PbHidd
1002
}
  0
LINE
  5
1D7
330
1F
100
AcDbEntity
  8
HIDDEN
100
AcDbLine
 10
209.5862731933594
 20
85.91983032226562
 30
0.0
 11
209.9556732177734
 21
85.67971801757812
 31
0.0
1001
DBPROPERTIES
1002
{
1000
PbHidd
1002
}
  0
LINE
  5
1D8
330
1F
100
AcDbEntity
  8
HIDDEN
100
AcDbLine
 10
209.9556732177734
 20
85.67971801757812
 30
0.0
 11
210.3132476806641
 21
85.42302703857422
 31
0.0
1001
DBPROPERTIES
1002
{
1000
PbHidd
1002
}
  0
LINE
  5
1D9
330
1F
100
AcDbEntity
  8
HIDDEN
100
AcDbLine
 10
210.3132476806641
 20
85.42302703857422
 30
0.0
 11
210.6560363769531
 21
85.15271759033203
 31
0.0
1001
DBPROPERTIES
1002
{
1000
PbHidd
1002
}
  0
LINE
  5
1DA
330
1F
100
AcDbEntity
  8
HIDDEN
100
AcDbLine
 10
210.6560363769531
 20
85.15271759033203
 30
0.0
 11
210.9814147949219
 21
84.87229919433594
 31
0.0
1001
DBPROPERTIES
1002
{
1000
PbHidd
1002
}
  0
LINE
  5
1DB
330
1F
100
AcDbEntity
  8
HIDDEN
100
AcDbLine
 10
210.9814147949219
 20
84.87229919433594
 30
0.0
 11
211.2870788574219
 21
84.58557891845703
 31
0.0
1001
DBPROPERTIES
1002
{
1000
PbHidd
1002
}
  0
LINE
  5
1DC
330
1F
100
AcDbEntity
  8
HIDDEN
100
AcDbLine
 10
211.2870788574219
 20
84.58557891845703
 30
0.0
 11
211.5713348388672
 21
84.29688262939453
 31
0.0
1001
DBPROPERTIES
1002
{
1000
PbHidd
1002
}
  0
LINE
  5
1DD
330
1F
100
AcDbEntity
  8
HIDDEN
100
AcDbLine
 10
211.5713348388672
 20
84.29688262939453
 30
0.0
 11
211.8407592773438
 21
84.00135803222656
 31
0.0
1001
DBPROPERTIES
1002
{
1000
PbHidd
1002
}
  0
LINE
  5
1DE
330
1F
100
AcDbEntity
  8
HIDDEN
100
AcDbLine
 10
211.8407592773438
 20
84.00135803222656
 30
0.0
 11
212.1046142578125
 21
83.68924713134766
 31
0.0
1001
DBPROPERTIES
1002
{
1000
PbHidd
1002
}
  0
LINE
  5
1DF
330
1F
100
AcDbEntity
  8
HIDDEN
100
AcDbLine
 10
212.1046142578125
 20
83.68924713134766
 30
0.0
 11
212.3607330322266
 21
83.36227416992188
 31
0.0
1001
DBPROPERTIES
1002
{
1000
PbHidd
1002
}
  0
LINE
  5
1E0
330
1F
100
AcDbEntity
  8
HIDDEN
100
AcDbLine
 10
212.3607330322266
 20
83.36227416992188
 30
0.0
 11
212.6070556640625
 21
83.02235412597656
 31
0.0
1001
DBPROPERTIES
1002
{
1000
PbHidd
1002
}
  0
LINE
  5
1E1
330
1F
100
AcDbEntity
  8
HIDDEN
100
AcDbLine
 10
212.6070556640625
 20
83.02235412597656
 30
0.0
 11
212.8421478271484
 21
82.67173767089844
 31
0.0
1001
DBPROPERTIES
1002
{
1000
PbHidd
1002
}
  0
LINE
  5
1E2
330
1F
100
AcDbEntity
  8
HIDDEN
100
AcDbLine
 10
212.8421478271484
 20
82.67173767089844
 30
0.0
 11
213.0646209716797
 21
82.312744140625
 31
0.0
1001
DBPROPERTIES
1002
{
1000
PbHidd
1002
}
  0
LINE
  5
1E3
330
1F
100
AcDbEntity
  8
HIDDEN
100
AcDbLine
 10
213.0646209716797
 20
82.312744140625
 30
0.0
 11
213.2734375
 21
81.9477310180664
 31
0.0
1001
DBPROPERTIES
1002
{
1000
PbHidd
1002
}
  0
LINE
  5
1E4
330
1F
100
AcDbEntity
  8
HIDDEN
100
AcDbLine
 10
213.2734375
 20
81.9477310180664
 30
0.0
 11
213.4679870605469
 21
81.579345703125
 31
0.0
1001
DBPROPERTIES
1002
{
1000
PbHidd
1002
}
  0
LINE
  5
1E5
330
1F
100
AcDbEntity
  8
HIDDEN
100
AcDbLine
 10
213.4679870605469
 20
81.579345703125
 30
0.0
 11
213.6476440429688
 21
81.21024322509766
 31
0.0
1001
DBPROPERTIES
1002
{
1000
PbHidd
1002
}
  0
LINE
  5
1E6
330
1F
100
AcDbEntity
  8
HIDDEN
100
AcDbLine
 10
213.6476440429688
 20
81.21024322509766
 30
0.0
 11
213.8121795654297
 21
80.84323120117188
 31
0.0
1001
DBPROPERTIES
1002
{
1000
PbHidd
1002
}
  0
LINE
  5
1E7
330
1F
100
AcDbEntity
  8
HIDDEN
100
AcDbLine
 10
213.8121795654297
 20
80.84323120117188
 30
0.0
 11
213.9615936279297
 21
80.48120880126953
 31
0.0
1001
DBPROPERTIES
1002
{
1000
PbHidd
1002
}
  0
LINE
  5
1E8
330
1F
100
AcDbEntity
  8
HIDDEN
100
AcDbLine
 10
213.9615936279297
 20
80.48120880126953
 30
0.0
 11
214.0976715087891
 21
80.12247467041016
 31
0.0
1001
DBPROPERTIES
1002
{
1000
PbHidd
1002
}
  0
LINE
  5
1E9
330
1F
100
AcDbEntity
  8
HIDDEN
100
AcDbLine
 10
214.0976715087891
 20
80.12247467041016
 30
0.0
 11
214.2258758544922
 21
79.75357055664062
 31
0.0
1001
DBPROPERTIES
1002
{
1000
PbHidd
1002
}
  0
LINE
  5
1EA
330
1F
100
AcDbEntity
  8
HIDDEN
100
AcDbLine
 10
205.0
 20
87.24538000503266
 30
0.0
 11
205.0
 21
89.80339976285347
 31
0.0
1001
DBPROPERTIES
1002
{
1000
PbHidd
1002
}
  0
LINE
  5
1EB
330
1F
100
AcDbEntity
  8
THICK
100
AcDbLine
 10
214.2258758544922
 20
83.85786437988281
 30
0.0
 11
214.064453125
 21
84.22245025634766
 31
0.0
1001
DBPROPERTIES
1002
{
1000
PbThick
1002
}
  0
LINE
  5
1EC
330
1F
100
AcDbEntity
  8
THICK
100
AcDbLine
 10
214.064453125
 20
84.22245025634766
 30
0.0
 11
213.8887786865234
 21
84.57833099365234
 31
0.0
1001
DBPROPERTIES
1002
{
1000
PbThick
1002
}
  0
LINE
  5
1ED
330
1F
100
AcDbEntity
  8
THICK
100
AcDbLine
 10
213.8887786865234
 20
84.57833099365234
 30
0.0
 11
213.6902008056641
 21
84.94082641601562
 31
0.0
1001
DBPROPERTIES
1002
{
1000
PbThick
1002
}
  0
LINE
  5
1EE
330
1F
100
AcDbEntity
  8
THICK
100
AcDbLine
 10
213.6902008056641
 20
84.94082641601562
 30
0.0
 11
213.4679870605469
 21
85.30680847167969
 31
0.0
1001
DBPROPERTIES
1002
{
1000
PbThick
1002
}
  0
LINE
  5
1EF
330
1F
100
AcDbEntity
  8
THICK
100
AcDbLine
 10
213.4679870605469
 20
85.30680847167969
 30
0.0
 11
213.2225952148438
 21
85.67192840576172
 31
0.0
1001
DBPROPERTIES
1002
{
1000
PbThick
1002
}
  0
LINE
  5
1F0
330
1F
100
AcDbEntity
  8
THICK
100
AcDbLine
 10
213.2225952148438
 20
85.67192840576172
 30
0.0
 11
212.9550476074219
 21
86.0320053100586
 31
0.0
1001
DBPROPERTIES
1002
{
1000
PbThick
1002
}
  0
LINE
  5
1F1
330
1F
100
AcDbEntity
  8
THICK
100
AcDbLine
 10
205.0
 20
89.80339813232422
 30
0.0
 11
205.4303131103516
 21
89.7946548461914
 31
0.0
1001
DBPROPERTIES
1002
{
1000
PbThick
1002
}
  0
LINE
  5
1F2
330
1F
100
AcDbEntity
  8
THICK
100
AcDbLine
 10
205.4303131103516
 20
89.7946548461914
 30
0.0
 11
205.8731079101562
 21
89.76750183105469
 31
0.0
1001
DBPROPERTIES
1002
{
1000
PbThick
1002
}
  0
LINE
  5
1F3
330
1F
100
AcDbEntity
  8
THICK
100
AcDbLine
 10
205.8731079101562
 20
89.76750183105469
 30
0.0
 11
206.3218536376953
 21
89.7208480834961
 31
0.0
1001
DBPROPERTIES
1002
{
1000
PbThick
1002
}
  0
LINE
  5
1F4
330
1F
100
AcDbEntity
  8
THICK
100
AcDbLine
 10
206.3218536376953
 20
89.7208480834961
 30
0.0
 11
206.7702331542969
 21
89.65484619140625
 31
0.0
1001
DBPROPERTIES
1002
{
1000
PbThick
1002
}
  0
LINE
  5
1F5
330
1F
100
AcDbEntity
  8
THICK
100
AcDbLine
 10
206.7702331542969
 20
89.65484619140625
 30
0.0
 11
207.2122344970703
 21
89.57022094726562
 31
0.0
1001
DBPROPERTIES
1002
{
1000
PbThick
1002
}
  0
LINE
  5
1F6
330
1F
100
AcDbEntity
  8
THICK
100
AcDbLine
 10
207.2122344970703
 20
89.57022094726562
 30
0.0
 11
207.6422271728516
 21
89.46884155273438
 31
0.0
1001
DBPROPERTIES
1002
{
1000
PbThick
1002
}
  0
LINE
  5
1F7
330
1F
100
AcDbEntity
  8
THICK
100
AcDbLine
 10
207.6422271728516
 20
89.46884155273438
 30
0.0
 11
208.0546875
 21
89.35316467285156
 31
0.0
1001
DBPROPERTIES
1002
{
1000
PbThick
1002
}
  0
LINE
  5
1F8
330
1F
100
AcDbEntity
  8
THICK
100
AcDbLine
 10
208.0546875
 20
89.35316467285156
 30
0.0
 11
208.4447631835938
 21
89.22657775878906
 31
0.0
1001
DBPROPERTIES
1002
{
1000
PbThick
1002
}
  0
LINE
  5
1F9
330
1F
100
AcDbEntity
  8
THICK
100
AcDbLine
 10
208.4447631835938
 20
89.22657775878906
 30
0.0
 11
208.8265991210938
 21
89.08558654785156
 31
0.0
1001
DBPROPERTIES
1002
{
1000
PbThick
1002
}
  0
LINE
  5
1FA
330
1F
100
AcDbEntity
  8
THICK
100
AcDbLine
 10
208.8265991210938
 20
89.08558654785156
 30
0.0
 11
209.2086181640625
 21
88.92688751220703
 31
0.0
1001
DBPROPERTIES
1002
{
1000
PbThick
1002
}
  0
LINE
  5
1FB
330
1F
100
AcDbEntity
  8
THICK
100
AcDbLine
 10
209.2086181640625
 20
88.92688751220703
 30
0.0
 11
209.5862731933594
 21
88.7514419555664
 31
0.0
1001
DBPROPERTIES
1002
{
1000
PbThick
1002
}
  0
LINE
  5
1FC
330
1F
100
AcDbEntity
  8
THICK
100
AcDbLine
 10
209.5862731933594
 20
88.7514419555664
 30
0.0
 11
209.9556732177734
 21
88.56088256835938
 31
0.0
1001
DBPROPERTIES
1002
{
1000
PbThick
1002
}
  0
LINE
  5
1FD
330
1F
100
AcDbEntity
  8
THICK
100
AcDbLine
 10
209.9556732177734
 20
88.56088256835938
 30
0.0
 11
210.3132476806641
 21
88.357177734375
 31
0.0
1001
DBPROPERTIES
1002
{
1000
PbThick
1002
}
  0
LINE
  5
1FE
330
1F
100
AcDbEntity
  8
THICK
100
AcDbLine
 10
210.3132476806641
 20
88.357177734375
 30
0.0
 11
210.6560363769531
 21
88.14265441894531
 31
0.0
1001
DBPROPERTIES
1002
{
1000
PbThick
1002
}
  0
LINE
  5
1FF
330
1F
100
AcDbEntity
  8
THICK
100
AcDbLine
 10
210.6560363769531
 20
88.14265441894531
 30
0.0
 11
210.9814147949219
 21
87.92011260986328
 31
0.0
1001
DBPROPERTIES
1002
{
1000
PbThick
1002
}
  0
LINE
  5
200
330
1F
100
AcDbEntity
  8
THICK
100
AcDbLine
 10
210.9814147949219
 20
87.92011260986328
 30
0.0
 11
211.2870788574219
 21
87.69256591796875
 31
0.0
1001
DBPROPERTIES
1002
{
1000
PbThick
1002
}
  0
LINE
  5
201
330
1F
100
AcDbEntity
  8
THICK
100
AcDbLine
 10
211.2870788574219
 20
87.69256591796875
 30
0.0
 11
211.5713348388672
 21
87.46345520019531
 31
0.0
1001
DBPROPERTIES
1002
{
1000
PbThick
1002
}
  0
LINE
  5
202
330
1F
100
AcDbEntity
  8
THICK
100
AcDbLine
 10
211.5713348388672
 20
87.46345520019531
 30
0.0
 11
211.8407592773438
 21
87.22892761230469
 31
0.0
1001
DBPROPERTIES
1002
{
1000
PbThick
1002
}
  0
LINE
  5
203
330
1F
100
AcDbEntity
  8
THICK
100
AcDbLine
 10
211.8407592773438
 20
87.22892761230469
 30
0.0
 11
212.1046142578125
 21
86.98123168945312
 31
0.0
1001
DBPROPERTIES
1002
{
1000
PbThick
1002
}
  0
LINE
  5
204
330
1F
100
AcDbEntity
  8
THICK
100
AcDbLine
 10
212.1046142578125
 20
86.98123168945312
 30
0.0
 11
212.3607330322266
 21
86.72174835205078
 31
0.0
1001
DBPROPERTIES
1002
{
1000
PbThick
1002
}
  0
LINE
  5
205
330
1F
100
AcDbEntity
  8
THICK
100
AcDbLine
 10
212.3607330322266
 20
86.72174835205078
 30
0.0
 11
212.6070556640625
 21
86.45198822021484
 31
0.0
1001
DBPROPERTIES
1002
{
1000
PbThick
1002
}
  0
LINE
  5
206
330
1F
100
AcDbEntity
  8
THICK
100
AcDbLine
 10
212.6070556640625
 20
86.45198822021484
 30
0.0
 11
212.8421478271484
 21
86.17373657226562
 31
0.0
1001
DBPROPERTIES
1002
{
1000
PbThick
1002
}
  0
LINE
  5
207
330
1F
100
AcDbEntity
  8
THICK
100
AcDbLine
 10
212.8421478271484
 20
86.17373657226562
 30
0.0
 11
213.0646209716797
 21
85.88883209228516
 31
0.0
1001
DBPROPERTIES
1002
{
1000
PbThick
1002
}
  0
LINE
  5
208
330
1F
100
AcDbEntity
  8
THICK
100
AcDbLine
 10
213.0646209716797
 20
85.88883209228516
 30
0.0
 11
213.2734375
 21
85.59916687011719
 31
0.0
1001
DBPROPERTIES
1002
{
1000
PbThick
1002
}
  0
LINE
  5
209
330
1F
100
AcDbEntity
  8
THICK
100
AcDbLine
 10
213.2734375
 20
85.59916687011719
 30
0.0
 11
213.4679870605469
 21
85.30680847167969
 31
0.0
1001
DBPROPERTIES
1002
{
1000
PbThick
1002
}
  0
LINE
  5
20A
330
1F
100
AcDbEntity
  8
THICK
100
AcDbLine
 10
213.4679870605469
 20
85.30680847167969
 30
0.0
 11
213.6476440429688
 21
85.0138931274414
 31
0.0
1001
DBPROPERTIES
1002
{
1000
PbThick
1002
}
  0
LINE
  5
20B
330
1F
100
AcDbEntity
  8
THICK
100
AcDbLine
 10
213.6476440429688
 20
85.0138931274414
 30
0.0
 11
213.8121795654297
 21
84.72262573242188
 31
0.0
1001
DBPROPERTIES
1002
{
1000
PbThick
1002
}
  0
LINE
  5
20C
330
1F
100
AcDbEntity
  8
THICK
100
AcDbLine
 10
213.8121795654297
 20
84.72262573242188
 30
0.0
 11
213.9615936279297
 21
84.43531799316406
 31
0.0
1001
DBPROPERTIES
1002
{
1000
PbThick
1002
}
  0
LINE
  5
20D
330
1F
100
AcDbEntity
  8
THICK
100
AcDbLine
 10
213.9615936279297
 20
84.43531799316406
 30
0.0
 11
214.0976715087891
 21
84.15062713623047
 31
0.0
1001
DBPROPERTIES
1002
{
1000
PbThick
1002
}
  0
LINE
  5
20E
330
1F
100
AcDbEntity
  8
THICK
100
AcDbLine
 10
214.0976715087891
 20
84.15062713623047
 30
0.0
 11
214.2258758544922
 21
83.85786437988281
 31
0.0
1001
DBPROPERTIES
1002
{
1000
PbThick
1002
}
  0
LINE
  5
20F
330
1F
100
AcDbEntity
  8
THICK
100
AcDbLine
 10
205.0
 20
89.80339976285347
 30
0.0
 11
205.0
 21
87.24538000503266
 31
0.0
1001
DBPROPERTIES
1002
{
1000
PbThick
1002
}
  0
LINE
  5
210
330
1F
100
AcDbEntity
  8
THICK
100
AcDbLine
 10
214.2258758544922
 20
79.75357055664062
 30
0.0
 11
214.0976715087891
 21
80.12247467041016
 31
0.0
1001
DBPROPERTIES
1002
{
1000
PbThick
1002
}
  0
LINE
  5
211
330
1F
100
AcDbEntity
  8
THICK
100
AcDbLine
 10
214.0976715087891
 20
80.12247467041016
 30
0.0
 11
213.9615936279297
 21
80.48120880126953
 31
0.0
1001
DBPROPERTIES
1002
{
1000
PbThick
1002
}
  0
LINE
  5
212
330
1F
100
AcDbEntity
  8
THICK
100
AcDbLine
 10
213.9615936279297
 20
80.48120880126953
 30
0.0
 11
213.8121795654297
 21
80.84323120117188
 31
0.0
1001
DBPROPERTIES
1002
{
1000
PbThick
1002
}
  0
LINE
  5
213
330
1F
100
AcDbEntity
  8
THICK
100
AcDbLine
 10
213.8121795654297
 20
80.84323120117188
 30
0.0
 11
213.6476440429688
 21
81.21024322509766
 31
0.0
1001
DBPROPERTIES
1002
{
1000
PbThick
1002
}
  0
LINE
  5
214
330
1F
100
AcDbEntity
  8
THICK
100
AcDbLine
 10
213.6476440429688
 20
81.21024322509766
 30
0.0
 11
213.4679870605469
 21
81.579345703125
 31
0.0
1001
DBPROPERTIES
1002
{
1000
PbThick
1002
}
  0
LINE
  5
215
330
1F
100
AcDbEntity
  8
THICK
100
AcDbLine
 10
213.4679870605469
 20
81.579345703125
 30
0.0
 11
213.2734375
 21
81.9477310180664
 31
0.0
1001
DBPROPERTIES
1002
{
1000
PbThick
1002
}
  0
LINE
  5
216
330
1F
100
AcDbEntity
  8
THICK
100
AcDbLine
 10
213.2734375
 20
81.9477310180664
 30
0.0
 11
213.0646209716797
 21
82.312744140625
 31
0.0
1001
DBPROPERTIES
1002
{
1000
PbThick
1002
}
  0
LINE
  5
217
330
1F
100
AcDbEntity
  8
THICK
100
AcDbLine
 10
213.0646209716797
 20
82.312744140625
 30
0.0
 11
212.8421478271484
 21
82.67173767089844
 31
0.0
1001
DBPROPERTIES
1002
{
1000
PbThick
1002
}
  0
LINE
  5
218
330
1F
100
AcDbEntity
  8
THICK
100
AcDbLine
 10
212.8421478271484
 20
82.67173767089844
 30
0.0
 11
212.6070556640625
 21
83.02235412597656
 31
0.0
1001
DBPROPERTIES
1002
{
1000
PbThick
1002
}
  0
LINE
  5
219
330
1F
100
AcDbEntity
  8
THICK
100
AcDbLine
 10
212.6070556640625
 20
83.02235412597656
 30
0.0
 11
212.3607330322266
 21
83.36227416992188
 31
0.0
1001
DBPROPERTIES
1002
{
1000
PbThick
1002
}
  0
LINE
  5
21A
330
1F
100
AcDbEntity
  8
THICK
100
AcDbLine
 10
212.3607330322266
 20
83.36227416992188
 30
0.0
 11
212.1046142578125
 21
83.68924713134766
 31
0.0
1001
DBPROPERTIES
1002
{
1000
PbThick
1002
}
  0
LINE
  5
21B
330
1F
100
AcDbEntity
  8
THICK
100
AcDbLine
 10
212.1046142578125
 20
83.68924713134766
 30
0.0
 11
211.8407592773438
 21
84.00135803222656
 31
0.0
1001
DBPROPERTIES
1002
{
1000
PbThick
1002
}
  0
LINE
  5
21C
330
1F
100
AcDbEntity
  8
THICK
100
AcDbLine
 10
211.8407592773438
 20
84.00135803222656
 30
0.0
 11
211.5713348388672
 21
84.29688262939453
 31
0.0
1001
DBPROPERTIES
1002
{
1000
PbThick
1002
}
  0
LINE
  5
21D
330
1F
100
AcDbEntity
  8
THICK
100
AcDbLine
 10
211.5713348388672
 20
84.29688262939453
 30
0.0
 11
211.2870788574219
 21
84.58557891845703
 31
0.0
1001
DBPROPERTIES
1002
{
1000
PbThick
1002
}
  0
LINE
  5
21E
330
1F
100
AcDbEntity
  8
THICK
100
AcDbLine
 10
211.2870788574219
 20
84.58557891845703
 30
0.0
 11
210.9814147949219
 21
84.87229919433594
 31
0.0
1001
DBPROPERTIES
1002
{
1000
PbThick
1002
}
  0
LINE
  5
21F
330
1F
100
AcDbEntity
  8
THICK
100
AcDbLine
 10
210.9814147949219
 20
84.87229919433594
 30
0.0
 11
210.6560363769531
 21
85.15271759033203
 31
0.0
1001
DBPROPERTIES
1002
{
1000
PbThick
1002
}
  0
LINE
  5
220
330
1F
100
AcDbEntity
  8
THICK
100
AcDbLine
 10
210.6560363769531
 20
85.15271759033203
 30
0.0
 11
210.3132476806641
 21
85.42302703857422
 31
0.0
1001
DBPROPERTIES
1002
{
1000
PbThick
1002
}
  0
LINE
  5
221
330
1F
100
AcDbEntity
  8
THICK
100
AcDbLine
 10
210.3132476806641
 20
85.42302703857422
 30
0.0
 11
209.9556732177734
 21
85.67971801757812
 31
0.0
1001
DBPROPERTIES
1002
{
1000
PbThick
1002
}
  0
LINE
  5
222
330
1F
100
AcDbEntity
  8
THICK
100
AcDbLine
 10
209.9556732177734
 20
85.67971801757812
 30
0.0
 11
209.5862731933594
 21
85.91983032226562
 31
0.0
1001
DBPROPERTIES
1002
{
1000
PbThick
1002
}
  0
LINE
  5
223
330
1F
100
AcDbEntity
  8
THICK
100
AcDbLine
 10
209.5862731933594
 20
85.91983032226562
 30
0.0
 11
209.2086181640625
 21
86.14091491699219
 31
0.0
1001
DBPROPERTIES
1002
{
1000
PbThick
1002
}
  0
LINE
  5
224
330
1F
100
AcDbEntity
  8
THICK
100
AcDbLine
 10
209.2086181640625
 20
86.14091491699219
 30
0.0
 11
208.8265991210938
 21
86.34088134765625
 31
0.0
1001
DBPROPERTIES
1002
{
1000
PbThick
1002
}
  0
LINE
  5
225
330
1F
100
AcDbEntity
  8
THICK
100
AcDbLine
 10
208.8265991210938
 20
86.34088134765625
 30
0.0
 11
208.4447631835938
 21
86.51853942871094
 31
0.0
1001
DBPROPERTIES
1002
{
1000
PbThick
1002
}
  0
LINE
  5
226
330
1F
100
AcDbEntity
  8
THICK
100
AcDbLine
 10
208.4447631835938
 20
86.51853942871094
 30
0.0
 11
208.0546875
 21
86.67804718017578
 31
0.0
1001
DBPROPERTIES
1002
{
1000
PbThick
1002
}
  0
LINE
  5
227
330
1F
100
AcDbEntity
  8
THICK
100
AcDbLine
 10
208.0546875
 20
86.67804718017578
 30
0.0
 11
207.6422271728516
 21
86.82381439208984
 31
0.0
1001
DBPROPERTIES
1002
{
1000
PbThick
1002
}
  0
LINE
  5
228
330
1F
100
AcDbEntity
  8
THICK
100
AcDbLine
 10
207.6422271728516
 20
86.82381439208984
 30
0.0
 11
207.2122344970703
 21
86.9515609741211
 31
0.0
1001
DBPROPERTIES
1002
{
1000
PbThick
1002
}
  0
LINE
  5
229
330
1F
100
AcDbEntity
  8
THICK
100
AcDbLine
 10
207.2122344970703
 20
86.9515609741211
 30
0.0
 11
206.7702331542969
 21
87.05819702148438
 31
0.0
1001
DBPROPERTIES
1002
{
1000
PbThick
1002
}
  0
LINE
  5
22A
330
1F
100
AcDbEntity
  8
THICK
100
AcDbLine
 10
206.7702331542969
 20
87.05819702148438
 30
0.0
 11
206.3218536376953
 21
87.14136505126953
 31
0.0
1001
DBPROPERTIES
1002
{
1000
PbThick
1002
}
  0
LINE
  5
22B
330
1F
100
AcDbEntity
  8
THICK
100
AcDbLine
 10
206.3218536376953
 20
87.14136505126953
 30
0.0
 11
205.8731079101562
 21
87.20014190673828
 31
0.0
1001
DBPROPERTIES
1002
{
1000
PbThick
1002
}
  0
LINE
  5
22C
330
1F
100
AcDbEntity
  8
THICK
100
AcDbLine
 10
205.8731079101562
 20
87.20014190673828
 30
0.0
 11
205.4303131103516
 21
87.23435974121094
 31
0.0
1001
DBPROPERTIES
1002
{
1000
PbThick
1002
}
  0
LINE
  5
22D
330
1F
100
AcDbEntity
  8
THICK
100
AcDbLine
 10
205.4303131103516
 20
87.23435974121094
 30
0.0
 11
205.0
 21
87.24537658691406
 31
0.0
1001
DBPROPERTIES
1002
{
1000
PbThick
1002
}
  0
LINE
  5
22E
330
1F
100
AcDbEntity
  8
THICK
100
AcDbLine
 10
205.0
 20
83.57083892822266
 30
0.0
 11
205.4303131103516
 21
83.56522369384766
 31
0.0
1001
DBPROPERTIES
1002
{
1000
PbThick
1002
}
  0
LINE
  5
22F
330
1F
100
AcDbEntity
  8
THICK
100
AcDbLine
 10
205.4303131103516
 20
83.56522369384766
 30
0.0
 11
205.8731079101562
 21
83.54779052734375
 31
0.0
1001
DBPROPERTIES
1002
{
1000
PbThick
1002
}
  0
LINE
  5
230
330
1F
100
AcDbEntity
  8
THICK
100
AcDbLine
 10
205.8731079101562
 20
83.54779052734375
 30
0.0
 11
206.3218536376953
 21
83.51783752441406
 31
0.0
1001
DBPROPERTIES
1002
{
1000
PbThick
1002
}
  0
LINE
  5
231
330
1F
100
AcDbEntity
  8
THICK
100
AcDbLine
 10
206.3218536376953
 20
83.51783752441406
 30
0.0
 11
206.7702331542969
 21
83.4754638671875
 31
0.0
1001
DBPROPERTIES
1002
{
1000
PbThick
1002
}
  0
LINE
  5
232
330
1F
100
AcDbEntity
  8
THICK
100
AcDbLine
 10
206.7702331542969
 20
83.4754638671875
 30
0.0
 11
207.2122344970703
 21
83.42112731933594
 31
0.0
1001
DBPROPERTIES
1002
{
1000
PbThick
1002
}
  0
LINE
  5
233
330
1F
100
AcDbEntity
  8
THICK
100
AcDbLine
 10
207.2122344970703
 20
83.42112731933594
 30
0.0
 11
207.6422271728516
 21
83.35604095458984
 31
0.0
1001
DBPROPERTIES
1002
{
1000
PbThick
1002
}
  0
LINE
  5
234
330
1F
100
AcDbEntity
  8
THICK
100
AcDbLine
 10
207.6422271728516
 20
83.35604095458984
 30
0.0
 11
208.0546875
 21
83.28176879882812
 31
0.0
1001
DBPROPERTIES
1002
{
1000
PbThick
1002
}
  0
LINE
  5
235
330
1F
100
AcDbEntity
  8
THICK
100
AcDbLine
 10
208.0546875
 20
83.28176879882812
 30
0.0
 11
208.4447631835938
 21
83.20049285888672
 31
0.0
1001
DBPROPERTIES
1002
{
1000
PbThick
1002
}
  0
LINE
  5
236
330
1F
100
AcDbEntity
  8
THICK
100
AcDbLine
 10
208.4447631835938
 20
83.20049285888672
 30
0.0
 11
208.8265991210938
 21
83.10997009277344
 31
0.0
1001
DBPROPERTIES
1002
{
1000
PbThick
1002
}
  0
LINE
  5
237
330
1F
100
AcDbEntity
  8
THICK
100
AcDbLine
 10
208.8265991210938
 20
83.10997009277344
 30
0.0
 11
209.2086181640625
 21
83.0080795288086
 31
0.0
1001
DBPROPERTIES
1002
{
1000
PbThick
1002
}
  0
LINE
  5
238
330
1F
100
AcDbEntity
  8
THICK
100
AcDbLine
 10
209.2086181640625
 20
83.0080795288086
 30
0.0
 11
209.5862731933594
 21
82.89543914794922
 31
0.0
1001
DBPROPERTIES
1002
{
1000
PbThick
1002
}
  0
LINE
  5
239
330
1F
100
AcDbEntity
  8
THICK
100
AcDbLine
 10
209.5862731933594
 20
82.89543914794922
 30
0.0
 11
209.9556732177734
 21
82.7730941772461
 31
0.0
1001
DBPROPERTIES
1002
{
1000
PbThick
1002
}
  0
LINE
  5
23A
330
1F
100
AcDbEntity
  8
THICK
100
AcDbLine
 10
209.9556732177734
 20
82.7730941772461
 30
0.0
 11
210.3132476806641
 21
82.64230346679688
 31
0.0
1001
DBPROPERTIES
1002
{
1000
PbThick
1002
}
  0
LINE
  5
23B
330
1F
100
AcDbEntity
  8
THICK
100
AcDbLine
 10
210.3132476806641
 20
82.64230346679688
 30
0.0
 11
210.6560363769531
 21
82.50457000732422
 31
0.0
1001
DBPROPERTIES
1002
{
1000
PbThick
1002
}
  0
LINE
  5
23C
330
1F
100
AcDbEntity
  8
THICK
100
AcDbLine
 10
210.6560363769531
 20
82.50457000732422
 30
0.0
 11
210.9814147949219
 21
82.3616943359375
 31
0.0
1001
DBPROPERTIES
1002
{
1000
PbThick
1002
}
  0
LINE
  5
23D
330
1F
100
AcDbEntity
  8
THICK
100
AcDbLine
 10
210.9814147949219
 20
82.3616943359375
 30
0.0
 11
211.2870788574219
 21
82.2155990600586
 31
0.0
1001
DBPROPERTIES
1002
{
1000
PbThick
1002
}
  0
LINE
  5
23E
330
1F
100
AcDbEntity
  8
THICK
100
AcDbLine
 10
211.2870788574219
 20
82.2155990600586
 30
0.0
 11
211.5713348388672
 21
82.0685043334961
 31
0.0
1001
DBPROPERTIES
1002
{
1000
PbThick
1002
}
  0
LINE
  5
23F
330
1F
100
AcDbEntity
  8
THICK
100
AcDbLine
 10
211.5713348388672
 20
82.0685043334961
 30
0.0
 11
211.8407592773438
 21
81.91792297363281
 31
0.0
1001
DBPROPERTIES
1002
{
1000
PbThick
1002
}
  0
LINE
  5
240
330
1F
100
AcDbEntity
  8
THICK
100
AcDbLine
 10
211.8407592773438
 20
81.91792297363281
 30
0.0
 11
212.1046142578125
 21
81.75889587402344
 31
0.0
1001
DBPROPERTIES
1002
{
1000
PbThick
1002
}
  0
LINE
  5
241
330
1F
100
AcDbEntity
  8
THICK
100
AcDbLine
 10
212.1046142578125
 20
81.75889587402344
 30
0.0
 11
212.3607330322266
 21
81.59229278564453
 31
0.0
1001
DBPROPERTIES
1002
{
1000
PbThick
1002
}
  0
LINE
  5
242
330
1F
100
AcDbEntity
  8
THICK
100
AcDbLine
 10
212.3607330322266
 20
81.59229278564453
 30
0.0
 11
212.6070556640625
 21
81.41909790039062
 31
0.0
1001
DBPROPERTIES
1002
{
1000
PbThick
1002
}
  0
LINE
  5
243
330
1F
100
AcDbEntity
  8
THICK
100
AcDbLine
 10
212.6070556640625
 20
81.41909790039062
 30
0.0
 11
212.8421478271484
 21
81.24044799804688
 31
0.0
1001
DBPROPERTIES
1002
{
1000
PbThick
1002
}
  0
LINE
  5
244
330
1F
100
AcDbEntity
  8
THICK
100
AcDbLine
 10
212.8421478271484
 20
81.24044799804688
 30
0.0
 11
213.0646209716797
 21
81.05753326416016
 31
0.0
1001
DBPROPERTIES
1002
{
1000
PbThick
1002
}
  0
LINE
  5
245
330
1F
100
AcDbEntity
  8
THICK
100
AcDbLine
 10
213.0646209716797
 20
81.05753326416016
 30
0.0
 11
213.2734375
 21
80.87155151367188
 31
0.0
1001
DBPROPERTIES
1002
{
1000
PbThick
1002
}
  0
LINE
  5
246
330
1F
100
AcDbEntity
  8
THICK
100
AcDbLine
 10
213.2734375
 20
80.87155151367188
 30
0.0
 11
213.4679870605469
 21
80.68384552001953
 31
0.0
1001
DBPROPERTIES
1002
{
1000
PbThick
1002
}
  0
LINE
  5
247
330
1F
100
AcDbEntity
  8
THICK
100
AcDbLine
 10
213.4679870605469
 20
80.68384552001953
 30
0.0
 11
213.6476440429688
 21
80.49578094482422
 31
0.0
1001
DBPROPERTIES
1002
{
1000
PbThick
1002
}
  0
LINE
  5
248
330
1F
100
AcDbEntity
  8
THICK
100
AcDbLine
 10
213.6476440429688
 20
80.49578094482422
 30
0.0
 11
213.8121795654297
 21
80.30877685546875
 31
0.0
1001
DBPROPERTIES
1002
{
1000
PbThick
1002
}
  0
LINE
  5
249
330
1F
100
AcDbEntity
  8
THICK
100
AcDbLine
 10
213.8121795654297
 20
80.30877685546875
 30
0.0
 11
213.9615936279297
 21
80.12432098388672
 31
0.0
1001
DBPROPERTIES
1002
{
1000
PbThick
1002
}
  0
LINE
  5
24A
330
1F
100
AcDbEntity
  8
THICK
100
AcDbLine
 10
213.9615936279297
 20
80.12432098388672
 30
0.0
 11
214.0976715087891
 21
79.94153594970703
 31
0.0
1001
DBPROPERTIES
1002
{
1000
PbThick
1002
}
  0
LINE
  5
24B
330
1F
100
AcDbEntity
  8
THICK
100
AcDbLine
 10
214.0976715087891
 20
79.94153594970703
 30
0.0
 11
214.2258758544922
 21
79.75357055664062
 31
0.0
1001
DBPROPERTIES
1002
{
1000
PbThick
1002
}
  0
LINE
  5
24C
330
1F
100
AcDbEntity
  8
THICK
100
AcDbLine
 10
205.0
 20
83.57083705480822
 30
0.0
 11
205.0
 21
76.14717457801294
 31
0.0
1001
DBPROPERTIES
1002
{
1000
PbThick
1002
}
  0
LINE
  5
24D
330
1F
100
AcDbEntity
  8
THICK
100
AcDbLine
 10
214.2258758544922
 20
67.84243774414062
 30
0.0
 11
214.0976715087891
 21
68.25137329101562
 31
0.0
1001
DBPROPERTIES
1002
{
1000
PbThick
1002
}
  0
LINE
  5
24E
330
1F
100
AcDbEntity
  8
THICK
100
AcDbLine
 10
214.0976715087891
 20
68.25137329101562
 30
0.0
 11
213.9615936279297
 21
68.64903259277344
 31
0.0
1001
DBPROPERTIES
1002
{
1000
PbThick
1002
}
  0
LINE
  5
24F
330
1F
100
AcDbEntity
  8
THICK
100
AcDbLine
 10
213.9615936279297
 20
68.64903259277344
 30
0.0
 11
213.8121795654297
 21
69.05033874511719
 31
0.0
1001
DBPROPERTIES
1002
{
1000
PbThick
1002
}
  0
LINE
  5
250
330
1F
100
AcDbEntity
  8
THICK
100
AcDbLine
 10
213.8121795654297
 20
69.05033874511719
 30
0.0
 11
213.6476440429688
 21
69.4571762084961
 31
0.0
1001
DBPROPERTIES
1002
{
1000
PbThick
1002
}
  0
LINE
  5
251
330
1F
100
AcDbEntity
  8
THICK
100
AcDbLine
 10
213.6476440429688
 20
69.4571762084961
 30
0.0
 11
213.4679870605469
 21
69.86632537841797
 31
0.0
1001
DBPROPERTIES
1002
{
1000
PbThick
1002
}
  0
LINE
  5
252
330
1F
100
AcDbEntity
  8
THICK
100
AcDbLine
 10
213.4679870605469
 20
69.86632537841797
 30
0.0
 11
213.2734375
 21
70.27468872070312
 31
0.0
1001
DBPROPERTIES
1002
{
1000
PbThick
1002
}
  0
LINE
  5
253
330
1F
100
AcDbEntity
  8
THICK
100
AcDbLine
 10
213.2734375
 20
70.27468872070312
 30
0.0
 11
213.0646209716797
 21
70.6792984008789
 31
0.0
1001
DBPROPERTIES
1002
{
1000
PbThick
1002
}
  0
LINE
  5
254
330
1F
100
AcDbEntity
  8
THICK
100
AcDbLine
 10
213.0646209716797
 20
70.6792984008789
 30
0.0
 11
212.8421478271484
 21
71.07725524902344
 31
0.0
1001
DBPROPERTIES
1002
{
1000
PbThick
1002
}
  0
LINE
  5
255
330
1F
100
AcDbEntity
  8
THICK
100
AcDbLine
 10
212.8421478271484
 20
71.07725524902344
 30
0.0
 11
212.6070556640625
 21
71.46591186523438
 31
0.0
1001
DBPROPERTIES
1002
{
1000
PbThick
1002
}
  0
LINE
  5
256
330
1F
100
AcDbEntity
  8
THICK
100
AcDbLine
 10
212.6070556640625
 20
71.46591186523438
 30
0.0
 11
212.3607330322266
 21
71.84272003173828
 31
0.0
1001
DBPROPERTIES
1002
{
1000
PbThick
1002
}
  0
LINE
  5
257
330
1F
100
AcDbEntity
  8
THICK
100
AcDbLine
 10
212.3607330322266
 20
71.84272003173828
 30
0.0
 11
212.1046142578125
 21
72.20516967773438
 31
0.0
1001
DBPROPERTIES
1002
{
1000
PbThick
1002
}
  0
LINE
  5
258
330
1F
100
AcDbEntity
  8
THICK
100
AcDbLine
 10
212.1046142578125
 20
72.20516967773438
 30
0.0
 11
211.8407592773438
 21
72.5511474609375
 31
0.0
1001
DBPROPERTIES
1002
{
1000
PbThick
1002
}
  0
LINE
  5
259
330
1F
100
AcDbEntity
  8
THICK
100
AcDbLine
 10
211.8407592773438
 20
72.5511474609375
 30
0.0
 11
211.5713348388672
 21
72.87873840332031
 31
0.0
1001
DBPROPERTIES
1002
{
1000
PbThick
1002
}
  0
LINE
  5
25A
330
1F
100
AcDbEntity
  8
THICK
100
AcDbLine
 10
211.5713348388672
 20
72.87873840332031
 30
0.0
 11
211.2870788574219
 21
73.19876098632812
 31
0.0
1001
DBPROPERTIES
1002
{
1000
PbThick
1002
}
  0
LINE
  5
25B
330
1F
100
AcDbEntity
  8
THICK
100
AcDbLine
 10
211.2870788574219
 20
73.19876098632812
 30
0.0
 11
210.9814147949219
 21
73.51659393310547
 31
0.0
1001
DBPROPERTIES
1002
{
1000
PbThick
1002
}
  0
LINE
  5
25C
330
1F
100
AcDbEntity
  8
THICK
100
AcDbLine
 10
210.9814147949219
 20
73.51659393310547
 30
0.0
 11
210.6560363769531
 21
73.82743835449219
 31
0.0
1001
DBPROPERTIES
1002
{
1000
PbThick
1002
}
  0
LINE
  5
25D
330
1F
100
AcDbEntity
  8
THICK
100
AcDbLine
 10
210.6560363769531
 20
73.82743835449219
 30
0.0
 11
210.3132476806641
 21
74.12708282470703
 31
0.0
1001
DBPROPERTIES
1002
{
1000
PbThick
1002
}
  0
LINE
  5
25E
330
1F
100
AcDbEntity
  8
THICK
100
AcDbLine
 10
210.3132476806641
 20
74.12708282470703
 30
0.0
 11
209.9556732177734
 21
74.41162109375
 31
0.0
1001
DBPROPERTIES
1002
{
1000
PbThick
1002
}
  0
LINE
  5
25F
330
1F
100
AcDbEntity
  8
THICK
100
AcDbLine
 10
209.9556732177734
 20
74.41162109375
 30
0.0
 11
209.5862731933594
 21
74.67779541015625
 31
0.0
1001
DBPROPERTIES
1002
{
1000
PbThick
1002
}
  0
LINE
  5
260
330
1F
100
AcDbEntity
  8
THICK
100
AcDbLine
 10
209.5862731933594
 20
74.67779541015625
 30
0.0
 11
209.2086181640625
 21
74.92286682128906
 31
0.0
1001
DBPROPERTIES
1002
{
1000
PbThick
1002
}
  0
LINE
  5
261
330
1F
100
AcDbEntity
  8
THICK
100
AcDbLine
 10
209.2086181640625
 20
74.92286682128906
 30
0.0
 11
208.8265991210938
 21
75.14453125
 31
0.0
1001
DBPROPERTIES
1002
{
1000
PbThick
1002
}
  0
LINE
  5
262
330
1F
100
AcDbEntity
  8
THICK
100
AcDbLine
 10
208.8265991210938
 20
75.14453125
 30
0.0
 11
208.4447631835938
 21
75.34146881103516
 31
0.0
1001
DBPROPERTIES
1002
{
1000
PbThick
1002
}
  0
LINE
  5
263
330
1F
100
AcDbEntity
  8
THICK
100
AcDbLine
 10
208.4447631835938
 20
75.34146881103516
 30
0.0
 11
208.0546875
 21
75.51828002929688
 31
0.0
1001
DBPROPERTIES
1002
{
1000
PbThick
1002
}
  0
LINE
  5
264
330
1F
100
AcDbEntity
  8
THICK
100
AcDbLine
 10
208.0546875
 20
75.51828002929688
 30
0.0
 11
207.6422271728516
 21
75.67986297607422
 31
0.0
1001
DBPROPERTIES
1002
{
1000
PbThick
1002
}
  0
LINE
  5
265
330
1F
100
AcDbEntity
  8
THICK
100
AcDbLine
 10
207.6422271728516
 20
75.67986297607422
 30
0.0
 11
207.2122344970703
 21
75.82147216796875
 31
0.0
1001
DBPROPERTIES
1002
{
1000
PbThick
1002
}
  0
LINE
  5
266
330
1F
100
AcDbEntity
  8
THICK
100
AcDbLine
 10
207.2122344970703
 20
75.82147216796875
 30
0.0
 11
206.7702331542969
 21
75.9396743774414
 31
0.0
1001
DBPROPERTIES
1002
{
1000
PbThick
1002
}
  0
LINE
  5
267
330
1F
100
AcDbEntity
  8
THICK
100
AcDbLine
 10
206.7702331542969
 20
75.9396743774414
 30
0.0
 11
206.3218536376953
 21
76.03186798095703
 31
0.0
1001
DBPROPERTIES
1002
{
1000
PbThick
1002
}
  0
LINE
  5
268
330
1F
100
AcDbEntity
  8
THICK
100
AcDbLine
 10
206.3218536376953
 20
76.03186798095703
 30
0.0
 11
205.8731079101562
 21
76.09703063964844
 31
0.0
1001
DBPROPERTIES
1002
{
1000
PbThick
1002
}
  0
LINE
  5
269
330
1F
100
AcDbEntity
  8
THICK
100
AcDbLine
 10
205.8731079101562
 20
76.09703063964844
 30
0.0
 11
205.4303131103516
 21
76.13496398925781
 31
0.0
1001
DBPROPERTIES
1002
{
1000
PbThick
1002
}
  0
LINE
  5
26A
330
1F
100
AcDbEntity
  8
THICK
100
AcDbLine
 10
205.4303131103516
 20
76.13496398925781
 30
0.0
 11
205.0
 21
76.14717102050781
 31
0.0
1001
DBPROPERTIES
1002
{
1000
PbThick
1002
}
  0
LINE
  5
26B
330
1F
100
AcDbEntity
  8
THICK
100
AcDbLine
 10
205.0
 20
69.15777587890625
 30
0.0
 11
205.4303131103516
 21
69.15584564208984
 31
0.0
1001
DBPROPERTIES
1002
{
1000
PbThick
1002
}
  0
LINE
  5
26C
330
1F
100
AcDbEntity
  8
THICK
100
AcDbLine
 10
205.4303131103516
 20
69.15584564208984
 30
0.0
 11
205.8731079101562
 21
69.14983367919922
 31
0.0
1001
DBPROPERTIES
1002
{
1000
PbThick
1002
}
  0
LINE
  5
26D
330
1F
100
AcDbEntity
  8
THICK
100
AcDbLine
 10
205.8731079101562
 20
69.14983367919922
 30
0.0
 11
206.3218536376953
 21
69.13951873779297
 31
0.0
1001
DBPROPERTIES
1002
{
1000
PbThick
1002
}
  0
LINE
  5
26E
330
1F
100
AcDbEntity
  8
THICK
100
AcDbLine
 10
206.3218536376953
 20
69.13951873779297
 30
0.0
 11
206.7702331542969
 21
69.12491607666016
 31
0.0
1001
DBPROPERTIES
1002
{
1000
PbThick
1002
}
  0
LINE
  5
26F
330
1F
100
AcDbEntity
  8
THICK
100
AcDbLine
 10
206.7702331542969
 20
69.12491607666016
 30
0.0
 11
207.2122344970703
 21
69.10619354248047
 31
0.0
1001
DBPROPERTIES
1002
{
1000
PbThick
1002
}
  0
LINE
  5
270
330
1F
100
AcDbEntity
  8
THICK
100
AcDbLine
 10
207.2122344970703
 20
69.10619354248047
 30
0.0
 11
207.6422271728516
 21
69.0837631225586
 31
0.0
1001
DBPROPERTIES
1002
{
1000
PbThick
1002
}
  0
LINE
  5
271
330
1F
100
AcDbEntity
  8
THICK
100
AcDbLine
 10
207.6422271728516
 20
69.0837631225586
 30
0.0
 11
208.0546875
 21
69.05817413330078
 31
0.0
1001
DBPROPERTIES
1002
{
1000
PbThick
1002
}
  0
LINE
  5
272
330
1F
100
AcDbEntity
  8
THICK
100
AcDbLine
 10
208.0546875
 20
69.05817413330078
 30
0.0
 11
208.4447631835938
 21
69.03016662597656
 31
0.0
1001
DBPROPERTIES
1002
{
1000
PbThick
1002
}
  0
LINE
  5
273
330
1F
100
AcDbEntity
  8
THICK
100
AcDbLine
 10
208.4447631835938
 20
69.03016662597656
 30
0.0
 11
208.8265991210938
 21
68.99897766113281
 31
0.0
1001
DBPROPERTIES
1002
{
1000
PbThick
1002
}
  0
LINE
  5
274
330
1F
100
AcDbEntity
  8
THICK
100
AcDbLine
 10
208.8265991210938
 20
68.99897766113281
 30
0.0
 11
209.2086181640625
 21
68.9638671875
 31
0.0
1001
DBPROPERTIES
1002
{
1000
PbThick
1002
}
  0
LINE
  5
275
330
1F
100
AcDbEntity
  8
THICK
100
AcDbLine
 10
209.2086181640625
 20
68.9638671875
 30
0.0
 11
209.5862731933594
 21
68.925048828125
 31
0.0
1001
DBPROPERTIES
1002
{
1000
PbThick
1002
}
  0
LINE
  5
276
330
1F
100
AcDbEntity
  8
THICK
100
AcDbLine
 10
209.5862731933594
 20
68.925048828125
 30
0.0
 11
209.9556732177734
 21
68.88289642333984
 31
0.0
1001
DBPROPERTIES
1002
{
1000
PbThick
1002
}
  0
LINE
  5
277
330
1F
100
AcDbEntity
  8
THICK
100
AcDbLine
 10
209.9556732177734
 20
68.88289642333984
 30
0.0
 11
210.3132476806641
 21
68.83782958984375
 31
0.0
1001
DBPROPERTIES
1002
{
1000
PbThick
1002
}
  0
LINE
  5
278
330
1F
100
AcDbEntity
  8
THICK
100
AcDbLine
 10
210.3132476806641
 20
68.83782958984375
 30
0.0
 11
210.6560363769531
 21
68.79036712646484
 31
0.0
1001
DBPROPERTIES
1002
{
1000
PbThick
1002
}
  0
LINE
  5
279
330
1F
100
AcDbEntity
  8
THICK
100
AcDbLine
 10
210.6560363769531
 20
68.79036712646484
 30
0.0
 11
210.9814147949219
 21
68.74113464355469
 31
0.0
1001
DBPROPERTIES
1002
{
1000
PbThick
1002
}
  0
LINE
  5
27A
330
1F
100
AcDbEntity
  8
THICK
100
AcDbLine
 10
210.9814147949219
 20
68.74113464355469
 30
0.0
 11
211.2870788574219
 21
68.6907958984375
 31
0.0
1001
DBPROPERTIES
1002
{
1000
PbThick
1002
}
  0
LINE
  5
27B
330
1F
100
AcDbEntity
  8
THICK
100
AcDbLine
 10
211.2870788574219
 20
68.6907958984375
 30
0.0
 11
211.5713348388672
 21
68.64010620117188
 31
0.0
1001
DBPROPERTIES
1002
{
1000
PbThick
1002
}
  0
LINE
  5
27C
330
1F
100
AcDbEntity
  8
THICK
100
AcDbLine
 10
211.5713348388672
 20
68.64010620117188
 30
0.0
 11
211.8407592773438
 21
68.58822631835938
 31
0.0
1001
DBPROPERTIES
1002
{
1000
PbThick
1002
}
  0
LINE
  5
27D
330
1F
100
AcDbEntity
  8
THICK
100
AcDbLine
 10
211.8407592773438
 20
68.58822631835938
 30
0.0
 11
212.1046142578125
 21
68.5334243774414
 31
0.0
1001
DBPROPERTIES
1002
{
1000
PbThick
1002
}
  0
LINE
  5
27E
330
1F
100
AcDbEntity
  8
THICK
100
AcDbLine
 10
212.1046142578125
 20
68.5334243774414
 30
0.0
 11
212.3607330322266
 21
68.47602081298828
 31
0.0
1001
DBPROPERTIES
1002
{
1000
PbThick
1002
}
  0
LINE
  5
27F
330
1F
100
AcDbEntity
  8
THICK
100
AcDbLine
 10
212.3607330322266
 20
68.47602081298828
 30
0.0
 11
212.6070556640625
 21
68.41633605957031
 31
0.0
1001
DBPROPERTIES
1002
{
1000
PbThick
1002
}
  0
LINE
  5
280
330
1F
100
AcDbEntity
  8
THICK
100
AcDbLine
 10
212.6070556640625
 20
68.41633605957031
 30
0.0
 11
212.8421478271484
 21
68.35478210449219
 31
0.0
1001
DBPROPERTIES
1002
{
1000
PbThick
1002
}
  0
LINE
  5
281
330
1F
100
AcDbEntity
  8
THICK
100
AcDbLine
 10
212.8421478271484
 20
68.35478210449219
 30
0.0
 11
213.0646209716797
 21
68.29175567626953
 31
0.0
1001
DBPROPERTIES
1002
{
1000
PbThick
1002
}
  0
LINE
  5
282
330
1F
100
AcDbEntity
  8
THICK
100
AcDbLine
 10
213.0646209716797
 20
68.29175567626953
 30
0.0
 11
213.2734375
 21
68.22766876220703
 31
0.0
1001
DBPROPERTIES
1002
{
1000
PbThick
1002
}
  0
LINE
  5
283
330
1F
100
AcDbEntity
  8
THICK
100
AcDbLine
 10
213.2734375
 20
68.22766876220703
 30
0.0
 11
213.4679870605469
 21
68.1629867553711
 31
0.0
1001
DBPROPERTIES
1002
{
1000
PbThick
1002
}
  0
LINE
  5
284
330
1F
100
AcDbEntity
  8
THICK
100
AcDbLine
 10
213.4679870605469
 20
68.1629867553711
 30
0.0
 11
213.6476440429688
 21
68.09819030761719
 31
0.0
1001
DBPROPERTIES
1002
{
1000
PbThick
1002
}
  0
LINE
  5
285
330
1F
100
AcDbEntity
  8
THICK
100
AcDbLine
 10
213.6476440429688
 20
68.09819030761719
 30
0.0
 11
213.8121795654297
 21
68.03375244140625
 31
0.0
1001
DBPROPERTIES
1002
{
1000
PbThick
1002
}
  0
LINE
  5
286
330
1F
100
AcDbEntity
  8
THICK
100
AcDbLine
 10
213.8121795654297
 20
68.03375244140625
 30
0.0
 11
213.9615936279297
 21
67.9701919555664
 31
0.0
1001
DBPROPERTIES
1002
{
1000
PbThick
1002
}
  0
LINE
  5
287
330
1F
100
AcDbEntity
  8
THICK
100
AcDbLine
 10
213.9615936279297
 20
67.9701919555664
 30
0.0
 11
214.0976715087891
 21
67.9072036743164
 31
0.0
1001
DBPROPERTIES
1002
{
1000
PbThick
1002
}
  0
LINE
  5
288
330
1F
100
AcDbEntity
  8
THICK
100
AcDbLine
 10
214.0976715087891
 20
67.9072036743164
 30
0.0
 11
214.2258758544922
 21
67.84243774414062
 31
0.0
1001
DBPROPERTIES
1002
{
1000
PbThick
1002
}
  0
LINE
  5
289
330
1F
100
AcDbEntity
  8
THICK
100
AcDbLine
 10
205.0
 20
69.15777854357823
 30
0.0
 11
205.0
 21
57.59515315473508
 31
0.0
1001
DBPROPERTIES
1002
{
1000
PbThick
1002
}
  0
LINE
  5
28A
330
1F
100
AcDbEntity
  8
THICK
100
AcDbLine
 10
214.2258758544922
 20
49.2904167175293
 30
0.0
 11
214.0976715087891
 21
49.6993522644043
 31
0.0
1001
DBPROPERTIES
1002
{
1000
PbThick
1002
}
  0
LINE
  5
28B
330
1F
100
AcDbEntity
  8
THICK
100
AcDbLine
 10
214.0976715087891
 20
49.6993522644043
 30
0.0
 11
213.9615936279297
 21
50.09700775146484
 31
0.0
1001
DBPROPERTIES
1002
{
1000
PbThick
1002
}
  0
LINE
  5
28C
330
1F
100
AcDbEntity
  8
THICK
100
AcDbLine
 10
213.9615936279297
 20
50.09700775146484
 30
0.0
 11
213.8121795654297
 21
50.49831390380859
 31
0.0
1001
DBPROPERTIES
1002
{
1000
PbThick
1002
}
  0
LINE
  5
28D
330
1F
100
AcDbEntity
  8
THICK
100
AcDbLine
 10
213.8121795654297
 20
50.49831390380859
 30
0.0
 11
213.6476440429688
 21
50.90515518188477
 31
0.0
1001
DBPROPERTIES
1002
{
1000
PbThick
1002
}
  0
LINE
  5
28E
330
1F
100
AcDbEntity
  8
THICK
100
AcDbLine
 10
213.6476440429688
 20
50.90515518188477
 30
0.0
 11
213.4679870605469
 21
51.31430816650391
 31
0.0
1001
DBPROPERTIES
1002
{
1000
PbThick
1002
}
  0
LINE
  5
28F
330
1F
100
AcDbEntity
  8
THICK
100
AcDbLine
 10
213.4679870605469
 20
51.31430816650391
 30
0.0
 11
213.2734375
 21
51.7226676940918
 31
0.0
1001
DBPROPERTIES
1002
{
1000
PbThick
1002
}
  0
LINE
  5
290
330
1F
100
AcDbEntity
  8
THICK
100
AcDbLine
 10
213.2734375
 20
51.7226676940918
 30
0.0
 11
213.0646209716797
 21
52.12728118896484
 31
0.0
1001
DBPROPERTIES
1002
{
1000
PbThick
1002
}
  0
LINE
  5
291
330
1F
100
AcDbEntity
  8
THICK
100
AcDbLine
 10
213.0646209716797
 20
52.12728118896484
 30
0.0
 11
212.8421478271484
 21
52.52523422241211
 31
0.0
1001
DBPROPERTIES
1002
{
1000
PbThick
1002
}
  0
LINE
  5
292
330
1F
100
AcDbEntity
  8
THICK
100
AcDbLine
 10
212.8421478271484
 20
52.52523422241211
 30
0.0
 11
212.6070556640625
 21
52.91389083862305
 31
0.0
1001
DBPROPERTIES
1002
{
1000
PbThick
1002
}
  0
LINE
  5
293
330
1F
100
AcDbEntity
  8
THICK
100
AcDbLine
 10
212.6070556640625
 20
52.91389083862305
 30
0.0
 11
212.3607330322266
 21
53.29069519042969
 31
0.0
1001
DBPROPERTIES
1002
{
1000
PbThick
1002
}
  0
LINE
  5
294
330
1F
100
AcDbEntity
  8
THICK
100
AcDbLine
 10
212.3607330322266
 20
53.29069519042969
 30
0.0
 11
212.1046142578125
 21
53.65314865112305
 31
0.0
1001
DBPROPERTIES
1002
{
1000
PbThick
1002
}
  0
LINE
  5
295
330
1F
100
AcDbEntity
  8
THICK
100
AcDbLine
 10
212.1046142578125
 20
53.65314865112305
 30
0.0
 11
211.8407592773438
 21
53.99912643432617
 31
0.0
1001
DBPROPERTIES
1002
{
1000
PbThick
1002
}
  0
LINE
  5
296
330
1F
100
AcDbEntity
  8
THICK
100
AcDbLine
 10
211.8407592773438
 20
53.99912643432617
 30
0.0
 11
211.5713348388672
 21
54.32671737670898
 31
0.0
1001
DBPROPERTIES
1002
{
1000
PbThick
1002
}
  0
LINE
  5
297
330
1F
100
AcDbEntity
  8
THICK
100
AcDbLine
 10
211.5713348388672
 20
54.32671737670898
 30
0.0
 11
211.2870788574219
 21
54.64673614501953
 31
0.0
1001
DBPROPERTIES
1002
{
1000
PbThick
1002
}
  0
LINE
  5
298
330
1F
100
AcDbEntity
  8
THICK
100
AcDbLine
 10
211.2870788574219
 20
54.64673614501953
 30
0.0
 11
210.9814147949219
 21
54.96457290649414
 31
0.0
1001
DBPROPERTIES
1002
{
1000
PbThick
1002
}
  0
LINE
  5
299
330
1F
100
AcDbEntity
  8
THICK
100
AcDbLine
 10
210.9814147949219
 20
54.96457290649414
 30
0.0
 11
210.6560363769531
 21
55.27542114257812
 31
0.0
1001
DBPROPERTIES
1002
{
1000
PbThick
1002
}
  0
LINE
  5
29A
330
1F
100
AcDbEntity
  8
THICK
100
AcDbLine
 10
210.6560363769531
 20
55.27542114257812
 30
0.0
 11
210.3132476806641
 21
55.5750617980957
 31
0.0
1001
DBPROPERTIES
1002
{
1000
PbThick
1002
}
  0
LINE
  5
29B
330
1F
100
AcDbEntity
  8
THICK
100
AcDbLine
 10
210.3132476806641
 20
55.5750617980957
 30
0.0
 11
209.9556732177734
 21
55.85960388183594
 31
0.0
1001
DBPROPERTIES
1002
{
1000
PbThick
1002
}
  0
LINE
  5
29C
330
1F
100
AcDbEntity
  8
THICK
100
AcDbLine
 10
209.9556732177734
 20
55.85960388183594
 30
0.0
 11
209.5862731933594
 21
56.12577438354492
 31
0.0
1001
DBPROPERTIES
1002
{
1000
PbThick
1002
}
  0
LINE
  5
29D
330
1F
100
AcDbEntity
  8
THICK
100
AcDbLine
 10
209.5862731933594
 20
56.12577438354492
 30
0.0
 11
209.2086181640625
 21
56.37084197998047
 31
0.0
1001
DBPROPERTIES
1002
{
1000
PbThick
1002
}
  0
LINE
  5
29E
330
1F
100
AcDbEntity
  8
THICK
100
AcDbLine
 10
209.2086181640625
 20
56.37084197998047
 30
0.0
 11
208.8265991210938
 21
56.59250640869141
 31
0.0
1001
DBPROPERTIES
1002
{
1000
PbThick
1002
}
  0
LINE
  5
29F
330
1F
100
AcDbEntity
  8
THICK
100
AcDbLine
 10
208.8265991210938
 20
56.59250640869141
 30
0.0
 11
208.4447631835938
 21
56.78944778442383
 31
0.0
1001
DBPROPERTIES
1002
{
1000
PbThick
1002
}
  0
LINE
  5
2A0
330
1F
100
AcDbEntity
  8
THICK
100
AcDbLine
 10
208.4447631835938
 20
56.78944778442383
 30
0.0
 11
208.0546875
 21
56.96626281738281
 31
0.0
1001
DBPROPERTIES
1002
{
1000
PbThick
1002
}
  0
LINE
  5
2A1
330
1F
100
AcDbEntity
  8
THICK
100
AcDbLine
 10
208.0546875
 20
56.96626281738281
 30
0.0
 11
207.6422271728516
 21
57.12784194946289
 31
0.0
1001
DBPROPERTIES
1002
{
1000
PbThick
1002
}
  0
LINE
  5
2A2
330
1F
100
AcDbEntity
  8
THICK
100
AcDbLine
 10
207.6422271728516
 20
57.12784194946289
 30
0.0
 11
207.2122344970703
 21
57.26945114135742
 31
0.0
1001
DBPROPERTIES
1002
{
1000
PbThick
1002
}
  0
LINE
  5
2A3
330
1F
100
AcDbEntity
  8
THICK
100
AcDbLine
 10
207.2122344970703
 20
57.26945114135742
 30
0.0
 11
206.7702331542969
 21
57.38765716552734
 31
0.0
1001
DBPROPERTIES
1002
{
1000
PbThick
1002
}
  0
LINE
  5
2A4
330
1F
100
AcDbEntity
  8
THICK
100
AcDbLine
 10
206.7702331542969
 20
57.38765716552734
 30
0.0
 11
206.3218536376953
 21
57.4798469543457
 31
0.0
1001
DBPROPERTIES
1002
{
1000
PbThick
1002
}
  0
LINE
  5
2A5
330
1F
100
AcDbEntity
  8
THICK
100
AcDbLine
 10
206.3218536376953
 20
57.4798469543457
 30
0.0
 11
205.8731079101562
 21
57.54500579833984
 31
0.0
1001
DBPROPERTIES
1002
{
1000
PbThick
1002
}
  0
LINE
  5
2A6
330
1F
100
AcDbEntity
  8
THICK
100
AcDbLine
 10
205.8731079101562
 20
57.54500579833984
 30
0.0
 11
205.4303131103516
 21
57.58294296264648
 31
0.0
1001
DBPROPERTIES
1002
{
1000
PbThick
1002
}
  0
LINE
  5
2A7
330
1F
100
AcDbEntity
  8
THICK
100
AcDbLine
 10
205.4303131103516
 20
57.58294296264648
 30
0.0
 11
205.0
 21
57.59515380859375
 31
0.0
1001
DBPROPERTIES
1002
{
1000
PbThick
1002
}
  0
LINE
  5
2A8
330
1F
100
AcDbEntity
  8
THICK
100
AcDbLine
 10
205.0
 20
47.97507476806641
 30
0.0
 11
205.4303131103516
 21
47.97700881958008
 31
0.0
1001
DBPROPERTIES
1002
{
1000
PbThick
1002
}
  0
LINE
  5
2A9
330
1F
100
AcDbEntity
  8
THICK
100
AcDbLine
 10
205.4303131103516
 20
47.97700881958008
 30
0.0
 11
205.8731079101562
 21
47.98301696777344
 31
0.0
1001
DBPROPERTIES
1002
{
1000
PbThick
1002
}
  0
LINE
  5
2AA
330
1F
100
AcDbEntity
  8
THICK
100
AcDbLine
 10
205.8731079101562
 20
47.98301696777344
 30
0.0
 11
206.3218536376953
 21
47.99333572387695
 31
0.0
1001
DBPROPERTIES
1002
{
1000
PbThick
1002
}
  0
LINE
  5
2AB
330
1F
100
AcDbEntity
  8
THICK
100
AcDbLine
 10
206.3218536376953
 20
47.99333572387695
 30
0.0
 11
206.7702331542969
 21
48.00793838500977
 31
0.0
1001
DBPROPERTIES
1002
{
1000
PbThick
1002
}
  0
LINE
  5
2AC
330
1F
100
AcDbEntity
  8
THICK
100
AcDbLine
 10
206.7702331542969
 20
48.00793838500977
 30
0.0
 11
207.2122344970703
 21
48.02666091918945
 31
0.0
1001
DBPROPERTIES
1002
{
1000
PbThick
1002
}
  0
LINE
  5
2AD
330
1F
100
AcDbEntity
  8
THICK
100
AcDbLine
 10
207.2122344970703
 20
48.02666091918945
 30
0.0
 11
207.6422271728516
 21
48.04909133911133
 31
0.0
1001
DBPROPERTIES
1002
{
1000
PbThick
1002
}
  0
LINE
  5
2AE
330
1F
100
AcDbEntity
  8
THICK
100
AcDbLine
 10
207.6422271728516
 20
48.04909133911133
 30
0.0
 11
208.0546875
 21
48.07468032836914
 31
0.0
1001
DBPROPERTIES
1002
{
1000
PbThick
1002
}
  0
LINE
  5
2AF
330
1F
100
AcDbEntity
  8
THICK
100
AcDbLine
 10
208.0546875
 20
48.07468032836914
 30
0.0
 11
208.4447631835938
 21
48.10268783569336
 31
0.0
1001
DBPROPERTIES
1002
{
1000
PbThick
1002
}
  0
LINE
  5
2B0
330
1F
100
AcDbEntity
  8
THICK
100
AcDbLine
 10
208.4447631835938
 20
48.10268783569336
 30
0.0
 11
208.8265991210938
 21
48.13387680053711
 31
0.0
1001
DBPROPERTIES
1002
{
1000
PbThick
1002
}
  0
LINE
  5
2B1
330
1F
100
AcDbEntity
  8
THICK
100
AcDbLine
 10
208.8265991210938
 20
48.13387680053711
 30
0.0
 11
209.2086181640625
 21
48.16898727416992
 31
0.0
1001
DBPROPERTIES
1002
{
1000
PbThick
1002
}
  0
LINE
  5
2B2
330
1F
100
AcDbEntity
  8
THICK
100
AcDbLine
 10
209.2086181640625
 20
48.16898727416992
 30
0.0
 11
209.5862731933594
 21
48.20780181884766
 31
0.0
1001
DBPROPERTIES
1002
{
1000
PbThick
1002
}
  0
LINE
  5
2B3
330
1F
100
AcDbEntity
  8
THICK
100
AcDbLine
 10
209.5862731933594
 20
48.20780181884766
 30
0.0
 11
209.9556732177734
 21
48.24995803833008
 31
0.0
1001
DBPROPERTIES
1002
{
1000
PbThick
1002
}
  0
LINE
  5
2B4
330
1F
100
AcDbEntity
  8
THICK
100
AcDbLine
 10
209.9556732177734
 20
48.24995803833008
 30
0.0
 11
210.3132476806641
 21
48.29502487182617
 31
0.0
1001
DBPROPERTIES
1002
{
1000
PbThick
1002
}
  0
LINE
  5
2B5
330
1F
100
AcDbEntity
  8
THICK
100
AcDbLine
 10
210.3132476806641
 20
48.29502487182617
 30
0.0
 11
210.6560363769531
 21
48.34248352050781
 31
0.0
1001
DBPROPERTIES
1002
{
1000
PbThick
1002
}
  0
LINE
  5
2B6
330
1F
100
AcDbEntity
  8
THICK
100
AcDbLine
 10
210.6560363769531
 20
48.34248352050781
 30
0.0
 11
210.9814147949219
 21
48.39171600341797
 31
0.0
1001
DBPROPERTIES
1002
{
1000
PbThick
1002
}
  0
LINE
  5
2B7
330
1F
100
AcDbEntity
  8
THICK
100
AcDbLine
 10
210.9814147949219
 20
48.39171600341797
 30
0.0
 11
211.2870788574219
 21
48.44205856323242
 31
0.0
1001
DBPROPERTIES
1002
{
1000
PbThick
1002
}
  0
LINE
  5
2B8
330
1F
100
AcDbEntity
  8
THICK
100
AcDbLine
 10
211.2870788574219
 20
48.44205856323242
 30
0.0
 11
211.5713348388672
 21
48.49274444580078
 31
0.0
1001
DBPROPERTIES
1002
{
1000
PbThick
1002
}
  0
LINE
  5
2B9
330
1F
100
AcDbEntity
  8
THICK
100
AcDbLine
 10
211.5713348388672
 20
48.49274444580078
 30
0.0
 11
211.8407592773438
 21
48.54462814331055
 31
0.0
1001
DBPROPERTIES
1002
{
1000
PbThick
1002
}
  0
LINE
  5
2BA
330
1F
100
AcDbEntity
  8
THICK
100
AcDbLine
 10
211.8407592773438
 20
48.54462814331055
 30
0.0
 11
212.1046142578125
 21
48.59942626953125
 31
0.0
1001
DBPROPERTIES
1002
{
1000
PbThick
1002
}
  0
LINE
  5
2BB
330
1F
100
AcDbEntity
  8
THICK
100
AcDbLine
 10
212.1046142578125
 20
48.59942626953125
 30
0.0
 11
212.3607330322266
 21
48.65683364868164
 31
0.0
1001
DBPROPERTIES
1002
{
1000
PbThick
1002
}
  0
LINE
  5
2BC
330
1F
100
AcDbEntity
  8
THICK
100
AcDbLine
 10
212.3607330322266
 20
48.65683364868164
 30
0.0
 11
212.6070556640625
 21
48.71651458740234
 31
0.0
1001
DBPROPERTIES
1002
{
1000
PbThick
1002
}
  0
LINE
  5
2BD
330
1F
100
AcDbEntity
  8
THICK
100
AcDbLine
 10
212.6070556640625
 20
48.71651458740234
 30
0.0
 11
212.8421478271484
 21
48.77807235717773
 31
0.0
1001
DBPROPERTIES
1002
{
1000
PbThick
1002
}
  0
LINE
  5
2BE
330
1F
100
AcDbEntity
  8
THICK
100
AcDbLine
 10
212.8421478271484
 20
48.77807235717773
 30
0.0
 11
213.0646209716797
 21
48.84110260009766
 31
0.0
1001
DBPROPERTIES
1002
{
1000
PbThick
1002
}
  0
LINE
  5
2BF
330
1F
100
AcDbEntity
  8
THICK
100
AcDbLine
 10
213.0646209716797
 20
48.84110260009766
 30
0.0
 11
213.2734375
 21
48.90518569946289
 31
0.0
1001
DBPROPERTIES
1002
{
1000
PbThick
1002
}
  0
LINE
  5
2C0
330
1F
100
AcDbEntity
  8
THICK
100
AcDbLine
 10
213.2734375
 20
48.90518569946289
 30
0.0
 11
213.4679870605469
 21
48.96986389160156
 31
0.0
1001
DBPROPERTIES
1002
{
1000
PbThick
1002
}
  0
LINE
  5
2C1
330
1F
100
AcDbEntity
  8
THICK
100
AcDbLine
 10
213.4679870605469
 20
48.96986389160156
 30
0.0
 11
213.6476440429688
 21
49.03466796875
 31
0.0
1001
DBPROPERTIES
1002
{
1000
PbThick
1002
}
  0
LINE
  5
2C2
330
1F
100
AcDbEntity
  8
THICK
100
AcDbLine
 10
213.6476440429688
 20
49.03466796875
 30
0.0
 11
213.8121795654297
 21
49.09910202026367
 31
0.0
1001
DBPROPERTIES
1002
{
1000
PbThick
1002
}
  0
LINE
  5
2C3
330
1F
100
AcDbEntity
  8
THICK
100
AcDbLine
 10
213.8121795654297
 20
49.09910202026367
 30
0.0
 11
213.9615936279297
 21
49.16266250610352
 31
0.0
1001
DBPROPERTIES
1002
{
1000
PbThick
1002
}
  0
LINE
  5
2C4
330
1F
100
AcDbEntity
  8
THICK
100
AcDbLine
 10
213.9615936279297
 20
49.16266250610352
 30
0.0
 11
214.0976715087891
 21
49.22564697265625
 31
0.0
1001
DBPROPERTIES
1002
{
1000
PbThick
1002
}
  0
LINE
  5
2C5
330
1F
100
AcDbEntity
  8
THICK
100
AcDbLine
 10
214.0976715087891
 20
49.22564697265625
 30
0.0
 11
214.2258758544922
 21
49.2904167175293
 31
0.0
1001
DBPROPERTIES
1002
{
1000
PbThick
1002
}
  0
LINE
  5
2C6
330
1F
100
AcDbEntity
  8
THICK
100
AcDbLine
 10
205.0
 20
47.97507481792625
 30
0.0
 11
205.0
 21
33.40531685164343
 31
0.0
1001
DBPROPERTIES
1002
{
1000
PbThick
1002
}
  0
LINE
  5
2C7
330
1F
100
AcDbEntity
  8
THICK
100
AcDbLine
 10
214.2258758544922
 20
25.91350555419922
 30
0.0
 11
214.0976715087891
 21
26.28241157531738
 31
0.0
1001
DBPROPERTIES
1002
{
1000
PbThick
1002
}
  0
LINE
  5
2C8
330
1F
100
AcDbEntity
  8
THICK
100
AcDbLine
 10
214.0976715087891
 20
26.28241157531738
 30
0.0
 11
213.9615936279297
 21
26.64114189147949
 31
0.0
1001
DBPROPERTIES
1002
{
1000
PbThick
1002
}
  0
LINE
  5
2C9
330
1F
100
AcDbEntity
  8
THICK
100
AcDbLine
 10
213.9615936279297
 20
26.64114189147949
 30
0.0
 11
213.8121795654297
 21
27.00316619873047
 31
0.0
1001
DBPROPERTIES
1002
{
1000
PbThick
1002
}
  0
LINE
  5
2CA
330
1F
100
AcDbEntity
  8
THICK
100
AcDbLine
 10
213.8121795654297
 20
27.00316619873047
 30
0.0
 11
213.6476440429688
 21
27.37018394470215
 31
0.0
1001
DBPROPERTIES
1002
{
1000
PbThick
1002
}
  0
LINE
  5
2CB
330
1F
100
AcDbEntity
  8
THICK
100
AcDbLine
 10
213.6476440429688
 20
27.37018394470215
 30
0.0
 11
213.4679870605469
 21
27.73928260803223
 31
0.0
1001
DBPROPERTIES
1002
{
1000
PbThick
1002
}
  0
LINE
  5
2CC
330
1F
100
AcDbEntity
  8
THICK
100
AcDbLine
 10
213.4679870605469
 20
27.73928260803223
 30
0.0
 11
213.2734375
 21
28.1076717376709
 31
0.0
1001
DBPROPERTIES
1002
{
1000
PbThick
1002
}
  0
LINE
  5
2CD
330
1F
100
AcDbEntity
  8
THICK
100
AcDbLine
 10
213.2734375
 20
28.1076717376709
 30
0.0
 11
213.0646209716797
 21
28.47267723083496
 31
0.0
1001
DBPROPERTIES
1002
{
1000
PbThick
1002
}
  0
LINE
  5
2CE
330
1F
100
AcDbEntity
  8
THICK
100
AcDbLine
 10
213.0646209716797
 20
28.47267723083496
 30
0.0
 11
212.8421478271484
 21
28.8316764831543
 31
0.0
1001
DBPROPERTIES
1002
{
1000
PbThick
1002
}
  0
LINE
  5
2CF
330
1F
100
AcDbEntity
  8
THICK
100
AcDbLine
 10
212.8421478271484
 20
28.8316764831543
 30
0.0
 11
212.6070556640625
 21
29.18228912353516
 31
0.0
1001
DBPROPERTIES
1002
{
1000
PbThick
1002
}
  0
LINE
  5
2D0
330
1F
100
AcDbEntity
  8
THICK
100
AcDbLine
 10
212.6070556640625
 20
29.18228912353516
 30
0.0
 11
212.3607330322266
 21
29.52220916748047
 31
0.0
1001
DBPROPERTIES
1002
{
1000
PbThick
1002
}
  0
LINE
  5
2D1
330
1F
100
AcDbEntity
  8
THICK
100
AcDbLine
 10
212.3607330322266
 20
29.52220916748047
 30
0.0
 11
212.1046142578125
 21
29.84918212890625
 31
0.0
1001
DBPROPERTIES
1002
{
1000
PbThick
1002
}
  0
LINE
  5
2D2
330
1F
100
AcDbEntity
  8
THICK
100
AcDbLine
 10
212.1046142578125
 20
29.84918212890625
 30
0.0
 11
211.8407592773438
 21
30.16129302978516
 31
0.0
1001
DBPROPERTIES
1002
{
1000
PbThick
1002
}
  0
LINE
  5
2D3
330
1F
100
AcDbEntity
  8
THICK
100
AcDbLine
 10
211.8407592773438
 20
30.16129302978516
 30
0.0
 11
211.5713348388672
 21
30.45681762695312
 31
0.0
1001
DBPROPERTIES
1002
{
1000
PbThick
1002
}
  0
LINE
  5
2D4
330
1F
100
AcDbEntity
  8
THICK
100
AcDbLine
 10
211.5713348388672
 20
30.45681762695312
 30
0.0
 11
211.2870788574219
 21
30.74551200866699
 31
0.0
1001
DBPROPERTIES
1002
{
1000
PbThick
1002
}
  0
LINE
  5
2D5
330
1F
100
AcDbEntity
  8
THICK
100
AcDbLine
 10
211.2870788574219
 20
30.74551200866699
 30
0.0
 11
210.9814147949219
 21
31.03223609924316
 31
0.0
1001
DBPROPERTIES
1002
{
1000
PbThick
1002
}
  0
LINE
  5
2D6
330
1F
100
AcDbEntity
  8
THICK
100
AcDbLine
 10
210.9814147949219
 20
31.03223609924316
 30
0.0
 11
210.6560363769531
 21
31.31265640258789
 31
0.0
1001
DBPROPERTIES
1002
{
1000
PbThick
1002
}
  0
LINE
  5
2D7
330
1F
100
AcDbEntity
  8
THICK
100
AcDbLine
 10
210.6560363769531
 20
31.31265640258789
 30
0.0
 11
210.3132476806641
 21
31.58296775817871
 31
0.0
1001
DBPROPERTIES
1002
{
1000
PbThick
1002
}
  0
LINE
  5
2D8
330
1F
100
AcDbEntity
  8
THICK
100
AcDbLine
 10
210.3132476806641
 20
31.58296775817871
 30
0.0
 11
209.9556732177734
 21
31.83965492248535
 31
0.0
1001
DBPROPERTIES
1002
{
1000
PbThick
1002
}
  0
LINE
  5
2D9
330
1F
100
AcDbEntity
  8
THICK
100
AcDbLine
 10
209.9556732177734
 20
31.83965492248535
 30
0.0
 11
209.5862731933594
 21
32.07976913452148
 31
0.0
1001
DBPROPERTIES
1002
{
1000
PbThick
1002
}
  0
LINE
  5
2DA
330
1F
100
AcDbEntity
  8
THICK
100
AcDbLine
 10
209.5862731933594
 20
32.07976913452148
 30
0.0
 11
209.2086181640625
 21
32.30084991455078
 31
0.0
1001
DBPROPERTIES
1002
{
1000
PbThick
1002
}
  0
LINE
  5
2DB
330
1F
100
AcDbEntity
  8
THICK
100
AcDbLine
 10
209.2086181640625
 20
32.30084991455078
 30
0.0
 11
208.8265991210938
 21
32.50081634521484
 31
0.0
1001
DBPROPERTIES
1002
{
1000
PbThick
1002
}
  0
LINE
  5
2DC
330
1F
100
AcDbEntity
  8
THICK
100
AcDbLine
 10
208.8265991210938
 20
32.50081634521484
 30
0.0
 11
208.4447631835938
 21
32.6784782409668
 31
0.0
1001
DBPROPERTIES
1002
{
1000
PbThick
1002
}
  0
LINE
  5
2DD
330
1F
100
AcDbEntity
  8
THICK
100
AcDbLine
 10
208.4447631835938
 20
32.6784782409668
 30
0.0
 11
208.0546875
 21
32.83798599243164
 31
0.0
1001
DBPROPERTIES
1002
{
1000
PbThick
1002
}
  0
LINE
  5
2DE
330
1F
100
AcDbEntity
  8
THICK
100
AcDbLine
 10
208.0546875
 20
32.83798599243164
 30
0.0
 11
207.6422271728516
 21
32.98374938964844
 31
0.0
1001
DBPROPERTIES
1002
{
1000
PbThick
1002
}
  0
LINE
  5
2DF
330
1F
100
AcDbEntity
  8
THICK
100
AcDbLine
 10
207.6422271728516
 20
32.98374938964844
 30
0.0
 11
207.2122344970703
 21
33.11149597167969
 31
0.0
1001
DBPROPERTIES
1002
{
1000
PbThick
1002
}
  0
LINE
  5
2E0
330
1F
100
AcDbEntity
  8
THICK
100
AcDbLine
 10
207.2122344970703
 20
33.11149597167969
 30
0.0
 11
206.7702331542969
 21
33.21813201904297
 31
0.0
1001
DBPROPERTIES
1002
{
1000
PbThick
1002
}
  0
LINE
  5
2E1
330
1F
100
AcDbEntity
  8
THICK
100
AcDbLine
 10
206.7702331542969
 20
33.21813201904297
 30
0.0
 11
206.3218536376953
 21
33.30130004882812
 31
0.0
1001
DBPROPERTIES
1002
{
1000
PbThick
1002
}
  0
LINE
  5
2E2
330
1F
100
AcDbEntity
  8
THICK
100
AcDbLine
 10
206.3218536376953
 20
33.30130004882812
 30
0.0
 11
205.8731079101562
 21
33.36007690429688
 31
0.0
1001
DBPROPERTIES
1002
{
1000
PbThick
1002
}
  0
LINE
  5
2E3
330
1F
100
AcDbEntity
  8
THICK
100
AcDbLine
 10
205.8731079101562
 20
33.36007690429688
 30
0.0
 11
205.4303131103516
 21
33.3942985534668
 31
0.0
1001
DBPROPERTIES
1002
{
1000
PbThick
1002
}
  0
LINE
  5
2E4
330
1F
100
AcDbEntity
  8
THICK
100
AcDbLine
 10
205.4303131103516
 20
33.3942985534668
 30
0.0
 11
205.0
 21
33.40531539916992
 31
0.0
1001
DBPROPERTIES
1002
{
1000
PbThick
1002
}
  0
LINE
  5
2E5
330
1F
100
AcDbEntity
  8
THICK
100
AcDbLine
 10
205.0
 20
22.09623718261719
 30
0.0
 11
205.4303131103516
 21
22.10185050964355
 31
0.0
1001
DBPROPERTIES
1002
{
1000
PbThick
1002
}
  0
LINE
  5
2E6
330
1F
100
AcDbEntity
  8
THICK
100
AcDbLine
 10
205.4303131103516
 20
22.10185050964355
 30
0.0
 11
205.8731079101562
 21
22.11928749084473
 31
0.0
1001
DBPROPERTIES
1002
{
1000
PbThick
1002
}
  0
LINE
  5
2E7
330
1F
100
AcDbEntity
  8
THICK
100
AcDbLine
 10
205.8731079101562
 20
22.11928749084473
 30
0.0
 11
206.3218536376953
 21
22.14923667907715
 31
0.0
1001
DBPROPERTIES
1002
{
1000
PbThick
1002
}
  0
LINE
  5
2E8
330
1F
100
AcDbEntity
  8
THICK
100
AcDbLine
 10
206.3218536376953
 20
22.14923667907715
 30
0.0
 11
206.7702331542969
 21
22.19161224365234
 31
0.0
1001
DBPROPERTIES
1002
{
1000
PbThick
1002
}
  0
LINE
  5
2E9
330
1F
100
AcDbEntity
  8
THICK
100
AcDbLine
 10
206.7702331542969
 20
22.19161224365234
 30
0.0
 11
207.2122344970703
 21
22.24594497680664
 31
0.0
1001
DBPROPERTIES
1002
{
1000
PbThick
1002
}
  0
LINE
  5
2EA
330
1F
100
AcDbEntity
  8
THICK
100
AcDbLine
 10
207.2122344970703
 20
22.24594497680664
 30
0.0
 11
207.6422271728516
 21
22.31103515625
 31
0.0
1001
DBPROPERTIES
1002
{
1000
PbThick
1002
}
  0
LINE
  5
2EB
330
1F
100
AcDbEntity
  8
THICK
100
AcDbLine
 10
207.6422271728516
 20
22.31103515625
 30
0.0
 11
208.0546875
 21
22.38530731201172
 31
0.0
1001
DBPROPERTIES
1002
{
1000
PbThick
1002
}
  0
LINE
  5
2EC
330
1F
100
AcDbEntity
  8
THICK
100
AcDbLine
 10
208.0546875
 20
22.38530731201172
 30
0.0
 11
208.4447631835938
 21
22.46657943725586
 31
0.0
1001
DBPROPERTIES
1002
{
1000
PbThick
1002
}
  0
LINE
  5
2ED
330
1F
100
AcDbEntity
  8
THICK
100
AcDbLine
 10
208.4447631835938
 20
22.46657943725586
 30
0.0
 11
208.8265991210938
 21
22.55710220336914
 31
0.0
1001
DBPROPERTIES
1002
{
1000
PbThick
1002
}
  0
LINE
  5
2EE
330
1F
100
AcDbEntity
  8
THICK
100
AcDbLine
 10
208.8265991210938
 20
22.55710220336914
 30
0.0
 11
209.2086181640625
 21
22.65899085998535
 31
0.0
1001
DBPROPERTIES
1002
{
1000
PbThick
1002
}
  0
LINE
  5
2EF
330
1F
100
AcDbEntity
  8
THICK
100
AcDbLine
 10
209.2086181640625
 20
22.65899085998535
 30
0.0
 11
209.5862731933594
 21
22.77163696289062
 31
0.0
1001
DBPROPERTIES
1002
{
1000
PbThick
1002
}
  0
LINE
  5
2F0
330
1F
100
AcDbEntity
  8
THICK
100
AcDbLine
 10
209.5862731933594
 20
22.77163696289062
 30
0.0
 11
209.9556732177734
 21
22.89398193359375
 31
0.0
1001
DBPROPERTIES
1002
{
1000
PbThick
1002
}
  0
LINE
  5
2F1
330
1F
100
AcDbEntity
  8
THICK
100
AcDbLine
 10
209.9556732177734
 20
22.89398193359375
 30
0.0
 11
210.3132476806641
 21
23.02477073669434
 31
0.0
1001
DBPROPERTIES
1002
{
1000
PbThick
1002
}
  0
LINE
  5
2F2
330
1F
100
AcDbEntity
  8
THICK
100
AcDbLine
 10
210.3132476806641
 20
23.02477073669434
 30
0.0
 11
210.6560363769531
 21
23.16250038146973
 31
0.0
1001
DBPROPERTIES
1002
{
1000
PbThick
1002
}
  0
LINE
  5
2F3
330
1F
100
AcDbEntity
  8
THICK
100
AcDbLine
 10
210.6560363769531
 20
23.16250038146973
 30
0.0
 11
210.9814147949219
 21
23.30538177490234
 31
0.0
1001
DBPROPERTIES
1002
{
1000
PbThick
1002
}
  0
LINE
  5
2F4
330
1F
100
AcDbEntity
  8
THICK
100
AcDbLine
 10
210.9814147949219
 20
23.30538177490234
 30
0.0
 11
211.2870788574219
 21
23.45147514343262
 31
0.0
1001
DBPROPERTIES
1002
{
1000
PbThick
1002
}
  0
LINE
  5
2F5
330
1F
100
AcDbEntity
  8
THICK
100
AcDbLine
 10
211.2870788574219
 20
23.45147514343262
 30
0.0
 11
211.5713348388672
 21
23.59857177734375
 31
0.0
1001
DBPROPERTIES
1002
{
1000
PbThick
1002
}
  0
LINE
  5
2F6
330
1F
100
AcDbEntity
  8
THICK
100
AcDbLine
 10
211.5713348388672
 20
23.59857177734375
 30
0.0
 11
211.8407592773438
 21
23.74914932250977
 31
0.0
1001
DBPROPERTIES
1002
{
1000
PbThick
1002
}
  0
LINE
  5
2F7
330
1F
100
AcDbEntity
  8
THICK
100
AcDbLine
 10
211.8407592773438
 20
23.74914932250977
 30
0.0
 11
212.1046142578125
 21
23.90817832946777
 31
0.0
1001
DBPROPERTIES
1002
{
1000
PbThick
1002
}
  0
LINE
  5
2F8
330
1F
100
AcDbEntity
  8
THICK
100
AcDbLine
 10
212.1046142578125
 20
23.90817832946777
 30
0.0
 11
212.3607330322266
 21
24.07477760314941
 31
0.0
1001
DBPROPERTIES
1002
{
1000
PbThick
1002
}
  0
LINE
  5
2F9
330
1F
100
AcDbEntity
  8
THICK
100
AcDbLine
 10
212.3607330322266
 20
24.07477760314941
 30
0.0
 11
212.6070556640625
 21
24.24797630310059
 31
0.0
1001
DBPROPERTIES
1002
{
1000
PbThick
1002
}
  0
LINE
  5
2FA
330
1F
100
AcDbEntity
  8
THICK
100
AcDbLine
 10
212.6070556640625
 20
24.24797630310059
 30
0.0
 11
212.8421478271484
 21
24.42662239074707
 31
0.0
1001
DBPROPERTIES
1002
{
1000
PbThick
1002
}
  0
LINE
  5
2FB
330
1F
100
AcDbEntity
  8
THICK
100
AcDbLine
 10
212.8421478271484
 20
24.42662239074707
 30
0.0
 11
213.0646209716797
 21
24.60954093933105
 31
0.0
1001
DBPROPERTIES
1002
{
1000
PbThick
1002
}
  0
LINE
  5
2FC
330
1F
100
AcDbEntity
  8
THICK
100
AcDbLine
 10
213.0646209716797
 20
24.60954093933105
 30
0.0
 11
213.2734375
 21
24.7955207824707
 31
0.0
1001
DBPROPERTIES
1002
{
1000
PbThick
1002
}
  0
LINE
  5
2FD
330
1F
100
AcDbEntity
  8
THICK
100
AcDbLine
 10
213.2734375
 20
24.7955207824707
 30
0.0
 11
213.4679870605469
 21
24.98322486877441
 31
0.0
1001
DBPROPERTIES
1002
{
1000
PbThick
1002
}
  0
LINE
  5
2FE
330
1F
100
AcDbEntity
  8
THICK
100
AcDbLine
 10
213.4679870605469
 20
24.98322486877441
 30
0.0
 11
213.6476440429688
 21
25.17129135131836
 31
0.0
1001
DBPROPERTIES
1002
{
1000
PbThick
1002
}
  0
LINE
  5
2FF
330
1F
100
AcDbEntity
  8
THICK
100
AcDbLine
 10
213.6476440429688
 20
25.17129135131836
 30
0.0
 11
213.8121795654297
 21
25.35829544067383
 31
0.0
1001
DBPROPERTIES
1002
{
1000
PbThick
1002
}
  0
LINE
  5
300
330
1F
100
AcDbEntity
  8
THICK
100
AcDbLine
 10
213.8121795654297
 20
25.35829544067383
 30
0.0
 11
213.9615936279297
 21
25.54275512695312
 31
0.0
1001
DBPROPERTIES
1002
{
1000
PbThick
1002
}
  0
LINE
  5
301
330
1F
100
AcDbEntity
  8
THICK
100
AcDbLine
 10
213.9615936279297
 20
25.54275512695312
 30
0.0
 11
214.0976715087891
 21
25.72553825378418
 31
0.0
1001
DBPROPERTIES
1002
{
1000
PbThick
1002
}
  0
LINE
  5
302
330
1F
100
AcDbEntity
  8
THICK
100
AcDbLine
 10
214.0976715087891
 20
25.72553825378418
 30
0.0
 11
214.2258758544922
 21
25.91350555419922
 31
0.0
1001
DBPROPERTIES
1002
{
1000
PbThick
1002
}
  0
LINE
  5
303
330
1F
100
AcDbEntity
  8
THICK
100
AcDbLine
 10
205.0
 20
22.09623650709433
 30
0.0
 11
205.0
 21
5.945535386584462
 31
0.0
1001
DBPROPERTIES
1002
{
1000
PbThick
1002
}
  0
LINE
  5
304
330
1F
100
AcDbEntity
  8
THICK
100
AcDbLine
 10
214.2258758544922
 20
0.0000000000000052
 30
0.0
 11
214.0976715087891
 21
0.2927660048007965
 31
0.0
1001
DBPROPERTIES
1002
{
1000
PbThick
1002
}
  0
LINE
  5
305
330
1F
100
AcDbEntity
  8
THICK
100
AcDbLine
 10
214.0976715087891
 20
0.2927660048007965
 30
0.0
 11
213.9615936279297
 21
0.5774564743041992
 31
0.0
1001
DBPROPERTIES
1002
{
1000
PbThick
1002
}
  0
LINE
  5
306
330
1F
100
AcDbEntity
  8
THICK
100
AcDbLine
 10
213.9615936279297
 20
0.5774564743041992
 30
0.0
 11
213.8121795654297
 21
0.8647598624229431
 31
0.0
1001
DBPROPERTIES
1002
{
1000
PbThick
1002
}
  0
LINE
  5
307
330
1F
100
AcDbEntity
  8
THICK
100
AcDbLine
 10
213.8121795654297
 20
0.8647598624229431
 30
0.0
 11
213.6476440429688
 21
1.156026244163513
 31
0.0
1001
DBPROPERTIES
1002
{
1000
PbThick
1002
}
  0
LINE
  5
308
330
1F
100
AcDbEntity
  8
THICK
100
AcDbLine
 10
213.6476440429688
 20
1.156026244163513
 30
0.0
 11
213.4679870605469
 21
1.44894552230835
 31
0.0
1001
DBPROPERTIES
1002
{
1000
PbThick
1002
}
  0
LINE
  5
309
330
1F
100
AcDbEntity
  8
THICK
100
AcDbLine
 10
213.4679870605469
 20
1.44894552230835
 30
0.0
 11
213.2734375
 21
1.741300344467163
 31
0.0
1001
DBPROPERTIES
1002
{
1000
PbThick
1002
}
  0
LINE
  5
30A
330
1F
100
AcDbEntity
  8
THICK
100
AcDbLine
 10
213.2734375
 20
1.741300344467163
 30
0.0
 11
213.0646209716797
 21
2.030970811843872
 31
0.0
1001
DBPROPERTIES
1002
{
1000
PbThick
1002
}
  0
LINE
  5
30B
330
1F
100
AcDbEntity
  8
THICK
100
AcDbLine
 10
213.0646209716797
 20
2.030970811843872
 30
0.0
 11
212.8421478271484
 21
2.315873861312866
 31
0.0
1001
DBPROPERTIES
1002
{
1000
PbThick
1002
}
  0
LINE
  5
30C
330
1F
100
AcDbEntity
  8
THICK
100
AcDbLine
 10
212.8421478271484
 20
2.315873861312866
 30
0.0
 11
212.6070556640625
 21
2.594122171401978
 31
0.0
1001
DBPROPERTIES
1002
{
1000
PbThick
1002
}
  0
LINE
  5
30D
330
1F
100
AcDbEntity
  8
THICK
100
AcDbLine
 10
212.6070556640625
 20
2.594122171401978
 30
0.0
 11
212.3607330322266
 21
2.863883972167969
 31
0.0
1001
DBPROPERTIES
1002
{
1000
PbThick
1002
}
  0
LINE
  5
30E
330
1F
100
AcDbEntity
  8
THICK
100
AcDbLine
 10
212.3607330322266
 20
2.863883972167969
 30
0.0
 11
212.1046142578125
 21
3.123370885848999
 31
0.0
1001
DBPROPERTIES
1002
{
1000
PbThick
1002
}
  0
LINE
  5
30F
330
1F
100
AcDbEntity
  8
THICK
100
AcDbLine
 10
212.1046142578125
 20
3.123370885848999
 30
0.0
 11
211.8407592773438
 21
3.371063232421875
 31
0.0
1001
DBPROPERTIES
1002
{
1000
PbThick
1002
}
  0
LINE
  5
310
330
1F
100
AcDbEntity
  8
THICK
100
AcDbLine
 10
211.8407592773438
 20
3.371063232421875
 30
0.0
 11
211.5713348388672
 21
3.60559344291687
 31
0.0
1001
DBPROPERTIES
1002
{
1000
PbThick
1002
}
  0
LINE
  5
311
330
1F
100
AcDbEntity
  8
THICK
100
AcDbLine
 10
211.5713348388672
 20
3.60559344291687
 30
0.0
 11
211.2870788574219
 21
3.834702253341675
 31
0.0
1001
DBPROPERTIES
1002
{
1000
PbThick
1002
}
  0
LINE
  5
312
330
1F
100
AcDbEntity
  8
THICK
100
AcDbLine
 10
211.2870788574219
 20
3.834702253341675
 30
0.0
 11
210.9814147949219
 21
4.062247753143311
 31
0.0
1001
DBPROPERTIES
1002
{
1000
PbThick
1002
}
  0
LINE
  5
313
330
1F
100
AcDbEntity
  8
THICK
100
AcDbLine
 10
210.9814147949219
 20
4.062247753143311
 30
0.0
 11
210.6560363769531
 21
4.2847900390625
 31
0.0
1001
DBPROPERTIES
1002
{
1000
PbThick
1002
}
  0
LINE
  5
314
330
1F
100
AcDbEntity
  8
THICK
100
AcDbLine
 10
210.6560363769531
 20
4.2847900390625
 30
0.0
 11
210.3132476806641
 21
4.499310970306396
 31
0.0
1001
DBPROPERTIES
1002
{
1000
PbThick
1002
}
  0
LINE
  5
315
330
1F
100
AcDbEntity
  8
THICK
100
AcDbLine
 10
210.3132476806641
 20
4.499310970306396
 30
0.0
 11
209.9556732177734
 21
4.703018665313721
 31
0.0
1001
DBPROPERTIES
1002
{
1000
PbThick
1002
}
  0
LINE
  5
316
330
1F
100
AcDbEntity
  8
THICK
100
AcDbLine
 10
209.9556732177734
 20
4.703018665313721
 30
0.0
 11
209.5862731933594
 21
4.893575668334961
 31
0.0
1001
DBPROPERTIES
1002
{
1000
PbThick
1002
}
  0
LINE
  5
317
330
1F
100
AcDbEntity
  8
THICK
100
AcDbLine
 10
209.5862731933594
 20
4.893575668334961
 30
0.0
 11
209.2086181640625
 21
5.06902551651001
 31
0.0
1001
DBPROPERTIES
1002
{
1000
PbThick
1002
}
  0
LINE
  5
318
330
1F
100
AcDbEntity
  8
THICK
100
AcDbLine
 10
209.2086181640625
 20
5.06902551651001
 30
0.0
 11
208.8265991210938
 21
5.227720260620117
 31
0.0
1001
DBPROPERTIES
1002
{
1000
PbThick
1002
}
  0
LINE
  5
319
330
1F
100
AcDbEntity
  8
THICK
100
AcDbLine
 10
208.8265991210938
 20
5.227720260620117
 30
0.0
 11
208.4447631835938
 21
5.368712902069092
 31
0.0
1001
DBPROPERTIES
1002
{
1000
PbThick
1002
}
  0
LINE
  5
31A
330
1F
100
AcDbEntity
  8
THICK
100
AcDbLine
 10
208.4447631835938
 20
5.368712902069092
 30
0.0
 11
208.0546875
 21
5.495298385620117
 31
0.0
1001
DBPROPERTIES
1002
{
1000
PbThick
1002
}
  0
LINE
  5
31B
330
1F
100
AcDbEntity
  8
THICK
100
AcDbLine
 10
208.0546875
 20
5.495298385620117
 30
0.0
 11
207.6422271728516
 21
5.610978126525879
 31
0.0
1001
DBPROPERTIES
1002
{
1000
PbThick
1002
}
  0
LINE
  5
31C
330
1F
100
AcDbEntity
  8
THICK
100
AcDbLine
 10
207.6422271728516
 20
5.610978126525879
 30
0.0
 11
207.2122344970703
 21
5.712358474731445
 31
0.0
1001
DBPROPERTIES
1002
{
1000
PbThick
1002
}
  0
LINE
  5
31D
330
1F
100
AcDbEntity
  8
THICK
100
AcDbLine
 10
207.2122344970703
 20
5.712358474731445
 30
0.0
 11
206.7702331542969
 21
5.796984195709229
 31
0.0
1001
DBPROPERTIES
1002
{
1000
PbThick
1002
}
  0
LINE
  5
31E
330
1F
100
AcDbEntity
  8
THICK
100
AcDbLine
 10
206.7702331542969
 20
5.796984195709229
 30
0.0
 11
206.3218536376953
 21
5.862986087799072
 31
0.0
1001
DBPROPERTIES
1002
{
1000
PbThick
1002
}
  0
LINE
  5
31F
330
1F
100
AcDbEntity
  8
THICK
100
AcDbLine
 10
206.3218536376953
 20
5.862986087799072
 30
0.0
 11
205.8731079101562
 21
5.909634113311768
 31
0.0
1001
DBPROPERTIES
1002
{
1000
PbThick
1002
}
  0
LINE
  5
320
330
1F
100
AcDbEntity
  8
THICK
100
AcDbLine
 10
205.8731079101562
 20
5.909634113311768
 30
0.0
 11
205.4303131103516
 21
5.936792373657227
 31
0.0
1001
DBPROPERTIES
1002
{
1000
PbThick
1002
}
  0
LINE
  5
321
330
1F
100
AcDbEntity
  8
THICK
100
AcDbLine
 10
205.4303131103516
 20
5.936792373657227
 30
0.0
 11
205.0
 21
5.945535182952881
 31
0.0
1001
DBPROPERTIES
1002
{
1000
PbThick
1002
}
  0
LINE
  5
322
330
1F
100
AcDbEntity
  8
THICK
100
AcDbLine
 10
248.0
 20
75.0
 30
0.0
 11
215.0
 21
75.0
 31
0.0
1001
DBPROPERTIES
1002
{
1000
PbThick
1002
}
  0
LINE
  5
323
330
1F
100
AcDbEntity
  8
HIDDEN
100
AcDbLine
 10
248.0
 20
-0.0000000000000184
 30
0.0
 11
248.0
 21
75.0
 31
0.0
1001
DBPROPERTIES
1002
{
1000
PbHidd
1002
}
  0
LINE
  5
324
330
1F
100
AcDbEntity
  8
HIDDEN
100
AcDbLine
 10
248.0
 20
-75.0
 30
0.0
 11
248.0
 21
-0.0000000000000184
 31
0.0
1001
DBPROPERTIES
1002
{
1000
PbHidd
1002
}
  0
LINE
  5
325
330
1F
100
AcDbEntity
  8
THICK
100
AcDbLine
 10
215.0
 20
-75.0
 30
0.0
 11
248.0
 21
-75.0
 31
0.0
1001
DBPROPERTIES
1002
{
1000
PbThick
1002
}
  0
LINE
  5
326
330
1F
100
AcDbEntity
  8
THICK
100
AcDbLine
 10
248.0
 20
0.0000000000000092
 30
0.0
 11
248.0
 21
75.0
 31
0.0
1001
DBPROPERTIES
1002
{
1000
PbThick
1002
}
  0
LINE
  5
327
330
1F
100
AcDbEntity
  8
THICK
100
AcDbLine
 10
258.0
 20
65.0
 30
0.0
 11
258.0
 21
0.000000000000008
 31
0.0
1001
DBPROPERTIES
1002
{
1000
PbThick
1002
}
  0
LINE
  5
328
330
1F
100
AcDbEntity
  8
THICK
100
AcDbLine
 10
-510.0000000000001
 20
-434.0
 30
0.0
 11
509.9999999999999
 21
-434.0
 31
0.0
1001
DBPROPERTIES
1002
{
1000
PbThick
1002
}
  0
LINE
  5
329
330
1F
100
AcDbEntity
  8
HIDDEN
100
AcDbLine
 10
-510.0000000000001
 20
-434.0
 30
0.0
 11
-510.0000000000001
 21
-434.0
 31
0.0
1001
DBPROPERTIES
1002
{
1000
PbHidd
1002
}
  0
LINE
  5
32A
330
1F
100
AcDbEntity
  8
HIDDEN
100
AcDbLine
 10
509.9999999999999
 20
-434.0
 30
0.0
 11
509.9999999999999
 21
-434.0
 31
0.0
1001
DBPROPERTIES
1002
{
1000
PbHidd
1002
}
  0
LINE
  5
32B
330
1F
100
AcDbEntity
  8
HIDDEN
100
AcDbLine
 10
-510.0000000000001
 20
-506.0
 30
0.0
 11
-510.0000000000001
 21
-506.0
 31
0.0
1001
DBPROPERTIES
1002
{
1000
PbHidd
1002
}
  0
LINE
  5
32C
330
1F
100
AcDbEntity
  8
THICK
100
AcDbLine
 10
509.9999999999999
 20
-506.0
 30
0.0
 11
-510.0000000000001
 21
-506.0
 31
0.0
1001
DBPROPERTIES
1002
{
1000
PbThick
1002
}
  0
LINE
  5
32D
330
1F
100
AcDbEntity
  8
HIDDEN
100
AcDbLine
 10
509.9999999999999
 20
-506.0
 30
0.0
 11
509.9999999999999
 21
-506.0
 31
0.0
1001
DBPROPERTIES
1002
{
1000
PbHidd
1002
}
  0
LINE
  5
32E
330
1F
100
AcDbEntity
  8
THICK
100
AcDbLine
 10
-510.0000000000001
 20
-506.0
 30
0.0
 11
-510.0000000000001
 21
-434.0
 31
0.0
1001
DBPROPERTIES
1002
{
1000
PbThick
1002
}
  0
LINE
  5
32F
330
1F
100
AcDbEntity
  8
THICK
100
AcDbLine
 10
509.9999999999999
 20
-434.0
 30
0.0
 11
509.9999999999999
 21
-506.0
 31
0.0
1001
DBPROPERTIES
1002
{
1000
PbThick
1002
}
  0
LINE
  5
330
330
1F
100
AcDbEntity
  8
THICK
100
AcDbLine
 10
509.9999999999999
 20
-430.0
 30
0.0
 11
509.9999999999999
 21
-434.0
 31
0.0
1001
DBPROPERTIES
1002
{
1000
PbThick
1002
}
  0
LINE
  5
331
330
1F
100
AcDbEntity
  8
THICK
100
AcDbLine
 10
509.9999999999999
 20
-506.0
 30
0.0
 11
509.9999999999999
 21
-510.0
 31
0.0
1001
DBPROPERTIES
1002
{
1000
PbThick
1002
}
  0
LINE
  5
332
330
1F
100
AcDbEntity
  8
HIDDEN
100
AcDbLine
 10
509.9999999999999
 20
-510.0
 30
0.0
 11
509.9999999999999
 21
-510.0
 31
0.0
1001
DBPROPERTIES
1002
{
1000
PbHidd
1002
}
  0
LINE
  5
333
330
1F
100
AcDbEntity
  8
HIDDEN
100
AcDbLine
 10
509.9999999999999
 20
-430.0
 30
0.0
 11
509.9999999999999
 21
-430.0
 31
0.0
1001
DBPROPERTIES
1002
{
1000
PbHidd
1002
}
  0
LINE
  5
334
330
1F
100
AcDbEntity
  8
THICK
100
AcDbLine
 10
-510.0000000000001
 20
-510.0
 30
0.0
 11
-510.0000000000001
 21
-506.0
 31
0.0
1001
DBPROPERTIES
1002
{
1000
PbThick
1002
}
  0
LINE
  5
335
330
1F
100
AcDbEntity
  8
THICK
100
AcDbLine
 10
-510.0000000000001
 20
-510.0
 30
0.0
 11
509.9999999999999
 21
-510.0
 31
0.0
1001
DBPROPERTIES
1002
{
1000
PbThick
1002
}
  0
LINE
  5
336
330
1F
100
AcDbEntity
  8
THICK
100
AcDbLine
 10
-510.0000000000001
 20
-434.0
 30
0.0
 11
-510.0000000000001
 21
-430.0
 31
0.0
1001
DBPROPERTIES
1002
{
1000
PbThick
1002
}
  0
LINE
  5
337
330
1F
100
AcDbEntity
  8
THICK
100
AcDbLine
 10
-510.0000000000001
 20
-430.0
 30
0.0
 11
509.9999999999999
 21
-430.0
 31
0.0
1001
DBPROPERTIES
1002
{
1000
PbThick
1002
}
  0
LINE
  5
338
330
1F
100
AcDbEntity
  8
HIDDEN
100
AcDbLine
 10
-510.0000000000001
 20
-430.0
 30
0.0
 11
-510.0000000000001
 21
-430.0
 31
0.0
1001
DBPROPERTIES
1002
{
1000
PbHidd
1002
}
  0
LINE
  5
339
330
1F
100
AcDbEntity
  8
HIDDEN
100
AcDbLine
 10
-510.0000000000001
 20
-510.0
 30
0.0
 11
-510.0000000000001
 21
-510.0
 31
0.0
1001
DBPROPERTIES
1002
{
1000
PbHidd
1002
}
  0
LINE
  5
33A
330
1F
100
AcDbEntity
  8
HIDDEN
100
AcDbLine
 10
430.0
 20
-430.0
 30
0.0
 11
-430.0
 21
-430.0
 31
0.0
1001
DBPROPERTIES
1002
{
1000
PbHidd
1002
}
  0
LINE
  5
33B
330
1F
100
AcDbEntity
  8
HIDDEN
100
AcDbLine
 10
-430.0
 20
-430.0
 30
0.0
 11
-430.0
 21
-430.0
 31
0.0
1001
DBPROPERTIES
1002
{
1000
PbHidd
1002
}
  0
LINE
  5
33C
330
1F
100
AcDbEntity
  8
HIDDEN
100
AcDbLine
 10
430.0
 20
-430.0
 30
0.0
 11
430.0
 21
-430.0
 31
0.0
1001
DBPROPERTIES
1002
{
1000
PbHidd
1002
}
  0
LINE
  5
33D
330
1F
100
AcDbEntity
  8
HIDDEN
100
AcDbLine
 10
510.0
 20
-434.0
 30
0.0
 11
510.0
 21
-434.0
 31
0.0
1001
DBPROPERTIES
1002
{
1000
PbHidd
1002
}
  0
LINE
  5
33E
330
1F
100
AcDbEntity
  8
HIDDEN
100
AcDbLine
 10
-510.0
 20
-434.0
 30
0.0
 11
-510.0
 21
-434.0
 31
0.0
1001
DBPROPERTIES
1002
{
1000
PbHidd
1002
}
  0
LINE
  5
33F
330
1F
100
AcDbEntity
  8
HIDDEN
100
AcDbLine
 10
510.0
 20
-506.0
 30
0.0
 11
510.0
 21
-506.0
 31
0.0
1001
DBPROPERTIES
1002
{
1000
PbHidd
1002
}
  0
LINE
  5
340
330
1F
100
AcDbEntity
  8
HIDDEN
100
AcDbLine
 10
-510.0
 20
-506.0
 30
0.0
 11
-510.0
 21
-506.0
 31
0.0
1001
DBPROPERTIES
1002
{
1000
PbHidd
1002
}
  0
LINE
  5
341
330
1F
100
AcDbEntity
  8
HIDDEN
100
AcDbLine
 10
-510.0
 20
-510.0
 30
0.0
 11
-510.0
 21
-510.0
 31
0.0
1001
DBPROPERTIES
1002
{
1000
PbHidd
1002
}
  0
LINE
  5
342
330
1F
100
AcDbEntity
  8
HIDDEN
100
AcDbLine
 10
-510.0
 20
-430.0
 30
0.0
 11
-510.0
 21
-430.0
 31
0.0
1001
DBPROPERTIES
1002
{
1000
PbHidd
1002
}
  0
LINE
  5
343
330
1F
100
AcDbEntity
  8
HIDDEN
100
AcDbLine
 10
510.0
 20
-430.0
 30
0.0
 11
510.0
 21
-430.0
 31
0.0
1001
DBPROPERTIES
1002
{
1000
PbHidd
1002
}
  0
LINE
  5
344
330
1F
100
AcDbEntity
  8
HIDDEN
100
AcDbLine
 10
510.0
 20
-510.0
 30
0.0
 11
510.0
 21
-510.0
 31
0.0
1001
DBPROPERTIES
1002
{
1000
PbHidd
1002
}
  0
LINE
  5
345
330
1F
100
AcDbEntity
  8
HIDDEN
100
AcDbLine
 10
430.0
 20
-430.0
 30
0.0
 11
430.0
 21
-430.0
 31
0.0
1001
DBPROPERTIES
1002
{
1000
PbHidd
1002
}
  0
LINE
  5
346
330
1F
100
AcDbEntity
  8
HIDDEN
100
AcDbLine
 10
-430.0
 20
-430.0
 30
0.0
 11
-430.0
 21
-430.0
 31
0.0
1001
DBPROPERTIES
1002
{
1000
PbHidd
1002
}
  0
LINE
  5
347
330
1F
100
AcDbEntity
  8
HIDDEN
100
AcDbLine
 10
301.0
 20
-350.0
 30
0.0
 11
301.0
 21
-350.0
 31
0.0
1001
DBPROPERTIES
1002
{
1000
PbHidd
1002
}
  0
LINE
  5
348
330
1F
100
AcDbEntity
  8
HIDDEN
100
AcDbLine
 10
301.0
 20
-350.0
 30
0.0
 11
301.0
 21
-351.0
 31
0.0
1001
DBPROPERTIES
1002
{
1000
PbHidd
1002
}
  0
LINE
  5
349
330
1F
100
AcDbEntity
  8
HIDDEN
100
AcDbLine
 10
301.0
 20
-351.0
 30
0.0
 11
301.0
 21
-351.0
 31
0.0
1001
DBPROPERTIES
1002
{
1000
PbHidd
1002
}
  0
LINE
  5
34A
330
1F
100
AcDbEntity
  8
HIDDEN
100
AcDbLine
 10
42.99999999999999
 20
-351.0
 30
0.0
 11
42.99999999999999
 21
-350.0
 31
0.0
1001
DBPROPERTIES
1002
{
1000
PbHidd
1002
}
  0
LINE
  5
34B
330
1F
100
AcDbEntity
  8
HIDDEN
100
AcDbLine
 10
301.0
 20
-351.0
 30
0.0
 11
43.0
 21
-351.0
 31
0.0
1001
DBPROPERTIES
1002
{
1000
PbHidd
1002
}
  0
LINE
  5
34C
330
1F
100
AcDbEntity
  8
HIDDEN
100
AcDbLine
 10
43.00000000000001
 20
-350.0
 30
0.0
 11
42.99999999999999
 21
-350.0
 31
0.0
1001
DBPROPERTIES
1002
{
1000
PbHidd
1002
}
  0
LINE
  5
34D
330
1F
100
AcDbEntity
  8
HIDDEN
100
AcDbLine
 10
43.00000000000001
 20
-351.0
 30
0.0
 11
42.99999999999999
 21
-351.0
 31
0.0
1001
DBPROPERTIES
1002
{
1000
PbHidd
1002
}
  0
LINE
  5
34E
330
1F
100
AcDbEntity
  8
HIDDEN
100
AcDbLine
 10
42.99999999999999
 20
-345.0
 30
0.0
 11
43.00000000000001
 21
-345.0
 31
0.0
1001
DBPROPERTIES
1002
{
1000
PbHidd
1002
}
  0
LINE
  5
34F
330
1F
100
AcDbEntity
  8
HIDDEN
100
AcDbLine
 10
42.99999999999999
 20
-345.0
 30
0.0
 11
42.99999999999999
 21
-300.0
 31
0.0
1001
DBPROPERTIES
1002
{
1000
PbHidd
1002
}
  0
LINE
  5
350
330
1F
100
AcDbEntity
  8
THICK
100
AcDbLine
 10
42.99999999999999
 20
-300.0
 30
0.0
 11
42.99999999999999
 21
-151.0
 31
0.0
1001
DBPROPERTIES
1002
{
1000
PbThick
1002
}
  0
LINE
  5
351
330
1F
100
AcDbEntity
  8
HIDDEN
100
AcDbLine
 10
42.99999999999999
 20
-151.0
 30
0.0
 11
43.00000000000001
 21
-151.0
 31
0.0
1001
DBPROPERTIES
1002
{
1000
PbHidd
1002
}
  0
LINE
  5
352
330
1F
100
AcDbEntity
  8
HIDDEN
100
AcDbLine
 10
301.0
 20
-151.0
 30
0.0
 11
301.0
 21
-151.0
 31
0.0
1001
DBPROPERTIES
1002
{
1000
PbHidd
1002
}
  0
LINE
  5
353
330
1F
100
AcDbEntity
  8
THICK
100
AcDbLine
 10
301.0
 20
-151.0
 30
0.0
 11
43.0
 21
-151.0
 31
0.0
1001
DBPROPERTIES
1002
{
1000
PbThick
1002
}
  0
LINE
  5
354
330
1F
100
AcDbEntity
  8
HIDDEN
100
AcDbLine
 10
64.5
 20
-151.0
 30
0.0
 11
64.5
 21
-151.0
 31
0.0
1001
DBPROPERTIES
1002
{
1000
PbHidd
1002
}
  0
LINE
  5
355
330
1F
100
AcDbEntity
  8
HIDDEN
100
AcDbLine
 10
236.5
 20
-151.0
 30
0.0
 11
236.5
 21
-151.0
 31
0.0
1001
DBPROPERTIES
1002
{
1000
PbHidd
1002
}
  0
LINE
  5
356
330
1F
100
AcDbEntity
  8
THICK
100
AcDbLine
 10
301.0
 20
-151.0
 30
0.0
 11
301.0
 21
-300.0
 31
0.0
1001
DBPROPERTIES
1002
{
1000
PbThick
1002
}
  0
LINE
  5
357
330
1F
100
AcDbEntity
  8
HIDDEN
100
AcDbLine
 10
301.0
 20
-300.0
 30
0.0
 11
301.0
 21
-345.0
 31
0.0
1001
DBPROPERTIES
1002
{
1000
PbHidd
1002
}
  0
LINE
  5
358
330
1F
100
AcDbEntity
  8
HIDDEN
100
AcDbLine
 10
301.0
 20
-345.0
 30
0.0
 11
301.0
 21
-345.0
 31
0.0
1001
DBPROPERTIES
1002
{
1000
PbHidd
1002
}
  0
LINE
  5
359
330
1F
100
AcDbEntity
  8
HIDDEN
100
AcDbLine
 10
209.0806306445874
 20
-48.15676942141935
 30
0.0
 11
86.0
 21
-48.15676942141935
 31
0.0
1001
DBPROPERTIES
1002
{
1000
PbHidd
1002
}
  0
LINE
  5
35A
330
1F
100
AcDbEntity
  8
HIDDEN
100
AcDbLine
 10
215.0
 20
-27.83882141113281
 30
0.0
 11
214.9959716796875
 21
-28.63674545288086
 31
0.0
1001
DBPROPERTIES
1002
{
1000
PbHidd
1002
}
  0
LINE
  5
35B
330
1F
100
AcDbEntity
  8
HIDDEN
100
AcDbLine
 10
214.9959716796875
 20
-28.63674545288086
 30
0.0
 11
214.9831848144531
 21
-29.45281600952148
 31
0.0
1001
DBPROPERTIES
1002
{
1000
PbHidd
1002
}
  0
LINE
  5
35C
330
1F
100
AcDbEntity
  8
HIDDEN
100
AcDbLine
 10
214.9831848144531
 20
-29.45281600952148
 30
0.0
 11
214.9605560302734
 21
-30.28384590148926
 31
0.0
1001
DBPROPERTIES
1002
{
1000
PbHidd
1002
}
  0
LINE
  5
35D
330
1F
100
AcDbEntity
  8
HIDDEN
100
AcDbLine
 10
214.9605560302734
 20
-30.28384590148926
 30
0.0
 11
214.9270172119141
 21
-31.12664031982422
 31
0.0
1001
DBPROPERTIES
1002
{
1000
PbHidd
1002
}
  0
LINE
  5
35E
330
1F
100
AcDbEntity
  8
HIDDEN
100
AcDbLine
 10
214.9270172119141
 20
-31.12664031982422
 30
0.0
 11
214.8815002441406
 21
-31.97801399230957
 31
0.0
1001
DBPROPERTIES
1002
{
1000
PbHidd
1002
}
  0
LINE
  5
35F
330
1F
100
AcDbEntity
  8
HIDDEN
100
AcDbLine
 10
214.8815002441406
 20
-31.97801399230957
 30
0.0
 11
214.8229370117188
 21
-32.83477401733398
 31
0.0
1001
DBPROPERTIES
1002
{
1000
PbHidd
1002
}
  0
LINE
  5
360
330
1F
100
AcDbEntity
  8
HIDDEN
100
AcDbLine
 10
214.8229370117188
 20
-32.83477401733398
 30
0.0
 11
214.7502593994141
 21
-33.69373321533203
 31
0.0
1001
DBPROPERTIES
1002
{
1000
PbHidd
1002
}
  0
LINE
  5
361
330
1F
100
AcDbEntity
  8
HIDDEN
100
AcDbLine
 10
214.7502593994141
 20
-33.69373321533203
 30
0.0
 11
214.6624450683594
 21
-34.55171585083008
 31
0.0
1001
DBPROPERTIES
1002
{
1000
PbHidd
1002
}
  0
LINE
  5
362
330
1F
100
AcDbEntity
  8
HIDDEN
100
AcDbLine
 10
214.6624450683594
 20
-34.55171585083008
 30
0.0
 11
214.5588836669922
 21
-35.40559387207031
 31
0.0
1001
DBPROPERTIES
1002
{
1000
PbHidd
1002
}
  0
LINE
  5
363
330
1F
100
AcDbEntity
  8
HIDDEN
100
AcDbLine
 10
214.5588836669922
 20
-35.40559387207031
 30
0.0
 11
214.4390563964844
 21
-36.25221252441406
 31
0.0
1001
DBPROPERTIES
1002
{
1000
PbHidd
1002
}
  0
LINE
  5
364
330
1F
100
AcDbEntity
  8
HIDDEN
100
AcDbLine
 10
214.4390563964844
 20
-36.25221252441406
 30
0.0
 11
214.302490234375
 21
-37.08840942382812
 31
0.0
1001
DBPROPERTIES
1002
{
1000
PbHidd
1002
}
  0
LINE
  5
365
330
1F
100
AcDbEntity
  8
HIDDEN
100
AcDbLine
 10
214.302490234375
 20
-37.08840942382812
 30
0.0
 11
214.1487579345703
 21
-37.91104125976562
 31
0.0
1001
DBPROPERTIES
1002
{
1000
PbHidd
1002
}
  0
LINE
  5
366
330
1F
100
AcDbEntity
  8
HIDDEN
100
AcDbLine
 10
214.1487579345703
 20
-37.91104125976562
 30
0.0
 11
213.9780883789062
 21
-38.71707916259766
 31
0.0
1001
DBPROPERTIES
1002
{
1000
PbHidd
1002
}
  0
LINE
  5
367
330
1F
100
AcDbEntity
  8
HIDDEN
100
AcDbLine
 10
213.9780883789062
 20
-38.71707916259766
 30
0.0
 11
213.7903747558594
 21
-39.50341033935547
 31
0.0
1001
DBPROPERTIES
1002
{
1000
PbHidd
1002
}
  0
LINE
  5
368
330
1F
100
AcDbEntity
  8
HIDDEN
100
AcDbLine
 10
213.7903747558594
 20
-39.50341033935547
 30
0.0
 11
213.5850982666016
 21
-40.27103042602539
 31
0.0
1001
DBPROPERTIES
1002
{
1000
PbHidd
1002
}
  0
LINE
  5
369
330
1F
100
AcDbEntity
  8
HIDDEN
100
AcDbLine
 10
213.5850982666016
 20
-40.27103042602539
 30
0.0
 11
213.3491058349609
 21
-41.05868148803711
 31
0.0
1001
DBPROPERTIES
1002
{
1000
PbHidd
1002
}
  0
LINE
  5
36A
330
1F
100
AcDbEntity
  8
HIDDEN
100
AcDbLine
 10
213.3491058349609
 20
-41.05868148803711
 30
0.0
 11
213.0789642333984
 21
-41.86390686035156
 31
0.0
1001
DBPROPERTIES
1002
{
1000
PbHidd
1002
}
  0
LINE
  5
36B
330
1F
100
AcDbEntity
  8
HIDDEN
100
AcDbLine
 10
213.0789642333984
 20
-41.86390686035156
 30
0.0
 11
212.7751007080078
 21
-42.67012405395508
 31
0.0
1001
DBPROPERTIES
1002
{
1000
PbHidd
1002
}
  0
LINE
  5
36C
330
1F
100
AcDbEntity
  8
HIDDEN
100
AcDbLine
 10
212.7751007080078
 20
-42.67012405395508
 30
0.0
 11
212.4391937255859
 21
-43.4612922668457
 31
0.0
1001
DBPROPERTIES
1002
{
1000
PbHidd
1002
}
  0
LINE
  5
36D
330
1F
100
AcDbEntity
  8
HIDDEN
100
AcDbLine
 10
212.4391937255859
 20
-43.4612922668457
 30
0.0
 11
212.0754089355469
 21
-44.22224044799805
 31
0.0
1001
DBPROPERTIES
1002
{
1000
PbHidd
1002
}
  0
LINE
  5
36E
330
1F
100
AcDbEntity
  8
HIDDEN
100
AcDbLine
 10
212.0754089355469
 20
-44.22224044799805
 30
0.0
 11
211.6898803710938
 21
-44.93862915039062
 31
0.0
1001
DBPROPERTIES
1002
{
1000
PbHidd
1002
}
  0
LINE
  5
36F
330
1F
100
AcDbEntity
  8
HIDDEN
100
AcDbLine
 10
211.6898803710938
 20
-44.93862915039062
 30
0.0
 11
211.2688751220703
 21
-45.63141632080078
 31
0.0
1001
DBPROPERTIES
1002
{
1000
PbHidd
1002
}
  0
LINE
  5
370
330
1F
100
AcDbEntity
  8
HIDDEN
100
AcDbLine
 10
211.2688751220703
 20
-45.63141632080078
 30
0.0
 11
210.7850036621094
 21
-46.33155059814453
 31
0.0
1001
DBPROPERTIES
1002
{
1000
PbHidd
1002
}
  0
LINE
  5
371
330
1F
100
AcDbEntity
  8
HIDDEN
100
AcDbLine
 10
210.7850036621094
 20
-46.33155059814453
 30
0.0
 11
210.2488555908203
 21
-47.00343322753906
 31
0.0
1001
DBPROPERTIES
1002
{
1000
PbHidd
1002
}
  0
LINE
  5
372
330
1F
100
AcDbEntity
  8
HIDDEN
100
AcDbLine
 10
210.2488555908203
 20
-47.00343322753906
 30
0.0
 11
209.6782073974609
 21
-47.61540222167969
 31
0.0
1001
DBPROPERTIES
1002
{
1000
PbHidd
1002
}
  0
LINE
  5
373
330
1F
100
AcDbEntity
  8
HIDDEN
100
AcDbLine
 10
209.6782073974609
 20
-47.61540222167969
 30
0.0
 11
209.0806274414062
 21
-48.15676879882812
 31
0.0
1001
DBPROPERTIES
1002
{
1000
PbHidd
1002
}
  0
LINE
  5
374
330
1F
100
AcDbEntity
  8
HIDDEN
100
AcDbLine
 10
86.0
 20
-146.0
 30
0.0
 11
86.0
 21
-146.0
 31
0.0
1001
DBPROPERTIES
1002
{
1000
PbHidd
1002
}
  0
LINE
  5
375
330
1F
100
AcDbEntity
  8
THICK
100
AcDbLine
 10
86.0
 20
-146.0
 30
0.0
 11
86.0
 21
-48.15676942141933
 31
0.0
1001
DBPROPERTIES
1002
{
1000
PbThick
1002
}
  0
LINE
  5
376
330
1F
100
AcDbEntity
  8
THICK
100
AcDbLine
 10
86.0
 20
-48.15676942141932
 30
0.0
 11
209.0806306445874
 21
-48.15676942141932
 31
0.0
1001
DBPROPERTIES
1002
{
1000
PbThick
1002
}
  0
LINE
  5
377
330
1F
100
AcDbEntity
  8
THICK
100
AcDbLine
 10
215.0
 20
-27.83882181415011
 30
0.0
 11
215.0
 21
-146.0
 31
0.0
1001
DBPROPERTIES
1002
{
1000
PbThick
1002
}
  0
LINE
  5
378
330
1F
100
AcDbEntity
  8
HIDDEN
100
AcDbLine
 10
236.5
 20
-146.0
 30
0.0
 11
236.5
 21
-146.0
 31
0.0
1001
DBPROPERTIES
1002
{
1000
PbHidd
1002
}
  0
LINE
  5
379
330
1F
100
AcDbEntity
  8
THICK
100
AcDbLine
 10
236.5
 20
-146.0
 30
0.0
 11
236.5
 21
-151.0
 31
0.0
1001
DBPROPERTIES
1002
{
1000
PbThick
1002
}
  0
LINE
  5
37A
330
1F
100
AcDbEntity
  8
THICK
100
AcDbLine
 10
64.5
 20
-151.0
 30
0.0
 11
64.5
 21
-146.0
 31
0.0
1001
DBPROPERTIES
1002
{
1000
PbThick
1002
}
  0
LINE
  5
37B
330
1F
100
AcDbEntity
  8
HIDDEN
100
AcDbLine
 10
64.5
 20
-146.0
 30
0.0
 11
64.5
 21
-146.0
 31
0.0
1001
DBPROPERTIES
1002
{
1000
PbHidd
1002
}
  0
LINE
  5
37C
330
1F
100
AcDbEntity
  8
THICK
100
AcDbLine
 10
236.5
 20
-146.0
 30
0.0
 11
64.5
 21
-146.0
 31
0.0
1001
DBPROPERTIES
1002
{
1000
PbThick
1002
}
  0
LINE
  5
37D
330
1F
100
AcDbEntity
  8
HIDDEN
100
AcDbLine
 10
215.0
 20
-146.0
 30
0.0
 11
215.0
 21
-146.0
 31
0.0
1001
DBPROPERTIES
1002
{
1000
PbHidd
1002
}
  0
LINE
  5
37E
330
1F
100
AcDbEntity
  8
HIDDEN
100
AcDbLine
 10
86.0
 20
-83.85786437626905
 30
0.0
 11
0.0
 21
-83.85786437626905
 31
0.0
1001
DBPROPERTIES
1002
{
1000
PbHidd
1002
}
  0
LINE
  5
37F
330
1F
100
AcDbEntity
  8
THICK
100
AcDbLine
 10
0.0
 20
-89.80339976285347
 30
0.0
 11
86.0
 21
-89.80339976285347
 31
0.0
1001
DBPROPERTIES
1002
{
1000
PbThick
1002
}
  0
LINE
  5
380
330
1F
100
AcDbEntity
  8
THICK
100
AcDbLine
 10
86.0
 20
-87.24538000503266
 30
0.0
 11
0.0
 21
-87.24538000503266
 31
0.0
1001
DBPROPERTIES
1002
{
1000
PbThick
1002
}
  0
LINE
  5
381
330
1F
100
AcDbEntity
  8
HIDDEN
100
AcDbLine
 10
86.0
 20
-79.75356835764589
 30
0.0
 11
0.0
 21
-79.75356835764589
 31
0.0
1001
DBPROPERTIES
1002
{
1000
PbHidd
1002
}
  0
LINE
  5
382
330
1F
100
AcDbEntity
  8
THICK
100
AcDbLine
 10
0.0
 20
-83.57083705480824
 30
0.0
 11
86.0
 21
-83.57083705480824
 31
0.0
1001
DBPROPERTIES
1002
{
1000
PbThick
1002
}
  0
LINE
  5
383
330
1F
100
AcDbEntity
  8
THICK
100
AcDbLine
 10
86.0
 20
-76.14717457801294
 30
0.0
 11
0.0
 21
-76.14717457801294
 31
0.0
1001
DBPROPERTIES
1002
{
1000
PbThick
1002
}
  0
LINE
  5
384
330
1F
100
AcDbEntity
  8
HIDDEN
100
AcDbLine
 10
86.0
 20
-67.84243739239115
 30
0.0
 11
0.0
 21
-67.84243739239115
 31
0.0
1001
DBPROPERTIES
1002
{
1000
PbHidd
1002
}
  0
LINE
  5
385
330
1F
100
AcDbEntity
  8
THICK
100
AcDbLine
 10
0.0
 20
-69.15777854357822
 30
0.0
 11
86.0
 21
-69.15777854357822
 31
0.0
1001
DBPROPERTIES
1002
{
1000
PbThick
1002
}
  0
LINE
  5
386
330
1F
100
AcDbEntity
  8
THICK
100
AcDbLine
 10
86.0
 20
-57.59515315473507
 30
0.0
 11
0.0
 21
-57.59515315473507
 31
0.0
1001
DBPROPERTIES
1002
{
1000
PbThick
1002
}
  0
LINE
  5
387
330
1F
100
AcDbEntity
  8
THICK
100
AcDbLine
 10
86.0
 20
-49.29041596911328
 30
0.0
 11
0.0
 21
-49.29041596911328
 31
0.0
1001
DBPROPERTIES
1002
{
1000
PbThick
1002
}
  0
LINE
  5
388
330
1F
100
AcDbEntity
  8
THICK
100
AcDbLine
 10
0.0
 20
-47.97507481792619
 30
0.0
 11
205.0
 21
-47.97507481792619
 31
0.0
1001
DBPROPERTIES
1002
{
1000
PbThick
1002
}
  0
LINE
  5
389
330
1F
100
AcDbEntity
  8
THICK
100
AcDbLine
 10
258.0
 20
0.000000000000008
 30
0.0
 11
258.0
 21
-65.0
 31
0.0
1001
DBPROPERTIES
1002
{
1000
PbThick
1002
}
  0
LINE
  5
38A
330
1F
100
AcDbEntity
  8
THICK
100
AcDbLine
 10
248.0
 20
0.0000000000000092
 30
0.0
 11
248.0
 21
-75.0
 31
0.0
1001
DBPROPERTIES
1002
{
1000
PbThick
1002
}
  0
LINE
  5
38B
330
1F
100
AcDbEntity
  8
HIDDEN
100
AcDbLine
 10
214.2258758544922
 20
-0.0000000000000188
 30
0.0
 11
214.0976715087891
 21
-0.2927660048007965
 31
0.0
1001
DBPROPERTIES
1002
{
1000
PbHidd
1002
}
  0
LINE
  5
38C
330
1F
100
AcDbEntity
  8
HIDDEN
100
AcDbLine
 10
214.0976715087891
 20
-0.2927660048007965
 30
0.0
 11
213.9615936279297
 21
-0.5774564743041992
 31
0.0
1001
DBPROPERTIES
1002
{
1000
PbHidd
1002
}
  0
LINE
  5
38D
330
1F
100
AcDbEntity
  8
HIDDEN
100
AcDbLine
 10
213.9615936279297
 20
-0.5774564743041992
 30
0.0
 11
213.8121795654297
 21
-0.8647598624229431
 31
0.0
1001
DBPROPERTIES
1002
{
1000
PbHidd
1002
}
  0
LINE
  5
38E
330
1F
100
AcDbEntity
  8
HIDDEN
100
AcDbLine
 10
213.8121795654297
 20
-0.8647598624229431
 30
0.0
 11
213.6476440429688
 21
-1.156026244163513
 31
0.0
1001
DBPROPERTIES
1002
{
1000
PbHidd
1002
}
  0
LINE
  5
38F
330
1F
100
AcDbEntity
  8
HIDDEN
100
AcDbLine
 10
213.6476440429688
 20
-1.156026244163513
 30
0.0
 11
213.4679870605469
 21
-1.44894552230835
 31
0.0
1001
DBPROPERTIES
1002
{
1000
PbHidd
1002
}
  0
LINE
  5
390
330
1F
100
AcDbEntity
  8
HIDDEN
100
AcDbLine
 10
213.4679870605469
 20
-1.44894552230835
 30
0.0
 11
213.2734375
 21
-1.741300344467163
 31
0.0
1001
DBPROPERTIES
1002
{
1000
PbHidd
1002
}
  0
LINE
  5
391
330
1F
100
AcDbEntity
  8
HIDDEN
100
AcDbLine
 10
213.2734375
 20
-1.741300344467163
 30
0.0
 11
213.0646209716797
 21
-2.030970811843872
 31
0.0
1001
DBPROPERTIES
1002
{
1000
PbHidd
1002
}
  0
LINE
  5
392
330
1F
100
AcDbEntity
  8
HIDDEN
100
AcDbLine
 10
213.0646209716797
 20
-2.030970811843872
 30
0.0
 11
212.8421478271484
 21
-2.315873861312866
 31
0.0
1001
DBPROPERTIES
1002
{
1000
PbHidd
1002
}
  0
LINE
  5
393
330
1F
100
AcDbEntity
  8
HIDDEN
100
AcDbLine
 10
212.8421478271484
 20
-2.315873861312866
 30
0.0
 11
212.6070556640625
 21
-2.594122171401978
 31
0.0
1001
DBPROPERTIES
1002
{
1000
PbHidd
1002
}
  0
LINE
  5
394
330
1F
100
AcDbEntity
  8
HIDDEN
100
AcDbLine
 10
212.6070556640625
 20
-2.594122171401978
 30
0.0
 11
212.3607330322266
 21
-2.863883972167969
 31
0.0
1001
DBPROPERTIES
1002
{
1000
PbHidd
1002
}
  0
LINE
  5
395
330
1F
100
AcDbEntity
  8
HIDDEN
100
AcDbLine
 10
212.3607330322266
 20
-2.863883972167969
 30
0.0
 11
212.1046142578125
 21
-3.123370885848999
 31
0.0
1001
DBPROPERTIES
1002
{
1000
PbHidd
1002
}
  0
LINE
  5
396
330
1F
100
AcDbEntity
  8
HIDDEN
100
AcDbLine
 10
212.1046142578125
 20
-3.123370885848999
 30
0.0
 11
211.8407592773438
 21
-3.371063232421875
 31
0.0
1001
DBPROPERTIES
1002
{
1000
PbHidd
1002
}
  0
LINE
  5
397
330
1F
100
AcDbEntity
  8
HIDDEN
100
AcDbLine
 10
211.8407592773438
 20
-3.371063232421875
 30
0.0
 11
211.5713348388672
 21
-3.60559344291687
 31
0.0
1001
DBPROPERTIES
1002
{
1000
PbHidd
1002
}
  0
LINE
  5
398
330
1F
100
AcDbEntity
  8
HIDDEN
100
AcDbLine
 10
211.5713348388672
 20
-3.60559344291687
 30
0.0
 11
211.2870788574219
 21
-3.834702253341675
 31
0.0
1001
DBPROPERTIES
1002
{
1000
PbHidd
1002
}
  0
LINE
  5
399
330
1F
100
AcDbEntity
  8
HIDDEN
100
AcDbLine
 10
211.2870788574219
 20
-3.834702253341675
 30
0.0
 11
210.9814147949219
 21
-4.062247753143311
 31
0.0
1001
DBPROPERTIES
1002
{
1000
PbHidd
1002
}
  0
LINE
  5
39A
330
1F
100
AcDbEntity
  8
HIDDEN
100
AcDbLine
 10
210.9814147949219
 20
-4.062247753143311
 30
0.0
 11
210.6560363769531
 21
-4.2847900390625
 31
0.0
1001
DBPROPERTIES
1002
{
1000
PbHidd
1002
}
  0
LINE
  5
39B
330
1F
100
AcDbEntity
  8
HIDDEN
100
AcDbLine
 10
210.6560363769531
 20
-4.2847900390625
 30
0.0
 11
210.3132476806641
 21
-4.499310970306396
 31
0.0
1001
DBPROPERTIES
1002
{
1000
PbHidd
1002
}
  0
LINE
  5
39C
330
1F
100
AcDbEntity
  8
HIDDEN
100
AcDbLine
 10
210.3132476806641
 20
-4.499310970306396
 30
0.0
 11
209.9556732177734
 21
-4.703018665313721
 31
0.0
1001
DBPROPERTIES
1002
{
1000
PbHidd
1002
}
  0
LINE
  5
39D
330
1F
100
AcDbEntity
  8
HIDDEN
100
AcDbLine
 10
209.9556732177734
 20
-4.703018665313721
 30
0.0
 11
209.5862731933594
 21
-4.893575668334961
 31
0.0
1001
DBPROPERTIES
1002
{
1000
PbHidd
1002
}
  0
LINE
  5
39E
330
1F
100
AcDbEntity
  8
HIDDEN
100
AcDbLine
 10
209.5862731933594
 20
-4.893575668334961
 30
0.0
 11
209.2086181640625
 21
-5.06902551651001
 31
0.0
1001
DBPROPERTIES
1002
{
1000
PbHidd
1002
}
  0
LINE
  5
39F
330
1F
100
AcDbEntity
  8
HIDDEN
100
AcDbLine
 10
209.2086181640625
 20
-5.06902551651001
 30
0.0
 11
208.8265991210938
 21
-5.227720260620117
 31
0.0
1001
DBPROPERTIES
1002
{
1000
PbHidd
1002
}
  0
LINE
  5
3A0
330
1F
100
AcDbEntity
  8
HIDDEN
100
AcDbLine
 10
208.8265991210938
 20
-5.227720260620117
 30
0.0
 11
208.4447631835938
 21
-5.368712902069092
 31
0.0
1001
DBPROPERTIES
1002
{
1000
PbHidd
1002
}
  0
LINE
  5
3A1
330
1F
100
AcDbEntity
  8
HIDDEN
100
AcDbLine
 10
208.4447631835938
 20
-5.368712902069092
 30
0.0
 11
208.0546875
 21
-5.495298385620117
 31
0.0
1001
DBPROPERTIES
1002
{
1000
PbHidd
1002
}
  0
LINE
  5
3A2
330
1F
100
AcDbEntity
  8
HIDDEN
100
AcDbLine
 10
208.0546875
 20
-5.495298385620117
 30
0.0
 11
207.6422271728516
 21
-5.610978126525879
 31
0.0
1001
DBPROPERTIES
1002
{
1000
PbHidd
1002
}
  0
LINE
  5
3A3
330
1F
100
AcDbEntity
  8
HIDDEN
100
AcDbLine
 10
207.6422271728516
 20
-5.610978126525879
 30
0.0
 11
207.2122344970703
 21
-5.712358474731445
 31
0.0
1001
DBPROPERTIES
1002
{
1000
PbHidd
1002
}
  0
LINE
  5
3A4
330
1F
100
AcDbEntity
  8
HIDDEN
100
AcDbLine
 10
207.2122344970703
 20
-5.712358474731445
 30
0.0
 11
206.7702331542969
 21
-5.796984195709229
 31
0.0
1001
DBPROPERTIES
1002
{
1000
PbHidd
1002
}
  0
LINE
  5
3A5
330
1F
100
AcDbEntity
  8
HIDDEN
100
AcDbLine
 10
206.7702331542969
 20
-5.796984195709229
 30
0.0
 11
206.3218536376953
 21
-5.862986087799072
 31
0.0
1001
DBPROPERTIES
1002
{
1000
PbHidd
1002
}
  0
LINE
  5
3A6
330
1F
100
AcDbEntity
  8
HIDDEN
100
AcDbLine
 10
206.3218536376953
 20
-5.862986087799072
 30
0.0
 11
205.8731079101562
 21
-5.909634113311768
 31
0.0
1001
DBPROPERTIES
1002
{
1000
PbHidd
1002
}
  0
LINE
  5
3A7
330
1F
100
AcDbEntity
  8
HIDDEN
100
AcDbLine
 10
205.8731079101562
 20
-5.909634113311768
 30
0.0
 11
205.4303131103516
 21
-5.936792373657227
 31
0.0
1001
DBPROPERTIES
1002
{
1000
PbHidd
1002
}
  0
LINE
  5
3A8
330
1F
100
AcDbEntity
  8
HIDDEN
100
AcDbLine
 10
205.4303131103516
 20
-5.936792373657227
 30
0.0
 11
205.0
 21
-5.945535182952881
 31
0.0
1001
DBPROPERTIES
1002
{
1000
PbHidd
1002
}
  0
LINE
  5
3A9
330
1F
100
AcDbEntity
  8
HIDDEN
100
AcDbLine
 10
205.0
 20
-47.97507476806641
 30
0.0
 11
205.4156188964844
 21
-47.97687911987305
 31
0.0
1001
DBPROPERTIES
1002
{
1000
PbHidd
1002
}
  0
LINE
  5
3AA
330
1F
100
AcDbEntity
  8
HIDDEN
100
AcDbLine
 10
205.4156188964844
 20
-47.97687911987305
 30
0.0
 11
205.8431091308594
 21
-47.98247909545898
 31
0.0
1001
DBPROPERTIES
1002
{
1000
PbHidd
1002
}
  0
LINE
  5
3AB
330
1F
100
AcDbEntity
  8
HIDDEN
100
AcDbLine
 10
205.8431091308594
 20
-47.98247909545898
 30
0.0
 11
206.2765655517578
 21
-47.99210357666016
 31
0.0
1001
DBPROPERTIES
1002
{
1000
PbHidd
1002
}
  0
LINE
  5
3AC
330
1F
100
AcDbEntity
  8
HIDDEN
100
AcDbLine
 10
206.2765655517578
 20
-47.99210357666016
 30
0.0
 11
206.7102661132812
 21
-48.00573348999023
 31
0.0
1001
DBPROPERTIES
1002
{
1000
PbHidd
1002
}
  0
LINE
  5
3AD
330
1F
100
AcDbEntity
  8
HIDDEN
100
AcDbLine
 10
206.7102661132812
 20
-48.00573348999023
 30
0.0
 11
207.1387329101562
 21
-48.02323913574219
 31
0.0
1001
DBPROPERTIES
1002
{
1000
PbHidd
1002
}
  0
LINE
  5
3AE
330
1F
100
AcDbEntity
  8
HIDDEN
100
AcDbLine
 10
207.1387329101562
 20
-48.02323913574219
 30
0.0
 11
207.5568542480469
 21
-48.04429626464844
 31
0.0
1001
DBPROPERTIES
1002
{
1000
PbHidd
1002
}
  0
LINE
  5
3AF
330
1F
100
AcDbEntity
  8
HIDDEN
100
AcDbLine
 10
207.5568542480469
 20
-48.04429626464844
 30
0.0
 11
207.9595947265625
 21
-48.06842041015625
 31
0.0
1001
DBPROPERTIES
1002
{
1000
PbHidd
1002
}
  0
LINE
  5
3B0
330
1F
100
AcDbEntity
  8
HIDDEN
100
AcDbLine
 10
207.9595947265625
 20
-48.06842041015625
 30
0.0
 11
208.3423614501953
 21
-48.09496307373047
 31
0.0
1001
DBPROPERTIES
1002
{
1000
PbHidd
1002
}
  0
LINE
  5
3B1
330
1F
100
AcDbEntity
  8
HIDDEN
100
AcDbLine
 10
208.3423614501953
 20
-48.09496307373047
 30
0.0
 11
208.7109832763672
 21
-48.12403106689453
 31
0.0
1001
DBPROPERTIES
1002
{
1000
PbHidd
1002
}
  0
LINE
  5
3B2
330
1F
100
AcDbEntity
  8
HIDDEN
100
AcDbLine
 10
208.7109832763672
 20
-48.12403106689453
 30
0.0
 11
209.0806274414062
 21
-48.15676879882812
 31
0.0
1001
DBPROPERTIES
1002
{
1000
PbHidd
1002
}
  0
LINE
  5
3B3
330
1F
100
AcDbEntity
  8
HIDDEN
100
AcDbLine
 10
205.0
 20
-47.97507481792625
 30
0.0
 11
205.0
 21
-33.40531685164342
 31
0.0
1001
DBPROPERTIES
1002
{
1000
PbHidd
1002
}
  0
LINE
  5
3B4
330
1F
100
AcDbEntity
  8
HIDDEN
100
AcDbLine
 10
214.2258758544922
 20
-25.91350555419922
 30
0.0
 11
214.0976715087891
 21
-26.28241157531738
 31
0.0
1001
DBPROPERTIES
1002
{
1000
PbHidd
1002
}
  0
LINE
  5
3B5
330
1F
100
AcDbEntity
  8
HIDDEN
100
AcDbLine
 10
214.0976715087891
 20
-26.28241157531738
 30
0.0
 11
213.9615936279297
 21
-26.64114189147949
 31
0.0
1001
DBPROPERTIES
1002
{
1000
PbHidd
1002
}
  0
LINE
  5
3B6
330
1F
100
AcDbEntity
  8
HIDDEN
100
AcDbLine
 10
213.9615936279297
 20
-26.64114189147949
 30
0.0
 11
213.8121795654297
 21
-27.00316619873047
 31
0.0
1001
DBPROPERTIES
1002
{
1000
PbHidd
1002
}
  0
LINE
  5
3B7
330
1F
100
AcDbEntity
  8
HIDDEN
100
AcDbLine
 10
213.8121795654297
 20
-27.00316619873047
 30
0.0
 11
213.6476440429688
 21
-27.37018394470215
 31
0.0
1001
DBPROPERTIES
1002
{
1000
PbHidd
1002
}
  0
LINE
  5
3B8
330
1F
100
AcDbEntity
  8
HIDDEN
100
AcDbLine
 10
213.6476440429688
 20
-27.37018394470215
 30
0.0
 11
213.4679870605469
 21
-27.73928260803223
 31
0.0
1001
DBPROPERTIES
1002
{
1000
PbHidd
1002
}
  0
LINE
  5
3B9
330
1F
100
AcDbEntity
  8
HIDDEN
100
AcDbLine
 10
213.4679870605469
 20
-27.73928260803223
 30
0.0
 11
213.2734375
 21
-28.1076717376709
 31
0.0
1001
DBPROPERTIES
1002
{
1000
PbHidd
1002
}
  0
LINE
  5
3BA
330
1F
100
AcDbEntity
  8
HIDDEN
100
AcDbLine
 10
213.2734375
 20
-28.1076717376709
 30
0.0
 11
213.0646209716797
 21
-28.47267723083496
 31
0.0
1001
DBPROPERTIES
1002
{
1000
PbHidd
1002
}
  0
LINE
  5
3BB
330
1F
100
AcDbEntity
  8
HIDDEN
100
AcDbLine
 10
213.0646209716797
 20
-28.47267723083496
 30
0.0
 11
212.8421478271484
 21
-28.8316764831543
 31
0.0
1001
DBPROPERTIES
1002
{
1000
PbHidd
1002
}
  0
LINE
  5
3BC
330
1F
100
AcDbEntity
  8
HIDDEN
100
AcDbLine
 10
212.8421478271484
 20
-28.8316764831543
 30
0.0
 11
212.6070556640625
 21
-29.18228912353516
 31
0.0
1001
DBPROPERTIES
1002
{
1000
PbHidd
1002
}
  0
LINE
  5
3BD
330
1F
100
AcDbEntity
  8
HIDDEN
100
AcDbLine
 10
212.6070556640625
 20
-29.18228912353516
 30
0.0
 11
212.3607330322266
 21
-29.52220916748047
 31
0.0
1001
DBPROPERTIES
1002
{
1000
PbHidd
1002
}
  0
LINE
  5
3BE
330
1F
100
AcDbEntity
  8
HIDDEN
100
AcDbLine
 10
212.3607330322266
 20
-29.52220916748047
 30
0.0
 11
212.1046142578125
 21
-29.84918212890625
 31
0.0
1001
DBPROPERTIES
1002
{
1000
PbHidd
1002
}
  0
LINE
  5
3BF
330
1F
100
AcDbEntity
  8
HIDDEN
100
AcDbLine
 10
212.1046142578125
 20
-29.84918212890625
 30
0.0
 11
211.8407592773438
 21
-30.16129302978516
 31
0.0
1001
DBPROPERTIES
1002
{
1000
PbHidd
1002
}
  0
LINE
  5
3C0
330
1F
100
AcDbEntity
  8
HIDDEN
100
AcDbLine
 10
211.8407592773438
 20
-30.16129302978516
 30
0.0
 11
211.5713348388672
 21
-30.45681762695312
 31
0.0
1001
DBPROPERTIES
1002
{
1000
PbHidd
1002
}
  0
LINE
  5
3C1
330
1F
100
AcDbEntity
  8
HIDDEN
100
AcDbLine
 10
211.5713348388672
 20
-30.45681762695312
 30
0.0
 11
211.2870788574219
 21
-30.74551200866699
 31
0.0
1001
DBPROPERTIES
1002
{
1000
PbHidd
1002
}
  0
LINE
  5
3C2
330
1F
100
AcDbEntity
  8
HIDDEN
100
AcDbLine
 10
211.2870788574219
 20
-30.74551200866699
 30
0.0
 11
210.9814147949219
 21
-31.03223609924316
 31
0.0
1001
DBPROPERTIES
1002
{
1000
PbHidd
1002
}
  0
LINE
  5
3C3
330
1F
100
AcDbEntity
  8
HIDDEN
100
AcDbLine
 10
210.9814147949219
 20
-31.03223609924316
 30
0.0
 11
210.6560363769531
 21
-31.31265640258789
 31
0.0
1001
DBPROPERTIES
1002
{
1000
PbHidd
1002
}
  0
LINE
  5
3C4
330
1F
100
AcDbEntity
  8
HIDDEN
100
AcDbLine
 10
210.6560363769531
 20
-31.31265640258789
 30
0.0
 11
210.3132476806641
 21
-31.58296775817871
 31
0.0
1001
DBPROPERTIES
1002
{
1000
PbHidd
1002
}
  0
LINE
  5
3C5
330
1F
100
AcDbEntity
  8
HIDDEN
100
AcDbLine
 10
210.3132476806641
 20
-31.58296775817871
 30
0.0
 11
209.9556732177734
 21
-31.83965492248535
 31
0.0
1001
DBPROPERTIES
1002
{
1000
PbHidd
1002
}
  0
LINE
  5
3C6
330
1F
100
AcDbEntity
  8
HIDDEN
100
AcDbLine
 10
209.9556732177734
 20
-31.83965492248535
 30
0.0
 11
209.5862731933594
 21
-32.07976913452148
 31
0.0
1001
DBPROPERTIES
1002
{
1000
PbHidd
1002
}
  0
LINE
  5
3C7
330
1F
100
AcDbEntity
  8
HIDDEN
100
AcDbLine
 10
209.5862731933594
 20
-32.07976913452148
 30
0.0
 11
209.2086181640625
 21
-32.30084991455078
 31
0.0
1001
DBPROPERTIES
1002
{
1000
PbHidd
1002
}
  0
LINE
  5
3C8
330
1F
100
AcDbEntity
  8
HIDDEN
100
AcDbLine
 10
209.2086181640625
 20
-32.30084991455078
 30
0.0
 11
208.8265991210938
 21
-32.50081634521484
 31
0.0
1001
DBPROPERTIES
1002
{
1000
PbHidd
1002
}
  0
LINE
  5
3C9
330
1F
100
AcDbEntity
  8
HIDDEN
100
AcDbLine
 10
208.8265991210938
 20
-32.50081634521484
 30
0.0
 11
208.4447631835938
 21
-32.6784782409668
 31
0.0
1001
DBPROPERTIES
1002
{
1000
PbHidd
1002
}
  0
LINE
  5
3CA
330
1F
100
AcDbEntity
  8
HIDDEN
100
AcDbLine
 10
208.4447631835938
 20
-32.6784782409668
 30
0.0
 11
208.0546875
 21
-32.83798599243164
 31
0.0
1001
DBPROPERTIES
1002
{
1000
PbHidd
1002
}
  0
LINE
  5
3CB
330
1F
100
AcDbEntity
  8
HIDDEN
100
AcDbLine
 10
208.0546875
 20
-32.83798599243164
 30
0.0
 11
207.6422271728516
 21
-32.98374938964844
 31
0.0
1001
DBPROPERTIES
1002
{
1000
PbHidd
1002
}
  0
LINE
  5
3CC
330
1F
100
AcDbEntity
  8
HIDDEN
100
AcDbLine
 10
207.6422271728516
 20
-32.98374938964844
 30
0.0
 11
207.2122344970703
 21
-33.11149597167969
 31
0.0
1001
DBPROPERTIES
1002
{
1000
PbHidd
1002
}
  0
LINE
  5
3CD
330
1F
100
AcDbEntity
  8
HIDDEN
100
AcDbLine
 10
207.2122344970703
 20
-33.11149597167969
 30
0.0
 11
206.7702331542969
 21
-33.21813201904297
 31
0.0
1001
DBPROPERTIES
1002
{
1000
PbHidd
1002
}
  0
LINE
  5
3CE
330
1F
100
AcDbEntity
  8
HIDDEN
100
AcDbLine
 10
206.7702331542969
 20
-33.21813201904297
 30
0.0
 11
206.3218536376953
 21
-33.30130004882812
 31
0.0
1001
DBPROPERTIES
1002
{
1000
PbHidd
1002
}
  0
LINE
  5
3CF
330
1F
100
AcDbEntity
  8
HIDDEN
100
AcDbLine
 10
206.3218536376953
 20
-33.30130004882812
 30
0.0
 11
205.8731079101562
 21
-33.36007690429688
 31
0.0
1001
DBPROPERTIES
1002
{
1000
PbHidd
1002
}
  0
LINE
  5
3D0
330
1F
100
AcDbEntity
  8
HIDDEN
100
AcDbLine
 10
205.8731079101562
 20
-33.36007690429688
 30
0.0
 11
205.4303131103516
 21
-33.3942985534668
 31
0.0
1001
DBPROPERTIES
1002
{
1000
PbHidd
1002
}
  0
LINE
  5
3D1
330
1F
100
AcDbEntity
  8
HIDDEN
100
AcDbLine
 10
205.4303131103516
 20
-33.3942985534668
 30
0.0
 11
205.0
 21
-33.40531539916992
 31
0.0
1001
DBPROPERTIES
1002
{
1000
PbHidd
1002
}
  0
LINE
  5
3D2
330
1F
100
AcDbEntity
  8
HIDDEN
100
AcDbLine
 10
205.0
 20
-22.09623718261719
 30
0.0
 11
205.4303131103516
 21
-22.10185050964355
 31
0.0
1001
DBPROPERTIES
1002
{
1000
PbHidd
1002
}
  0
LINE
  5
3D3
330
1F
100
AcDbEntity
  8
HIDDEN
100
AcDbLine
 10
205.4303131103516
 20
-22.10185050964355
 30
0.0
 11
205.8731079101562
 21
-22.11928749084473
 31
0.0
1001
DBPROPERTIES
1002
{
1000
PbHidd
1002
}
  0
LINE
  5
3D4
330
1F
100
AcDbEntity
  8
HIDDEN
100
AcDbLine
 10
205.8731079101562
 20
-22.11928749084473
 30
0.0
 11
206.3218536376953
 21
-22.14923667907715
 31
0.0
1001
DBPROPERTIES
1002
{
1000
PbHidd
1002
}
  0
LINE
  5
3D5
330
1F
100
AcDbEntity
  8
HIDDEN
100
AcDbLine
 10
206.3218536376953
 20
-22.14923667907715
 30
0.0
 11
206.7702331542969
 21
-22.19161224365234
 31
0.0
1001
DBPROPERTIES
1002
{
1000
PbHidd
1002
}
  0
LINE
  5
3D6
330
1F
100
AcDbEntity
  8
HIDDEN
100
AcDbLine
 10
206.7702331542969
 20
-22.19161224365234
 30
0.0
 11
207.2122344970703
 21
-22.24594497680664
 31
0.0
1001
DBPROPERTIES
1002
{
1000
PbHidd
1002
}
  0
LINE
  5
3D7
330
1F
100
AcDbEntity
  8
HIDDEN
100
AcDbLine
 10
207.2122344970703
 20
-22.24594497680664
 30
0.0
 11
207.6422271728516
 21
-22.31103515625
 31
0.0
1001
DBPROPERTIES
1002
{
1000
PbHidd
1002
}
  0
LINE
  5
3D8
330
1F
100
AcDbEntity
  8
HIDDEN
100
AcDbLine
 10
207.6422271728516
 20
-22.31103515625
 30
0.0
 11
208.0546875
 21
-22.38530731201172
 31
0.0
1001
DBPROPERTIES
1002
{
1000
PbHidd
1002
}
  0
LINE
  5
3D9
330
1F
100
AcDbEntity
  8
HIDDEN
100
AcDbLine
 10
208.0546875
 20
-22.38530731201172
 30
0.0
 11
208.4447631835938
 21
-22.46657943725586
 31
0.0
1001
DBPROPERTIES
1002
{
1000
PbHidd
1002
}
  0
LINE
  5
3DA
330
1F
100
AcDbEntity
  8
HIDDEN
100
AcDbLine
 10
208.4447631835938
 20
-22.46657943725586
 30
0.0
 11
208.8265991210938
 21
-22.55710220336914
 31
0.0
1001
DBPROPERTIES
1002
{
1000
PbHidd
1002
}
  0
LINE
  5
3DB
330
1F
100
AcDbEntity
  8
HIDDEN
100
AcDbLine
 10
208.8265991210938
 20
-22.55710220336914
 30
0.0
 11
209.2086181640625
 21
-22.65899085998535
 31
0.0
1001
DBPROPERTIES
1002
{
1000
PbHidd
1002
}
  0
LINE
  5
3DC
330
1F
100
AcDbEntity
  8
HIDDEN
100
AcDbLine
 10
209.2086181640625
 20
-22.65899085998535
 30
0.0
 11
209.5862731933594
 21
-22.77163696289062
 31
0.0
1001
DBPROPERTIES
1002
{
1000
PbHidd
1002
}
  0
LINE
  5
3DD
330
1F
100
AcDbEntity
  8
HIDDEN
100
AcDbLine
 10
209.5862731933594
 20
-22.77163696289062
 30
0.0
 11
209.9556732177734
 21
-22.89398193359375
 31
0.0
1001
DBPROPERTIES
1002
{
1000
PbHidd
1002
}
  0
LINE
  5
3DE
330
1F
100
AcDbEntity
  8
HIDDEN
100
AcDbLine
 10
209.9556732177734
 20
-22.89398193359375
 30
0.0
 11
210.3132476806641
 21
-23.02477073669434
 31
0.0
1001
DBPROPERTIES
1002
{
1000
PbHidd
1002
}
  0
LINE
  5
3DF
330
1F
100
AcDbEntity
  8
HIDDEN
100
AcDbLine
 10
210.3132476806641
 20
-23.02477073669434
 30
0.0
 11
210.6560363769531
 21
-23.16250038146973
 31
0.0
1001
DBPROPERTIES
1002
{
1000
PbHidd
1002
}
  0
LINE
  5
3E0
330
1F
100
AcDbEntity
  8
HIDDEN
100
AcDbLine
 10
210.6560363769531
 20
-23.16250038146973
 30
0.0
 11
210.9814147949219
 21
-23.30538177490234
 31
0.0
1001
DBPROPERTIES
1002
{
1000
PbHidd
1002
}
  0
LINE
  5
3E1
330
1F
100
AcDbEntity
  8
HIDDEN
100
AcDbLine
 10
210.9814147949219
 20
-23.30538177490234
 30
0.0
 11
211.2870788574219
 21
-23.45147514343262
 31
0.0
1001
DBPROPERTIES
1002
{
1000
PbHidd
1002
}
  0
LINE
  5
3E2
330
1F
100
AcDbEntity
  8
HIDDEN
100
AcDbLine
 10
211.2870788574219
 20
-23.45147514343262
 30
0.0
 11
211.5713348388672
 21
-23.59857177734375
 31
0.0
1001
DBPROPERTIES
1002
{
1000
PbHidd
1002
}
  0
LINE
  5
3E3
330
1F
100
AcDbEntity
  8
HIDDEN
100
AcDbLine
 10
211.5713348388672
 20
-23.59857177734375
 30
0.0
 11
211.8407592773438
 21
-23.74914932250977
 31
0.0
1001
DBPROPERTIES
1002
{
1000
PbHidd
1002
}
  0
LINE
  5
3E4
330
1F
100
AcDbEntity
  8
HIDDEN
100
AcDbLine
 10
211.8407592773438
 20
-23.74914932250977
 30
0.0
 11
212.1046142578125
 21
-23.90817832946777
 31
0.0
1001
DBPROPERTIES
1002
{
1000
PbHidd
1002
}
  0
LINE
  5
3E5
330
1F
100
AcDbEntity
  8
HIDDEN
100
AcDbLine
 10
212.1046142578125
 20
-23.90817832946777
 30
0.0
 11
212.3607330322266
 21
-24.07477760314941
 31
0.0
1001
DBPROPERTIES
1002
{
1000
PbHidd
1002
}
  0
LINE
  5
3E6
330
1F
100
AcDbEntity
  8
HIDDEN
100
AcDbLine
 10
212.3607330322266
 20
-24.07477760314941
 30
0.0
 11
212.6070556640625
 21
-24.24797630310059
 31
0.0
1001
DBPROPERTIES
1002
{
1000
PbHidd
1002
}
  0
LINE
  5
3E7
330
1F
100
AcDbEntity
  8
HIDDEN
100
AcDbLine
 10
212.6070556640625
 20
-24.24797630310059
 30
0.0
 11
212.8421478271484
 21
-24.42662239074707
 31
0.0
1001
DBPROPERTIES
1002
{
1000
PbHidd
1002
}
  0
LINE
  5
3E8
330
1F
100
AcDbEntity
  8
HIDDEN
100
AcDbLine
 10
212.8421478271484
 20
-24.42662239074707
 30
0.0
 11
213.0646209716797
 21
-24.60954093933105
 31
0.0
1001
DBPROPERTIES
1002
{
1000
PbHidd
1002
}
  0
LINE
  5
3E9
330
1F
100
AcDbEntity
  8
HIDDEN
100
AcDbLine
 10
213.0646209716797
 20
-24.60954093933105
 30
0.0
 11
213.2734375
 21
-24.7955207824707
 31
0.0
1001
DBPROPERTIES
1002
{
1000
PbHidd
1002
}
  0
LINE
  5
3EA
330
1F
100
AcDbEntity
  8
HIDDEN
100
AcDbLine
 10
213.2734375
 20
-24.7955207824707
 30
0.0
 11
213.4679870605469
 21
-24.98322486877441
 31
0.0
1001
DBPROPERTIES
1002
{
1000
PbHidd
1002
}
  0
LINE
  5
3EB
330
1F
100
AcDbEntity
  8
HIDDEN
100
AcDbLine
 10
213.4679870605469
 20
-24.98322486877441
 30
0.0
 11
213.6476440429688
 21
-25.17129135131836
 31
0.0
1001
DBPROPERTIES
1002
{
1000
PbHidd
1002
}
  0
LINE
  5
3EC
330
1F
100
AcDbEntity
  8
HIDDEN
100
AcDbLine
 10
213.6476440429688
 20
-25.17129135131836
 30
0.0
 11
213.8121795654297
 21
-25.35829544067383
 31
0.0
1001
DBPROPERTIES
1002
{
1000
PbHidd
1002
}
  0
LINE
  5
3ED
330
1F
100
AcDbEntity
  8
HIDDEN
100
AcDbLine
 10
213.8121795654297
 20
-25.35829544067383
 30
0.0
 11
213.9615936279297
 21
-25.54275512695312
 31
0.0
1001
DBPROPERTIES
1002
{
1000
PbHidd
1002
}
  0
LINE
  5
3EE
330
1F
100
AcDbEntity
  8
HIDDEN
100
AcDbLine
 10
213.9615936279297
 20
-25.54275512695312
 30
0.0
 11
214.0976715087891
 21
-25.72553825378418
 31
0.0
1001
DBPROPERTIES
1002
{
1000
PbHidd
1002
}
  0
LINE
  5
3EF
330
1F
100
AcDbEntity
  8
HIDDEN
100
AcDbLine
 10
214.0976715087891
 20
-25.72553825378418
 30
0.0
 11
214.2258758544922
 21
-25.91350555419922
 31
0.0
1001
DBPROPERTIES
1002
{
1000
PbHidd
1002
}
  0
LINE
  5
3F0
330
1F
100
AcDbEntity
  8
HIDDEN
100
AcDbLine
 10
205.0
 20
-22.09623650709428
 30
0.0
 11
205.0
 21
-5.945535386584449
 31
0.0
1001
DBPROPERTIES
1002
{
1000
PbHidd
1002
}
  0
LINE
  5
3F1
330
1F
100
AcDbEntity
  8
THICK
100
AcDbLine
 10
205.0
 20
-33.40531685164337
 30
0.0
 11
0.0
 21
-33.40531685164337
 31
0.0
1001
DBPROPERTIES
1002
{
1000
PbThick
1002
}
  0
LINE
  5
3F2
330
1F
100
AcDbEntity
  8
THICK
100
AcDbLine
 10
214.2258811207556
 20
-25.91350520425663
 30
0.0
 11
0.0
 21
-25.91350520425663
 31
0.0
1001
DBPROPERTIES
1002
{
1000
PbThick
1002
}
  0
LINE
  5
3F3
330
1F
100
AcDbEntity
  8
THICK
100
AcDbLine
 10
0.0
 20
-22.0962365070943
 30
0.0
 11
205.0
 21
-22.0962365070943
 31
0.0
1001
DBPROPERTIES
1002
{
1000
PbThick
1002
}
  0
LINE
  5
3F4
330
1F
100
AcDbEntity
  8
THICK
100
AcDbLine
 10
205.0
 20
-5.945535386584419
 30
0.0
 11
0.0
 21
-5.945535386584419
 31
0.0
1001
DBPROPERTIES
1002
{
1000
PbThick
1002
}
  0
LINE
  5
3F5
330
1F
100
AcDbEntity
  8
THICK
100
AcDbLine
 10
214.2258811207556
 20
0.0000000000000103
 30
0.0
 11
0.0
 21
0.0000000000000103
 31
0.0
1001
DBPROPERTIES
1002
{
1000
PbThick
1002
}
  0
LINE
  5
3F6
330
1F
100
AcDbEntity
  8
THICK
100
AcDbLine
 10
0.0
 20
5.945535386584437
 30
0.0
 11
205.0
 21
5.945535386584437
 31
0.0
1001
DBPROPERTIES
1002
{
1000
PbThick
1002
}
  0
LINE
  5
3F7
330
1F
100
AcDbEntity
  8
THICK
100
AcDbLine
 10
205.0
 20
22.09623650709431
 30
0.0
 11
0.0
 21
22.09623650709431
 31
0.0
1001
DBPROPERTIES
1002
{
1000
PbThick
1002
}
  0
LINE
  5
3F8
330
1F
100
AcDbEntity
  8
THICK
100
AcDbLine
 10
214.2258811207556
 20
25.91350520425664
 30
0.0
 11
0.0
 21
25.91350520425664
 31
0.0
1001
DBPROPERTIES
1002
{
1000
PbThick
1002
}
  0
LINE
  5
3F9
330
1F
100
AcDbEntity
  8
THICK
100
AcDbLine
 10
0.0
 20
33.40531685164341
 30
0.0
 11
205.0
 21
33.40531685164341
 31
0.0
1001
DBPROPERTIES
1002
{
1000
PbThick
1002
}
  0
LINE
  5
3FA
330
1F
100
AcDbEntity
  8
THICK
100
AcDbLine
 10
205.0
 20
47.97507481792623
 30
0.0
 11
0.0
 21
47.97507481792623
 31
0.0
1001
DBPROPERTIES
1002
{
1000
PbThick
1002
}
  0
LINE
  5
3FB
330
1F
100
AcDbEntity
  8
THICK
100
AcDbLine
 10
214.2258811207556
 20
49.2904159691133
 30
0.0
 11
0.0
 21
49.2904159691133
 31
0.0
1001
DBPROPERTIES
1002
{
1000
PbThick
1002
}
  0
LINE
  5
3FC
330
1F
100
AcDbEntity
  8
THICK
100
AcDbLine
 10
0.0
 20
57.59515315473509
 30
0.0
 11
205.0
 21
57.59515315473509
 31
0.0
1001
DBPROPERTIES
1002
{
1000
PbThick
1002
}
  0
LINE
  5
3FD
330
1F
100
AcDbEntity
  8
THICK
100
AcDbLine
 10
205.0
 20
69.15777854357823
 30
0.0
 11
0.0
 21
69.15777854357823
 31
0.0
1001
DBPROPERTIES
1002
{
1000
PbThick
1002
}
  0
LINE
  5
3FE
330
1F
100
AcDbEntity
  8
HIDDEN
100
AcDbLine
 10
214.2258811207556
 20
67.84243739239116
 30
0.0
 11
0.0
 21
67.84243739239116
 31
0.0
1001
DBPROPERTIES
1002
{
1000
PbHidd
1002
}
  0
LINE
  5
3FF
330
1F
100
AcDbEntity
  8
THICK
100
AcDbLine
 10
0.0
 20
76.14717457801294
 30
0.0
 11
205.0
 21
76.14717457801294
 31
0.0
1001
DBPROPERTIES
1002
{
1000
PbThick
1002
}
  0
LINE
  5
400
330
1F
100
AcDbEntity
  8
THICK
100
AcDbLine
 10
205.0
 20
83.57083705480824
 30
0.0
 11
0.0
 21
83.57083705480824
 31
0.0
1001
DBPROPERTIES
1002
{
1000
PbThick
1002
}
  0
LINE
  5
401
330
1F
100
AcDbEntity
  8
HIDDEN
100
AcDbLine
 10
214.2258811207556
 20
79.75356835764589
 30
0.0
 11
0.0
 21
79.75356835764589
 31
0.0
1001
DBPROPERTIES
1002
{
1000
PbHidd
1002
}
  0
LINE
  5
402
330
1F
100
AcDbEntity
  8
THICK
100
AcDbLine
 10
0.0
 20
87.24538000503267
 30
0.0
 11
205.0
 21
87.24538000503267
 31
0.0
1001
DBPROPERTIES
1002
{
1000
PbThick
1002
}
  0
LINE
  5
403
330
1F
100
AcDbEntity
  8
THICK
100
AcDbLine
 10
205.0
 20
89.80339976285347
 30
0.0
 11
0.0
 21
89.80339976285347
 31
0.0
1001
DBPROPERTIES
1002
{
1000
PbThick
1002
}
  0
LINE
  5
404
330
1F
100
AcDbEntity
  8
HIDDEN
100
AcDbLine
 10
214.2258811207556
 20
83.85786437626905
 30
0.0
 11
0.0
 21
83.85786437626905
 31
0.0
1001
DBPROPERTIES
1002
{
1000
PbHidd
1002
}
  0
LINE
  5
405
330
1F
100
AcDbEntity
  8
HIDDEN
100
AcDbLine
 10
214.2258811207556
 20
79.75356835764589
 30
0.0
 11
0.0
 21
79.75356835764589
 31
0.0
1001
DBPROPERTIES
1002
{
1000
PbHidd
1002
}
  0
LINE
  5
406
330
1F
100
AcDbEntity
  8
HIDDEN
100
AcDbLine
 10
205.0
 20
87.24538000503266
 30
0.0
 11
0.0
 21
87.24538000503266
 31
0.0
1001
DBPROPERTIES
1002
{
1000
PbHidd
1002
}
  0
LINE
  5
407
330
1F
100
AcDbEntity
  8
HIDDEN
100
AcDbLine
 10
205.0
 20
76.14717457801291
 30
0.0
 11
0.0
 21
76.14717457801291
 31
0.0
1001
DBPROPERTIES
1002
{
1000
PbHidd
1002
}
  0
LINE
  5
408
330
1F
100
AcDbEntity
  8
HIDDEN
100
AcDbLine
 10
214.2258811207556
 20
67.84243739239115
 30
0.0
 11
0.0
 21
67.84243739239115
 31
0.0
1001
DBPROPERTIES
1002
{
1000
PbHidd
1002
}
  0
LINE
  5
409
330
1F
100
AcDbEntity
  8
HIDDEN
100
AcDbLine
 10
205.0
 20
57.59515315473507
 30
0.0
 11
0.0
 21
57.59515315473507
 31
0.0
1001
DBPROPERTIES
1002
{
1000
PbHidd
1002
}
  0
LINE
  5
40A
330
1F
100
AcDbEntity
  8
HIDDEN
100
AcDbLine
 10
214.2258811207556
 20
49.29041596911328
 30
0.0
 11
0.0
 21
49.29041596911328
 31
0.0
1001
DBPROPERTIES
1002
{
1000
PbHidd
1002
}
  0
LINE
  5
40B
330
1F
100
AcDbEntity
  8
HIDDEN
100
AcDbLine
 10
0.0
 20
47.97507481792619
 30
0.0
 11
205.0
 21
47.97507481792619
 31
0.0
1001
DBPROPERTIES
1002
{
1000
PbHidd
1002
}
  0
LINE
  5
40C
330
1F
100
AcDbEntity
  8
HIDDEN
100
AcDbLine
 10
205.0
 20
33.40531685164336
 30
0.0
 11
0.0
 21
33.40531685164336
 31
0.0
1001
DBPROPERTIES
1002
{
1000
PbHidd
1002
}
  0
LINE
  5
40D
330
1F
100
AcDbEntity
  8
HIDDEN
100
AcDbLine
 10
214.2258811207556
 20
25.91350520425662
 30
0.0
 11
0.0
 21
25.91350520425662
 31
0.0
1001
DBPROPERTIES
1002
{
1000
PbHidd
1002
}
  0
LINE
  5
40E
330
1F
100
AcDbEntity
  8
HIDDEN
100
AcDbLine
 10
0.0
 20
22.09623650709429
 30
0.0
 11
205.0
 21
22.09623650709429
 31
0.0
1001
DBPROPERTIES
1002
{
1000
PbHidd
1002
}
  0
LINE
  5
40F
330
1F
100
AcDbEntity
  8
HIDDEN
100
AcDbLine
 10
205.0
 20
5.945535386584412
 30
0.0
 11
0.0
 21
5.945535386584412
 31
0.0
1001
DBPROPERTIES
1002
{
1000
PbHidd
1002
}
  0
LINE
  5
410
330
1F
100
AcDbEntity
  8
HIDDEN
100
AcDbLine
 10
214.2258811207556
 20
-0.0000000000000205
 30
0.0
 11
0.0
 21
-0.0000000000000205
 31
0.0
1001
DBPROPERTIES
1002
{
1000
PbHidd
1002
}
  0
LINE
  5
411
330
1F
100
AcDbEntity
  8
HIDDEN
100
AcDbLine
 10
0.0
 20
-5.945535386584451
 30
0.0
 11
205.0
 21
-5.945535386584451
 31
0.0
1001
DBPROPERTIES
1002
{
1000
PbHidd
1002
}
  0
LINE
  5
412
330
1F
100
AcDbEntity
  8
HIDDEN
100
AcDbLine
 10
205.0
 20
-22.09623650709431
 30
0.0
 11
0.0
 21
-22.09623650709431
 31
0.0
1001
DBPROPERTIES
1002
{
1000
PbHidd
1002
}
  0
LINE
  5
413
330
1F
100
AcDbEntity
  8
HIDDEN
100
AcDbLine
 10
214.2258811207555
 20
-25.91350520425665
 30
0.0
 11
0.0000000000001421
 21
-25.91350520425665
 31
0.0
1001
DBPROPERTIES
1002
{
1000
PbHidd
1002
}
  0
LINE
  5
414
330
1F
100
AcDbEntity
  8
HIDDEN
100
AcDbLine
 10
0.0
 20
-33.40531685164341
 30
0.0
 11
205.0
 21
-33.40531685164341
 31
0.0
1001
DBPROPERTIES
1002
{
1000
PbHidd
1002
}
  0
LINE
  5
415
330
1F
100
AcDbEntity
  8
HIDDEN
100
AcDbLine
 10
205.0
 20
-47.97507481792623
 30
0.0
 11
0.0
 21
-47.97507481792623
 31
0.0
1001
DBPROPERTIES
1002
{
1000
PbHidd
1002
}
  0
LINE
  5
416
330
1F
100
AcDbEntity
  8
HIDDEN
100
AcDbLine
 10
86.0
 20
-49.2904159691133
 30
0.0
 11
0.0
 21
-49.2904159691133
 31
0.0
1001
DBPROPERTIES
1002
{
1000
PbHidd
1002
}
  0
LINE
  5
417
330
1F
100
AcDbEntity
  8
HIDDEN
100
AcDbLine
 10
0.0
 20
-57.59515315473509
 30
0.0
 11
86.0
 21
-57.59515315473509
 31
0.0
1001
DBPROPERTIES
1002
{
1000
PbHidd
1002
}
  0
LINE
  5
418
330
1F
100
AcDbEntity
  8
HIDDEN
100
AcDbLine
 10
86.0
 20
-67.84243739239116
 30
0.0
 11
0.0
 21
-67.84243739239116
 31
0.0
1001
DBPROPERTIES
1002
{
1000
PbHidd
1002
}
  0
LINE
  5
419
330
1F
100
AcDbEntity
  8
HIDDEN
100
AcDbLine
 10
0.0
 20
-76.14717457801297
 30
0.0
 11
86.0
 21
-76.14717457801297
 31
0.0
1001
DBPROPERTIES
1002
{
1000
PbHidd
1002
}
  0
LINE
  5
41A
330
1F
100
AcDbEntity
  8
HIDDEN
100
AcDbLine
 10
86.0
 20
-79.7535683576459
 30
0.0
 11
0.0
 21
-79.7535683576459
 31
0.0
1001
DBPROPERTIES
1002
{
1000
PbHidd
1002
}
  0
LINE
  5
41B
330
1F
100
AcDbEntity
  8
HIDDEN
100
AcDbLine
 10
0.0
 20
-87.24538000503266
 30
0.0
 11
86.0
 21
-87.24538000503266
 31
0.0
1001
DBPROPERTIES
1002
{
1000
PbHidd
1002
}
  0
LINE
  5
41C
330
1F
100
AcDbEntity
  8
HIDDEN
100
AcDbLine
 10
-346.0000000000001
 20
-0.0000000000000181
 30
0.0
 11
-346.0
 21
-296.0
 31
0.0
1001
DBPROPERTIES
1002
{
1000
PbHidd
1002
}
  0
LINE
  5
41D
330
1F
100
AcDbEntity
  8
HIDDEN
100
AcDbLine
 10
-422.0000000000001
 20
-0.0000000000000106
 30
0.0
 11
-422.0
 21
-249.6585365853659
 31
0.0
1001
DBPROPERTIES
1002
{
1000
PbHidd
1002
}
  0
LINE
  5
41E
330
1F
100
AcDbEntity
  8
HIDDEN
100
AcDbLine
 10
-342.0000000000001
 20
-199.0181806162368
 30
0.0
 11
-342.0000000000001
 21
-202.2542485937366
 31
0.0
1001
DBPROPERTIES
1002
{
1000
PbHidd
1002
}
  0
LINE
  5
41F
330
1F
100
AcDbEntity
  8
HIDDEN
100
AcDbLine
 10
-342.0
 20
-202.2542485937368
 30
0.0
 11
-342.0
 21
-262.4787355195556
 31
0.0
1001
DBPROPERTIES
1002
{
1000
PbHidd
1002
}
  0
LINE
  5
420
330
1F
100
AcDbEntity
  8
THICK
100
AcDbLine
 10
-342.0
 20
-262.4787355195556
 30
0.0
 11
-342.0
 21
-290.0017124533309
 31
0.0
1001
DBPROPERTIES
1002
{
1000
PbThick
1002
}
  0
LINE
  5
421
330
1F
100
AcDbEntity
  8
HIDDEN
100
AcDbLine
 10
-342.0000000000001
 20
-155.1484625877958
 30
0.0
 11
-342.0000000000001
 21
-146.0012136805741
 31
0.0
1001
DBPROPERTIES
1002
{
1000
PbHidd
1002
}
  0
LINE
  5
422
330
1F
100
AcDbEntity
  8
THICK
100
AcDbLine
 10
-342.0000000000001
 20
77.25424859373688
 30
0.0
 11
-342.0
 21
-146.0012136805742
 31
0.0
1001
DBPROPERTIES
1002
{
1000
PbThick
1002
}
  0
LINE
  5
423
330
1F
100
AcDbEntity
  8
THICK
100
AcDbLine
 10
-342.0
 20
250.0
 30
0.0
 11
-342.0000000000001
 21
199.768
 31
0.0
1001
DBPROPERTIES
1002
{
1000
PbThick
1002
}
  0
LINE
  5
424
330
1F
100
AcDbEntity
  8
THICK
100
AcDbLine
 10
-342.0
 20
273.6873816300252
 30
0.0
 11
-342.0
 21
250.0000314902059
 31
0.0
1001
DBPROPERTIES
1002
{
1000
PbThick
1002
}
  0
LINE
  5
425
330
1F
100
AcDbEntity
  8
HIDDEN
100
AcDbLine
 10
-342.0
 20
191.8001415495739
 30
0.0
 11
-341.9999999999999
 21
130.3607247946566
 31
0.0
1001
DBPROPERTIES
1002
{
1000
PbHidd
1002
}
  0
LINE
  5
426
330
1F
100
AcDbEntity
  8
THICK
100
AcDbLine
 10
-341.9999999999999
 20
130.3607247946566
 30
0.0
 11
-341.9999999999999
 21
77.25425099180642
 31
0.0
1001
DBPROPERTIES
1002
{
1000
PbThick
1002
}
  0
LINE
  5
427
330
1F
100
AcDbEntity
  8
HIDDEN
100
AcDbLine
 10
-342.0
 20
-155.1486329647208
 30
0.0
 11
-342.0
 21
-199.0181806162371
 31
0.0
1001
DBPROPERTIES
1002
{
1000
PbHidd
1002
}
  0
LINE
  5
428
330
1F
100
AcDbEntity
  8
THICK
100
AcDbLine
 10
-342.0000000000001
 20
-146.0012136805742
 30
0.0
 11
-344.0000000000001
 21
-146.0012136805742
 31
0.0
1001
DBPROPERTIES
1002
{
1000
PbThick
1002
}
  0
LINE
  5
429
330
1F
100
AcDbEntity
  8
HIDDEN
100
AcDbLine
 10
-343.9999999999999
 20
-155.1484625877956
 30
0.0
 11
-342.0
 21
-155.1484625877956
 31
0.0
1001
DBPROPERTIES
1002
{
1000
PbHidd
1002
}
  0
LINE
  5
42A
330
1F
100
AcDbEntity
  8
THICK
100
AcDbLine
 10
-342.0000000000001
 20
-290.001712453331
 30
0.0
 11
-344.0000000000001
 21
-290.001712453331
 31
0.0
1001
DBPROPERTIES
1002
{
1000
PbThick
1002
}
  0
LINE
  5
42B
330
1F
100
AcDbEntity
  8
THICK
100
AcDbLine
 10
-344.0000000000002
 20
-287.6870231815491
 30
0.0
 11
-341.9999999999999
 21
-287.6870231815491
 31
0.0
1001
DBPROPERTIES
1002
{
1000
PbThick
1002
}
  0
LINE
  5
42C
330
1F
100
AcDbEntity
  8
THICK
100
AcDbLine
 10
-342.0
 20
-33.22970141125798
 30
0.0
 11
-344.0000000000001
 21
-33.22970141125798
 31
0.0
1001
DBPROPERTIES
1002
{
1000
PbThick
1002
}
  0
LINE
  5
42D
330
1F
100
AcDbEntity
  8
THICK
100
AcDbLine
 10
-343.9999999999999
 20
-22.65189586068063
 30
0.0
 11
-341.9999999999999
 21
-22.65189586068063
 31
0.0
1001
DBPROPERTIES
1002
{
1000
PbThick
1002
}
  0
LINE
  5
42E
330
1F
100
AcDbEntity
  8
HIDDEN
100
AcDbLine
 10
-342.0
 20
-202.2542485937369
 30
0.0
 11
-8.0
 21
-202.2542485937369
 31
0.0
1001
DBPROPERTIES
1002
{
1000
PbHidd
1002
}
  0
LINE
  5
42F
330
1F
100
AcDbEntity
  8
HIDDEN
100
AcDbLine
 10
-7.999999999999972
 20
73.22059853912515
 30
0.0
 11
-344.0
 21
73.22059853912515
 31
0.0
1001
DBPROPERTIES
1002
{
1000
PbHidd
1002
}
  0
LINE
  5
430
330
1F
100
AcDbEntity
  8
HIDDEN
100
AcDbLine
 10
-8.0
 20
-199.018180616237
 30
0.0
 11
-342.0000000000001
 21
-199.018180616237
 31
0.0
1001
DBPROPERTIES
1002
{
1000
PbHidd
1002
}
  0
LINE
  5
431
330
1F
100
AcDbEntity
  8
HIDDEN
100
AcDbLine
 10
-344.0
 20
-292.5807803433597
 30
0.0
 11
-8.0
 21
-292.5807803433597
 31
0.0
1001
DBPROPERTIES
1002
{
1000
PbHidd
1002
}
  0
LINE
  5
432
330
1F
100
AcDbEntity
  8
HIDDEN
100
AcDbLine
 10
-342.0000000000001
 20
-202.2542485937368
 30
0.0
 11
-8.0
 21
-202.2542485937368
 31
0.0
1001
DBPROPERTIES
1002
{
1000
PbHidd
1002
}
  0
LINE
  5
433
330
1F
100
AcDbEntity
  8
HIDDEN
100
AcDbLine
 10
-8.0
 20
-297.0400041349206
 30
0.0
 11
-344.0000000000001
 21
-297.0400041349206
 31
0.0
1001
DBPROPERTIES
1002
{
1000
PbHidd
1002
}
  0
LINE
  5
434
330
1F
100
AcDbEntity
  8
HIDDEN
100
AcDbLine
 10
-8.000000000000028
 20
76.01818061623709
 30
0.0
 11
-342.0
 21
76.01818061623709
 31
0.0
1001
DBPROPERTIES
1002
{
1000
PbHidd
1002
}
  0
LINE
  5
435
330
1F
100
AcDbEntity
  8
HIDDEN
100
AcDbLine
 10
-8.000000000000012
 20
-262.4787362770867
 30
0.0
 11
-8.000000000000014
 21
-256.8014362142295
 31
0.0
1001
DBPROPERTIES
1002
{
1000
PbHidd
1002
}
  0
LINE
  5
436
330
1F
100
AcDbEntity
  8
THICK
100
AcDbLine
 10
-342.0
 20
77.25424859373688
 30
0.0
 11
-8.000000000000028
 21
77.25424859373688
 31
0.0
1001
DBPROPERTIES
1002
{
1000
PbThick
1002
}
  0
LINE
  5
437
330
1F
100
AcDbEntity
  8
HIDDEN
100
AcDbLine
 10
-8.0
 20
246.0
 30
0.0
 11
-342.0
 21
246.0
 31
0.0
1001
DBPROPERTIES
1002
{
1000
PbHidd
1002
}
  0
LINE
  5
438
330
1F
100
AcDbEntity
  8
THICK
100
AcDbLine
 10
-342.0
 20
250.0
 30
0.0
 11
-8.0
 21
250.0
 31
0.0
1001
DBPROPERTIES
1002
{
1000
PbThick
1002
}
  0
LINE
  5
439
330
1F
100
AcDbEntity
  8
HIDDEN
100
AcDbLine
 10
-7.999999999999972
 20
76.018180616237
 30
0.0
 11
-342.0
 21
76.018180616237
 31
0.0
1001
DBPROPERTIES
1002
{
1000
PbHidd
1002
}
  0
LINE
  5
43A
330
1F
100
AcDbEntity
  8
THICK
100
AcDbLine
 10
-344.0000000000001
 20
343.0456470505231
 30
0.0
 11
-8.0
 21
343.0456470505231
 31
0.0
1001
DBPROPERTIES
1002
{
1000
PbThick
1002
}
  0
LINE
  5
43B
330
1F
100
AcDbEntity
  8
THICK
100
AcDbLine
 10
-344.0
 20
81.65386956992333
 30
0.0
 11
-341.9999999999999
 21
81.65386956992333
 31
0.0
1001
DBPROPERTIES
1002
{
1000
PbThick
1002
}
  0
LINE
  5
43C
330
1F
100
AcDbEntity
  8
HIDDEN
100
AcDbLine
 10
-341.9999999999999
 20
81.65386956992333
 30
0.0
 11
-7.999999999999972
 21
81.65386956992333
 31
0.0
1001
DBPROPERTIES
1002
{
1000
PbHidd
1002
}
  0
LINE
  5
43D
330
1F
100
AcDbEntity
  8
HIDDEN
100
AcDbLine
 10
-342.0
 20
77.25424859373679
 30
0.0
 11
-7.999999999999972
 21
77.25424859373679
 31
0.0
1001
DBPROPERTIES
1002
{
1000
PbHidd
1002
}
  0
LINE
  5
43E
330
1F
100
AcDbEntity
  8
HIDDEN
100
AcDbLine
 10
-8.0
 20
342.292822708711
 30
0.0
 11
-344.0
 21
342.292822708711
 31
0.0
1001
DBPROPERTIES
1002
{
1000
PbHidd
1002
}
  0
LINE
  5
43F
330
1F
100
AcDbEntity
  8
HIDDEN
100
AcDbLine
 10
-8.00000000000002
 20
130.36
 30
0.0
 11
-8.000000000000018
 21
143.8601361484575
 31
0.0
1001
DBPROPERTIES
1002
{
1000
PbHidd
1002
}
  0
LINE
  5
440
330
1F
100
AcDbEntity
  8
HIDDEN
100
AcDbLine
 10
-422.0
 20
-345.0
 30
0.0
 11
-422.0
 21
-345.0
 31
0.0
1001
DBPROPERTIES
1002
{
1000
PbHidd
1002
}
  0
LINE
  5
441
330
1F
100
AcDbEntity
  8
HIDDEN
100
AcDbLine
 10
-422.0
 20
422.0
 30
0.0
 11
-422.0
 21
422.0
 31
0.0
1001
DBPROPERTIES
1002
{
1000
PbHidd
1002
}
  0
LINE
  5
442
330
1F
100
AcDbEntity
  8
HIDDEN
100
AcDbLine
 10
-422.0
 20
-422.0
 30
0.0
 11
-422.0
 21
422.0
 31
0.0
1001
DBPROPERTIES
1002
{
1000
PbHidd
1002
}
  0
LINE
  5
443
330
1F
100
AcDbEntity
  8
HIDDEN
100
AcDbLine
 10
-422.0
 20
-422.0
 30
0.0
 11
-422.0
 21
-422.0
 31
0.0
1001
DBPROPERTIES
1002
{
1000
PbHidd
1002
}
  0
LINE
  5
444
330
1F
100
AcDbEntity
  8
HIDDEN
100
AcDbLine
 10
-422.0
 20
-350.0
 30
0.0
 11
-422.0
 21
-350.0
 31
0.0
1001
DBPROPERTIES
1002
{
1000
PbHidd
1002
}
  0
LINE
  5
445
330
1F
100
AcDbEntity
  8
HIDDEN
100
AcDbLine
 10
422.0
 20
-345.0
 30
0.0
 11
-422.0
 21
-345.0
 31
0.0
1001
DBPROPERTIES
1002
{
1000
PbHidd
1002
}
  0
LINE
  5
446
330
1F
100
AcDbEntity
  8
HIDDEN
100
AcDbLine
 10
422.0
 20
-345.0
 30
0.0
 11
422.0
 21
-345.0
 31
0.0
1001
DBPROPERTIES
1002
{
1000
PbHidd
1002
}
  0
LINE
  5
447
330
1F
100
AcDbEntity
  8
HIDDEN
100
AcDbLine
 10
422.0
 20
-350.0
 30
0.0
 11
-422.0
 21
-350.0
 31
0.0
1001
DBPROPERTIES
1002
{
1000
PbHidd
1002
}
  0
LINE
  5
448
330
1F
100
AcDbEntity
  8
HIDDEN
100
AcDbLine
 10
422.0
 20
-342.0
 30
0.0
 11
344.0
 21
-342.0
 31
0.0
1001
DBPROPERTIES
1002
{
1000
PbHidd
1002
}
  0
LINE
  5
449
330
1F
100
AcDbEntity
  8
THICK
100
AcDbLine
 10
344.0
 20
-342.0
 30
0.0
 11
-344.0
 21
-342.0
 31
0.0
1001
DBPROPERTIES
1002
{
1000
PbThick
1002
}
  0
LINE
  5
44A
330
1F
100
AcDbEntity
  8
HIDDEN
100
AcDbLine
 10
-344.0
 20
-342.0
 30
0.0
 11
-422.0
 21
-342.0
 31
0.0
1001
DBPROPERTIES
1002
{
1000
PbHidd
1002
}
  0
LINE
  5
44B
330
1F
100
AcDbEntity
  8
HIDDEN
100
AcDbLine
 10
422.0
 20
-308.0
 30
0.0
 11
344.0
 21
-308.0
 31
0.0
1001
DBPROPERTIES
1002
{
1000
PbHidd
1002
}
  0
LINE
  5
44C
330
1F
100
AcDbEntity
  8
THICK
100
AcDbLine
 10
344.0
 20
-308.0
 30
0.0
 11
-344.0
 21
-308.0
 31
0.0
1001
DBPROPERTIES
1002
{
1000
PbThick
1002
}
  0
LINE
  5
44D
330
1F
100
AcDbEntity
  8
HIDDEN
100
AcDbLine
 10
-344.0
 20
-308.0
 30
0.0
 11
-422.0
 21
-308.0
 31
0.0
1001
DBPROPERTIES
1002
{
1000
PbHidd
1002
}
  0
LINE
  5
44E
330
1F
100
AcDbEntity
  8
HIDDEN
100
AcDbLine
 10
422.0
 20
-300.0
 30
0.0
 11
344.0
 21
-300.0
 31
0.0
1001
DBPROPERTIES
1002
{
1000
PbHidd
1002
}
  0
LINE
  5
44F
330
1F
100
AcDbEntity
  8
THICK
100
AcDbLine
 10
344.0
 20
-300.0
 30
0.0
 11
-344.0
 21
-300.0
 31
0.0
1001
DBPROPERTIES
1002
{
1000
PbThick
1002
}
  0
LINE
  5
450
330
1F
100
AcDbEntity
  8
HIDDEN
100
AcDbLine
 10
-344.0
 20
-300.0
 30
0.0
 11
-422.0
 21
-300.0
 31
0.0
1001
DBPROPERTIES
1002
{
1000
PbHidd
1002
}
  0
LINE
  5
451
330
1F
100
AcDbEntity
  8
HIDDEN
100
AcDbLine
 10
422.0
 20
-350.0
 30
0.0
 11
422.0
 21
-350.0
 31
0.0
1001
DBPROPERTIES
1002
{
1000
PbHidd
1002
}
  0
LINE
  5
452
330
1F
100
AcDbEntity
  8
HIDDEN
100
AcDbLine
 10
422.0
 20
-422.0
 30
0.0
 11
422.0
 21
-422.0
 31
0.0
1001
DBPROPERTIES
1002
{
1000
PbHidd
1002
}
  0
LINE
  5
453
330
1F
100
AcDbEntity
  8
HIDDEN
100
AcDbLine
 10
422.0
 20
422.0
 30
0.0
 11
422.0
 21
-422.0
 31
0.0
1001
DBPROPERTIES
1002
{
1000
PbHidd
1002
}
  0
LINE
  5
454
330
1F
100
AcDbEntity
  8
HIDDEN
100
AcDbLine
 10
422.0
 20
422.0
 30
0.0
 11
422.0
 21
422.0
 31
0.0
1001
DBPROPERTIES
1002
{
1000
PbHidd
1002
}
  0
LINE
  5
455
330
1F
100
AcDbEntity
  8
THICK
100
AcDbLine
 10
-430.0
 20
422.0
 30
0.0
 11
-430.0
 21
-430.0
 31
0.0
1001
DBPROPERTIES
1002
{
1000
PbThick
1002
}
  0
LINE
  5
456
330
1F
100
AcDbEntity
  8
THICK
100
AcDbLine
 10
-422.0
 20
-422.0
 30
0.0
 11
-430.0
 21
-430.0
 31
0.0
1001
DBPROPERTIES
1002
{
1000
PbThick
1002
}
  0
LINE
  5
457
330
1F
100
AcDbEntity
  8
THICK
100
AcDbLine
 10
-421.9999999999999
 20
422.0
 30
0.0
 11
-421.9999999999999
 21
-422.0
 31
0.0
1001
DBPROPERTIES
1002
{
1000
PbThick
1002
}
  0
LINE
  5
458
330
1F
100
AcDbEntity
  8
THICK
100
AcDbLine
 10
-427.6568542494924
 20
427.6568542494925
 30
0.0
 11
-413.9999999999999
 21
414.0000000000001
 31
0.0
1001
DBPROPERTIES
1002
{
1000
PbThick
1002
}
  0
ELLIPSE
  5
459
330
1F
100
AcDbEntity
  8
THICK
100
AcDbEllipse
 10
-421.9999999999999
 20
422.0000000000001
 30
0.0
 11
8.0
 21
4.898425415289527E-16
 31
0.0
210
0.0
220
0.0
230
1.0
 40
0.9999999999999931
 41
2.356194490192362
 42
3.141592653589793
1001
DBPROPERTIES
1002
{
1000
PbThick
1002
}
  0
LINE
  5
45A
330
1F
100
AcDbEntity
  8
THICK
100
AcDbLine
 10
422.0
 20
-422.0
 30
0.0
 11
-422.0
 21
-422.0
 31
0.0
1001
DBPROPERTIES
1002
{
1000
PbThick
1002
}
  0
LINE
  5
45B
330
1F
100
AcDbEntity
  8
THICK
100
AcDbLine
 10
430.0
 20
-430.0
 30
0.0
 11
422.0
 21
-422.0
 31
0.0
1001
DBPROPERTIES
1002
{
1000
PbThick
1002
}
  0
LINE
  5
45C
330
1F
100
AcDbEntity
  8
HIDDEN
100
AcDbLine
 10
-430.0000000000001
 20
422.0
 30
0.0
 11
-429.9999999999999
 21
422.0
 31
0.0
1001
DBPROPERTIES
1002
{
1000
PbHidd
1002
}
  0
LINE
  5
45D
330
1F
100
AcDbEntity
  8
HIDDEN
100
AcDbLine
 10
-430.0
 20
-430.0
 30
0.0
 11
-430.0
 21
-430.0
 31
0.0
1001
DBPROPERTIES
1002
{
1000
PbHidd
1002
}
  0
LINE
  5
45E
330
1F
100
AcDbEntity
  8
HIDDEN
100
AcDbLine
 10
-422.0000000000001
 20
422.0
 30
0.0
 11
-422.0000000000001
 21
-422.0
 31
0.0
1001
DBPROPERTIES
1002
{
1000
PbHidd
1002
}
  0
LINE
  5
45F
330
1F
100
AcDbEntity
  8
HIDDEN
100
AcDbLine
 10
-430.0
 20
-430.0
 30
0.0
 11
-422.0
 21
-422.0
 31
0.0
1001
DBPROPERTIES
1002
{
1000
PbHidd
1002
}
  0
LINE
  5
460
330
1F
100
AcDbEntity
  8
HIDDEN
100
AcDbLine
 10
-430.0000000000001
 20
430.0000000000001
 30
0.0
 11
-414.0000000000001
 21
414.0000000000001
 31
0.0
1001
DBPROPERTIES
1002
{
1000
PbHidd
1002
}
  0
LINE
  5
461
330
1F
100
AcDbEntity
  8
HIDDEN
100
AcDbLine
 10
422.0
 20
-422.0
 30
0.0
 11
-422.0
 21
-422.0
 31
0.0
1001
DBPROPERTIES
1002
{
1000
PbHidd
1002
}
  0
LINE
  5
462
330
1F
100
AcDbEntity
  8
HIDDEN
100
AcDbLine
 10
421.9999999999999
 20
422.0
 30
0.0
 11
-422.0000000000001
 21
422.0
 31
0.0
1001
DBPROPERTIES
1002
{
1000
PbHidd
1002
}
  0
LINE
  5
463
330
1F
100
AcDbEntity
  8
HIDDEN
100
AcDbLine
 10
421.9999999999999
 20
422.0
 30
0.0
 11
421.9999999999999
 21
-422.0
 31
0.0
1001
DBPROPERTIES
1002
{
1000
PbHidd
1002
}
  0
LINE
  5
464
330
1F
100
AcDbEntity
  8
HIDDEN
100
AcDbLine
 10
427.6568542494923
 20
427.6568542494925
 30
0.0
 11
421.9999999999999
 21
422.0000000000001
 31
0.0
1001
DBPROPERTIES
1002
{
1000
PbHidd
1002
}
  0
LINE
  5
465
330
1F
100
AcDbEntity
  8
HIDDEN
100
AcDbLine
 10
430.0
 20
-430.0
 30
0.0
 11
414.0
 21
-414.0
 31
0.0
1001
DBPROPERTIES
1002
{
1000
PbHidd
1002
}
  0
LINE
  5
466
330
1F
100
AcDbEntity
  8
HIDDEN
100
AcDbLine
 10
430.0000000000001
 20
422.0
 30
0.0
 11
429.9999999999999
 21
422.0
 31
0.0
1001
DBPROPERTIES
1002
{
1000
PbHidd
1002
}
  0
LINE
  5
467
330
1F
100
AcDbEntity
  8
THICK
100
AcDbLine
 10
430.0
 20
422.0
 30
0.0
 11
430.0
 21
-430.0
 31
0.0
1001
DBPROPERTIES
1002
{
1000
PbThick
1002
}
  0
LINE
  5
468
330
1F
100
AcDbEntity
  8
HIDDEN
100
AcDbLine
 10
430.0
 20
-430.0
 30
0.0
 11
430.0
 21
-430.0
 31
0.0
1001
DBPROPERTIES
1002
{
1000
PbHidd
1002
}
  0
LINE
  5
469
330
1F
100
AcDbEntity
  8
THICK
100
AcDbLine
 10
422.0000000000001
 20
422.0
 30
0.0
 11
422.0000000000001
 21
-422.0
 31
0.0
1001
DBPROPERTIES
1002
{
1000
PbThick
1002
}
  0
ELLIPSE
  5
46A
330
1F
100
AcDbEntity
  8
THICK
100
AcDbEllipse
 10
422.0000000000001
 20
422.0000000000001
 30
0.0
 11
9.860761315262648E-32
 21
8.0
 31
0.0
210
0.0
220
0.0
230
1.0
 40
1.0
 41
-1.570796326794904
 42
-0.7853981633974483
1001
DBPROPERTIES
1002
{
1000
PbThick
1002
}
  0
LINE
  5
46B
330
1F
100
AcDbEntity
  8
THICK
100
AcDbLine
 10
422.0000000000001
 20
422.0000000000001
 30
0.0
 11
427.6568542494924
 21
427.6568542494924
 31
0.0
1001
DBPROPERTIES
1002
{
1000
PbThick
1002
}
  0
LINE
  5
46C
330
1F
100
AcDbEntity
  8
THICK
100
AcDbLine
 10
422.0000000000001
 20
422.0
 30
0.0
 11
-421.9999999999999
 21
422.0
 31
0.0
1001
DBPROPERTIES
1002
{
1000
PbThick
1002
}
  0
LINE
  5
46D
330
1F
100
AcDbEntity
  8
THICK
100
AcDbLine
 10
344.0
 20
-344.0
 30
0.0
 11
-344.0
 21
-344.0
 31
0.0
1001
DBPROPERTIES
1002
{
1000
PbThick
1002
}
  0
LINE
  5
46E
330
1F
100
AcDbEntity
  8
THICK
100
AcDbLine
 10
-344.0
 20
-344.0
 30
0.0
 11
-344.0
 21
344.0
 31
0.0
1001
DBPROPERTIES
1002
{
1000
PbThick
1002
}
  0
LINE
  5
46F
330
1F
100
AcDbEntity
  8
THICK
100
AcDbLine
 10
-344.0
 20
344.0
 30
0.0
 11
344.0
 21
344.0
 31
0.0
1001
DBPROPERTIES
1002
{
1000
PbThick
1002
}
  0
LINE
  5
470
330
1F
100
AcDbEntity
  8
THICK
100
AcDbLine
 10
344.0
 20
344.0
 30
0.0
 11
344.0
 21
-344.0
 31
0.0
1001
DBPROPERTIES
1002
{
1000
PbThick
1002
}
  0
ELLIPSE
  5
471
330
1F
100
AcDbEntity
  8
THICK
100
AcDbEllipse
 10
-422.0000000000001
 20
422.0
 30
0.0
 11
-8.000000000000002
 21
4.898425415289508E-16
 31
0.0
210
0.0
220
0.0
230
1.0
 40
0.9999999999999998
 41
-1.570796326794897
 42
-0.7853981633974535
1001
DBPROPERTIES
1002
{
1000
PbThick
1002
}
  0
ELLIPSE
  5
472
330
1F
100
AcDbEntity
  8
THICK
100
AcDbEllipse
 10
422.0
 20
422.0
 30
0.0
 11
0.0
 21
8.0
 31
0.0
210
0.0
220
0.0
230
1.0
 40
0.9999999999999998
 41
-0.7853981633974483
 42
0.0
1001
DBPROPERTIES
1002
{
1000
PbThick
1002
}
  0
LINE
  5
473
330
1F
100
AcDbEntity
  8
THICK
100
AcDbLine
 10
485.0
 20
250.0
 30
0.0
 11
485.0
 21
-250.0
 31
0.0
1001
DBPROPERTIES
1002
{
1000
PbThick
1002
}
  0
LINE
  5
474
330
1F
100
AcDbEntity
  8
HIDDEN
100
AcDbLine
 10
344.0
 20
-344.0
 30
0.0
 11
344.0
 21
-344.0
 31
0.0
1001
DBPROPERTIES
1002
{
1000
PbHidd
1002
}
  0
LINE
  5
475
330
1F
100
AcDbEntity
  8
HIDDEN
100
AcDbLine
 10
344.0
 20
344.0
 30
0.0
 11
344.0
 21
344.0
 31
0.0
1001
DBPROPERTIES
1002
{
1000
PbHidd
1002
}
  0
LINE
  5
476
330
1F
100
AcDbEntity
  8
HIDDEN
100
AcDbLine
 10
-344.0
 20
-344.0
 30
0.0
 11
-344.0
 21
-344.0
 31
0.0
1001
DBPROPERTIES
1002
{
1000
PbHidd
1002
}
  0
LINE
  5
477
330
1F
100
AcDbEntity
  8
HIDDEN
100
AcDbLine
 10
-344.0
 20
344.0
 30
0.0
 11
-344.0
 21
344.0
 31
0.0
1001
DBPROPERTIES
1002
{
1000
PbHidd
1002
}
  0
LINE
  5
478
330
1F
100
AcDbEntity
  8
HIDDEN
100
AcDbLine
 10
422.0
 20
-422.0
 30
0.0
 11
-422.0
 21
-422.0
 31
0.0
1001
DBPROPERTIES
1002
{
1000
PbHidd
1002
}
  0
LINE
  5
479
330
1F
100
AcDbEntity
  8
HIDDEN
100
AcDbLine
 10
422.0
 20
422.0
 30
0.0
 11
-422.0
 21
422.0
 31
0.0
1001
DBPROPERTIES
1002
{
1000
PbHidd
1002
}
  0
LINE
  5
47A
330
1F
100
AcDbEntity
  8
HIDDEN
100
AcDbLine
 10
-346.0
 20
296.0
 30
0.0
 11
-344.0
 21
296.0
 31
0.0
1001
DBPROPERTIES
1002
{
1000
PbHidd
1002
}
  0
LINE
  5
47B
330
1F
100
AcDbEntity
  8
HIDDEN
100
AcDbLine
 10
-352.0000009925491
 20
296.3414628094213
 30
0.0
 11
-421.9999990074509
 21
253.6585371905788
 31
0.0
1001
DBPROPERTIES
1002
{
1000
PbHidd
1002
}
  0
LINE
  5
47C
330
1F
100
AcDbEntity
  8
HIDDEN
100
AcDbLine
 10
-346.0
 20
296.0
 30
0.0
 11
-421.9999990074509
 21
249.6585371905788
 31
0.0
1001
DBPROPERTIES
1002
{
1000
PbHidd
1002
}
  0
ARC
  5
47D
330
1F
100
AcDbEntity
  8
THICK
100
AcDbCircle
 10
205.0
 20
80.0
 30
0.0
 40
10.0
100
AcDbArc
 50
0.0
 51
22.69256643395138
1001
DBPROPERTIES
1002
{
1000
PbThick
1002
}
  0
ARC
  5
47E
330
1F
100
AcDbEntity
  8
THICK
100
AcDbCircle
 10
248.0
 20
65.0
 30
0.0
 40
10.0
100
AcDbArc
 50
0.0
 51
89.99998127603165
1001
DBPROPERTIES
1002
{
1000
PbThick
1002
}
  0
ARC
  5
47F
330
1F
100
AcDbEntity
  8
THICK
100
AcDbCircle
 10
248.0
 20
-65.0
 30
0.0
 40
10.0
100
AcDbArc
 50
270.0000187239684
 51
0.0
1001
DBPROPERTIES
1002
{
1000
PbThick
1002
}
  0
LINE
  5
480
330
1F
100
AcDbEntity
  8
HIDDEN
100
AcDbLine
 10
-421.9999990074509
 20
-249.6585371905788
 30
0.0
 11
-346.0
 21
-296.0
 31
0.0
1001
DBPROPERTIES
1002
{
1000
PbHidd
1002
}
  0
LINE
  5
481
330
1F
100
AcDbEntity
  8
HIDDEN
100
AcDbLine
 10
-421.9999990074509
 20
-253.6585371905788
 30
0.0
 11
-352.0000009925491
 21
-296.3414628094213
 31
0.0
1001
DBPROPERTIES
1002
{
1000
PbHidd
1002
}
  0
LINE
  5
482
330
1F
100
AcDbEntity
  8
HIDDEN
100
AcDbLine
 10
-346.0
 20
-296.0
 30
0.0
 11
-344.0
 21
-296.0
 31
0.0
1001
DBPROPERTIES
1002
{
1000
PbHidd
1002
}
  0
LINE
  5
483
330
1F
100
AcDbEntity
  8
HIDDEN
100
AcDbLine
 10
-344.0
 20
-293.7457514062631
 30
0.0
 11
-8.0
 21
-293.7457514062631
 31
0.0
1001
DBPROPERTIES
1002
{
1000
PbHidd
1002
}
  0
LINE
  5
484
330
1F
100
AcDbEntity
  8
THICK
100
AcDbLine
 10
-344.0
 20
-297.7457514062631
 30
0.0
 11
-8.0
 21
-297.7457514062631
 31
0.0
1001
DBPROPERTIES
1002
{
1000
PbThick
1002
}
  0
ENDSEC
  0
SECTION
  2
OBJECTS
  0
DICTIONARY
  5
C
330
0
100
AcDbDictionary
  3
ACAD_GROUP
350
D
  3
ACAD_LAYOUT
350
1A
  3
ACAD_MATERIAL
350
43
  3
ACAD_MLEADERSTYLE
350
6B
  3
ACAD_MLINESTYLE
350
17
  3
ACAD_PLOTSETTINGS
350
19
  3
ACAD_SCALELIST
350
47
  3
ACAD_VISUALSTYLE
350
2A
  3
ACDBVARIABLEDICTIONARY
350
485
1001
ACAD
1000
TREAT_AS_HARD
1070
     0
  0
DICTIONARY
  5
D
102
{ACAD_REACTORS
330
C
102
}
330
C
100
AcDbDictionary
1001
ACAD
1000
TREAT_AS_HARD
1070
     0
  0
DICTIONARY
  5
1A
102
{ACAD_REACTORS
330
C
102
}
330
C
100
AcDbDictionary
1001
ACAD
1000
TREAT_AS_HARD
1070
     0
  0
DICTIONARY
  5
43
102
{ACAD_REACTORS
330
C
102
}
330
C
100
AcDbDictionary
  3
BYBLOCK
350
45
  3
BYLAYER
350
44
  3
GLOBAL
350
46
1001
ACAD
1000
TREAT_AS_HARD
1070
     0
  0
DICTIONARY
  5
6B
102
{ACAD_REACTORS
330
C
102
}
330
C
100
AcDbDictionary
  3
STANDARD
350
6C
1001
ACAD
1000
TREAT_AS_HARD
1070
     0
  0
DICTIONARY
  5
17
102
{ACAD_REACTORS
330
C
102
}
330
C
100
AcDbDictionary
  3
STANDARD
350
18
1001
ACAD
1000
TREAT_AS_HARD
1070
     0
  0
DICTIONARY
  5
19
102
{ACAD_REACTORS
330
C
102
}
330
C
100
AcDbDictionary
1001
ACAD
1000
TREAT_AS_HARD
1070
     0
  0
DICTIONARY
  5
47
102
{ACAD_REACTORS
330
C
102
}
330
C
100
AcDbDictionary
  3
A0
350
48
  3
A1
350
49
  3
A2
350
4A
  3
A3
350
4B
  3
A4
350
4C
  3
A5
350
4D
  3
A6
350
4E
  3
A7
350
4F
  3
A8
350
50
  3
A9
350
51
  3
B0
350
52
  3
B1
350
53
  3
B2
350
54
  3
B3
350
55
  3
B4
350
56
  3
B5
350
57
  3
B6
350
58
  3
B7
350
59
  3
B8
350
5A
  3
B9
350
5B
  3
C0
350
5C
  3
C1
350
5D
  3
C2
350
5E
  3
C3
350
5F
  3
C4
350
60
  3
C5
350
61
  3
C6
350
62
  3
C7
350
63
  3
C8
350
64
  3
C9
350
65
  3
D0
350
66
  3
D1
350
67
  3
D2
350
68
1001
ACAD
1000
TREAT_AS_HARD
1070
     0
  0
DICTIONARY
  5
2A
102
{ACAD_REACTORS
330
C
102
}
330
C
100
AcDbDictionary
  3
2DWIREFRAME
350
2F
  3
BASIC
350
32
  3
BRIGHTEN
350
36
  3
COLORCHANGE
350
3A
  3
CONCEPTUAL
350
34
  3
DIM
350
35
  3
EDGECOLOROFF
350
3D
  3
FACEPATTERN
350
39
  3
FLAT
350
2B
  3
FLATWITHEDGES
350
2C
  3
GOURAUD
350
2D
  3
GOURAUDWITHEDGES
350
2E
  3
HIDDEN
350
31
  3
JITTEROFF
350
3B
  3
LINEPATTERN
350
38
  3
OVERHANGOFF
350
3C
  3
REALISTIC
350
33
  3
SHADED
350
42
  3
SHADED_WITH_EDGES
350
41
  3
SHADES_OF_GRAY
350
3E
  3
SKETCHY
350
3F
  3
THICKEN
350
37
  3
WIREFRAME
350
30
  3
X-RAY
350
40
1001
ACAD
1000
TREAT_AS_HARD
1070
     0
  0
DICTIONARY
  5
485
102
{ACAD_REACTORS
330
C
102
}
330
C
100
AcDbDictionary
  3
CANNOSCALE
350
490
  3
CENTEREXE
350
48C
  3
CENTERLTYPEFILE
350
48D
  3
CMLEADERSTYLE
350
487
  3
CTABLESTYLE
350
486
  3
DIMASSOC
350
48E
  3
HIDETEXT
350
48F
  3
MSLTSCALE
350
491
  3
PSOLHEIGHT
350
489
  3
PSOLWIDTH
350
488
1001
ACAD
1000
TREAT_AS_HARD
1070
     0
  0
MATERIAL
  5
45
102
{ACAD_REACTORS
330
43
102
}
102
{ACAD_XDICTIONARY
360
494
102
}
330
43
100
AcDbMaterial
  1
BYBLOCK
  0
MATERIAL
  5
44
102
{ACAD_REACTORS
330
43
102
}
102
{ACAD_XDICTIONARY
360
492
102
}
330
43
100
AcDbMaterial
  1
BYLAYER
  0
MATERIAL
  5
46
102
{ACAD_REACTORS
330
43
102
}
102
{ACAD_XDICTIONARY
360
496
102
}
330
43
100
AcDbMaterial
  1
GLOBAL
  0
ACAD_PROXY_OBJECT
  5
6C
102
{ACAD_REACTORS
330
6B
102
}
330
6B
100
AcDbZombieObject
 90
      499
 91
      505
 93
      610
310
40901902A4063FBFFFFFE0000000000000020400000000000020404214DD185B99185C990000000000000104090141901A00000000000004100000000000000041025764000000000000039000
340
14
340
0
340
11
340
0
 94
        0
1001
ACAD_MLEADERVER
1070
     2
  0
MLINESTYLE
  5
18
102
{ACAD_REACTORS
330
17
102
}
330
17
100
AcDbMlineStyle
  2
Standard
 70
     0
  3

 62
   256
 51
90.0
 52
90.0
 71
     2
 49
0.5
 62
   256
  6
BYLAYER
 49
-0.5
 62
   256
  6
BYLAYER
  0
ACAD_PROXY_OBJECT
  5
48
102
{ACAD_REACTORS
330
47
102
}
330
47
100
AcDbZombieObject
 90
      499
 91
      503
 93
       41
310
903313A31580
  0
ACAD_PROXY_OBJECT
  5
49
102
{ACAD_REACTORS
330
47
102
}
330
47
100
AcDbZombieObject
 90
      499
 91
      503
 93
      105
310
903313A324000000000000004000
  0
ACAD_PROXY_OBJECT
  5
4A
102
{ACAD_REACTORS
330
47
102
}
330
47
100
AcDbZombieObject
 90
      499
 91
      503
 93
      105
310
903313A344000000000000104000
  0
ACAD_PROXY_OBJECT
  5
4B
102
{ACAD_REACTORS
330
47
102
}
330
47
100
AcDbZombieObject
 90
      499
 91
      503
 93
      105
310
903313A354000000000000144000
  0
ACAD_PROXY_OBJECT
  5
4C
102
{ACAD_REACTORS
330
47
102
}
330
47
100
AcDbZombieObject
 90
      499
 91
      503
 93
      105
310
903313A384000000000000204000
  0
ACAD_PROXY_OBJECT
  5
4D
102
{ACAD_REACTORS
330
47
102
}
330
47
100
AcDbZombieObject
 90
      499
 91
      503
 93
      113
310
904313A31304000000000000244000
  0
ACAD_PROXY_OBJECT
  5
4E
102
{ACAD_REACTORS
330
47
102
}
330
47
100
AcDbZombieObject
 90
      499
 91
      503
 93
      113
310
904313A31364000000000000304000
  0
ACAD_PROXY_OBJECT
  5
4F
102
{ACAD_REACTORS
330
47
102
}
330
47
100
AcDbZombieObject
 90
      499
 91
      503
 93
      113
310
904313A32304000000000000344000
  0
ACAD_PROXY_OBJECT
  5
50
102
{ACAD_REACTORS
330
47
102
}
330
47
100
AcDbZombieObject
 90
      499
 91
      503
 93
      113
310
904313A333040000000000003E4000
  0
ACAD_PROXY_OBJECT
  5
51
102
{ACAD_REACTORS
330
47
102
}
330
47
100
AcDbZombieObject
 90
      499
 91
      503
 93
      113
310
904313A34304000000000000444000
  0
ACAD_PROXY_OBJECT
  5
52
102
{ACAD_REACTORS
330
47
102
}
330
47
100
AcDbZombieObject
 90
      499
 91
      503
 93
      113
310
904313A35304000000000000494000
  0
ACAD_PROXY_OBJECT
  5
53
102
{ACAD_REACTORS
330
47
102
}
330
47
100
AcDbZombieObject
 90
      499
 91
      503
 93
      121
310
905313A3130304000000000000594000
  0
ACAD_PROXY_OBJECT
  5
54
102
{ACAD_REACTORS
330
47
102
}
330
47
100
AcDbZombieObject
 90
      499
 91
      503
 93
      105
310
903323A310000000000000010100
  0
ACAD_PROXY_OBJECT
  5
55
102
{ACAD_REACTORS
330
47
102
}
330
47
100
AcDbZombieObject
 90
      499
 91
      503
 93
      105
310
903343A310000000000000410100
  0
ACAD_PROXY_OBJECT
  5
56
102
{ACAD_REACTORS
330
47
102
}
330
47
100
AcDbZombieObject
 90
      499
 91
      503
 93
      105
310
903383A310000000000000810100
  0
ACAD_PROXY_OBJECT
  5
57
102
{ACAD_REACTORS
330
47
102
}
330
47
100
AcDbZombieObject
 90
      499
 91
      503
 93
      113
310
90431303A310000000000000910100
  0
ACAD_PROXY_OBJECT
  5
58
102
{ACAD_REACTORS
330
47
102
}
330
47
100
AcDbZombieObject
 90
      499
 91
      503
 93
      121
310
9053130303A310000000000001650100
  0
ACAD_PROXY_OBJECT
  5
59
102
{ACAD_REACTORS
330
47
102
}
330
47
100
AcDbZombieObject
 90
      499
 91
      503
 93
      257
310
90E312F31323822203D2031272D3022000000000000200FC000000000000284000
  0
ACAD_PROXY_OBJECT
  5
5A
102
{ACAD_REACTORS
330
47
102
}
330
47
100
AcDbZombieObject
 90
      499
 91
      503
 93
      249
310
90D312F363422203D2031272D3022000000000000240FC000000000000284000
  0
ACAD_PROXY_OBJECT
  5
5B
102
{ACAD_REACTORS
330
47
102
}
330
47
100
AcDbZombieObject
 90
      499
 91
      503
 93
      249
310
90D312F333222203D2031272D3022000000000000280FC000000000000284000
  0
ACAD_PROXY_OBJECT
  5
5C
102
{ACAD_REACTORS
330
47
102
}
330
47
100
AcDbZombieObject
 90
      499
 91
      503
 93
      249
310
90D312F313622203D2031272D30220000000000002C0FC000000000000284000
  0
ACAD_PROXY_OBJECT
  5
5D
102
{ACAD_REACTORS
330
47
102
}
330
47
100
AcDbZombieObject
 90
      499
 91
      503
 93
      249
310
90D332F333222203D2031272D30220000000000002E0FC000000000000284000
  0
ACAD_PROXY_OBJECT
  5
5E
102
{ACAD_REACTORS
330
47
102
}
330
47
100
AcDbZombieObject
 90
      499
 91
      503
 93
      241
310
90C312F3822203D2031272D3022000000000000300FC000000000000284000
  0
ACAD_PROXY_OBJECT
  5
5F
102
{ACAD_REACTORS
330
47
102
}
330
47
100
AcDbZombieObject
 90
      499
 91
      503
 93
      249
310
90D332F313622203D2031272D3022000000000000320FC000000000000284000
  0
ACAD_PROXY_OBJECT
  5
60
102
{ACAD_REACTORS
330
47
102
}
330
47
100
AcDbZombieObject
 90
      499
 91
      503
 93
      241
310
90C312F3422203D2031272D3022000000000000340FC000000000000284000
  0
ACAD_PROXY_OBJECT
  5
61
102
{ACAD_REACTORS
330
47
102
}
330
47
100
AcDbZombieObject
 90
      499
 91
      503
 93
      241
310
90C332F3822203D2031272D3022000000000000360FC000000000000284000
  0
ACAD_PROXY_OBJECT
  5
62
102
{ACAD_REACTORS
330
47
102
}
330
47
100
AcDbZombieObject
 90
      499
 91
      503
 93
      241
310
90C312F3222203D2031272D3022000000000000380FC000000000000284000
  0
ACAD_PROXY_OBJECT
  5
63
102
{ACAD_REACTORS
330
47
102
}
330
47
100
AcDbZombieObject
 90
      499
 91
      503
 93
      241
310
90C332F3422203D2031272D30220000000000003A0FC000000000000284000
  0
ACAD_PROXY_OBJECT
  5
64
102
{ACAD_REACTORS
330
47
102
}
330
47
100
AcDbZombieObject
 90
      499
 91
      503
 93
      161
310
90A3122203D2031272D30224000000000000284000
  0
ACAD_PROXY_OBJECT
  5
65
102
{ACAD_REACTORS
330
47
102
}
330
47
100
AcDbZombieObject
 90
      499
 91
      503
 93
      257
310
90E312D312F3222203D2031272D30220000000000003E0FC000000000000284000
  0
ACAD_PROXY_OBJECT
  5
66
102
{ACAD_REACTORS
330
47
102
}
330
47
100
AcDbZombieObject
 90
      499
 91
      503
 93
      225
310
90A3322203D2031272D302200000000000002100000000000000284000
  0
ACAD_PROXY_OBJECT
  5
67
102
{ACAD_REACTORS
330
47
102
}
330
47
100
AcDbZombieObject
 90
      499
 91
      503
 93
      225
310
90A3622203D2031272D302200000000000006100000000000000284000
  0
ACAD_PROXY_OBJECT
  5
68
102
{ACAD_REACTORS
330
47
102
}
330
47
100
AcDbZombieObject
 90
      499
 91
      503
 93
      249
310
90D31272D3022203D2031272D30220000000000000A100000000000000284000
  0
ACAD_PROXY_OBJECT
  5
2F
102
{ACAD_REACTORS
330
2A
102
}
330
2A
100
AcDbZombieObject
 90
      499
 91
      501
 93
      436
310
42CC9915DA5C99599C985B595049028333333333333E33F0000000000000F90107901411070040501600405405064090741402480A0340
1001
ACAD
1000
AcDbSavedByObjectVersion
1070
     0
  0
ACAD_PROXY_OBJECT
  5
32
102
{ACAD_REACTORS
330
2A
102
}
330
2A
100
AcDbZombieObject
 90
      499
 91
      501
 93
      388
310
4150985CDA58D07406404333333333333E33F0000000000000F90107A41107004050150841D405064090741402480A0350
1001
ACAD
1000
AcDbSavedByObjectVersion
1070
     0
  0
ACAD_PROXY_OBJECT
  5
36
102
{ACAD_REACTORS
330
2A
102
}
330
2A
100
AcDbZombieObject
 90
      499
 91
      501
 93
      428
310
42109C9A59DA1D195B90C409028333333333333E33F0000000000000F9010790141107004050150841D405064090741402480A029950
1001
ACAD
1000
AcDbSavedByObjectVersion
1070
     0
  0
ACAD_PROXY_OBJECT
  5
3A
102
{ACAD_REACTORS
330
2A
102
}
330
2A
100
AcDbZombieObject
 90
      499
 91
      501
 93
      452
310
42D0DBDB1BDC90DA185B99D95104090240C333333333333E33F0000000000000F90108901411070040501508421405064090741402480A0350
1001
ACAD
1000
AcDbSavedByObjectVersion
1070
     0
  0
ACAD_PROXY_OBJECT
  5
34
102
{ACAD_REACTORS
330
2A
102
}
330
2A
100
AcDbZombieObject
 90
      499
 91
      501
 93
      500
310
4290DBDB98D95C1D1D585B10940D028333333333333E33F0000000000000F90107902409070040501000000000018199010841D405064090740C02480A0340
1001
ACAD
1000
AcDbSavedByObjectVersion
1070
     0
  0
ACAD_PROXY_OBJECT
  5
35
102
{ACAD_REACTORS
330
2A
102
}
330
2A
100
AcDbZombieObject
 90
      499
 91
      501
 93
      412
310
40D11A5B50B409028333333333333E33F0000000000000F9010790141107004050150841D405064090741402480A02677FFFFFD0
1001
ACAD
1000
AcDbSavedByObjectVersion
1070
     0
  0
ACAD_PROXY_OBJECT
  5
3D
102
{ACAD_REACTORS
330
2A
102
}
330
2A
100
AcDbZombieObject
 90
      499
 91
      501
 93
      452
310
43115919D950DBDB1BDC93D999916409028333333333333E33F0000000000000F9010790141107004050150841D405064090741402480A0350
1001
ACAD
1000
AcDbSavedByObjectVersion
1070
     0
  0
ACAD_PROXY_OBJECT
  5
39
102
{ACAD_REACTORS
330
2A
102
}
330
2A
100
AcDbZombieObject
 90
      499
 91
      501
 93
      444
310
42D19858D95C185D1D195C9B90F409028333333333333E33F0000000000000F9010790141107004050150841D405064090741402480A0350
1001
ACAD
1000
AcDbSavedByObjectVersion
1070
     0
  0
ACAD_PROXY_OBJECT
  5
2B
102
{ACAD_REACTORS
330
2A
102
}
330
2A
100
AcDbZombieObject
 90
      499
 91
      501
 93
      380
310
41119B185D240901404333333333333E33F0000000000000F9010740A907004050150841D405064090741402480A1B50
1001
ACAD
1000
AcDbSavedByObjectVersion
1070
     0
  0
ACAD_PROXY_OBJECT
  5
2C
102
{ACAD_REACTORS
330
2A
102
}
330
2A
100
AcDbZombieObject
 90
      499
 91
      501
 93
      468
310
43519B185D15DA5D1A115919D95CD0140901404333333333333E33F0000000000000F90107409019070040501600405405064090741402480A1B50
1001
ACAD
1000
AcDbSavedByObjectVersion
1070
     0
  0
ACAD_PROXY_OBJECT
  5
2D
102
{ACAD_REACTORS
330
2A
102
}
330
2A
100
AcDbZombieObject
 90
      499
 91
      501
 93
      404
310
41D1DBDD5C985D5910240902404333333333333E33F0000000000000F9010740A9070040501641D405064090741402480A1B50
1001
ACAD
1000
AcDbSavedByObjectVersion
1070
     0
  0
ACAD_PROXY_OBJECT
  5
2E
102
{ACAD_REACTORS
330
2A
102
}
330
2A
100
AcDbZombieObject
 90
      499
 91
      501
 93
      492
310
4411DBDD5C985D5915DA5D1A115919D95CD0340902404333333333333E33F0000000000000F90107409019070040501600405405064090741402480A1B50
1001
ACAD
1000
AcDbSavedByObjectVersion
1070
     0
  0
ACAD_PROXY_OBJECT
  5
31
102
{ACAD_REACTORS
330
2A
102
}
330
2A
100
AcDbZombieObject
 90
      499
 91
      501
 93
      476
310
41921A5919195B90640502408333333333333E33F0000000000000F901079024090700405020000000000001110200405405064090740C02480A0340
1001
ACAD
1000
AcDbSavedByObjectVersion
1070
     0
  0
ACAD_PROXY_OBJECT
  5
3B
102
{ACAD_REACTORS
330
2A
102
}
330
2A
100
AcDbZombieObject
 90
      499
 91
      501
 93
      428
310
42529A5D1D195C93D999914409028333333333333E33F0000000000000F9010790141107004050150A41D405064090741402480A0350
1001
ACAD
1000
AcDbSavedByObjectVersion
1070
     0
  0
ACAD_PROXY_OBJECT
  5
38
102
{ACAD_REACTORS
330
2A
102
}
330
2A
100
AcDbZombieObject
 90
      499
 91
      501
 93
      444
310
42D31A5B995C185D1D195C9B90E409028333333333333E33F0000000000000F9010790141107004050750841D405064090741402483A0350
1001
ACAD
1000
AcDbSavedByObjectVersion
1070
     0
  0
ACAD_PROXY_OBJECT
  5
3C
102
{ACAD_REACTORS
330
2A
102
}
330
2A
100
AcDbZombieObject
 90
      499
 91
      501
 93
      444
310
42D3DD995C9A185B99D3D999915409028333333333333E33F0000000000000F9010790141107004050150941D405064090741402480A0350
1001
ACAD
1000
AcDbSavedByObjectVersion
1070
     0
  0
ACAD_PROXY_OBJECT
  5
33
102
{ACAD_REACTORS
330
2A
102
}
330
2A
100
AcDbZombieObject
 90
      499
 91
      501
 93
      428
310
425499585B1A5CDD1A58D08409038333333333333E33F0000000000000F9010740A907004050150800405405064090740C02480A1B40
1001
ACAD
1000
AcDbSavedByObjectVersion
1070
     0
  0
ACAD_PROXY_OBJECT
  5
42
102
{ACAD_REACTORS
330
2A
102
}
330
2A
100
AcDbZombieObject
 90
      499
 91
      501
 93
      420
310
4194DA1859195911B40902404333333333333E33F0000000000000F9010740A41107004050150800405405064090840C02480A0B40
1001
ACAD
1000
AcDbSavedByObjectVersion
1070
     0
  0
ACAD_PROXY_OBJECT
  5
41
102
{ACAD_REACTORS
330
2A
102
}
330
2A
100
AcDbZombieObject
 90
      499
 91
      501
 93
      516
310
4454DA18591959081DDA5D1A08195919D95CD1A40902404333333333333E33F0000000000000F901074090142907004050250800405405064090740C02480A0B40
1001
ACAD
1000
AcDbSavedByObjectVersion
1070
     0
  0
ACAD_PROXY_OBJECT
  5
3E
102
{ACAD_REACTORS
330
2A
102
}
330
2A
100
AcDbZombieObject
 90
      499
 91
      501
 93
      532
310
4394DA1859195CC81BD98811DC985E5174090240C333333333333E33F0000000000000F901079024090741D01000000000000111010841D405064090740C02480A0340
1001
ACAD
1000
AcDbSavedByObjectVersion
1070
     0
  0
ACAD_PROXY_OBJECT
  5
3F
102
{ACAD_REACTORS
330
2A
102
}
330
2A
100
AcDbZombieObject
 90
      499
 91
      501
 93
      476
310
41D4DAD95D18DA1E51840502408333333333333E33F0000000000000F901079024090741D01000000000000111010B41D405064090741802480A0340
1001
ACAD
1000
AcDbSavedByObjectVersion
1070
     0
  0
ACAD_PROXY_OBJECT
  5
37
102
{ACAD_REACTORS
330
2A
102
}
330
2A
100
AcDbZombieObject
 90
      499
 91
      501
 93
      412
310
41D51A1A58DAD95B90D409028333333333333E33F0000000000000F9010790141107004050150C41D405064090741402480A0350
1001
ACAD
1000
AcDbSavedByObjectVersion
1070
     0
  0
ACAD_PROXY_OBJECT
  5
30
102
{ACAD_REACTORS
330
2A
102
}
330
2A
100
AcDbZombieObject
 90
      499
 91
      501
 93
      420
310
4255DA5C99599C985B595059028333333333333E33F0000000000000F90107901411070040501600405405064090740C02480A0340
1001
ACAD
1000
AcDbSavedByObjectVersion
1070
     0
  0
ACAD_PROXY_OBJECT
  5
40
102
{ACAD_REACTORS
330
2A
102
}
330
2A
100
AcDbZombieObject
 90
      499
 91
      501
 93
      404
310
41560B54985E51940902404000000000000E03F0000000000000F9010740501907004050150841D405064090740C02480A1B40
1001
ACAD
1000
AcDbSavedByObjectVersion
1070
     0
  0
DICTIONARYVAR
  5
490
102
{ACAD_REACTORS
330
485
102
}
330
485
100
DictionaryVariables
280
     0
  1
1:1
  0
DICTIONARYVAR
  5
48C
102
{ACAD_REACTORS
330
485
102
}
330
485
100
DictionaryVariables
280
     0
  1
3.500000
  0
DICTIONARYVAR
  5
48D
102
{ACAD_REACTORS
330
485
102
}
330
485
100
DictionaryVariables
280
     0
  1
acadiso.lin
  0
DICTIONARYVAR
  5
487
102
{ACAD_REACTORS
330
485
102
}
330
485
100
DictionaryVariables
280
     0
  1
Standard
  0
DICTIONARYVAR
  5
486
102
{ACAD_REACTORS
330
485
102
}
330
485
100
DictionaryVariables
280
     0
  1
Standard
  0
DICTIONARYVAR
  5
48E
102
{ACAD_REACTORS
330
485
102
}
330
485
100
DictionaryVariables
280
     0
  1
2
  0
DICTIONARYVAR
  5
48F
102
{ACAD_REACTORS
330
485
102
}
330
485
100
DictionaryVariables
280
     0
  1
1
  0
DICTIONARYVAR
  5
491
102
{ACAD_REACTORS
330
485
102
}
330
485
100
DictionaryVariables
280
     0
  1
1
  0
DICTIONARYVAR
  5
489
102
{ACAD_REACTORS
330
485
102
}
330
485
100
DictionaryVariables
280
     0
  1
80.000000
  0
DICTIONARYVAR
  5
488
102
{ACAD_REACTORS
330
485
102
}
330
485
100
DictionaryVariables
280
     0
  1
5.000000
  0
DICTIONARY
  5
494
330
45
100
AcDbDictionary
  3
ACAD_XREC_ROUNDTRIP
360
495
1001
ACAD
1000
TREAT_AS_HARD
1070
     1
  0
DICTIONARY
  5
492
330
44
100
AcDbDictionary
  3
ACAD_XREC_ROUNDTRIP
360
493
1001
ACAD
1000
TREAT_AS_HARD
1070
     1
  0
DICTIONARY
  5
496
330
46
100
AcDbDictionary
  3
ACAD_XREC_ROUNDTRIP
360
497
1001
ACAD
1000
TREAT_AS_HARD
1070
     1
  0
XRECORD
  5
495
102
{ACAD_REACTORS
330
494
102
}
330
494
100
AcDbXrecord
102
MATERIAL
148
0.0
149
0.0
149
0.0
 93
        0
 94
      127
282
     0
 72
     1
 77
     1
171
     1
175
     1
179
     1
273
     0
  0
XRECORD
  5
493
102
{ACAD_REACTORS
330
492
102
}
330
492
100
AcDbXrecord
102
MATERIAL
148
0.0
149
0.0
149
0.0
 93
        0
 94
      127
282
     0
 72
     1
 77
     1
171
     1
175
     1
179
     1
273
     0
  0
XRECORD
  5
497
102
{ACAD_REACTORS
330
496
102
}
330
496
100
AcDbXrecord
102
MATERIAL
148
0.0
149
0.0
149
0.0
 93
        0
 94
      127
282
     0
 72
     1
 77
     1
171
     1
175
     1
179
     1
273
     0
  0
ENDSEC
  0
EOF
