  0
SECTION
  2
HEADER
  9
$ACADVER
  1
AC1012
  9
$DWGCODEPAGE
  3
ansi_1252
  9
$INSBASE
 10
0.0
 20
0.0
 30
0.0
  9
$EXTMIN
 10
1.000000000000000E+20
 20
1.000000000000000E+20
 30
1.000000000000000E+20
  9
$EXTMAX
 10
-1.000000000000000E+20
 20
-1.000000000000000E+20
 30
-1.000000000000000E+20
  9
$LIMMIN
 10
0.0
 20
0.0
  9
$LIMMAX
 10
420.0
 20
297.0
  9
$ORTHOMODE
 70
     0
  9
$REGENMODE
 70
     1
  9
$FILLMODE
 70
     1
  9
$QTEXTMODE
 70
     0
  9
$MIRRTEXT
 70
     1
  9
$DRAGMODE
 70
     2
  9
$LTSCALE
 40
1.0
  9
$OSMODE
 70
    37
  9
$ATTMODE
 70
     1
  9
$TEXTSIZE
 40
2.5
  9
$TRACEWID
 40
1.0
  9
$TEXTSTYLE
  7
STANDARD
  9
$CLAYER
  8
0
  9
$CELTYPE
  6
BYLAYER
  9
$CECOLOR
 62
   256
  9
$CELTSCALE
 40
1.0
  9
$DELOBJ
 70
     1
  9
$DISPSILH
 70
     0
  9
$DIMSCALE
 40
1.0
  9
$DIMASZ
 40
2.5
  9
$DIMEXO
 40
0.625
  9
$DIMDLI
 40
3.75
  9
$DIMRND
 40
0.0
  9
$DIMDLE
 40
0.0
  9
$DIMEXE
 40
1.25
  9
$DIMTP
 40
0.0
  9
$DIMTM
 40
0.0
  9
$DIMTXT
 40
2.5
  9
$DIMCEN
 40
2.5
  9
$DIMTSZ
 40
0.0
  9
$DIMTOL
 70
     0
  9
$DIMLIM
 70
     0
  9
$DIMTIH
 70
     0
  9
$DIMTOH
 70
     0
  9
$DIMSE1
 70
     0
  9
$DIMSE2
 70
     0
  9
$DIMTAD
 70
     1
  9
$DIMZIN
 70
     8
  9
$DIMBLK
  1

  9
$DIMASO
 70
     1
  9
$DIMSHO
 70
     1
  9
$DIMPOST
  1

  9
$DIMAPOST
  1

  9
$DIMALT
 70
     0
  9
$DIMALTD
 70
     3
  9
$DIMALTF
 40
0.03937007874016
  9
$DIMLFAC
 40
1.0
  9
$DIMTOFL
 70
     1
  9
$DIMTVP
 40
0.0
  9
$DIMTIX
 70
     0
  9
$DIMSOXD
 70
     0
  9
$DIMSAH
 70
     0
  9
$DIMBLK1
  1

  9
$DIMBLK2
  1

  9
$DIMSTYLE
  2
ISO-25
  9
$DIMCLRD
 70
     0
  9
$DIMCLRE
 70
     0
  9
$DIMCLRT
 70
     0
  9
$DIMTFAC
 40
1.0
  9
$DIMGAP
 40
0.625
  9
$DIMJUST
 70
     0
  9
$DIMSD1
 70
     0
  9
$DIMSD2
 70
     0
  9
$DIMTOLJ
 70
     0
  9
$DIMTZIN
 70
     8
  9
$DIMALTZ
 70
     0
  9
$DIMALTTZ
 70
     0
  9
$DIMFIT
 70
     3
  9
$DIMUPT
 70
     0
  9
$DIMUNIT
 70
     2
  9
$DIMDEC
 70
     2
  9
$DIMTDEC
 70
     2
  9
$DIMALTU
 70
     2
  9
$DIMALTTD
 70
     3
  9
$DIMTXSTY
  7
STANDARD
  9
$DIMAUNIT
 70
     0
  9
$LUNITS
 70
     2
  9
$LUPREC
 70
     4
  9
$SKETCHINC
 40
1.0
  9
$FILLETRAD
 40
10.0
  9
$AUNITS
 70
     0
  9
$AUPREC
 70
     0
  9
$MENU
  1
.
  9
$ELEVATION
 40
0.0
  9
$PELEVATION
 40
0.0
  9
$THICKNESS
 40
0.0
  9
$LIMCHECK
 70
     0
  9
$CHAMFERA
 40
0.0
  9
$CHAMFERB
 40
0.0
  9
$CHAMFERC
 40
0.0
  9
$CHAMFERD
 40
0.0
  9
$SKPOLY
 70
     0
  9
$TDCREATE
 40
2458045.604999352
  9
$TDUPDATE
 40
2458045.60500206
  9
$TDINDWG
 40
0.0000000116
  9
$TDUSRTIMER
 40
0.0000000116
  9
$USRTIMER
 70
     1
  9
$ANGBASE
 50
0.0
  9
$ANGDIR
 70
     0
  9
$PDMODE
 70
     0
  9
$PDSIZE
 40
0.0
  9
$PLINEWID
 40
0.0
  9
$COORDS
 70
     1
  9
$SPLFRAME
 70
     0
  9
$SPLINETYPE
 70
     6
  9
$SPLINESEGS
 70
     8
  9
$ATTDIA
 70
     0
  9
$ATTREQ
 70
     1
  9
$HANDLING
 70
     1
  9
$HANDSEED
  5
4C6
  9
$SURFTAB1
 70
     6
  9
$SURFTAB2
 70
     6
  9
$SURFTYPE
 70
     6
  9
$SURFU
 70
     6
  9
$SURFV
 70
     6
  9
$UCSNAME
  2

  9
$UCSORG
 10
0.0
 20
0.0
 30
0.0
  9
$UCSXDIR
 10
1.0
 20
0.0
 30
0.0
  9
$UCSYDIR
 10
0.0
 20
1.0
 30
0.0
  9
$PUCSNAME
  2

  9
$PUCSORG
 10
0.0
 20
0.0
 30
0.0
  9
$PUCSXDIR
 10
1.0
 20
0.0
 30
0.0
  9
$PUCSYDIR
 10
0.0
 20
1.0
 30
0.0
  9
$USERI1
 70
     0
  9
$USERI2
 70
     0
  9
$USERI3
 70
     0
  9
$USERI4
 70
     0
  9
$USERI5
 70
     0
  9
$USERR1
 40
0.0
  9
$USERR2
 40
0.0
  9
$USERR3
 40
0.0
  9
$USERR4
 40
0.0
  9
$USERR5
 40
0.0
  9
$WORLDVIEW
 70
     1
  9
$SHADEDGE
 70
     3
  9
$SHADEDIF
 70
    70
  9
$TILEMODE
 70
     1
  9
$MAXACTVP
 70
    64
  9
$PINSBASE
 10
0.0
 20
0.0
 30
0.0
  9
$PLIMCHECK
 70
     0
  9
$PEXTMIN
 10
1.000000000000000E+20
 20
1.000000000000000E+20
 30
1.000000000000000E+20
  9
$PEXTMAX
 10
-1.000000000000000E+20
 20
-1.000000000000000E+20
 30
-1.000000000000000E+20
  9
$PLIMMIN
 10
0.0
 20
0.0
  9
$PLIMMAX
 10
420.0
 20
297.0
  9
$UNITMODE
 70
     0
  9
$VISRETAIN
 70
     1
  9
$PLINEGEN
 70
     0
  9
$PSLTSCALE
 70
     1
  9
$TREEDEPTH
 70
  3020
  9
$PICKSTYLE
 70
     1
  9
$CMLSTYLE
  2
STANDARD
  9
$CMLJUST
 70
     0
  9
$CMLSCALE
 40
20.0
  9
$SAVEIMAGES
 70
     1
  0
ENDSEC
  0
SECTION
  2
CLASSES
  0
CLASS
  1
ACDBDICTIONARYWDFLT
  2
AcDbDictionaryWithDefault
  3
ObjectDBX Classes
 90
    32768
280
     0
281
     0
  0
CLASS
  1
VISUALSTYLE
  2
AcDbVisualStyle
  3
ObjectDBX Classes
 90
     4095
280
     0
281
     0
  0
CLASS
  1
MATERIAL
  2
AcDbMaterial
  3
ObjectDBX Classes
 90
     1153
280
     0
281
     0
  0
CLASS
  1
SCALE
  2
AcDbScale
  3
ObjectDBX Classes
 90
     1153
280
     0
281
     0
  0
CLASS
  1
TABLESTYLE
  2
AcDbTableStyle
  3
ObjectDBX Classes
 90
     4095
280
     0
281
     0
  0
CLASS
  1
MLEADERSTYLE
  2
AcDbMLeaderStyle
  3
ACDB_MLEADERSTYLE_CLASS
 90
     4095
280
     0
281
     0
  0
CLASS
  1
SUN
  2
AcDbSun
  3
SCENEOE
 90
     1153
280
     0
281
     0
  0
CLASS
  1
DICTIONARYVAR
  2
AcDbDictionaryVar
  3
ObjectDBX Classes
 90
        0
280
     0
281
     0
  0
CLASS
  1
XRECORD
  2
AcDbXrecord
  3
ObjectDBX Classes
 90
    32768
280
     0
281
     0
  0
CLASS
  1
LWPOLYLINE
  2
AcDbPolyline
  3
ObjectDBX Classes
 90
    32768
280
     0
281
     1
  0
CLASS
  1
HATCH
  2
AcDbHatch
  3
ObjectDBX Classes
 90
    32768
280
     0
281
     1
  0
CLASS
  1
ACDBPLACEHOLDER
  2
AcDbPlaceHolder
  3
ObjectDBX Classes
 90
        0
280
     0
281
     0
  0
CLASS
  1
LAYOUT
  2
AcDbLayout
  3
ObjectDBX Classes
 90
        0
280
     0
281
     0
  0
ENDSEC
  0
SECTION
  2
TABLES
  0
TABLE
  2
VPORT
  5
8
330
0
100
AcDbSymbolTable
 70
     1
  0
VPORT
  5
29
330
8
100
AcDbSymbolTableRecord
100
AcDbViewportTableRecord
  2
*ACTIVE
 70
     0
 10
0.0
 20
0.0
 11
1.0
 21
1.0
 12
0.0
 22
0.0
 13
0.0
 23
0.0
 14
10.0
 24
10.0
 15
10.0
 25
10.0
 16
0.0
 26
0.0
 36
1.0
 17
0.0
 27
0.0
 37
0.0
 40
515.1
 41
1.000000000000001
 42
50.0
 43
0.0
 44
0.0
 50
0.0
 51
0.0
 71
     0
 72
   100
 73
     1
 74
     3
 75
     0
 76
     0
 77
     0
 78
     0
  0
ENDTAB
  0
TABLE
  2
LTYPE
  5
5
330
0
100
AcDbSymbolTable
 70
     1
  0
LTYPE
  5
14
330
5
100
AcDbSymbolTableRecord
100
AcDbLinetypeTableRecord
  2
BYBLOCK
 70
     0
  3

 72
    65
 73
     0
 40
0.0
  0
LTYPE
  5
15
330
5
100
AcDbSymbolTableRecord
100
AcDbLinetypeTableRecord
  2
BYLAYER
 70
     0
  3

 72
    65
 73
     0
 40
0.0
  0
LTYPE
  5
16
330
5
100
AcDbSymbolTableRecord
100
AcDbLinetypeTableRecord
  2
CONTINUOUS
 70
     0
  3
Solid line
 72
    65
 73
     0
 40
0.0
  0
ENDTAB
  0
TABLE
  2
LAYER
  5
2
330
0
100
AcDbSymbolTable
 70
     4
  0
LAYER
  5
10
330
2
100
AcDbSymbolTableRecord
100
AcDbLayerTableRecord
  2
0
 70
     0
 62
     7
  6
CONTINUOUS
  0
LAYER
  5
6E
330
2
100
AcDbSymbolTableRecord
100
AcDbLayerTableRecord
  2
THICK
 70
     0
 62
     7
  6
CONTINUOUS
  0
LAYER
  5
6F
330
2
100
AcDbSymbolTableRecord
100
AcDbLayerTableRecord
  2
HIDDEN
 70
     0
 62
     7
  6
CONTINUOUS
  0
LAYER
  5
70
330
2
100
AcDbSymbolTableRecord
100
AcDbLayerTableRecord
  2
HASHLINES
 70
     0
 62
     7
  6
CONTINUOUS
  0
ENDTAB
  0
TABLE
  2
STYLE
  5
3
330
0
100
AcDbSymbolTable
 70
     1
  0
STYLE
  5
11
330
3
100
AcDbSymbolTableRecord
100
AcDbTextStyleTableRecord
  2
STANDARD
 70
     0
 40
0.0
 41
1.0
 50
0.0
 71
     0
 42
2.5
  3
txt
  4

  0
ENDTAB
  0
TABLE
  2
VIEW
  5
6
330
0
100
AcDbSymbolTable
 70
     0
  0
ENDTAB
  0
TABLE
  2
UCS
  5
7
330
0
100
AcDbSymbolTable
 70
     0
  0
ENDTAB
  0
TABLE
  2
APPID
  5
9
330
0
100
AcDbSymbolTable
 70
     3
  0
APPID
  5
12
330
9
100
AcDbSymbolTableRecord
100
AcDbRegAppTableRecord
  2
ACAD
 70
     0
  0
APPID
  5
71
330
9
100
AcDbSymbolTableRecord
100
AcDbRegAppTableRecord
  2
DBPROPERTIES
 70
     0
  0
APPID
  5
4C5
330
9
100
AcDbSymbolTableRecord
100
AcDbRegAppTableRecord
  2
ACAD_MLEADERVER
 70
     0
  0
ENDTAB
  0
TABLE
  2
DIMSTYLE
  5
A
330
0
100
AcDbSymbolTable
 70
     1
  0
DIMSTYLE
105
27
330
A
100
AcDbSymbolTableRecord
100
AcDbDimStyleTableRecord
  2
ISO-25
 70
     0
  3

  4

  5

  6

  7

 40
1.0
 41
2.5
 42
0.625
 43
3.75
 44
1.25
 45
0.0
 46
0.0
 47
0.0
 48
0.0
140
2.5
141
2.5
142
0.0
143
0.03937007874016
144
1.0
145
0.0
146
1.0
147
0.625
 71
     0
 72
     0
 73
     0
 74
     0
 75
     0
 76
     0
 77
     1
 78
     8
170
     0
171
     3
172
     1
173
     0
174
     0
175
     0
176
     0
177
     0
178
     0
270
     2
271
     2
272
     2
273
     2
274
     3
340
11
275
     0
280
     0
281
     0
282
     0
283
     0
284
     8
285
     0
286
     0
287
     3
288
     0
  0
ENDTAB
  0
TABLE
  2
BLOCK_RECORD
  5
1
330
0
100
AcDbSymbolTable
 70
     0
  0
BLOCK_RECORD
  5
1F
330
1
100
AcDbSymbolTableRecord
100
AcDbBlockTableRecord
  2
*MODEL_SPACE
  0
BLOCK_RECORD
  5
1B
330
1
100
AcDbSymbolTableRecord
100
AcDbBlockTableRecord
  2
*PAPER_SPACE
  0
ENDTAB
  0
ENDSEC
  0
SECTION
  2
BLOCKS
  0
BLOCK
  5
20
330
1F
100
AcDbEntity
  8
0
100
AcDbBlockBegin
  2
*MODEL_SPACE
 70
     0
 10
0.0
 20
0.0
 30
0.0
  3
*MODEL_SPACE
  1

  0
ENDBLK
  5
21
330
1F
100
AcDbEntity
  8
0
100
AcDbBlockEnd
  0
BLOCK
  5
1C
330
1B
100
AcDbEntity
 67
     1
  8
0
100
AcDbBlockBegin
  2
*PAPER_SPACE
 70
     0
 10
0.0
 20
0.0
 30
0.0
  3
*PAPER_SPACE
  1

  0
ENDBLK
  5
1D
330
1B
100
AcDbEntity
 67
     1
  8
0
100
AcDbBlockEnd
  0
ENDSEC
  0
SECTION
  2
ENTITIES
  0
LINE
  5
72
330
1F
100
AcDbEntity
  8
HIDDEN
100
AcDbLine
 10
222.4999999999999
 20
-222.4999999999999
 30
0.0
 11
222.4999999999999
 21
-222.4999999999999
 31
0.0
1001
DBPROPERTIES
1002
{
1000
PbHidd
1002
}
  0
LINE
  5
73
330
1F
100
AcDbEntity
  8
HIDDEN
100
AcDbLine
 10
222.5
 20
-222.5
 30
0.0
 11
252.5
 21
-222.5
 31
0.0
1001
DBPROPERTIES
1002
{
1000
PbHidd
1002
}
  0
LINE
  5
74
330
1F
100
AcDbEntity
  8
HIDDEN
100
AcDbLine
 10
252.4999999999999
 20
-222.4999999999999
 30
0.0
 11
252.4999999999999
 21
-222.4999999999999
 31
0.0
1001
DBPROPERTIES
1002
{
1000
PbHidd
1002
}
  0
LINE
  5
75
330
1F
100
AcDbEntity
  8
HIDDEN
100
AcDbLine
 10
-230.5
 20
213.5
 30
0.0
 11
-226.5
 21
213.5
 31
0.0
1001
DBPROPERTIES
1002
{
1000
PbHidd
1002
}
  0
LINE
  5
76
330
1F
100
AcDbEntity
  8
HIDDEN
100
AcDbLine
 10
-226.5
 20
207.5
 30
0.0
 11
-230.5
 21
207.5
 31
0.0
1001
DBPROPERTIES
1002
{
1000
PbHidd
1002
}
  0
LINE
  5
77
330
1F
100
AcDbEntity
  8
HIDDEN
100
AcDbLine
 10
226.5
 20
213.5
 30
0.0
 11
230.5
 21
213.5
 31
0.0
1001
DBPROPERTIES
1002
{
1000
PbHidd
1002
}
  0
LINE
  5
78
330
1F
100
AcDbEntity
  8
HIDDEN
100
AcDbLine
 10
230.5
 20
207.5
 30
0.0
 11
226.5
 21
207.5
 31
0.0
1001
DBPROPERTIES
1002
{
1000
PbHidd
1002
}
  0
LINE
  5
79
330
1F
100
AcDbEntity
  8
HIDDEN
100
AcDbLine
 10
-230.5
 20
213.5
 30
0.0
 11
-226.5
 21
213.5
 31
0.0
1001
DBPROPERTIES
1002
{
1000
PbHidd
1002
}
  0
LINE
  5
7A
330
1F
100
AcDbEntity
  8
HIDDEN
100
AcDbLine
 10
-226.5
 20
207.5
 30
0.0
 11
-230.5
 21
207.5
 31
0.0
1001
DBPROPERTIES
1002
{
1000
PbHidd
1002
}
  0
LINE
  5
7B
330
1F
100
AcDbEntity
  8
HIDDEN
100
AcDbLine
 10
226.5
 20
213.5
 30
0.0
 11
230.5
 21
213.5
 31
0.0
1001
DBPROPERTIES
1002
{
1000
PbHidd
1002
}
  0
LINE
  5
7C
330
1F
100
AcDbEntity
  8
HIDDEN
100
AcDbLine
 10
230.5
 20
207.5
 30
0.0
 11
226.5
 21
207.5
 31
0.0
1001
DBPROPERTIES
1002
{
1000
PbHidd
1002
}
  0
LINE
  5
7D
330
1F
100
AcDbEntity
  8
HIDDEN
100
AcDbLine
 10
-230.5
 20
-207.5
 30
0.0
 11
-226.5
 21
-207.5
 31
0.0
1001
DBPROPERTIES
1002
{
1000
PbHidd
1002
}
  0
LINE
  5
7E
330
1F
100
AcDbEntity
  8
HIDDEN
100
AcDbLine
 10
-226.5
 20
-213.5
 30
0.0
 11
-230.5
 21
-213.5
 31
0.0
1001
DBPROPERTIES
1002
{
1000
PbHidd
1002
}
  0
LINE
  5
7F
330
1F
100
AcDbEntity
  8
HIDDEN
100
AcDbLine
 10
226.5
 20
-207.5
 30
0.0
 11
230.5
 21
-207.5
 31
0.0
1001
DBPROPERTIES
1002
{
1000
PbHidd
1002
}
  0
LINE
  5
80
330
1F
100
AcDbEntity
  8
HIDDEN
100
AcDbLine
 10
230.5
 20
-213.5
 30
0.0
 11
226.5
 21
-213.5
 31
0.0
1001
DBPROPERTIES
1002
{
1000
PbHidd
1002
}
  0
LINE
  5
81
330
1F
100
AcDbEntity
  8
HIDDEN
100
AcDbLine
 10
-230.5
 20
-207.5
 30
0.0
 11
-226.5
 21
-207.5
 31
0.0
1001
DBPROPERTIES
1002
{
1000
PbHidd
1002
}
  0
LINE
  5
82
330
1F
100
AcDbEntity
  8
HIDDEN
100
AcDbLine
 10
-226.5
 20
-213.5
 30
0.0
 11
-230.5
 21
-213.5
 31
0.0
1001
DBPROPERTIES
1002
{
1000
PbHidd
1002
}
  0
LINE
  5
83
330
1F
100
AcDbEntity
  8
HIDDEN
100
AcDbLine
 10
226.5
 20
-207.5
 30
0.0
 11
230.5
 21
-207.5
 31
0.0
1001
DBPROPERTIES
1002
{
1000
PbHidd
1002
}
  0
LINE
  5
84
330
1F
100
AcDbEntity
  8
HIDDEN
100
AcDbLine
 10
230.5
 20
-213.5
 30
0.0
 11
226.5
 21
-213.5
 31
0.0
1001
DBPROPERTIES
1002
{
1000
PbHidd
1002
}
  0
LINE
  5
85
330
1F
100
AcDbEntity
  8
HIDDEN
100
AcDbLine
 10
-230.5
 20
65.5
 30
0.0
 11
-226.5
 21
65.5
 31
0.0
1001
DBPROPERTIES
1002
{
1000
PbHidd
1002
}
  0
LINE
  5
86
330
1F
100
AcDbEntity
  8
HIDDEN
100
AcDbLine
 10
-226.5
 20
59.5
 30
0.0
 11
-230.5
 21
59.5
 31
0.0
1001
DBPROPERTIES
1002
{
1000
PbHidd
1002
}
  0
LINE
  5
87
330
1F
100
AcDbEntity
  8
HIDDEN
100
AcDbLine
 10
226.5
 20
65.5
 30
0.0
 11
230.5
 21
65.5
 31
0.0
1001
DBPROPERTIES
1002
{
1000
PbHidd
1002
}
  0
LINE
  5
88
330
1F
100
AcDbEntity
  8
HIDDEN
100
AcDbLine
 10
230.5
 20
59.5
 30
0.0
 11
226.5
 21
59.5
 31
0.0
1001
DBPROPERTIES
1002
{
1000
PbHidd
1002
}
  0
LINE
  5
89
330
1F
100
AcDbEntity
  8
HIDDEN
100
AcDbLine
 10
-230.5
 20
-59.5
 30
0.0
 11
-226.5
 21
-59.5
 31
0.0
1001
DBPROPERTIES
1002
{
1000
PbHidd
1002
}
  0
LINE
  5
8A
330
1F
100
AcDbEntity
  8
HIDDEN
100
AcDbLine
 10
-226.5
 20
-65.5
 30
0.0
 11
-230.5
 21
-65.5
 31
0.0
1001
DBPROPERTIES
1002
{
1000
PbHidd
1002
}
  0
LINE
  5
8B
330
1F
100
AcDbEntity
  8
HIDDEN
100
AcDbLine
 10
226.5
 20
-59.5
 30
0.0
 11
230.5
 21
-59.5
 31
0.0
1001
DBPROPERTIES
1002
{
1000
PbHidd
1002
}
  0
LINE
  5
8C
330
1F
100
AcDbEntity
  8
HIDDEN
100
AcDbLine
 10
230.5
 20
-65.5
 30
0.0
 11
226.5
 21
-65.5
 31
0.0
1001
DBPROPERTIES
1002
{
1000
PbHidd
1002
}
  0
LINE
  5
8D
330
1F
100
AcDbEntity
  8
HIDDEN
100
AcDbLine
 10
-230.5
 20
165.5
 30
0.0
 11
-226.5
 21
165.5
 31
0.0
1001
DBPROPERTIES
1002
{
1000
PbHidd
1002
}
  0
LINE
  5
8E
330
1F
100
AcDbEntity
  8
HIDDEN
100
AcDbLine
 10
-226.5
 20
159.5
 30
0.0
 11
-230.5
 21
159.5
 31
0.0
1001
DBPROPERTIES
1002
{
1000
PbHidd
1002
}
  0
LINE
  5
8F
330
1F
100
AcDbEntity
  8
HIDDEN
100
AcDbLine
 10
226.5
 20
165.5
 30
0.0
 11
230.5
 21
165.5
 31
0.0
1001
DBPROPERTIES
1002
{
1000
PbHidd
1002
}
  0
LINE
  5
90
330
1F
100
AcDbEntity
  8
HIDDEN
100
AcDbLine
 10
230.5
 20
159.5
 30
0.0
 11
226.5
 21
159.5
 31
0.0
1001
DBPROPERTIES
1002
{
1000
PbHidd
1002
}
  0
LINE
  5
91
330
1F
100
AcDbEntity
  8
HIDDEN
100
AcDbLine
 10
-230.5
 20
-159.5
 30
0.0
 11
-226.5
 21
-159.5
 31
0.0
1001
DBPROPERTIES
1002
{
1000
PbHidd
1002
}
  0
LINE
  5
92
330
1F
100
AcDbEntity
  8
HIDDEN
100
AcDbLine
 10
-226.5
 20
-165.5
 30
0.0
 11
-230.5
 21
-165.5
 31
0.0
1001
DBPROPERTIES
1002
{
1000
PbHidd
1002
}
  0
LINE
  5
93
330
1F
100
AcDbEntity
  8
HIDDEN
100
AcDbLine
 10
226.5
 20
-159.5
 30
0.0
 11
230.5
 21
-159.5
 31
0.0
1001
DBPROPERTIES
1002
{
1000
PbHidd
1002
}
  0
LINE
  5
94
330
1F
100
AcDbEntity
  8
HIDDEN
100
AcDbLine
 10
230.5
 20
-165.5
 30
0.0
 11
226.5
 21
-165.5
 31
0.0
1001
DBPROPERTIES
1002
{
1000
PbHidd
1002
}
  0
LINE
  5
95
330
1F
100
AcDbEntity
  8
HIDDEN
100
AcDbLine
 10
-230.5
 20
65.5
 30
0.0
 11
-226.5
 21
65.5
 31
0.0
1001
DBPROPERTIES
1002
{
1000
PbHidd
1002
}
  0
LINE
  5
96
330
1F
100
AcDbEntity
  8
HIDDEN
100
AcDbLine
 10
-226.5
 20
59.5
 30
0.0
 11
-230.5
 21
59.5
 31
0.0
1001
DBPROPERTIES
1002
{
1000
PbHidd
1002
}
  0
LINE
  5
97
330
1F
100
AcDbEntity
  8
HIDDEN
100
AcDbLine
 10
226.5
 20
65.5
 30
0.0
 11
230.5
 21
65.5
 31
0.0
1001
DBPROPERTIES
1002
{
1000
PbHidd
1002
}
  0
LINE
  5
98
330
1F
100
AcDbEntity
  8
HIDDEN
100
AcDbLine
 10
230.5
 20
59.5
 30
0.0
 11
226.5
 21
59.5
 31
0.0
1001
DBPROPERTIES
1002
{
1000
PbHidd
1002
}
  0
LINE
  5
99
330
1F
100
AcDbEntity
  8
HIDDEN
100
AcDbLine
 10
-230.5
 20
-59.5
 30
0.0
 11
-226.5
 21
-59.5
 31
0.0
1001
DBPROPERTIES
1002
{
1000
PbHidd
1002
}
  0
LINE
  5
9A
330
1F
100
AcDbEntity
  8
HIDDEN
100
AcDbLine
 10
-226.5
 20
-65.5
 30
0.0
 11
-230.5
 21
-65.5
 31
0.0
1001
DBPROPERTIES
1002
{
1000
PbHidd
1002
}
  0
LINE
  5
9B
330
1F
100
AcDbEntity
  8
HIDDEN
100
AcDbLine
 10
226.5
 20
-59.5
 30
0.0
 11
230.5
 21
-59.5
 31
0.0
1001
DBPROPERTIES
1002
{
1000
PbHidd
1002
}
  0
LINE
  5
9C
330
1F
100
AcDbEntity
  8
HIDDEN
100
AcDbLine
 10
230.5
 20
-65.5
 30
0.0
 11
226.5
 21
-65.5
 31
0.0
1001
DBPROPERTIES
1002
{
1000
PbHidd
1002
}
  0
LINE
  5
9D
330
1F
100
AcDbEntity
  8
HIDDEN
100
AcDbLine
 10
-230.5
 20
165.5
 30
0.0
 11
-226.5
 21
165.5
 31
0.0
1001
DBPROPERTIES
1002
{
1000
PbHidd
1002
}
  0
LINE
  5
9E
330
1F
100
AcDbEntity
  8
HIDDEN
100
AcDbLine
 10
-226.5
 20
159.5
 30
0.0
 11
-230.5
 21
159.5
 31
0.0
1001
DBPROPERTIES
1002
{
1000
PbHidd
1002
}
  0
LINE
  5
9F
330
1F
100
AcDbEntity
  8
HIDDEN
100
AcDbLine
 10
226.5
 20
165.5
 30
0.0
 11
230.5
 21
165.5
 31
0.0
1001
DBPROPERTIES
1002
{
1000
PbHidd
1002
}
  0
LINE
  5
A0
330
1F
100
AcDbEntity
  8
HIDDEN
100
AcDbLine
 10
230.5
 20
159.5
 30
0.0
 11
226.5
 21
159.5
 31
0.0
1001
DBPROPERTIES
1002
{
1000
PbHidd
1002
}
  0
LINE
  5
A1
330
1F
100
AcDbEntity
  8
HIDDEN
100
AcDbLine
 10
-230.5
 20
-159.5
 30
0.0
 11
-226.5
 21
-159.5
 31
0.0
1001
DBPROPERTIES
1002
{
1000
PbHidd
1002
}
  0
LINE
  5
A2
330
1F
100
AcDbEntity
  8
HIDDEN
100
AcDbLine
 10
-226.5
 20
-165.5
 30
0.0
 11
-230.5
 21
-165.5
 31
0.0
1001
DBPROPERTIES
1002
{
1000
PbHidd
1002
}
  0
LINE
  5
A3
330
1F
100
AcDbEntity
  8
HIDDEN
100
AcDbLine
 10
226.5
 20
-159.5
 30
0.0
 11
230.5
 21
-159.5
 31
0.0
1001
DBPROPERTIES
1002
{
1000
PbHidd
1002
}
  0
LINE
  5
A4
330
1F
100
AcDbEntity
  8
HIDDEN
100
AcDbLine
 10
230.5
 20
-165.5
 30
0.0
 11
226.5
 21
-165.5
 31
0.0
1001
DBPROPERTIES
1002
{
1000
PbHidd
1002
}
  0
LINE
  5
A5
330
1F
100
AcDbEntity
  8
HIDDEN
100
AcDbLine
 10
-13.35576715956642
 20
-180.1319160851134
 30
0.0
 11
-13.35576715956642
 21
-180.1319160851134
 31
0.0
1001
DBPROPERTIES
1002
{
1000
PbHidd
1002
}
  0
ARC
  5
A6
330
1F
100
AcDbEntity
  8
HIDDEN
100
AcDbCircle
 10
0.0
 20
0.5
 30
0.0
 40
181.125
100
AcDbArc
 50
89.99998127603165
 51
270.0000187239684
1001
DBPROPERTIES
1002
{
1000
PbHidd
1002
}
  0
LINE
  5
A7
330
1F
100
AcDbEntity
  8
HIDDEN
100
AcDbLine
 10
-144.3092072289369
 20
109.9582949527158
 30
0.0
 11
-144.3092072289369
 21
109.9582949527158
 31
0.0
1001
DBPROPERTIES
1002
{
1000
PbHidd
1002
}
  0
LINE
  5
A8
330
1F
100
AcDbEntity
  8
HIDDEN
100
AcDbLine
 10
-149.753944484184
 20
102.3823916897712
 30
0.0
 11
-149.753944484184
 21
102.3823916897712
 31
0.0
1001
DBPROPERTIES
1002
{
1000
PbHidd
1002
}
  0
LINE
  5
A9
330
1F
100
AcDbEntity
  8
HIDDEN
100
AcDbLine
 10
-166.9482676984503
 20
-69.74629198389444
 30
0.0
 11
-166.9482676984503
 21
-69.74629198389444
 31
0.0
1001
DBPROPERTIES
1002
{
1000
PbHidd
1002
}
  0
LINE
  5
AA
330
1F
100
AcDbEntity
  8
HIDDEN
100
AcDbLine
 10
-163.1097116437504
 20
-78.24952439534226
 30
0.0
 11
-163.1097116437504
 21
-78.24952439534226
 31
0.0
1001
DBPROPERTIES
1002
{
1000
PbHidd
1002
}
  0
LINE
  5
AB
330
1F
100
AcDbEntity
  8
HIDDEN
100
AcDbLine
 10
-22.63906046951343
 20
-179.2045869366102
 30
0.0
 11
-22.63906046951343
 21
-179.2045869366102
 31
0.0
1001
DBPROPERTIES
1002
{
1000
PbHidd
1002
}
  0
ARC
  5
AC
330
1F
100
AcDbEntity
  8
HIDDEN
100
AcDbCircle
 10
0.0
 20
0.5
 30
0.0
 40
112.25
100
AcDbArc
 50
270.0000187239684
 51
89.99998127603165
1001
DBPROPERTIES
1002
{
1000
PbHidd
1002
}
  0
ARC
  5
AD
330
1F
100
AcDbEntity
  8
HIDDEN
100
AcDbCircle
 10
0.0
 20
0.5
 30
0.0
 40
94.5
100
AcDbArc
 50
270.0000187239684
 51
89.99998127603165
1001
DBPROPERTIES
1002
{
1000
PbHidd
1002
}
  0
ARC
  5
AE
330
1F
100
AcDbEntity
  8
HIDDEN
100
AcDbCircle
 10
0.0
 20
0.0
 30
0.0
 40
153.5
100
AcDbArc
 50
270.0000187239684
 51
0.0933348248268111
1001
DBPROPERTIES
1002
{
1000
PbHidd
1002
}
  0
LINE
  5
AF
330
1F
100
AcDbEntity
  8
HIDDEN
100
AcDbLine
 10
153.4997964168031
 20
0.2499999999999906
 30
0.0
 11
153.4997964168031
 21
0.2499999999999906
 31
0.0
1001
DBPROPERTIES
1002
{
1000
PbHidd
1002
}
  0
ARC
  5
B0
330
1F
100
AcDbEntity
  8
THICK
100
AcDbCircle
 10
0.0
 20
0.5
 30
0.0
 40
157.5
100
AcDbArc
 50
270.0000187239684
 51
89.99998127603165
1001
DBPROPERTIES
1002
{
1000
PbThick
1002
}
  0
ARC
  5
B1
330
1F
100
AcDbEntity
  8
THICK
100
AcDbCircle
 10
0.0
 20
0.5
 30
0.0
 40
186.0
100
AcDbArc
 50
0.0
 51
89.99998127603165
1001
DBPROPERTIES
1002
{
1000
PbThick
1002
}
  0
ARC
  5
B2
330
1F
100
AcDbEntity
  8
THICK
100
AcDbCircle
 10
0.0000000000000002
 20
0.5
 30
0.0
 40
189.0
100
AcDbArc
 50
0.0
 51
89.99998127603165
1001
DBPROPERTIES
1002
{
1000
PbThick
1002
}
  0
ARC
  5
B3
330
1F
100
AcDbEntity
  8
THICK
100
AcDbCircle
 10
0.0000000000000002
 20
0.5
 30
0.0
 40
189.0
100
AcDbArc
 50
89.99998127603165
 51
180.0000198478428
1001
DBPROPERTIES
1002
{
1000
PbThick
1002
}
  0
ARC
  5
B4
330
1F
100
AcDbEntity
  8
THICK
100
AcDbCircle
 10
0.0
 20
0.5
 30
0.0
 40
186.0
100
AcDbArc
 50
89.99998127603165
 51
180.0000198478428
1001
DBPROPERTIES
1002
{
1000
PbThick
1002
}
  0
ARC
  5
B5
330
1F
100
AcDbEntity
  8
THICK
100
AcDbCircle
 10
0.0
 20
0.5
 30
0.0
 40
153.5
100
AcDbArc
 50
270.0000187239684
 51
89.99998127603165
1001
DBPROPERTIES
1002
{
1000
PbThick
1002
}
  0
ARC
  5
B6
330
1F
100
AcDbEntity
  8
THICK
100
AcDbCircle
 10
0.0
 20
0.5
 30
0.0
 40
110.25
100
AcDbArc
 50
270.0000187239684
 51
89.99998127603165
1001
DBPROPERTIES
1002
{
1000
PbThick
1002
}
  0
ARC
  5
B7
330
1F
100
AcDbEntity
  8
THICK
100
AcDbCircle
 10
0.0
 20
0.5
 30
0.0
 40
110.25
100
AcDbArc
 50
89.99998127603165
 51
180.0000198478428
1001
DBPROPERTIES
1002
{
1000
PbThick
1002
}
  0
ARC
  5
B8
330
1F
100
AcDbEntity
  8
THICK
100
AcDbCircle
 10
0.0
 20
0.4999999999999975
 30
0.0
 40
148.6140541777291
100
AcDbArc
 50
89.99998127603165
 51
270.0000187239684
1001
DBPROPERTIES
1002
{
1000
PbThick
1002
}
  0
ARC
  5
B9
330
1F
100
AcDbEntity
  8
THICK
100
AcDbCircle
 10
0.0
 20
0.5
 30
0.0
 40
110.25
100
AcDbArc
 50
180.0000198478428
 51
270.0000187239684
1001
DBPROPERTIES
1002
{
1000
PbThick
1002
}
  0
ARC
  5
BA
330
1F
100
AcDbEntity
  8
HIDDEN
100
AcDbCircle
 10
0.0
 20
0.4999999999999954
 30
0.0
 40
114.25
100
AcDbArc
 50
270.0000187239684
 51
0.0
1001
DBPROPERTIES
1002
{
1000
PbHidd
1002
}
  0
ARC
  5
BB
330
1F
100
AcDbEntity
  8
HIDDEN
100
AcDbCircle
 10
0.0
 20
0.4999999999999954
 30
0.0
 40
114.25
100
AcDbArc
 50
0.0
 51
89.99998127603165
1001
DBPROPERTIES
1002
{
1000
PbHidd
1002
}
  0
ARC
  5
BC
330
1F
100
AcDbEntity
  8
THICK
100
AcDbCircle
 10
0.0000000000000002
 20
0.5
 30
0.0
 40
189.0
100
AcDbArc
 50
270.0000187239684
 51
0.0
1001
DBPROPERTIES
1002
{
1000
PbThick
1002
}
  0
ARC
  5
BD
330
1F
100
AcDbEntity
  8
HIDDEN
100
AcDbCircle
 10
0.0
 20
0.4999999999999954
 30
0.0
 40
114.25
100
AcDbArc
 50
180.0000198478428
 51
270.0000187239684
1001
DBPROPERTIES
1002
{
1000
PbHidd
1002
}
  0
LINE
  5
BE
330
1F
100
AcDbEntity
  8
HIDDEN
100
AcDbLine
 10
-153.4997964168031
 20
0.2500000000000094
 30
0.0
 11
-153.4997964168031
 21
0.2500000000000094
 31
0.0
1001
DBPROPERTIES
1002
{
1000
PbHidd
1002
}
  0
ARC
  5
BF
330
1F
100
AcDbEntity
  8
HIDDEN
100
AcDbCircle
 10
0.0
 20
0.4999999999999954
 30
0.0
 40
114.25
100
AcDbArc
 50
89.99998127603165
 51
180.0000198478428
1001
DBPROPERTIES
1002
{
1000
PbHidd
1002
}
  0
ARC
  5
C0
330
1F
100
AcDbEntity
  8
HIDDEN
100
AcDbCircle
 10
0.0
 20
0.5
 30
0.0
 40
112.25
100
AcDbArc
 50
89.99998127603165
 51
270.0000187239684
1001
DBPROPERTIES
1002
{
1000
PbHidd
1002
}
  0
ARC
  5
C1
330
1F
100
AcDbEntity
  8
THICK
100
AcDbCircle
 10
0.0000000000000002
 20
0.5
 30
0.0
 40
189.0
100
AcDbArc
 50
180.0000198478428
 51
270.0000187239684
1001
DBPROPERTIES
1002
{
1000
PbThick
1002
}
  0
ARC
  5
C2
330
1F
100
AcDbEntity
  8
THICK
100
AcDbCircle
 10
0.0
 20
0.4999999999999975
 30
0.0
 40
148.6140541777291
100
AcDbArc
 50
270.0000187239684
 51
89.99998127603165
1001
DBPROPERTIES
1002
{
1000
PbThick
1002
}
  0
ARC
  5
C3
330
1F
100
AcDbEntity
  8
THICK
100
AcDbCircle
 10
0.0
 20
0.5
 30
0.0
 40
153.5
100
AcDbArc
 50
89.99998127603165
 51
270.0000187239684
1001
DBPROPERTIES
1002
{
1000
PbThick
1002
}
  0
ARC
  5
C4
330
1F
100
AcDbEntity
  8
THICK
100
AcDbCircle
 10
0.0
 20
0.5
 30
0.0
 40
186.0
100
AcDbArc
 50
180.0000198478428
 51
0.0
1001
DBPROPERTIES
1002
{
1000
PbThick
1002
}
  0
ARC
  5
C5
330
1F
100
AcDbEntity
  8
HIDDEN
100
AcDbCircle
 10
0.0
 20
0.0
 30
0.0
 40
153.5
100
AcDbArc
 50
179.906685023016
 51
270.0000187239684
1001
DBPROPERTIES
1002
{
1000
PbHidd
1002
}
  0
ARC
  5
C6
330
1F
100
AcDbEntity
  8
THICK
100
AcDbCircle
 10
0.0
 20
0.5
 30
0.0
 40
157.5
100
AcDbArc
 50
89.99998127603165
 51
270.0000187239684
1001
DBPROPERTIES
1002
{
1000
PbThick
1002
}
  0
ARC
  5
C7
330
1F
100
AcDbEntity
  8
HIDDEN
100
AcDbCircle
 10
0.0
 20
0.5
 30
0.0
 40
94.5
100
AcDbArc
 50
89.99998127603165
 51
270.0000187239684
1001
DBPROPERTIES
1002
{
1000
PbHidd
1002
}
  0
ARC
  5
C8
330
1F
100
AcDbEntity
  8
HIDDEN
100
AcDbCircle
 10
80.38903921641955
 20
-305.6941416387011
 30
0.0
 40
468.5
100
AcDbArc
 50
99.00000232194662
 51
119.4217078306765
1001
DBPROPERTIES
1002
{
1000
PbHidd
1002
}
  0
LINE
  5
C9
330
1F
100
AcDbEntity
  8
HIDDEN
100
AcDbLine
 10
6.473754484910495
 20
160.9885992925015
 30
0.0
 11
7.099492345071422
 21
157.0378459301209
 31
0.0
1001
DBPROPERTIES
1002
{
1000
PbHidd
1002
}
  0
ARC
  5
CA
330
1F
100
AcDbEntity
  8
HIDDEN
100
AcDbCircle
 10
80.38903921641955
 20
-305.6941416387011
 30
0.0
 40
472.5000000000001
100
AcDbArc
 50
99.00000232194662
 51
118.3953112364791
1001
DBPROPERTIES
1002
{
1000
PbHidd
1002
}
  0
ARC
  5
CB
330
1F
100
AcDbEntity
  8
HIDDEN
100
AcDbCircle
 10
-224.9773855408762
 20
-222.2160209665932
 30
0.0
 40
468.5
100
AcDbArc
 50
38.99997660740585
 51
59.42168211613573
1001
DBPROPERTIES
1002
{
1000
PbHidd
1002
}
  0
LINE
  5
CC
330
1F
100
AcDbEntity
  8
HIDDEN
100
AcDbLine
 10
142.2240812475429
 20
75.1378638044547
 30
0.0
 11
139.115497401715
 21
72.62058224025533
 31
0.0
1001
DBPROPERTIES
1002
{
1000
PbHidd
1002
}
  0
ARC
  5
CD
330
1F
100
AcDbEntity
  8
HIDDEN
100
AcDbCircle
 10
-224.9773855408762
 20
-222.2160209665932
 30
0.0
 40
472.5
100
AcDbArc
 50
38.99997660740585
 51
58.39528552193838
1001
DBPROPERTIES
1002
{
1000
PbHidd
1002
}
  0
ARC
  5
CE
330
1F
100
AcDbEntity
  8
HIDDEN
100
AcDbCircle
 10
-305.3664247572955
 20
83.97812067210792
 30
0.0
 40
468.5000000000001
100
AcDbArc
 50
339.0000081886445
 51
359.4217136973745
1001
DBPROPERTIES
1002
{
1000
PbHidd
1002
}
  0
LINE
  5
CF
330
1F
100
AcDbEntity
  8
HIDDEN
100
AcDbLine
 10
135.7503267626323
 20
-85.35073548804674
 30
0.0
 11
132.0160050566435
 21
-83.91726368986552
 31
0.0
1001
DBPROPERTIES
1002
{
1000
PbHidd
1002
}
  0
ARC
  5
D0
330
1F
100
AcDbEntity
  8
HIDDEN
100
AcDbCircle
 10
-305.3664247572955
 20
83.97812067210792
 30
0.0
 40
472.5
100
AcDbArc
 50
339.0000081886445
 51
358.3952598073976
1001
DBPROPERTIES
1002
{
1000
PbHidd
1002
}
  0
ARC
  5
D1
330
1F
100
AcDbEntity
  8
HIDDEN
100
AcDbCircle
 10
-80.3890392164195
 20
306.6941416387011
 30
0.0
 40
468.5
100
AcDbArc
 50
278.9999824741038
 51
299.4216879828337
1001
DBPROPERTIES
1002
{
1000
PbHidd
1002
}
  0
LINE
  5
D2
330
1F
100
AcDbEntity
  8
HIDDEN
100
AcDbLine
 10
-6.473754484910513
 20
-159.9885992925015
 30
0.0
 11
-7.099492345071438
 21
-156.0378459301209
 31
0.0
1001
DBPROPERTIES
1002
{
1000
PbHidd
1002
}
  0
ARC
  5
D3
330
1F
100
AcDbEntity
  8
HIDDEN
100
AcDbCircle
 10
-80.3890392164195
 20
306.6941416387011
 30
0.0
 40
472.5000000000001
100
AcDbArc
 50
278.9999824741038
 51
298.3952913886363
1001
DBPROPERTIES
1002
{
1000
PbHidd
1002
}
  0
ARC
  5
D4
330
1F
100
AcDbEntity
  8
HIDDEN
100
AcDbCircle
 10
224.977385540876
 20
223.2160209665933
 30
0.0
 40
468.4999999999999
100
AcDbArc
 50
219.0000140553425
 51
239.4217195640724
1001
DBPROPERTIES
1002
{
1000
PbHidd
1002
}
  0
LINE
  5
D5
330
1F
100
AcDbEntity
  8
HIDDEN
100
AcDbLine
 10
-142.2240812475428
 20
-74.13786380445474
 30
0.0
 11
-139.1154974017149
 21
-71.62058224025537
 31
0.0
1001
DBPROPERTIES
1002
{
1000
PbHidd
1002
}
  0
ARC
  5
D6
330
1F
100
AcDbEntity
  8
HIDDEN
100
AcDbCircle
 10
224.977385540876
 20
223.2160209665933
 30
0.0
 40
472.4999999999999
100
AcDbArc
 50
219.0000140553425
 51
238.3952656740955
1001
DBPROPERTIES
1002
{
1000
PbHidd
1002
}
  0
ARC
  5
D7
330
1F
100
AcDbEntity
  8
HIDDEN
100
AcDbCircle
 10
305.3664247572955
 20
-82.97812067210776
 30
0.0
 40
468.5000000000001
100
AcDbArc
 50
159.0000280364874
 51
179.4216762494378
1001
DBPROPERTIES
1002
{
1000
PbHidd
1002
}
  0
LINE
  5
D8
330
1F
100
AcDbEntity
  8
HIDDEN
100
AcDbLine
 10
-135.7503267626323
 20
86.35073548804664
 30
0.0
 11
-132.0160050566435
 21
84.91726368986544
 31
0.0
1001
DBPROPERTIES
1002
{
1000
PbHidd
1002
}
  0
ARC
  5
D9
330
1F
100
AcDbEntity
  8
HIDDEN
100
AcDbCircle
 10
305.3664247572955
 20
-82.97812067210776
 30
0.0
 40
472.4999999999999
100
AcDbArc
 50
159.0000280364874
 51
178.3952796552404
1001
DBPROPERTIES
1002
{
1000
PbHidd
1002
}
  0
ARC
  5
DA
330
1F
100
AcDbEntity
  8
HIDDEN
100
AcDbCircle
 10
0.0
 20
0.5
 30
0.0
 40
181.125
100
AcDbArc
 50
270.0000187239684
 51
89.99998127603165
1001
DBPROPERTIES
1002
{
1000
PbHidd
1002
}
  0
LINE
  5
DB
330
1F
100
AcDbEntity
  8
HIDDEN
100
AcDbLine
 10
7.099492345071417
 20
157.0378459301209
 30
0.0
 11
7.099492345071417
 21
157.0378459301209
 31
0.0
1001
DBPROPERTIES
1002
{
1000
PbHidd
1002
}
  0
LINE
  5
DC
330
1F
100
AcDbEntity
  8
HIDDEN
100
AcDbLine
 10
22.63906046951356
 20
180.2045869366102
 30
0.0
 11
22.63906046951356
 21
180.2045869366102
 31
0.0
1001
DBPROPERTIES
1002
{
1000
PbHidd
1002
}
  0
LINE
  5
DD
330
1F
100
AcDbEntity
  8
HIDDEN
100
AcDbLine
 10
142.2240812475429
 20
75.13786380445468
 30
0.0
 11
142.2240812475429
 21
75.13786380445468
 31
0.0
1001
DBPROPERTIES
1002
{
1000
PbHidd
1002
}
  0
LINE
  5
DE
330
1F
100
AcDbEntity
  8
HIDDEN
100
AcDbLine
 10
166.9482676984504
 20
70.74629198389435
 30
0.0
 11
166.9482676984504
 21
70.74629198389435
 31
0.0
1001
DBPROPERTIES
1002
{
1000
PbHidd
1002
}
  0
LINE
  5
DF
330
1F
100
AcDbEntity
  8
HIDDEN
100
AcDbLine
 10
135.7503267626323
 20
-85.35073548804674
 30
0.0
 11
135.7503267626323
 21
-85.35073548804674
 31
0.0
1001
DBPROPERTIES
1002
{
1000
PbHidd
1002
}
  0
LINE
  5
E0
330
1F
100
AcDbEntity
  8
HIDDEN
100
AcDbLine
 10
144.3092072289369
 20
-108.9582949527158
 30
0.0
 11
144.3092072289369
 21
-108.9582949527158
 31
0.0
1001
DBPROPERTIES
1002
{
1000
PbHidd
1002
}
  0
LINE
  5
E1
330
1F
100
AcDbEntity
  8
HIDDEN
100
AcDbLine
 10
-6.473754484910512
 20
-159.9885992925015
 30
0.0
 11
-6.473754484910512
 21
-159.9885992925015
 31
0.0
1001
DBPROPERTIES
1002
{
1000
PbHidd
1002
}
  0
LINE
  5
E2
330
1F
100
AcDbEntity
  8
HIDDEN
100
AcDbLine
 10
-142.2240812475428
 20
-74.13786380445477
 30
0.0
 11
-142.2240812475428
 21
-74.13786380445477
 31
0.0
1001
DBPROPERTIES
1002
{
1000
PbHidd
1002
}
  0
LINE
  5
E3
330
1F
100
AcDbEntity
  8
HIDDEN
100
AcDbLine
 10
13.35576715956655
 20
181.1319160851134
 30
0.0
 11
13.35576715956655
 21
181.1319160851134
 31
0.0
1001
DBPROPERTIES
1002
{
1000
PbHidd
1002
}
  0
LINE
  5
E4
330
1F
100
AcDbEntity
  8
HIDDEN
100
AcDbLine
 10
163.1097116437504
 20
79.24952439534219
 30
0.0
 11
163.1097116437504
 21
79.24952439534219
 31
0.0
1001
DBPROPERTIES
1002
{
1000
PbHidd
1002
}
  0
LINE
  5
E5
330
1F
100
AcDbEntity
  8
HIDDEN
100
AcDbLine
 10
149.753944484184
 20
-101.3823916897712
 30
0.0
 11
149.753944484184
 21
-101.3823916897712
 31
0.0
1001
DBPROPERTIES
1002
{
1000
PbHidd
1002
}
  0
LINE
  5
E6
330
1F
100
AcDbEntity
  8
HIDDEN
100
AcDbLine
 10
-135.7503267626323
 20
86.35073548804668
 30
0.0
 11
-135.7503267626323
 21
86.35073548804668
 31
0.0
1001
DBPROPERTIES
1002
{
1000
PbHidd
1002
}
  0
LINE
  5
E7
330
1F
100
AcDbEntity
  8
HIDDEN
100
AcDbLine
 10
139.1154974017149
 20
72.62058224025535
 30
0.0
 11
139.1154974017149
 21
72.62058224025535
 31
0.0
1001
DBPROPERTIES
1002
{
1000
PbHidd
1002
}
  0
LINE
  5
E8
330
1F
100
AcDbEntity
  8
HIDDEN
100
AcDbLine
 10
132.0160050566435
 20
-83.91726368986554
 30
0.0
 11
132.0160050566435
 21
-83.91726368986554
 31
0.0
1001
DBPROPERTIES
1002
{
1000
PbHidd
1002
}
  0
LINE
  5
E9
330
1F
100
AcDbEntity
  8
HIDDEN
100
AcDbLine
 10
-7.099492345071437
 20
-156.0378459301209
 30
0.0
 11
-7.099492345071437
 21
-156.0378459301209
 31
0.0
1001
DBPROPERTIES
1002
{
1000
PbHidd
1002
}
  0
LINE
  5
EA
330
1F
100
AcDbEntity
  8
HIDDEN
100
AcDbLine
 10
-139.1154974017149
 20
-71.62058224025542
 30
0.0
 11
-139.1154974017149
 21
-71.62058224025542
 31
0.0
1001
DBPROPERTIES
1002
{
1000
PbHidd
1002
}
  0
LINE
  5
EB
330
1F
100
AcDbEntity
  8
HIDDEN
100
AcDbLine
 10
-132.0160050566435
 20
84.91726368986546
 30
0.0
 11
-132.0160050566435
 21
84.91726368986546
 31
0.0
1001
DBPROPERTIES
1002
{
1000
PbHidd
1002
}
  0
LINE
  5
EC
330
1F
100
AcDbEntity
  8
HIDDEN
100
AcDbLine
 10
6.473754484910493
 20
160.9885992925015
 30
0.0
 11
6.473754484910493
 21
160.9885992925015
 31
0.0
1001
DBPROPERTIES
1002
{
1000
PbHidd
1002
}
  0
LINE
  5
ED
330
1F
100
AcDbEntity
  8
HIDDEN
100
AcDbLine
 10
162.5
 20
-202.5
 30
0.0
 11
162.5
 21
-202.5
 31
0.0
1001
DBPROPERTIES
1002
{
1000
PbHidd
1002
}
  0
LINE
  5
EE
330
1F
100
AcDbEntity
  8
HIDDEN
100
AcDbLine
 10
162.5
 20
-162.5
 30
0.0
 11
162.5
 21
-162.5
 31
0.0
1001
DBPROPERTIES
1002
{
1000
PbHidd
1002
}
  0
LINE
  5
EF
330
1F
100
AcDbEntity
  8
HIDDEN
100
AcDbLine
 10
162.5
 20
-202.5
 30
0.0
 11
162.5
 21
-162.5
 31
0.0
1001
DBPROPERTIES
1002
{
1000
PbHidd
1002
}
  0
LINE
  5
F0
330
1F
100
AcDbEntity
  8
HIDDEN
100
AcDbLine
 10
202.5
 20
-202.5
 30
0.0
 11
202.5
 21
-202.5
 31
0.0
1001
DBPROPERTIES
1002
{
1000
PbHidd
1002
}
  0
LINE
  5
F1
330
1F
100
AcDbEntity
  8
HIDDEN
100
AcDbLine
 10
202.5
 20
-202.5
 30
0.0
 11
162.5
 21
-202.5
 31
0.0
1001
DBPROPERTIES
1002
{
1000
PbHidd
1002
}
  0
LINE
  5
F2
330
1F
100
AcDbEntity
  8
HIDDEN
100
AcDbLine
 10
202.5
 20
-162.5
 30
0.0
 11
202.5
 21
-162.5
 31
0.0
1001
DBPROPERTIES
1002
{
1000
PbHidd
1002
}
  0
LINE
  5
F3
330
1F
100
AcDbEntity
  8
HIDDEN
100
AcDbLine
 10
202.5
 20
-162.5
 30
0.0
 11
202.5
 21
-202.5
 31
0.0
1001
DBPROPERTIES
1002
{
1000
PbHidd
1002
}
  0
LINE
  5
F4
330
1F
100
AcDbEntity
  8
HIDDEN
100
AcDbLine
 10
162.5
 20
-162.5
 30
0.0
 11
202.5
 21
-162.5
 31
0.0
1001
DBPROPERTIES
1002
{
1000
PbHidd
1002
}
  0
LINE
  5
F5
330
1F
100
AcDbEntity
  8
HIDDEN
100
AcDbLine
 10
102.5
 20
-202.5
 30
0.0
 11
102.5
 21
-202.5
 31
0.0
1001
DBPROPERTIES
1002
{
1000
PbHidd
1002
}
  0
LINE
  5
F6
330
1F
100
AcDbEntity
  8
HIDDEN
100
AcDbLine
 10
102.5
 20
-162.5
 30
0.0
 11
102.5
 21
-162.5
 31
0.0
1001
DBPROPERTIES
1002
{
1000
PbHidd
1002
}
  0
LINE
  5
F7
330
1F
100
AcDbEntity
  8
HIDDEN
100
AcDbLine
 10
102.5
 20
-202.5
 30
0.0
 11
102.5
 21
-162.5
 31
0.0
1001
DBPROPERTIES
1002
{
1000
PbHidd
1002
}
  0
LINE
  5
F8
330
1F
100
AcDbEntity
  8
HIDDEN
100
AcDbLine
 10
142.5
 20
-202.5
 30
0.0
 11
142.5
 21
-202.5
 31
0.0
1001
DBPROPERTIES
1002
{
1000
PbHidd
1002
}
  0
LINE
  5
F9
330
1F
100
AcDbEntity
  8
HIDDEN
100
AcDbLine
 10
142.5
 20
-202.5
 30
0.0
 11
102.5
 21
-202.5
 31
0.0
1001
DBPROPERTIES
1002
{
1000
PbHidd
1002
}
  0
LINE
  5
FA
330
1F
100
AcDbEntity
  8
HIDDEN
100
AcDbLine
 10
142.5
 20
-162.5
 30
0.0
 11
142.5
 21
-162.5
 31
0.0
1001
DBPROPERTIES
1002
{
1000
PbHidd
1002
}
  0
LINE
  5
FB
330
1F
100
AcDbEntity
  8
HIDDEN
100
AcDbLine
 10
142.5
 20
-162.5
 30
0.0
 11
142.5
 21
-202.5
 31
0.0
1001
DBPROPERTIES
1002
{
1000
PbHidd
1002
}
  0
LINE
  5
FC
330
1F
100
AcDbEntity
  8
HIDDEN
100
AcDbLine
 10
102.5
 20
-162.5
 30
0.0
 11
142.5
 21
-162.5
 31
0.0
1001
DBPROPERTIES
1002
{
1000
PbHidd
1002
}
  0
LINE
  5
FD
330
1F
100
AcDbEntity
  8
HIDDEN
100
AcDbLine
 10
42.49999999999999
 20
-202.5
 30
0.0
 11
42.49999999999999
 21
-202.5
 31
0.0
1001
DBPROPERTIES
1002
{
1000
PbHidd
1002
}
  0
LINE
  5
FE
330
1F
100
AcDbEntity
  8
HIDDEN
100
AcDbLine
 10
42.49999999999999
 20
-162.5
 30
0.0
 11
42.49999999999999
 21
-162.5
 31
0.0
1001
DBPROPERTIES
1002
{
1000
PbHidd
1002
}
  0
LINE
  5
FF
330
1F
100
AcDbEntity
  8
HIDDEN
100
AcDbLine
 10
42.49999999999999
 20
-202.5
 30
0.0
 11
42.49999999999999
 21
-162.5
 31
0.0
1001
DBPROPERTIES
1002
{
1000
PbHidd
1002
}
  0
LINE
  5
100
330
1F
100
AcDbEntity
  8
HIDDEN
100
AcDbLine
 10
82.49999999999999
 20
-202.5
 30
0.0
 11
82.49999999999999
 21
-202.5
 31
0.0
1001
DBPROPERTIES
1002
{
1000
PbHidd
1002
}
  0
LINE
  5
101
330
1F
100
AcDbEntity
  8
HIDDEN
100
AcDbLine
 10
82.49999999999999
 20
-202.5
 30
0.0
 11
42.49999999999999
 21
-202.5
 31
0.0
1001
DBPROPERTIES
1002
{
1000
PbHidd
1002
}
  0
LINE
  5
102
330
1F
100
AcDbEntity
  8
HIDDEN
100
AcDbLine
 10
82.49999999999999
 20
-162.5
 30
0.0
 11
82.49999999999999
 21
-162.5
 31
0.0
1001
DBPROPERTIES
1002
{
1000
PbHidd
1002
}
  0
LINE
  5
103
330
1F
100
AcDbEntity
  8
HIDDEN
100
AcDbLine
 10
82.5
 20
-162.5
 30
0.0
 11
82.5
 21
-202.5
 31
0.0
1001
DBPROPERTIES
1002
{
1000
PbHidd
1002
}
  0
LINE
  5
104
330
1F
100
AcDbEntity
  8
HIDDEN
100
AcDbLine
 10
42.49999999999999
 20
-162.5
 30
0.0
 11
82.49999999999999
 21
-162.5
 31
0.0
1001
DBPROPERTIES
1002
{
1000
PbHidd
1002
}
  0
LINE
  5
105
330
1F
100
AcDbEntity
  8
HIDDEN
100
AcDbLine
 10
-17.50000000000001
 20
-202.5
 30
0.0
 11
-17.50000000000001
 21
-202.5
 31
0.0
1001
DBPROPERTIES
1002
{
1000
PbHidd
1002
}
  0
LINE
  5
106
330
1F
100
AcDbEntity
  8
HIDDEN
100
AcDbLine
 10
-17.50000000000001
 20
-162.5
 30
0.0
 11
-17.50000000000001
 21
-162.5
 31
0.0
1001
DBPROPERTIES
1002
{
1000
PbHidd
1002
}
  0
LINE
  5
107
330
1F
100
AcDbEntity
  8
HIDDEN
100
AcDbLine
 10
-17.50000000000001
 20
-202.5
 30
0.0
 11
-17.50000000000001
 21
-162.5
 31
0.0
1001
DBPROPERTIES
1002
{
1000
PbHidd
1002
}
  0
LINE
  5
108
330
1F
100
AcDbEntity
  8
HIDDEN
100
AcDbLine
 10
22.49999999999999
 20
-202.5
 30
0.0
 11
22.49999999999999
 21
-202.5
 31
0.0
1001
DBPROPERTIES
1002
{
1000
PbHidd
1002
}
  0
LINE
  5
109
330
1F
100
AcDbEntity
  8
HIDDEN
100
AcDbLine
 10
22.49999999999999
 20
-202.5
 30
0.0
 11
-17.50000000000001
 21
-202.5
 31
0.0
1001
DBPROPERTIES
1002
{
1000
PbHidd
1002
}
  0
LINE
  5
10A
330
1F
100
AcDbEntity
  8
HIDDEN
100
AcDbLine
 10
22.49999999999999
 20
-162.5
 30
0.0
 11
22.49999999999999
 21
-162.5
 31
0.0
1001
DBPROPERTIES
1002
{
1000
PbHidd
1002
}
  0
LINE
  5
10B
330
1F
100
AcDbEntity
  8
HIDDEN
100
AcDbLine
 10
22.49999999999999
 20
-162.5
 30
0.0
 11
22.49999999999999
 21
-202.5
 31
0.0
1001
DBPROPERTIES
1002
{
1000
PbHidd
1002
}
  0
LINE
  5
10C
330
1F
100
AcDbEntity
  8
HIDDEN
100
AcDbLine
 10
-17.50000000000001
 20
-162.5
 30
0.0
 11
22.49999999999999
 21
-162.5
 31
0.0
1001
DBPROPERTIES
1002
{
1000
PbHidd
1002
}
  0
LINE
  5
10D
330
1F
100
AcDbEntity
  8
HIDDEN
100
AcDbLine
 10
-77.50000000000001
 20
-202.5
 30
0.0
 11
-77.50000000000001
 21
-202.5
 31
0.0
1001
DBPROPERTIES
1002
{
1000
PbHidd
1002
}
  0
LINE
  5
10E
330
1F
100
AcDbEntity
  8
HIDDEN
100
AcDbLine
 10
-77.50000000000001
 20
-162.5
 30
0.0
 11
-77.50000000000001
 21
-162.5
 31
0.0
1001
DBPROPERTIES
1002
{
1000
PbHidd
1002
}
  0
LINE
  5
10F
330
1F
100
AcDbEntity
  8
HIDDEN
100
AcDbLine
 10
-77.5
 20
-202.5
 30
0.0
 11
-77.5
 21
-162.5
 31
0.0
1001
DBPROPERTIES
1002
{
1000
PbHidd
1002
}
  0
LINE
  5
110
330
1F
100
AcDbEntity
  8
HIDDEN
100
AcDbLine
 10
-37.50000000000001
 20
-202.5
 30
0.0
 11
-37.50000000000001
 21
-202.5
 31
0.0
1001
DBPROPERTIES
1002
{
1000
PbHidd
1002
}
  0
LINE
  5
111
330
1F
100
AcDbEntity
  8
HIDDEN
100
AcDbLine
 10
-37.50000000000001
 20
-202.5
 30
0.0
 11
-77.50000000000001
 21
-202.5
 31
0.0
1001
DBPROPERTIES
1002
{
1000
PbHidd
1002
}
  0
LINE
  5
112
330
1F
100
AcDbEntity
  8
HIDDEN
100
AcDbLine
 10
-37.50000000000001
 20
-162.5
 30
0.0
 11
-37.50000000000001
 21
-162.5
 31
0.0
1001
DBPROPERTIES
1002
{
1000
PbHidd
1002
}
  0
LINE
  5
113
330
1F
100
AcDbEntity
  8
HIDDEN
100
AcDbLine
 10
-37.50000000000001
 20
-162.5
 30
0.0
 11
-37.50000000000001
 21
-202.5
 31
0.0
1001
DBPROPERTIES
1002
{
1000
PbHidd
1002
}
  0
LINE
  5
114
330
1F
100
AcDbEntity
  8
HIDDEN
100
AcDbLine
 10
-77.50000000000001
 20
-162.5
 30
0.0
 11
-37.50000000000001
 21
-162.5
 31
0.0
1001
DBPROPERTIES
1002
{
1000
PbHidd
1002
}
  0
LINE
  5
115
330
1F
100
AcDbEntity
  8
HIDDEN
100
AcDbLine
 10
-137.5
 20
-202.5
 30
0.0
 11
-137.5
 21
-202.5
 31
0.0
1001
DBPROPERTIES
1002
{
1000
PbHidd
1002
}
  0
LINE
  5
116
330
1F
100
AcDbEntity
  8
HIDDEN
100
AcDbLine
 10
-137.5
 20
-162.5
 30
0.0
 11
-137.5
 21
-162.5
 31
0.0
1001
DBPROPERTIES
1002
{
1000
PbHidd
1002
}
  0
LINE
  5
117
330
1F
100
AcDbEntity
  8
HIDDEN
100
AcDbLine
 10
-137.5
 20
-202.5
 30
0.0
 11
-137.5
 21
-162.5
 31
0.0
1001
DBPROPERTIES
1002
{
1000
PbHidd
1002
}
  0
LINE
  5
118
330
1F
100
AcDbEntity
  8
HIDDEN
100
AcDbLine
 10
-97.50000000000001
 20
-202.5
 30
0.0
 11
-97.50000000000001
 21
-202.5
 31
0.0
1001
DBPROPERTIES
1002
{
1000
PbHidd
1002
}
  0
LINE
  5
119
330
1F
100
AcDbEntity
  8
HIDDEN
100
AcDbLine
 10
-97.50000000000001
 20
-202.5
 30
0.0
 11
-137.5
 21
-202.5
 31
0.0
1001
DBPROPERTIES
1002
{
1000
PbHidd
1002
}
  0
LINE
  5
11A
330
1F
100
AcDbEntity
  8
HIDDEN
100
AcDbLine
 10
-97.50000000000001
 20
-162.5
 30
0.0
 11
-97.50000000000001
 21
-162.5
 31
0.0
1001
DBPROPERTIES
1002
{
1000
PbHidd
1002
}
  0
LINE
  5
11B
330
1F
100
AcDbEntity
  8
HIDDEN
100
AcDbLine
 10
-97.5
 20
-162.5
 30
0.0
 11
-97.5
 21
-202.5
 31
0.0
1001
DBPROPERTIES
1002
{
1000
PbHidd
1002
}
  0
LINE
  5
11C
330
1F
100
AcDbEntity
  8
HIDDEN
100
AcDbLine
 10
-137.5
 20
-162.5
 30
0.0
 11
-97.5
 21
-162.5
 31
0.0
1001
DBPROPERTIES
1002
{
1000
PbHidd
1002
}
  0
LINE
  5
11D
330
1F
100
AcDbEntity
  8
HIDDEN
100
AcDbLine
 10
-197.5
 20
-202.5
 30
0.0
 11
-197.5
 21
-202.5
 31
0.0
1001
DBPROPERTIES
1002
{
1000
PbHidd
1002
}
  0
LINE
  5
11E
330
1F
100
AcDbEntity
  8
HIDDEN
100
AcDbLine
 10
-197.5
 20
-162.5
 30
0.0
 11
-197.5
 21
-162.5
 31
0.0
1001
DBPROPERTIES
1002
{
1000
PbHidd
1002
}
  0
LINE
  5
11F
330
1F
100
AcDbEntity
  8
HIDDEN
100
AcDbLine
 10
-197.5
 20
-202.5
 30
0.0
 11
-197.5
 21
-162.5
 31
0.0
1001
DBPROPERTIES
1002
{
1000
PbHidd
1002
}
  0
LINE
  5
120
330
1F
100
AcDbEntity
  8
HIDDEN
100
AcDbLine
 10
-157.5
 20
-202.5
 30
0.0
 11
-157.5
 21
-202.5
 31
0.0
1001
DBPROPERTIES
1002
{
1000
PbHidd
1002
}
  0
LINE
  5
121
330
1F
100
AcDbEntity
  8
HIDDEN
100
AcDbLine
 10
-157.5
 20
-202.5
 30
0.0
 11
-197.5
 21
-202.5
 31
0.0
1001
DBPROPERTIES
1002
{
1000
PbHidd
1002
}
  0
LINE
  5
122
330
1F
100
AcDbEntity
  8
HIDDEN
100
AcDbLine
 10
-157.5
 20
-162.5
 30
0.0
 11
-157.5
 21
-162.5
 31
0.0
1001
DBPROPERTIES
1002
{
1000
PbHidd
1002
}
  0
LINE
  5
123
330
1F
100
AcDbEntity
  8
HIDDEN
100
AcDbLine
 10
-157.5
 20
-162.5
 30
0.0
 11
-157.5
 21
-202.5
 31
0.0
1001
DBPROPERTIES
1002
{
1000
PbHidd
1002
}
  0
LINE
  5
124
330
1F
100
AcDbEntity
  8
HIDDEN
100
AcDbLine
 10
-197.5
 20
-162.5
 30
0.0
 11
-157.5
 21
-162.5
 31
0.0
1001
DBPROPERTIES
1002
{
1000
PbHidd
1002
}
  0
LINE
  5
125
330
1F
100
AcDbEntity
  8
HIDDEN
100
AcDbLine
 10
162.5
 20
-142.5
 30
0.0
 11
162.5
 21
-142.5
 31
0.0
1001
DBPROPERTIES
1002
{
1000
PbHidd
1002
}
  0
LINE
  5
126
330
1F
100
AcDbEntity
  8
HIDDEN
100
AcDbLine
 10
162.5
 20
-102.5
 30
0.0
 11
162.5
 21
-102.5
 31
0.0
1001
DBPROPERTIES
1002
{
1000
PbHidd
1002
}
  0
LINE
  5
127
330
1F
100
AcDbEntity
  8
HIDDEN
100
AcDbLine
 10
162.5
 20
-142.5
 30
0.0
 11
162.5
 21
-102.5
 31
0.0
1001
DBPROPERTIES
1002
{
1000
PbHidd
1002
}
  0
LINE
  5
128
330
1F
100
AcDbEntity
  8
HIDDEN
100
AcDbLine
 10
202.5
 20
-142.5
 30
0.0
 11
202.5
 21
-142.5
 31
0.0
1001
DBPROPERTIES
1002
{
1000
PbHidd
1002
}
  0
LINE
  5
129
330
1F
100
AcDbEntity
  8
HIDDEN
100
AcDbLine
 10
202.5
 20
-142.5
 30
0.0
 11
162.5
 21
-142.5
 31
0.0
1001
DBPROPERTIES
1002
{
1000
PbHidd
1002
}
  0
LINE
  5
12A
330
1F
100
AcDbEntity
  8
HIDDEN
100
AcDbLine
 10
202.5
 20
-102.5
 30
0.0
 11
202.5
 21
-102.5
 31
0.0
1001
DBPROPERTIES
1002
{
1000
PbHidd
1002
}
  0
LINE
  5
12B
330
1F
100
AcDbEntity
  8
HIDDEN
100
AcDbLine
 10
202.5
 20
-102.5
 30
0.0
 11
202.5
 21
-142.5
 31
0.0
1001
DBPROPERTIES
1002
{
1000
PbHidd
1002
}
  0
LINE
  5
12C
330
1F
100
AcDbEntity
  8
HIDDEN
100
AcDbLine
 10
162.5
 20
-102.5
 30
0.0
 11
202.5
 21
-102.5
 31
0.0
1001
DBPROPERTIES
1002
{
1000
PbHidd
1002
}
  0
LINE
  5
12D
330
1F
100
AcDbEntity
  8
HIDDEN
100
AcDbLine
 10
102.5
 20
-142.5
 30
0.0
 11
102.5
 21
-142.5
 31
0.0
1001
DBPROPERTIES
1002
{
1000
PbHidd
1002
}
  0
LINE
  5
12E
330
1F
100
AcDbEntity
  8
HIDDEN
100
AcDbLine
 10
102.5
 20
-102.5
 30
0.0
 11
102.5
 21
-102.5
 31
0.0
1001
DBPROPERTIES
1002
{
1000
PbHidd
1002
}
  0
LINE
  5
12F
330
1F
100
AcDbEntity
  8
HIDDEN
100
AcDbLine
 10
102.5
 20
-142.5
 30
0.0
 11
102.5
 21
-102.5
 31
0.0
1001
DBPROPERTIES
1002
{
1000
PbHidd
1002
}
  0
LINE
  5
130
330
1F
100
AcDbEntity
  8
HIDDEN
100
AcDbLine
 10
142.5
 20
-142.5
 30
0.0
 11
142.5
 21
-142.5
 31
0.0
1001
DBPROPERTIES
1002
{
1000
PbHidd
1002
}
  0
LINE
  5
131
330
1F
100
AcDbEntity
  8
HIDDEN
100
AcDbLine
 10
142.5
 20
-142.5
 30
0.0
 11
102.5
 21
-142.5
 31
0.0
1001
DBPROPERTIES
1002
{
1000
PbHidd
1002
}
  0
LINE
  5
132
330
1F
100
AcDbEntity
  8
HIDDEN
100
AcDbLine
 10
142.5
 20
-102.5
 30
0.0
 11
142.5
 21
-102.5
 31
0.0
1001
DBPROPERTIES
1002
{
1000
PbHidd
1002
}
  0
LINE
  5
133
330
1F
100
AcDbEntity
  8
HIDDEN
100
AcDbLine
 10
142.5
 20
-102.5
 30
0.0
 11
142.5
 21
-142.5
 31
0.0
1001
DBPROPERTIES
1002
{
1000
PbHidd
1002
}
  0
LINE
  5
134
330
1F
100
AcDbEntity
  8
HIDDEN
100
AcDbLine
 10
102.5
 20
-102.5
 30
0.0
 11
142.5
 21
-102.5
 31
0.0
1001
DBPROPERTIES
1002
{
1000
PbHidd
1002
}
  0
LINE
  5
135
330
1F
100
AcDbEntity
  8
HIDDEN
100
AcDbLine
 10
42.49999999999999
 20
-142.5
 30
0.0
 11
42.49999999999999
 21
-142.5
 31
0.0
1001
DBPROPERTIES
1002
{
1000
PbHidd
1002
}
  0
LINE
  5
136
330
1F
100
AcDbEntity
  8
HIDDEN
100
AcDbLine
 10
42.49999999999999
 20
-102.5
 30
0.0
 11
42.49999999999999
 21
-102.5
 31
0.0
1001
DBPROPERTIES
1002
{
1000
PbHidd
1002
}
  0
LINE
  5
137
330
1F
100
AcDbEntity
  8
HIDDEN
100
AcDbLine
 10
42.49999999999999
 20
-142.5
 30
0.0
 11
42.49999999999999
 21
-102.5
 31
0.0
1001
DBPROPERTIES
1002
{
1000
PbHidd
1002
}
  0
LINE
  5
138
330
1F
100
AcDbEntity
  8
HIDDEN
100
AcDbLine
 10
82.49999999999999
 20
-142.5
 30
0.0
 11
82.49999999999999
 21
-142.5
 31
0.0
1001
DBPROPERTIES
1002
{
1000
PbHidd
1002
}
  0
LINE
  5
139
330
1F
100
AcDbEntity
  8
HIDDEN
100
AcDbLine
 10
82.5
 20
-142.5
 30
0.0
 11
42.49999999999999
 21
-142.5
 31
0.0
1001
DBPROPERTIES
1002
{
1000
PbHidd
1002
}
  0
LINE
  5
13A
330
1F
100
AcDbEntity
  8
HIDDEN
100
AcDbLine
 10
82.5
 20
-102.5
 30
0.0
 11
82.5
 21
-102.5
 31
0.0
1001
DBPROPERTIES
1002
{
1000
PbHidd
1002
}
  0
LINE
  5
13B
330
1F
100
AcDbEntity
  8
HIDDEN
100
AcDbLine
 10
82.5
 20
-102.5
 30
0.0
 11
82.5
 21
-142.5
 31
0.0
1001
DBPROPERTIES
1002
{
1000
PbHidd
1002
}
  0
LINE
  5
13C
330
1F
100
AcDbEntity
  8
HIDDEN
100
AcDbLine
 10
42.49999999999999
 20
-102.5
 30
0.0
 11
82.5
 21
-102.5
 31
0.0
1001
DBPROPERTIES
1002
{
1000
PbHidd
1002
}
  0
LINE
  5
13D
330
1F
100
AcDbEntity
  8
HIDDEN
100
AcDbLine
 10
-17.50000000000001
 20
-142.5
 30
0.0
 11
-17.50000000000001
 21
-142.5
 31
0.0
1001
DBPROPERTIES
1002
{
1000
PbHidd
1002
}
  0
LINE
  5
13E
330
1F
100
AcDbEntity
  8
HIDDEN
100
AcDbLine
 10
-17.50000000000001
 20
-102.5
 30
0.0
 11
-17.50000000000001
 21
-102.5
 31
0.0
1001
DBPROPERTIES
1002
{
1000
PbHidd
1002
}
  0
LINE
  5
13F
330
1F
100
AcDbEntity
  8
HIDDEN
100
AcDbLine
 10
-17.50000000000001
 20
-142.5
 30
0.0
 11
-17.50000000000001
 21
-102.5
 31
0.0
1001
DBPROPERTIES
1002
{
1000
PbHidd
1002
}
  0
LINE
  5
140
330
1F
100
AcDbEntity
  8
HIDDEN
100
AcDbLine
 10
22.49999999999999
 20
-142.5
 30
0.0
 11
22.49999999999999
 21
-142.5
 31
0.0
1001
DBPROPERTIES
1002
{
1000
PbHidd
1002
}
  0
LINE
  5
141
330
1F
100
AcDbEntity
  8
HIDDEN
100
AcDbLine
 10
22.49999999999999
 20
-142.5
 30
0.0
 11
-17.50000000000001
 21
-142.5
 31
0.0
1001
DBPROPERTIES
1002
{
1000
PbHidd
1002
}
  0
LINE
  5
142
330
1F
100
AcDbEntity
  8
HIDDEN
100
AcDbLine
 10
22.49999999999999
 20
-102.5
 30
0.0
 11
22.49999999999999
 21
-102.5
 31
0.0
1001
DBPROPERTIES
1002
{
1000
PbHidd
1002
}
  0
LINE
  5
143
330
1F
100
AcDbEntity
  8
HIDDEN
100
AcDbLine
 10
22.49999999999999
 20
-102.5
 30
0.0
 11
22.49999999999999
 21
-142.5
 31
0.0
1001
DBPROPERTIES
1002
{
1000
PbHidd
1002
}
  0
LINE
  5
144
330
1F
100
AcDbEntity
  8
HIDDEN
100
AcDbLine
 10
-17.5
 20
-102.5
 30
0.0
 11
22.5
 21
-102.5
 31
0.0
1001
DBPROPERTIES
1002
{
1000
PbHidd
1002
}
  0
LINE
  5
145
330
1F
100
AcDbEntity
  8
HIDDEN
100
AcDbLine
 10
-77.50000000000001
 20
-142.5
 30
0.0
 11
-77.50000000000001
 21
-142.5
 31
0.0
1001
DBPROPERTIES
1002
{
1000
PbHidd
1002
}
  0
LINE
  5
146
330
1F
100
AcDbEntity
  8
HIDDEN
100
AcDbLine
 10
-77.5
 20
-102.5
 30
0.0
 11
-77.5
 21
-102.5
 31
0.0
1001
DBPROPERTIES
1002
{
1000
PbHidd
1002
}
  0
LINE
  5
147
330
1F
100
AcDbEntity
  8
HIDDEN
100
AcDbLine
 10
-77.5
 20
-142.5
 30
0.0
 11
-77.5
 21
-102.5
 31
0.0
1001
DBPROPERTIES
1002
{
1000
PbHidd
1002
}
  0
LINE
  5
148
330
1F
100
AcDbEntity
  8
HIDDEN
100
AcDbLine
 10
-37.50000000000001
 20
-142.5
 30
0.0
 11
-37.50000000000001
 21
-142.5
 31
0.0
1001
DBPROPERTIES
1002
{
1000
PbHidd
1002
}
  0
LINE
  5
149
330
1F
100
AcDbEntity
  8
HIDDEN
100
AcDbLine
 10
-37.50000000000001
 20
-142.5
 30
0.0
 11
-77.5
 21
-142.5
 31
0.0
1001
DBPROPERTIES
1002
{
1000
PbHidd
1002
}
  0
LINE
  5
14A
330
1F
100
AcDbEntity
  8
HIDDEN
100
AcDbLine
 10
-37.50000000000001
 20
-102.5
 30
0.0
 11
-37.50000000000001
 21
-102.5
 31
0.0
1001
DBPROPERTIES
1002
{
1000
PbHidd
1002
}
  0
LINE
  5
14B
330
1F
100
AcDbEntity
  8
HIDDEN
100
AcDbLine
 10
-37.50000000000001
 20
-102.5
 30
0.0
 11
-37.50000000000001
 21
-142.5
 31
0.0
1001
DBPROPERTIES
1002
{
1000
PbHidd
1002
}
  0
LINE
  5
14C
330
1F
100
AcDbEntity
  8
HIDDEN
100
AcDbLine
 10
-77.5
 20
-102.5
 30
0.0
 11
-37.50000000000001
 21
-102.5
 31
0.0
1001
DBPROPERTIES
1002
{
1000
PbHidd
1002
}
  0
LINE
  5
14D
330
1F
100
AcDbEntity
  8
HIDDEN
100
AcDbLine
 10
-137.5
 20
-142.5
 30
0.0
 11
-137.5
 21
-142.5
 31
0.0
1001
DBPROPERTIES
1002
{
1000
PbHidd
1002
}
  0
LINE
  5
14E
330
1F
100
AcDbEntity
  8
HIDDEN
100
AcDbLine
 10
-137.5
 20
-102.5
 30
0.0
 11
-137.5
 21
-102.5
 31
0.0
1001
DBPROPERTIES
1002
{
1000
PbHidd
1002
}
  0
LINE
  5
14F
330
1F
100
AcDbEntity
  8
HIDDEN
100
AcDbLine
 10
-137.5
 20
-142.5
 30
0.0
 11
-137.5
 21
-102.5
 31
0.0
1001
DBPROPERTIES
1002
{
1000
PbHidd
1002
}
  0
LINE
  5
150
330
1F
100
AcDbEntity
  8
HIDDEN
100
AcDbLine
 10
-97.50000000000001
 20
-142.5
 30
0.0
 11
-97.50000000000001
 21
-142.5
 31
0.0
1001
DBPROPERTIES
1002
{
1000
PbHidd
1002
}
  0
LINE
  5
151
330
1F
100
AcDbEntity
  8
HIDDEN
100
AcDbLine
 10
-97.5
 20
-142.5
 30
0.0
 11
-137.5
 21
-142.5
 31
0.0
1001
DBPROPERTIES
1002
{
1000
PbHidd
1002
}
  0
LINE
  5
152
330
1F
100
AcDbEntity
  8
HIDDEN
100
AcDbLine
 10
-97.5
 20
-102.5
 30
0.0
 11
-97.5
 21
-102.5
 31
0.0
1001
DBPROPERTIES
1002
{
1000
PbHidd
1002
}
  0
LINE
  5
153
330
1F
100
AcDbEntity
  8
HIDDEN
100
AcDbLine
 10
-97.5
 20
-102.5
 30
0.0
 11
-97.5
 21
-142.5
 31
0.0
1001
DBPROPERTIES
1002
{
1000
PbHidd
1002
}
  0
LINE
  5
154
330
1F
100
AcDbEntity
  8
HIDDEN
100
AcDbLine
 10
-137.5
 20
-102.5
 30
0.0
 11
-97.5
 21
-102.5
 31
0.0
1001
DBPROPERTIES
1002
{
1000
PbHidd
1002
}
  0
LINE
  5
155
330
1F
100
AcDbEntity
  8
HIDDEN
100
AcDbLine
 10
-197.5
 20
-142.5
 30
0.0
 11
-197.5
 21
-142.5
 31
0.0
1001
DBPROPERTIES
1002
{
1000
PbHidd
1002
}
  0
LINE
  5
156
330
1F
100
AcDbEntity
  8
HIDDEN
100
AcDbLine
 10
-197.5
 20
-102.5
 30
0.0
 11
-197.5
 21
-102.5
 31
0.0
1001
DBPROPERTIES
1002
{
1000
PbHidd
1002
}
  0
LINE
  5
157
330
1F
100
AcDbEntity
  8
HIDDEN
100
AcDbLine
 10
-197.5
 20
-142.5
 30
0.0
 11
-197.5
 21
-102.5
 31
0.0
1001
DBPROPERTIES
1002
{
1000
PbHidd
1002
}
  0
LINE
  5
158
330
1F
100
AcDbEntity
  8
HIDDEN
100
AcDbLine
 10
-157.5
 20
-142.5
 30
0.0
 11
-157.5
 21
-142.5
 31
0.0
1001
DBPROPERTIES
1002
{
1000
PbHidd
1002
}
  0
LINE
  5
159
330
1F
100
AcDbEntity
  8
HIDDEN
100
AcDbLine
 10
-157.5
 20
-142.5
 30
0.0
 11
-197.5
 21
-142.5
 31
0.0
1001
DBPROPERTIES
1002
{
1000
PbHidd
1002
}
  0
LINE
  5
15A
330
1F
100
AcDbEntity
  8
HIDDEN
100
AcDbLine
 10
-157.5
 20
-102.5
 30
0.0
 11
-157.5
 21
-102.5
 31
0.0
1001
DBPROPERTIES
1002
{
1000
PbHidd
1002
}
  0
LINE
  5
15B
330
1F
100
AcDbEntity
  8
HIDDEN
100
AcDbLine
 10
-157.5
 20
-102.5
 30
0.0
 11
-157.5
 21
-142.5
 31
0.0
1001
DBPROPERTIES
1002
{
1000
PbHidd
1002
}
  0
LINE
  5
15C
330
1F
100
AcDbEntity
  8
HIDDEN
100
AcDbLine
 10
-197.5
 20
-102.5
 30
0.0
 11
-157.5
 21
-102.5
 31
0.0
1001
DBPROPERTIES
1002
{
1000
PbHidd
1002
}
  0
LINE
  5
15D
330
1F
100
AcDbEntity
  8
HIDDEN
100
AcDbLine
 10
162.5
 20
-82.50000000000001
 30
0.0
 11
162.5
 21
-82.50000000000001
 31
0.0
1001
DBPROPERTIES
1002
{
1000
PbHidd
1002
}
  0
LINE
  5
15E
330
1F
100
AcDbEntity
  8
HIDDEN
100
AcDbLine
 10
162.5
 20
-42.50000000000001
 30
0.0
 11
162.5
 21
-42.50000000000001
 31
0.0
1001
DBPROPERTIES
1002
{
1000
PbHidd
1002
}
  0
LINE
  5
15F
330
1F
100
AcDbEntity
  8
HIDDEN
100
AcDbLine
 10
162.5
 20
-82.50000000000001
 30
0.0
 11
162.5
 21
-42.50000000000001
 31
0.0
1001
DBPROPERTIES
1002
{
1000
PbHidd
1002
}
  0
LINE
  5
160
330
1F
100
AcDbEntity
  8
HIDDEN
100
AcDbLine
 10
202.5
 20
-82.50000000000001
 30
0.0
 11
202.5
 21
-82.50000000000001
 31
0.0
1001
DBPROPERTIES
1002
{
1000
PbHidd
1002
}
  0
LINE
  5
161
330
1F
100
AcDbEntity
  8
HIDDEN
100
AcDbLine
 10
202.5
 20
-82.5
 30
0.0
 11
162.5
 21
-82.5
 31
0.0
1001
DBPROPERTIES
1002
{
1000
PbHidd
1002
}
  0
LINE
  5
162
330
1F
100
AcDbEntity
  8
HIDDEN
100
AcDbLine
 10
202.5
 20
-42.50000000000001
 30
0.0
 11
202.5
 21
-42.50000000000001
 31
0.0
1001
DBPROPERTIES
1002
{
1000
PbHidd
1002
}
  0
LINE
  5
163
330
1F
100
AcDbEntity
  8
HIDDEN
100
AcDbLine
 10
202.5
 20
-42.50000000000001
 30
0.0
 11
202.5
 21
-82.50000000000001
 31
0.0
1001
DBPROPERTIES
1002
{
1000
PbHidd
1002
}
  0
LINE
  5
164
330
1F
100
AcDbEntity
  8
HIDDEN
100
AcDbLine
 10
162.5
 20
-42.50000000000001
 30
0.0
 11
202.5
 21
-42.50000000000001
 31
0.0
1001
DBPROPERTIES
1002
{
1000
PbHidd
1002
}
  0
LINE
  5
165
330
1F
100
AcDbEntity
  8
HIDDEN
100
AcDbLine
 10
102.5
 20
-82.5
 30
0.0
 11
102.5
 21
-82.5
 31
0.0
1001
DBPROPERTIES
1002
{
1000
PbHidd
1002
}
  0
LINE
  5
166
330
1F
100
AcDbEntity
  8
HIDDEN
100
AcDbLine
 10
102.5
 20
-42.50000000000001
 30
0.0
 11
102.5
 21
-42.50000000000001
 31
0.0
1001
DBPROPERTIES
1002
{
1000
PbHidd
1002
}
  0
LINE
  5
167
330
1F
100
AcDbEntity
  8
HIDDEN
100
AcDbLine
 10
102.5
 20
-82.5
 30
0.0
 11
102.5
 21
-42.50000000000001
 31
0.0
1001
DBPROPERTIES
1002
{
1000
PbHidd
1002
}
  0
LINE
  5
168
330
1F
100
AcDbEntity
  8
HIDDEN
100
AcDbLine
 10
142.5
 20
-82.50000000000001
 30
0.0
 11
142.5
 21
-82.50000000000001
 31
0.0
1001
DBPROPERTIES
1002
{
1000
PbHidd
1002
}
  0
LINE
  5
169
330
1F
100
AcDbEntity
  8
HIDDEN
100
AcDbLine
 10
142.5
 20
-82.5
 30
0.0
 11
102.5
 21
-82.5
 31
0.0
1001
DBPROPERTIES
1002
{
1000
PbHidd
1002
}
  0
LINE
  5
16A
330
1F
100
AcDbEntity
  8
HIDDEN
100
AcDbLine
 10
142.5
 20
-42.50000000000001
 30
0.0
 11
142.5
 21
-42.50000000000001
 31
0.0
1001
DBPROPERTIES
1002
{
1000
PbHidd
1002
}
  0
LINE
  5
16B
330
1F
100
AcDbEntity
  8
HIDDEN
100
AcDbLine
 10
142.5
 20
-42.50000000000001
 30
0.0
 11
142.5
 21
-82.5
 31
0.0
1001
DBPROPERTIES
1002
{
1000
PbHidd
1002
}
  0
LINE
  5
16C
330
1F
100
AcDbEntity
  8
HIDDEN
100
AcDbLine
 10
102.5
 20
-42.50000000000001
 30
0.0
 11
142.5
 21
-42.50000000000001
 31
0.0
1001
DBPROPERTIES
1002
{
1000
PbHidd
1002
}
  0
LINE
  5
16D
330
1F
100
AcDbEntity
  8
HIDDEN
100
AcDbLine
 10
42.49999999999999
 20
-82.5
 30
0.0
 11
42.49999999999999
 21
-82.5
 31
0.0
1001
DBPROPERTIES
1002
{
1000
PbHidd
1002
}
  0
LINE
  5
16E
330
1F
100
AcDbEntity
  8
HIDDEN
100
AcDbLine
 10
42.5
 20
-42.5
 30
0.0
 11
42.5
 21
-42.5
 31
0.0
1001
DBPROPERTIES
1002
{
1000
PbHidd
1002
}
  0
LINE
  5
16F
330
1F
100
AcDbEntity
  8
HIDDEN
100
AcDbLine
 10
42.5
 20
-82.5
 30
0.0
 11
42.5
 21
-42.5
 31
0.0
1001
DBPROPERTIES
1002
{
1000
PbHidd
1002
}
  0
LINE
  5
170
330
1F
100
AcDbEntity
  8
HIDDEN
100
AcDbLine
 10
82.5
 20
-82.5
 30
0.0
 11
82.5
 21
-82.5
 31
0.0
1001
DBPROPERTIES
1002
{
1000
PbHidd
1002
}
  0
LINE
  5
171
330
1F
100
AcDbEntity
  8
HIDDEN
100
AcDbLine
 10
82.5
 20
-82.5
 30
0.0
 11
42.5
 21
-82.5
 31
0.0
1001
DBPROPERTIES
1002
{
1000
PbHidd
1002
}
  0
LINE
  5
172
330
1F
100
AcDbEntity
  8
HIDDEN
100
AcDbLine
 10
82.5
 20
-42.50000000000001
 30
0.0
 11
82.5
 21
-42.50000000000001
 31
0.0
1001
DBPROPERTIES
1002
{
1000
PbHidd
1002
}
  0
LINE
  5
173
330
1F
100
AcDbEntity
  8
HIDDEN
100
AcDbLine
 10
82.5
 20
-42.5
 30
0.0
 11
82.5
 21
-82.5
 31
0.0
1001
DBPROPERTIES
1002
{
1000
PbHidd
1002
}
  0
LINE
  5
174
330
1F
100
AcDbEntity
  8
HIDDEN
100
AcDbLine
 10
42.5
 20
-42.5
 30
0.0
 11
82.5
 21
-42.5
 31
0.0
1001
DBPROPERTIES
1002
{
1000
PbHidd
1002
}
  0
LINE
  5
175
330
1F
100
AcDbEntity
  8
HIDDEN
100
AcDbLine
 10
-17.5
 20
-82.5
 30
0.0
 11
-17.5
 21
-82.5
 31
0.0
1001
DBPROPERTIES
1002
{
1000
PbHidd
1002
}
  0
LINE
  5
176
330
1F
100
AcDbEntity
  8
HIDDEN
100
AcDbLine
 10
-17.5
 20
-42.5
 30
0.0
 11
-17.5
 21
-42.5
 31
0.0
1001
DBPROPERTIES
1002
{
1000
PbHidd
1002
}
  0
LINE
  5
177
330
1F
100
AcDbEntity
  8
HIDDEN
100
AcDbLine
 10
-17.50000000000001
 20
-82.5
 30
0.0
 11
-17.5
 21
-42.5
 31
0.0
1001
DBPROPERTIES
1002
{
1000
PbHidd
1002
}
  0
LINE
  5
178
330
1F
100
AcDbEntity
  8
HIDDEN
100
AcDbLine
 10
22.5
 20
-82.5
 30
0.0
 11
22.5
 21
-82.5
 31
0.0
1001
DBPROPERTIES
1002
{
1000
PbHidd
1002
}
  0
LINE
  5
179
330
1F
100
AcDbEntity
  8
HIDDEN
100
AcDbLine
 10
22.5
 20
-82.5
 30
0.0
 11
-17.5
 21
-82.5
 31
0.0
1001
DBPROPERTIES
1002
{
1000
PbHidd
1002
}
  0
LINE
  5
17A
330
1F
100
AcDbEntity
  8
HIDDEN
100
AcDbLine
 10
22.5
 20
-42.5
 30
0.0
 11
22.5
 21
-42.5
 31
0.0
1001
DBPROPERTIES
1002
{
1000
PbHidd
1002
}
  0
LINE
  5
17B
330
1F
100
AcDbEntity
  8
HIDDEN
100
AcDbLine
 10
22.5
 20
-42.5
 30
0.0
 11
22.49999999999999
 21
-82.5
 31
0.0
1001
DBPROPERTIES
1002
{
1000
PbHidd
1002
}
  0
LINE
  5
17C
330
1F
100
AcDbEntity
  8
HIDDEN
100
AcDbLine
 10
-17.5
 20
-42.5
 30
0.0
 11
22.5
 21
-42.5
 31
0.0
1001
DBPROPERTIES
1002
{
1000
PbHidd
1002
}
  0
LINE
  5
17D
330
1F
100
AcDbEntity
  8
HIDDEN
100
AcDbLine
 10
-77.5
 20
-82.5
 30
0.0
 11
-77.5
 21
-82.5
 31
0.0
1001
DBPROPERTIES
1002
{
1000
PbHidd
1002
}
  0
LINE
  5
17E
330
1F
100
AcDbEntity
  8
HIDDEN
100
AcDbLine
 10
-77.5
 20
-42.49999999999999
 30
0.0
 11
-77.5
 21
-42.49999999999999
 31
0.0
1001
DBPROPERTIES
1002
{
1000
PbHidd
1002
}
  0
LINE
  5
17F
330
1F
100
AcDbEntity
  8
HIDDEN
100
AcDbLine
 10
-77.5
 20
-82.5
 30
0.0
 11
-77.5
 21
-42.5
 31
0.0
1001
DBPROPERTIES
1002
{
1000
PbHidd
1002
}
  0
LINE
  5
180
330
1F
100
AcDbEntity
  8
HIDDEN
100
AcDbLine
 10
-37.50000000000001
 20
-82.5
 30
0.0
 11
-37.50000000000001
 21
-82.5
 31
0.0
1001
DBPROPERTIES
1002
{
1000
PbHidd
1002
}
  0
LINE
  5
181
330
1F
100
AcDbEntity
  8
HIDDEN
100
AcDbLine
 10
-37.5
 20
-82.5
 30
0.0
 11
-77.5
 21
-82.5
 31
0.0
1001
DBPROPERTIES
1002
{
1000
PbHidd
1002
}
  0
LINE
  5
182
330
1F
100
AcDbEntity
  8
HIDDEN
100
AcDbLine
 10
-37.5
 20
-42.5
 30
0.0
 11
-37.5
 21
-42.5
 31
0.0
1001
DBPROPERTIES
1002
{
1000
PbHidd
1002
}
  0
LINE
  5
183
330
1F
100
AcDbEntity
  8
HIDDEN
100
AcDbLine
 10
-37.5
 20
-42.5
 30
0.0
 11
-37.5
 21
-82.5
 31
0.0
1001
DBPROPERTIES
1002
{
1000
PbHidd
1002
}
  0
LINE
  5
184
330
1F
100
AcDbEntity
  8
HIDDEN
100
AcDbLine
 10
-77.5
 20
-42.5
 30
0.0
 11
-37.5
 21
-42.5
 31
0.0
1001
DBPROPERTIES
1002
{
1000
PbHidd
1002
}
  0
LINE
  5
185
330
1F
100
AcDbEntity
  8
HIDDEN
100
AcDbLine
 10
-137.5
 20
-82.49999999999999
 30
0.0
 11
-137.5
 21
-82.49999999999999
 31
0.0
1001
DBPROPERTIES
1002
{
1000
PbHidd
1002
}
  0
LINE
  5
186
330
1F
100
AcDbEntity
  8
HIDDEN
100
AcDbLine
 10
-137.5
 20
-42.49999999999999
 30
0.0
 11
-137.5
 21
-42.49999999999999
 31
0.0
1001
DBPROPERTIES
1002
{
1000
PbHidd
1002
}
  0
LINE
  5
187
330
1F
100
AcDbEntity
  8
HIDDEN
100
AcDbLine
 10
-137.5
 20
-82.5
 30
0.0
 11
-137.5
 21
-42.49999999999999
 31
0.0
1001
DBPROPERTIES
1002
{
1000
PbHidd
1002
}
  0
LINE
  5
188
330
1F
100
AcDbEntity
  8
HIDDEN
100
AcDbLine
 10
-97.5
 20
-82.5
 30
0.0
 11
-97.5
 21
-82.5
 31
0.0
1001
DBPROPERTIES
1002
{
1000
PbHidd
1002
}
  0
LINE
  5
189
330
1F
100
AcDbEntity
  8
HIDDEN
100
AcDbLine
 10
-97.5
 20
-82.5
 30
0.0
 11
-137.5
 21
-82.5
 31
0.0
1001
DBPROPERTIES
1002
{
1000
PbHidd
1002
}
  0
LINE
  5
18A
330
1F
100
AcDbEntity
  8
HIDDEN
100
AcDbLine
 10
-97.5
 20
-42.49999999999999
 30
0.0
 11
-97.5
 21
-42.49999999999999
 31
0.0
1001
DBPROPERTIES
1002
{
1000
PbHidd
1002
}
  0
LINE
  5
18B
330
1F
100
AcDbEntity
  8
HIDDEN
100
AcDbLine
 10
-97.5
 20
-42.49999999999999
 30
0.0
 11
-97.5
 21
-82.5
 31
0.0
1001
DBPROPERTIES
1002
{
1000
PbHidd
1002
}
  0
LINE
  5
18C
330
1F
100
AcDbEntity
  8
HIDDEN
100
AcDbLine
 10
-137.5
 20
-42.49999999999999
 30
0.0
 11
-97.5
 21
-42.49999999999999
 31
0.0
1001
DBPROPERTIES
1002
{
1000
PbHidd
1002
}
  0
LINE
  5
18D
330
1F
100
AcDbEntity
  8
HIDDEN
100
AcDbLine
 10
-197.5
 20
-82.49999999999999
 30
0.0
 11
-197.5
 21
-82.49999999999999
 31
0.0
1001
DBPROPERTIES
1002
{
1000
PbHidd
1002
}
  0
LINE
  5
18E
330
1F
100
AcDbEntity
  8
HIDDEN
100
AcDbLine
 10
-197.5
 20
-42.49999999999999
 30
0.0
 11
-197.5
 21
-42.49999999999999
 31
0.0
1001
DBPROPERTIES
1002
{
1000
PbHidd
1002
}
  0
LINE
  5
18F
330
1F
100
AcDbEntity
  8
HIDDEN
100
AcDbLine
 10
-197.5
 20
-82.49999999999999
 30
0.0
 11
-197.5
 21
-42.49999999999999
 31
0.0
1001
DBPROPERTIES
1002
{
1000
PbHidd
1002
}
  0
LINE
  5
190
330
1F
100
AcDbEntity
  8
HIDDEN
100
AcDbLine
 10
-157.5
 20
-82.49999999999999
 30
0.0
 11
-157.5
 21
-82.49999999999999
 31
0.0
1001
DBPROPERTIES
1002
{
1000
PbHidd
1002
}
  0
LINE
  5
191
330
1F
100
AcDbEntity
  8
HIDDEN
100
AcDbLine
 10
-157.5
 20
-82.5
 30
0.0
 11
-197.5
 21
-82.5
 31
0.0
1001
DBPROPERTIES
1002
{
1000
PbHidd
1002
}
  0
LINE
  5
192
330
1F
100
AcDbEntity
  8
HIDDEN
100
AcDbLine
 10
-157.5
 20
-42.49999999999999
 30
0.0
 11
-157.5
 21
-42.49999999999999
 31
0.0
1001
DBPROPERTIES
1002
{
1000
PbHidd
1002
}
  0
LINE
  5
193
330
1F
100
AcDbEntity
  8
HIDDEN
100
AcDbLine
 10
-157.5
 20
-42.49999999999999
 30
0.0
 11
-157.5
 21
-82.49999999999999
 31
0.0
1001
DBPROPERTIES
1002
{
1000
PbHidd
1002
}
  0
LINE
  5
194
330
1F
100
AcDbEntity
  8
HIDDEN
100
AcDbLine
 10
-197.5
 20
-42.49999999999999
 30
0.0
 11
-157.5
 21
-42.49999999999999
 31
0.0
1001
DBPROPERTIES
1002
{
1000
PbHidd
1002
}
  0
LINE
  5
195
330
1F
100
AcDbEntity
  8
HIDDEN
100
AcDbLine
 10
162.5
 20
-22.50000000000001
 30
0.0
 11
162.5
 21
-22.50000000000001
 31
0.0
1001
DBPROPERTIES
1002
{
1000
PbHidd
1002
}
  0
LINE
  5
196
330
1F
100
AcDbEntity
  8
HIDDEN
100
AcDbLine
 10
162.5
 20
17.49999999999999
 30
0.0
 11
162.5
 21
17.49999999999999
 31
0.0
1001
DBPROPERTIES
1002
{
1000
PbHidd
1002
}
  0
LINE
  5
197
330
1F
100
AcDbEntity
  8
HIDDEN
100
AcDbLine
 10
162.5
 20
-22.50000000000001
 30
0.0
 11
162.5
 21
17.49999999999999
 31
0.0
1001
DBPROPERTIES
1002
{
1000
PbHidd
1002
}
  0
LINE
  5
198
330
1F
100
AcDbEntity
  8
HIDDEN
100
AcDbLine
 10
202.5
 20
-22.50000000000001
 30
0.0
 11
202.5
 21
-22.50000000000001
 31
0.0
1001
DBPROPERTIES
1002
{
1000
PbHidd
1002
}
  0
LINE
  5
199
330
1F
100
AcDbEntity
  8
HIDDEN
100
AcDbLine
 10
202.5
 20
-22.50000000000001
 30
0.0
 11
162.5
 21
-22.50000000000001
 31
0.0
1001
DBPROPERTIES
1002
{
1000
PbHidd
1002
}
  0
LINE
  5
19A
330
1F
100
AcDbEntity
  8
HIDDEN
100
AcDbLine
 10
202.5
 20
17.49999999999999
 30
0.0
 11
202.5
 21
17.49999999999999
 31
0.0
1001
DBPROPERTIES
1002
{
1000
PbHidd
1002
}
  0
LINE
  5
19B
330
1F
100
AcDbEntity
  8
HIDDEN
100
AcDbLine
 10
202.5
 20
17.49999999999999
 30
0.0
 11
202.5
 21
-22.50000000000001
 31
0.0
1001
DBPROPERTIES
1002
{
1000
PbHidd
1002
}
  0
LINE
  5
19C
330
1F
100
AcDbEntity
  8
HIDDEN
100
AcDbLine
 10
162.5
 20
17.49999999999999
 30
0.0
 11
202.5
 21
17.49999999999999
 31
0.0
1001
DBPROPERTIES
1002
{
1000
PbHidd
1002
}
  0
LINE
  5
19D
330
1F
100
AcDbEntity
  8
HIDDEN
100
AcDbLine
 10
102.5
 20
-22.50000000000001
 30
0.0
 11
102.5
 21
-22.50000000000001
 31
0.0
1001
DBPROPERTIES
1002
{
1000
PbHidd
1002
}
  0
LINE
  5
19E
330
1F
100
AcDbEntity
  8
HIDDEN
100
AcDbLine
 10
102.5
 20
17.49999999999999
 30
0.0
 11
102.5
 21
17.49999999999999
 31
0.0
1001
DBPROPERTIES
1002
{
1000
PbHidd
1002
}
  0
LINE
  5
19F
330
1F
100
AcDbEntity
  8
HIDDEN
100
AcDbLine
 10
102.5
 20
-22.50000000000001
 30
0.0
 11
102.5
 21
17.49999999999999
 31
0.0
1001
DBPROPERTIES
1002
{
1000
PbHidd
1002
}
  0
LINE
  5
1A0
330
1F
100
AcDbEntity
  8
HIDDEN
100
AcDbLine
 10
142.5
 20
-22.50000000000001
 30
0.0
 11
142.5
 21
-22.50000000000001
 31
0.0
1001
DBPROPERTIES
1002
{
1000
PbHidd
1002
}
  0
LINE
  5
1A1
330
1F
100
AcDbEntity
  8
HIDDEN
100
AcDbLine
 10
142.5
 20
-22.50000000000001
 30
0.0
 11
102.5
 21
-22.50000000000001
 31
0.0
1001
DBPROPERTIES
1002
{
1000
PbHidd
1002
}
  0
LINE
  5
1A2
330
1F
100
AcDbEntity
  8
HIDDEN
100
AcDbLine
 10
142.5
 20
17.49999999999999
 30
0.0
 11
142.5
 21
17.49999999999999
 31
0.0
1001
DBPROPERTIES
1002
{
1000
PbHidd
1002
}
  0
LINE
  5
1A3
330
1F
100
AcDbEntity
  8
HIDDEN
100
AcDbLine
 10
142.5
 20
17.49999999999999
 30
0.0
 11
142.5
 21
-22.50000000000001
 31
0.0
1001
DBPROPERTIES
1002
{
1000
PbHidd
1002
}
  0
LINE
  5
1A4
330
1F
100
AcDbEntity
  8
HIDDEN
100
AcDbLine
 10
102.5
 20
17.49999999999999
 30
0.0
 11
142.5
 21
17.49999999999999
 31
0.0
1001
DBPROPERTIES
1002
{
1000
PbHidd
1002
}
  0
LINE
  5
1A5
330
1F
100
AcDbEntity
  8
HIDDEN
100
AcDbLine
 10
42.5
 20
-22.5
 30
0.0
 11
42.5
 21
-22.5
 31
0.0
1001
DBPROPERTIES
1002
{
1000
PbHidd
1002
}
  0
LINE
  5
1A6
330
1F
100
AcDbEntity
  8
HIDDEN
100
AcDbLine
 10
42.5
 20
17.5
 30
0.0
 11
42.5
 21
17.5
 31
0.0
1001
DBPROPERTIES
1002
{
1000
PbHidd
1002
}
  0
LINE
  5
1A7
330
1F
100
AcDbEntity
  8
HIDDEN
100
AcDbLine
 10
42.5
 20
-22.5
 30
0.0
 11
42.5
 21
17.5
 31
0.0
1001
DBPROPERTIES
1002
{
1000
PbHidd
1002
}
  0
LINE
  5
1A8
330
1F
100
AcDbEntity
  8
HIDDEN
100
AcDbLine
 10
82.5
 20
-22.5
 30
0.0
 11
82.5
 21
-22.5
 31
0.0
1001
DBPROPERTIES
1002
{
1000
PbHidd
1002
}
  0
LINE
  5
1A9
330
1F
100
AcDbEntity
  8
HIDDEN
100
AcDbLine
 10
82.5
 20
-22.50000000000001
 30
0.0
 11
42.5
 21
-22.5
 31
0.0
1001
DBPROPERTIES
1002
{
1000
PbHidd
1002
}
  0
LINE
  5
1AA
330
1F
100
AcDbEntity
  8
HIDDEN
100
AcDbLine
 10
82.5
 20
17.5
 30
0.0
 11
82.5
 21
17.5
 31
0.0
1001
DBPROPERTIES
1002
{
1000
PbHidd
1002
}
  0
LINE
  5
1AB
330
1F
100
AcDbEntity
  8
HIDDEN
100
AcDbLine
 10
82.5
 20
17.5
 30
0.0
 11
82.5
 21
-22.5
 31
0.0
1001
DBPROPERTIES
1002
{
1000
PbHidd
1002
}
  0
LINE
  5
1AC
330
1F
100
AcDbEntity
  8
HIDDEN
100
AcDbLine
 10
42.5
 20
17.5
 30
0.0
 11
82.5
 21
17.49999999999999
 31
0.0
1001
DBPROPERTIES
1002
{
1000
PbHidd
1002
}
  0
LINE
  5
1AD
330
1F
100
AcDbEntity
  8
HIDDEN
100
AcDbLine
 10
-17.5
 20
-22.5
 30
0.0
 11
-17.5
 21
-22.5
 31
0.0
1001
DBPROPERTIES
1002
{
1000
PbHidd
1002
}
  0
LINE
  5
1AE
330
1F
100
AcDbEntity
  8
HIDDEN
100
AcDbLine
 10
-17.5
 20
17.5
 30
0.0
 11
-17.5
 21
17.5
 31
0.0
1001
DBPROPERTIES
1002
{
1000
PbHidd
1002
}
  0
LINE
  5
1AF
330
1F
100
AcDbEntity
  8
HIDDEN
100
AcDbLine
 10
-17.5
 20
-22.5
 30
0.0
 11
-17.5
 21
17.5
 31
0.0
1001
DBPROPERTIES
1002
{
1000
PbHidd
1002
}
  0
LINE
  5
1B0
330
1F
100
AcDbEntity
  8
HIDDEN
100
AcDbLine
 10
22.5
 20
-22.5
 30
0.0
 11
22.5
 21
-22.5
 31
0.0
1001
DBPROPERTIES
1002
{
1000
PbHidd
1002
}
  0
LINE
  5
1B1
330
1F
100
AcDbEntity
  8
HIDDEN
100
AcDbLine
 10
22.5
 20
-22.5
 30
0.0
 11
-17.5
 21
-22.5
 31
0.0
1001
DBPROPERTIES
1002
{
1000
PbHidd
1002
}
  0
LINE
  5
1B2
330
1F
100
AcDbEntity
  8
HIDDEN
100
AcDbLine
 10
22.5
 20
17.5
 30
0.0
 11
22.5
 21
17.5
 31
0.0
1001
DBPROPERTIES
1002
{
1000
PbHidd
1002
}
  0
LINE
  5
1B3
330
1F
100
AcDbEntity
  8
HIDDEN
100
AcDbLine
 10
22.5
 20
17.5
 30
0.0
 11
22.5
 21
-22.5
 31
0.0
1001
DBPROPERTIES
1002
{
1000
PbHidd
1002
}
  0
LINE
  5
1B4
330
1F
100
AcDbEntity
  8
HIDDEN
100
AcDbLine
 10
-17.5
 20
17.5
 30
0.0
 11
22.5
 21
17.5
 31
0.0
1001
DBPROPERTIES
1002
{
1000
PbHidd
1002
}
  0
LINE
  5
1B5
330
1F
100
AcDbEntity
  8
HIDDEN
100
AcDbLine
 10
-77.5
 20
-22.5
 30
0.0
 11
-77.5
 21
-22.5
 31
0.0
1001
DBPROPERTIES
1002
{
1000
PbHidd
1002
}
  0
LINE
  5
1B6
330
1F
100
AcDbEntity
  8
HIDDEN
100
AcDbLine
 10
-77.5
 20
17.5
 30
0.0
 11
-77.5
 21
17.5
 31
0.0
1001
DBPROPERTIES
1002
{
1000
PbHidd
1002
}
  0
LINE
  5
1B7
330
1F
100
AcDbEntity
  8
HIDDEN
100
AcDbLine
 10
-77.5
 20
-22.5
 30
0.0
 11
-77.5
 21
17.5
 31
0.0
1001
DBPROPERTIES
1002
{
1000
PbHidd
1002
}
  0
LINE
  5
1B8
330
1F
100
AcDbEntity
  8
HIDDEN
100
AcDbLine
 10
-37.5
 20
-22.5
 30
0.0
 11
-37.5
 21
-22.5
 31
0.0
1001
DBPROPERTIES
1002
{
1000
PbHidd
1002
}
  0
LINE
  5
1B9
330
1F
100
AcDbEntity
  8
HIDDEN
100
AcDbLine
 10
-37.5
 20
-22.5
 30
0.0
 11
-77.5
 21
-22.5
 31
0.0
1001
DBPROPERTIES
1002
{
1000
PbHidd
1002
}
  0
LINE
  5
1BA
330
1F
100
AcDbEntity
  8
HIDDEN
100
AcDbLine
 10
-37.5
 20
17.5
 30
0.0
 11
-37.5
 21
17.5
 31
0.0
1001
DBPROPERTIES
1002
{
1000
PbHidd
1002
}
  0
LINE
  5
1BB
330
1F
100
AcDbEntity
  8
HIDDEN
100
AcDbLine
 10
-37.5
 20
17.5
 30
0.0
 11
-37.5
 21
-22.5
 31
0.0
1001
DBPROPERTIES
1002
{
1000
PbHidd
1002
}
  0
LINE
  5
1BC
330
1F
100
AcDbEntity
  8
HIDDEN
100
AcDbLine
 10
-77.5
 20
17.5
 30
0.0
 11
-37.5
 21
17.5
 31
0.0
1001
DBPROPERTIES
1002
{
1000
PbHidd
1002
}
  0
LINE
  5
1BD
330
1F
100
AcDbEntity
  8
HIDDEN
100
AcDbLine
 10
-137.5
 20
-22.49999999999999
 30
0.0
 11
-137.5
 21
-22.49999999999999
 31
0.0
1001
DBPROPERTIES
1002
{
1000
PbHidd
1002
}
  0
LINE
  5
1BE
330
1F
100
AcDbEntity
  8
HIDDEN
100
AcDbLine
 10
-137.5
 20
17.50000000000001
 30
0.0
 11
-137.5
 21
17.50000000000001
 31
0.0
1001
DBPROPERTIES
1002
{
1000
PbHidd
1002
}
  0
LINE
  5
1BF
330
1F
100
AcDbEntity
  8
HIDDEN
100
AcDbLine
 10
-137.5
 20
-22.49999999999999
 30
0.0
 11
-137.5
 21
17.50000000000001
 31
0.0
1001
DBPROPERTIES
1002
{
1000
PbHidd
1002
}
  0
LINE
  5
1C0
330
1F
100
AcDbEntity
  8
HIDDEN
100
AcDbLine
 10
-97.5
 20
-22.49999999999999
 30
0.0
 11
-97.5
 21
-22.49999999999999
 31
0.0
1001
DBPROPERTIES
1002
{
1000
PbHidd
1002
}
  0
LINE
  5
1C1
330
1F
100
AcDbEntity
  8
HIDDEN
100
AcDbLine
 10
-97.5
 20
-22.49999999999999
 30
0.0
 11
-137.5
 21
-22.49999999999999
 31
0.0
1001
DBPROPERTIES
1002
{
1000
PbHidd
1002
}
  0
LINE
  5
1C2
330
1F
100
AcDbEntity
  8
HIDDEN
100
AcDbLine
 10
-97.5
 20
17.50000000000001
 30
0.0
 11
-97.5
 21
17.50000000000001
 31
0.0
1001
DBPROPERTIES
1002
{
1000
PbHidd
1002
}
  0
LINE
  5
1C3
330
1F
100
AcDbEntity
  8
HIDDEN
100
AcDbLine
 10
-97.5
 20
17.50000000000001
 30
0.0
 11
-97.5
 21
-22.49999999999999
 31
0.0
1001
DBPROPERTIES
1002
{
1000
PbHidd
1002
}
  0
LINE
  5
1C4
330
1F
100
AcDbEntity
  8
HIDDEN
100
AcDbLine
 10
-137.5
 20
17.50000000000001
 30
0.0
 11
-97.5
 21
17.50000000000001
 31
0.0
1001
DBPROPERTIES
1002
{
1000
PbHidd
1002
}
  0
LINE
  5
1C5
330
1F
100
AcDbEntity
  8
HIDDEN
100
AcDbLine
 10
-197.5
 20
-22.49999999999999
 30
0.0
 11
-197.5
 21
-22.49999999999999
 31
0.0
1001
DBPROPERTIES
1002
{
1000
PbHidd
1002
}
  0
LINE
  5
1C6
330
1F
100
AcDbEntity
  8
HIDDEN
100
AcDbLine
 10
-197.5
 20
17.50000000000001
 30
0.0
 11
-197.5
 21
17.50000000000001
 31
0.0
1001
DBPROPERTIES
1002
{
1000
PbHidd
1002
}
  0
LINE
  5
1C7
330
1F
100
AcDbEntity
  8
HIDDEN
100
AcDbLine
 10
-197.5
 20
-22.49999999999999
 30
0.0
 11
-197.5
 21
17.50000000000001
 31
0.0
1001
DBPROPERTIES
1002
{
1000
PbHidd
1002
}
  0
LINE
  5
1C8
330
1F
100
AcDbEntity
  8
HIDDEN
100
AcDbLine
 10
-157.5
 20
-22.49999999999999
 30
0.0
 11
-157.5
 21
-22.49999999999999
 31
0.0
1001
DBPROPERTIES
1002
{
1000
PbHidd
1002
}
  0
LINE
  5
1C9
330
1F
100
AcDbEntity
  8
HIDDEN
100
AcDbLine
 10
-157.5
 20
-22.49999999999999
 30
0.0
 11
-197.5
 21
-22.49999999999999
 31
0.0
1001
DBPROPERTIES
1002
{
1000
PbHidd
1002
}
  0
LINE
  5
1CA
330
1F
100
AcDbEntity
  8
HIDDEN
100
AcDbLine
 10
-157.5
 20
17.50000000000001
 30
0.0
 11
-157.5
 21
17.50000000000001
 31
0.0
1001
DBPROPERTIES
1002
{
1000
PbHidd
1002
}
  0
LINE
  5
1CB
330
1F
100
AcDbEntity
  8
HIDDEN
100
AcDbLine
 10
-157.5
 20
17.50000000000001
 30
0.0
 11
-157.5
 21
-22.49999999999999
 31
0.0
1001
DBPROPERTIES
1002
{
1000
PbHidd
1002
}
  0
LINE
  5
1CC
330
1F
100
AcDbEntity
  8
HIDDEN
100
AcDbLine
 10
-197.5
 20
17.50000000000001
 30
0.0
 11
-157.5
 21
17.50000000000001
 31
0.0
1001
DBPROPERTIES
1002
{
1000
PbHidd
1002
}
  0
LINE
  5
1CD
330
1F
100
AcDbEntity
  8
HIDDEN
100
AcDbLine
 10
162.5
 20
37.49999999999999
 30
0.0
 11
162.5
 21
37.49999999999999
 31
0.0
1001
DBPROPERTIES
1002
{
1000
PbHidd
1002
}
  0
LINE
  5
1CE
330
1F
100
AcDbEntity
  8
HIDDEN
100
AcDbLine
 10
162.5
 20
77.49999999999999
 30
0.0
 11
162.5
 21
77.49999999999999
 31
0.0
1001
DBPROPERTIES
1002
{
1000
PbHidd
1002
}
  0
LINE
  5
1CF
330
1F
100
AcDbEntity
  8
HIDDEN
100
AcDbLine
 10
162.5
 20
37.49999999999999
 30
0.0
 11
162.5
 21
77.49999999999999
 31
0.0
1001
DBPROPERTIES
1002
{
1000
PbHidd
1002
}
  0
LINE
  5
1D0
330
1F
100
AcDbEntity
  8
HIDDEN
100
AcDbLine
 10
202.5
 20
37.49999999999999
 30
0.0
 11
202.5
 21
37.49999999999999
 31
0.0
1001
DBPROPERTIES
1002
{
1000
PbHidd
1002
}
  0
LINE
  5
1D1
330
1F
100
AcDbEntity
  8
HIDDEN
100
AcDbLine
 10
202.5
 20
37.49999999999999
 30
0.0
 11
162.5
 21
37.49999999999999
 31
0.0
1001
DBPROPERTIES
1002
{
1000
PbHidd
1002
}
  0
LINE
  5
1D2
330
1F
100
AcDbEntity
  8
HIDDEN
100
AcDbLine
 10
202.5
 20
77.49999999999999
 30
0.0
 11
202.5
 21
77.49999999999999
 31
0.0
1001
DBPROPERTIES
1002
{
1000
PbHidd
1002
}
  0
LINE
  5
1D3
330
1F
100
AcDbEntity
  8
HIDDEN
100
AcDbLine
 10
202.5
 20
77.49999999999999
 30
0.0
 11
202.5
 21
37.49999999999999
 31
0.0
1001
DBPROPERTIES
1002
{
1000
PbHidd
1002
}
  0
LINE
  5
1D4
330
1F
100
AcDbEntity
  8
HIDDEN
100
AcDbLine
 10
162.5
 20
77.5
 30
0.0
 11
202.5
 21
77.5
 31
0.0
1001
DBPROPERTIES
1002
{
1000
PbHidd
1002
}
  0
LINE
  5
1D5
330
1F
100
AcDbEntity
  8
HIDDEN
100
AcDbLine
 10
102.5
 20
37.49999999999999
 30
0.0
 11
102.5
 21
37.49999999999999
 31
0.0
1001
DBPROPERTIES
1002
{
1000
PbHidd
1002
}
  0
LINE
  5
1D6
330
1F
100
AcDbEntity
  8
HIDDEN
100
AcDbLine
 10
102.5
 20
77.5
 30
0.0
 11
102.5
 21
77.5
 31
0.0
1001
DBPROPERTIES
1002
{
1000
PbHidd
1002
}
  0
LINE
  5
1D7
330
1F
100
AcDbEntity
  8
HIDDEN
100
AcDbLine
 10
102.5
 20
37.49999999999999
 30
0.0
 11
102.5
 21
77.5
 31
0.0
1001
DBPROPERTIES
1002
{
1000
PbHidd
1002
}
  0
LINE
  5
1D8
330
1F
100
AcDbEntity
  8
HIDDEN
100
AcDbLine
 10
142.5
 20
37.49999999999999
 30
0.0
 11
142.5
 21
37.49999999999999
 31
0.0
1001
DBPROPERTIES
1002
{
1000
PbHidd
1002
}
  0
LINE
  5
1D9
330
1F
100
AcDbEntity
  8
HIDDEN
100
AcDbLine
 10
142.5
 20
37.49999999999999
 30
0.0
 11
102.5
 21
37.49999999999999
 31
0.0
1001
DBPROPERTIES
1002
{
1000
PbHidd
1002
}
  0
LINE
  5
1DA
330
1F
100
AcDbEntity
  8
HIDDEN
100
AcDbLine
 10
142.5
 20
77.49999999999999
 30
0.0
 11
142.5
 21
77.49999999999999
 31
0.0
1001
DBPROPERTIES
1002
{
1000
PbHidd
1002
}
  0
LINE
  5
1DB
330
1F
100
AcDbEntity
  8
HIDDEN
100
AcDbLine
 10
142.5
 20
77.5
 30
0.0
 11
142.5
 21
37.49999999999999
 31
0.0
1001
DBPROPERTIES
1002
{
1000
PbHidd
1002
}
  0
LINE
  5
1DC
330
1F
100
AcDbEntity
  8
HIDDEN
100
AcDbLine
 10
102.5
 20
77.5
 30
0.0
 11
142.5
 21
77.5
 31
0.0
1001
DBPROPERTIES
1002
{
1000
PbHidd
1002
}
  0
LINE
  5
1DD
330
1F
100
AcDbEntity
  8
HIDDEN
100
AcDbLine
 10
42.5
 20
37.5
 30
0.0
 11
42.5
 21
37.5
 31
0.0
1001
DBPROPERTIES
1002
{
1000
PbHidd
1002
}
  0
LINE
  5
1DE
330
1F
100
AcDbEntity
  8
HIDDEN
100
AcDbLine
 10
42.50000000000001
 20
77.5
 30
0.0
 11
42.50000000000001
 21
77.5
 31
0.0
1001
DBPROPERTIES
1002
{
1000
PbHidd
1002
}
  0
LINE
  5
1DF
330
1F
100
AcDbEntity
  8
HIDDEN
100
AcDbLine
 10
42.5
 20
37.5
 30
0.0
 11
42.5
 21
77.5
 31
0.0
1001
DBPROPERTIES
1002
{
1000
PbHidd
1002
}
  0
LINE
  5
1E0
330
1F
100
AcDbEntity
  8
HIDDEN
100
AcDbLine
 10
82.5
 20
37.49999999999999
 30
0.0
 11
82.5
 21
37.49999999999999
 31
0.0
1001
DBPROPERTIES
1002
{
1000
PbHidd
1002
}
  0
LINE
  5
1E1
330
1F
100
AcDbEntity
  8
HIDDEN
100
AcDbLine
 10
82.5
 20
37.5
 30
0.0
 11
42.5
 21
37.5
 31
0.0
1001
DBPROPERTIES
1002
{
1000
PbHidd
1002
}
  0
LINE
  5
1E2
330
1F
100
AcDbEntity
  8
HIDDEN
100
AcDbLine
 10
82.5
 20
77.5
 30
0.0
 11
82.5
 21
77.5
 31
0.0
1001
DBPROPERTIES
1002
{
1000
PbHidd
1002
}
  0
LINE
  5
1E3
330
1F
100
AcDbEntity
  8
HIDDEN
100
AcDbLine
 10
82.5
 20
77.5
 30
0.0
 11
82.5
 21
37.5
 31
0.0
1001
DBPROPERTIES
1002
{
1000
PbHidd
1002
}
  0
LINE
  5
1E4
330
1F
100
AcDbEntity
  8
HIDDEN
100
AcDbLine
 10
42.5
 20
77.5
 30
0.0
 11
82.5
 21
77.5
 31
0.0
1001
DBPROPERTIES
1002
{
1000
PbHidd
1002
}
  0
LINE
  5
1E5
330
1F
100
AcDbEntity
  8
HIDDEN
100
AcDbLine
 10
-17.5
 20
37.5
 30
0.0
 11
-17.5
 21
37.5
 31
0.0
1001
DBPROPERTIES
1002
{
1000
PbHidd
1002
}
  0
LINE
  5
1E6
330
1F
100
AcDbEntity
  8
HIDDEN
100
AcDbLine
 10
-17.5
 20
77.5
 30
0.0
 11
-17.5
 21
77.5
 31
0.0
1001
DBPROPERTIES
1002
{
1000
PbHidd
1002
}
  0
LINE
  5
1E7
330
1F
100
AcDbEntity
  8
HIDDEN
100
AcDbLine
 10
-17.5
 20
37.5
 30
0.0
 11
-17.5
 21
77.5
 31
0.0
1001
DBPROPERTIES
1002
{
1000
PbHidd
1002
}
  0
LINE
  5
1E8
330
1F
100
AcDbEntity
  8
HIDDEN
100
AcDbLine
 10
22.5
 20
37.5
 30
0.0
 11
22.5
 21
37.5
 31
0.0
1001
DBPROPERTIES
1002
{
1000
PbHidd
1002
}
  0
LINE
  5
1E9
330
1F
100
AcDbEntity
  8
HIDDEN
100
AcDbLine
 10
22.5
 20
37.5
 30
0.0
 11
-17.5
 21
37.5
 31
0.0
1001
DBPROPERTIES
1002
{
1000
PbHidd
1002
}
  0
LINE
  5
1EA
330
1F
100
AcDbEntity
  8
HIDDEN
100
AcDbLine
 10
22.5
 20
77.5
 30
0.0
 11
22.5
 21
77.5
 31
0.0
1001
DBPROPERTIES
1002
{
1000
PbHidd
1002
}
  0
LINE
  5
1EB
330
1F
100
AcDbEntity
  8
HIDDEN
100
AcDbLine
 10
22.5
 20
77.5
 30
0.0
 11
22.5
 21
37.5
 31
0.0
1001
DBPROPERTIES
1002
{
1000
PbHidd
1002
}
  0
LINE
  5
1EC
330
1F
100
AcDbEntity
  8
HIDDEN
100
AcDbLine
 10
-17.49999999999999
 20
77.5
 30
0.0
 11
22.50000000000001
 21
77.5
 31
0.0
1001
DBPROPERTIES
1002
{
1000
PbHidd
1002
}
  0
LINE
  5
1ED
330
1F
100
AcDbEntity
  8
HIDDEN
100
AcDbLine
 10
-77.5
 20
37.50000000000001
 30
0.0
 11
-77.5
 21
37.50000000000001
 31
0.0
1001
DBPROPERTIES
1002
{
1000
PbHidd
1002
}
  0
LINE
  5
1EE
330
1F
100
AcDbEntity
  8
HIDDEN
100
AcDbLine
 10
-77.5
 20
77.5
 30
0.0
 11
-77.5
 21
77.5
 31
0.0
1001
DBPROPERTIES
1002
{
1000
PbHidd
1002
}
  0
LINE
  5
1EF
330
1F
100
AcDbEntity
  8
HIDDEN
100
AcDbLine
 10
-77.5
 20
37.5
 30
0.0
 11
-77.5
 21
77.5
 31
0.0
1001
DBPROPERTIES
1002
{
1000
PbHidd
1002
}
  0
LINE
  5
1F0
330
1F
100
AcDbEntity
  8
HIDDEN
100
AcDbLine
 10
-37.5
 20
37.5
 30
0.0
 11
-37.5
 21
37.5
 31
0.0
1001
DBPROPERTIES
1002
{
1000
PbHidd
1002
}
  0
LINE
  5
1F1
330
1F
100
AcDbEntity
  8
HIDDEN
100
AcDbLine
 10
-37.5
 20
37.5
 30
0.0
 11
-77.5
 21
37.5
 31
0.0
1001
DBPROPERTIES
1002
{
1000
PbHidd
1002
}
  0
LINE
  5
1F2
330
1F
100
AcDbEntity
  8
HIDDEN
100
AcDbLine
 10
-37.49999999999999
 20
77.5
 30
0.0
 11
-37.49999999999999
 21
77.5
 31
0.0
1001
DBPROPERTIES
1002
{
1000
PbHidd
1002
}
  0
LINE
  5
1F3
330
1F
100
AcDbEntity
  8
HIDDEN
100
AcDbLine
 10
-37.5
 20
77.5
 30
0.0
 11
-37.5
 21
37.5
 31
0.0
1001
DBPROPERTIES
1002
{
1000
PbHidd
1002
}
  0
LINE
  5
1F4
330
1F
100
AcDbEntity
  8
HIDDEN
100
AcDbLine
 10
-77.5
 20
77.5
 30
0.0
 11
-37.5
 21
77.5
 31
0.0
1001
DBPROPERTIES
1002
{
1000
PbHidd
1002
}
  0
LINE
  5
1F5
330
1F
100
AcDbEntity
  8
HIDDEN
100
AcDbLine
 10
-137.5
 20
37.50000000000001
 30
0.0
 11
-137.5
 21
37.50000000000001
 31
0.0
1001
DBPROPERTIES
1002
{
1000
PbHidd
1002
}
  0
LINE
  5
1F6
330
1F
100
AcDbEntity
  8
HIDDEN
100
AcDbLine
 10
-137.5
 20
77.50000000000001
 30
0.0
 11
-137.5
 21
77.50000000000001
 31
0.0
1001
DBPROPERTIES
1002
{
1000
PbHidd
1002
}
  0
LINE
  5
1F7
330
1F
100
AcDbEntity
  8
HIDDEN
100
AcDbLine
 10
-137.5
 20
37.50000000000001
 30
0.0
 11
-137.5
 21
77.5
 31
0.0
1001
DBPROPERTIES
1002
{
1000
PbHidd
1002
}
  0
LINE
  5
1F8
330
1F
100
AcDbEntity
  8
HIDDEN
100
AcDbLine
 10
-97.5
 20
37.50000000000001
 30
0.0
 11
-97.5
 21
37.50000000000001
 31
0.0
1001
DBPROPERTIES
1002
{
1000
PbHidd
1002
}
  0
LINE
  5
1F9
330
1F
100
AcDbEntity
  8
HIDDEN
100
AcDbLine
 10
-97.5
 20
37.50000000000001
 30
0.0
 11
-137.5
 21
37.50000000000001
 31
0.0
1001
DBPROPERTIES
1002
{
1000
PbHidd
1002
}
  0
LINE
  5
1FA
330
1F
100
AcDbEntity
  8
HIDDEN
100
AcDbLine
 10
-97.5
 20
77.5
 30
0.0
 11
-97.5
 21
77.5
 31
0.0
1001
DBPROPERTIES
1002
{
1000
PbHidd
1002
}
  0
LINE
  5
1FB
330
1F
100
AcDbEntity
  8
HIDDEN
100
AcDbLine
 10
-97.5
 20
77.5
 30
0.0
 11
-97.5
 21
37.50000000000001
 31
0.0
1001
DBPROPERTIES
1002
{
1000
PbHidd
1002
}
  0
LINE
  5
1FC
330
1F
100
AcDbEntity
  8
HIDDEN
100
AcDbLine
 10
-137.5
 20
77.5
 30
0.0
 11
-97.5
 21
77.5
 31
0.0
1001
DBPROPERTIES
1002
{
1000
PbHidd
1002
}
  0
LINE
  5
1FD
330
1F
100
AcDbEntity
  8
HIDDEN
100
AcDbLine
 10
-197.5
 20
37.50000000000001
 30
0.0
 11
-197.5
 21
37.50000000000001
 31
0.0
1001
DBPROPERTIES
1002
{
1000
PbHidd
1002
}
  0
LINE
  5
1FE
330
1F
100
AcDbEntity
  8
HIDDEN
100
AcDbLine
 10
-197.5
 20
77.50000000000001
 30
0.0
 11
-197.5
 21
77.50000000000001
 31
0.0
1001
DBPROPERTIES
1002
{
1000
PbHidd
1002
}
  0
LINE
  5
1FF
330
1F
100
AcDbEntity
  8
HIDDEN
100
AcDbLine
 10
-197.5
 20
37.50000000000001
 30
0.0
 11
-197.5
 21
77.50000000000001
 31
0.0
1001
DBPROPERTIES
1002
{
1000
PbHidd
1002
}
  0
LINE
  5
200
330
1F
100
AcDbEntity
  8
HIDDEN
100
AcDbLine
 10
-157.5
 20
37.50000000000001
 30
0.0
 11
-157.5
 21
37.50000000000001
 31
0.0
1001
DBPROPERTIES
1002
{
1000
PbHidd
1002
}
  0
LINE
  5
201
330
1F
100
AcDbEntity
  8
HIDDEN
100
AcDbLine
 10
-157.5
 20
37.50000000000001
 30
0.0
 11
-197.5
 21
37.50000000000001
 31
0.0
1001
DBPROPERTIES
1002
{
1000
PbHidd
1002
}
  0
LINE
  5
202
330
1F
100
AcDbEntity
  8
HIDDEN
100
AcDbLine
 10
-157.5
 20
77.50000000000001
 30
0.0
 11
-157.5
 21
77.50000000000001
 31
0.0
1001
DBPROPERTIES
1002
{
1000
PbHidd
1002
}
  0
LINE
  5
203
330
1F
100
AcDbEntity
  8
HIDDEN
100
AcDbLine
 10
-157.5
 20
77.50000000000001
 30
0.0
 11
-157.5
 21
37.50000000000001
 31
0.0
1001
DBPROPERTIES
1002
{
1000
PbHidd
1002
}
  0
LINE
  5
204
330
1F
100
AcDbEntity
  8
HIDDEN
100
AcDbLine
 10
-197.5
 20
77.5
 30
0.0
 11
-157.5
 21
77.5
 31
0.0
1001
DBPROPERTIES
1002
{
1000
PbHidd
1002
}
  0
LINE
  5
205
330
1F
100
AcDbEntity
  8
HIDDEN
100
AcDbLine
 10
162.5
 20
97.49999999999999
 30
0.0
 11
162.5
 21
97.49999999999999
 31
0.0
1001
DBPROPERTIES
1002
{
1000
PbHidd
1002
}
  0
LINE
  5
206
330
1F
100
AcDbEntity
  8
HIDDEN
100
AcDbLine
 10
162.5
 20
137.5
 30
0.0
 11
162.5
 21
137.5
 31
0.0
1001
DBPROPERTIES
1002
{
1000
PbHidd
1002
}
  0
LINE
  5
207
330
1F
100
AcDbEntity
  8
HIDDEN
100
AcDbLine
 10
162.5
 20
97.5
 30
0.0
 11
162.5
 21
137.5
 31
0.0
1001
DBPROPERTIES
1002
{
1000
PbHidd
1002
}
  0
LINE
  5
208
330
1F
100
AcDbEntity
  8
HIDDEN
100
AcDbLine
 10
202.5
 20
97.49999999999999
 30
0.0
 11
202.5
 21
97.49999999999999
 31
0.0
1001
DBPROPERTIES
1002
{
1000
PbHidd
1002
}
  0
LINE
  5
209
330
1F
100
AcDbEntity
  8
HIDDEN
100
AcDbLine
 10
202.5
 20
97.5
 30
0.0
 11
162.5
 21
97.5
 31
0.0
1001
DBPROPERTIES
1002
{
1000
PbHidd
1002
}
  0
LINE
  5
20A
330
1F
100
AcDbEntity
  8
HIDDEN
100
AcDbLine
 10
202.5
 20
137.5
 30
0.0
 11
202.5
 21
137.5
 31
0.0
1001
DBPROPERTIES
1002
{
1000
PbHidd
1002
}
  0
LINE
  5
20B
330
1F
100
AcDbEntity
  8
HIDDEN
100
AcDbLine
 10
202.5
 20
137.5
 30
0.0
 11
202.5
 21
97.49999999999999
 31
0.0
1001
DBPROPERTIES
1002
{
1000
PbHidd
1002
}
  0
LINE
  5
20C
330
1F
100
AcDbEntity
  8
HIDDEN
100
AcDbLine
 10
162.5
 20
137.5
 30
0.0
 11
202.5
 21
137.5
 31
0.0
1001
DBPROPERTIES
1002
{
1000
PbHidd
1002
}
  0
LINE
  5
20D
330
1F
100
AcDbEntity
  8
HIDDEN
100
AcDbLine
 10
102.5
 20
97.5
 30
0.0
 11
102.5
 21
97.5
 31
0.0
1001
DBPROPERTIES
1002
{
1000
PbHidd
1002
}
  0
LINE
  5
20E
330
1F
100
AcDbEntity
  8
HIDDEN
100
AcDbLine
 10
102.5
 20
137.5
 30
0.0
 11
102.5
 21
137.5
 31
0.0
1001
DBPROPERTIES
1002
{
1000
PbHidd
1002
}
  0
LINE
  5
20F
330
1F
100
AcDbEntity
  8
HIDDEN
100
AcDbLine
 10
102.5
 20
97.5
 30
0.0
 11
102.5
 21
137.5
 31
0.0
1001
DBPROPERTIES
1002
{
1000
PbHidd
1002
}
  0
LINE
  5
210
330
1F
100
AcDbEntity
  8
HIDDEN
100
AcDbLine
 10
142.5
 20
97.49999999999999
 30
0.0
 11
142.5
 21
97.49999999999999
 31
0.0
1001
DBPROPERTIES
1002
{
1000
PbHidd
1002
}
  0
LINE
  5
211
330
1F
100
AcDbEntity
  8
HIDDEN
100
AcDbLine
 10
142.5
 20
97.5
 30
0.0
 11
102.5
 21
97.5
 31
0.0
1001
DBPROPERTIES
1002
{
1000
PbHidd
1002
}
  0
LINE
  5
212
330
1F
100
AcDbEntity
  8
HIDDEN
100
AcDbLine
 10
142.5
 20
137.5
 30
0.0
 11
142.5
 21
137.5
 31
0.0
1001
DBPROPERTIES
1002
{
1000
PbHidd
1002
}
  0
LINE
  5
213
330
1F
100
AcDbEntity
  8
HIDDEN
100
AcDbLine
 10
142.5
 20
137.5
 30
0.0
 11
142.5
 21
97.5
 31
0.0
1001
DBPROPERTIES
1002
{
1000
PbHidd
1002
}
  0
LINE
  5
214
330
1F
100
AcDbEntity
  8
HIDDEN
100
AcDbLine
 10
102.5
 20
137.5
 30
0.0
 11
142.5
 21
137.5
 31
0.0
1001
DBPROPERTIES
1002
{
1000
PbHidd
1002
}
  0
LINE
  5
215
330
1F
100
AcDbEntity
  8
HIDDEN
100
AcDbLine
 10
42.50000000000001
 20
97.5
 30
0.0
 11
42.50000000000001
 21
97.5
 31
0.0
1001
DBPROPERTIES
1002
{
1000
PbHidd
1002
}
  0
LINE
  5
216
330
1F
100
AcDbEntity
  8
HIDDEN
100
AcDbLine
 10
42.50000000000001
 20
137.5
 30
0.0
 11
42.50000000000001
 21
137.5
 31
0.0
1001
DBPROPERTIES
1002
{
1000
PbHidd
1002
}
  0
LINE
  5
217
330
1F
100
AcDbEntity
  8
HIDDEN
100
AcDbLine
 10
42.50000000000001
 20
97.5
 30
0.0
 11
42.50000000000001
 21
137.5
 31
0.0
1001
DBPROPERTIES
1002
{
1000
PbHidd
1002
}
  0
LINE
  5
218
330
1F
100
AcDbEntity
  8
HIDDEN
100
AcDbLine
 10
82.5
 20
97.5
 30
0.0
 11
82.5
 21
97.5
 31
0.0
1001
DBPROPERTIES
1002
{
1000
PbHidd
1002
}
  0
LINE
  5
219
330
1F
100
AcDbEntity
  8
HIDDEN
100
AcDbLine
 10
82.5
 20
97.5
 30
0.0
 11
42.50000000000001
 21
97.5
 31
0.0
1001
DBPROPERTIES
1002
{
1000
PbHidd
1002
}
  0
LINE
  5
21A
330
1F
100
AcDbEntity
  8
HIDDEN
100
AcDbLine
 10
82.50000000000001
 20
137.5
 30
0.0
 11
82.50000000000001
 21
137.5
 31
0.0
1001
DBPROPERTIES
1002
{
1000
PbHidd
1002
}
  0
LINE
  5
21B
330
1F
100
AcDbEntity
  8
HIDDEN
100
AcDbLine
 10
82.5
 20
137.5
 30
0.0
 11
82.5
 21
97.5
 31
0.0
1001
DBPROPERTIES
1002
{
1000
PbHidd
1002
}
  0
LINE
  5
21C
330
1F
100
AcDbEntity
  8
HIDDEN
100
AcDbLine
 10
42.50000000000001
 20
137.5
 30
0.0
 11
82.5
 21
137.5
 31
0.0
1001
DBPROPERTIES
1002
{
1000
PbHidd
1002
}
  0
LINE
  5
21D
330
1F
100
AcDbEntity
  8
HIDDEN
100
AcDbLine
 10
-17.49999999999999
 20
97.5
 30
0.0
 11
-17.49999999999999
 21
97.5
 31
0.0
1001
DBPROPERTIES
1002
{
1000
PbHidd
1002
}
  0
LINE
  5
21E
330
1F
100
AcDbEntity
  8
HIDDEN
100
AcDbLine
 10
-17.49999999999999
 20
137.5
 30
0.0
 11
-17.49999999999999
 21
137.5
 31
0.0
1001
DBPROPERTIES
1002
{
1000
PbHidd
1002
}
  0
LINE
  5
21F
330
1F
100
AcDbEntity
  8
HIDDEN
100
AcDbLine
 10
-17.49999999999999
 20
97.5
 30
0.0
 11
-17.49999999999999
 21
137.5
 31
0.0
1001
DBPROPERTIES
1002
{
1000
PbHidd
1002
}
  0
LINE
  5
220
330
1F
100
AcDbEntity
  8
HIDDEN
100
AcDbLine
 10
22.50000000000001
 20
97.5
 30
0.0
 11
22.50000000000001
 21
97.5
 31
0.0
1001
DBPROPERTIES
1002
{
1000
PbHidd
1002
}
  0
LINE
  5
221
330
1F
100
AcDbEntity
  8
HIDDEN
100
AcDbLine
 10
22.50000000000001
 20
97.5
 30
0.0
 11
-17.49999999999999
 21
97.5
 31
0.0
1001
DBPROPERTIES
1002
{
1000
PbHidd
1002
}
  0
LINE
  5
222
330
1F
100
AcDbEntity
  8
HIDDEN
100
AcDbLine
 10
22.50000000000001
 20
137.5
 30
0.0
 11
22.50000000000001
 21
137.5
 31
0.0
1001
DBPROPERTIES
1002
{
1000
PbHidd
1002
}
  0
LINE
  5
223
330
1F
100
AcDbEntity
  8
HIDDEN
100
AcDbLine
 10
22.50000000000001
 20
137.5
 30
0.0
 11
22.50000000000001
 21
97.5
 31
0.0
1001
DBPROPERTIES
1002
{
1000
PbHidd
1002
}
  0
LINE
  5
224
330
1F
100
AcDbEntity
  8
HIDDEN
100
AcDbLine
 10
-17.49999999999999
 20
137.5
 30
0.0
 11
22.50000000000001
 21
137.5
 31
0.0
1001
DBPROPERTIES
1002
{
1000
PbHidd
1002
}
  0
LINE
  5
225
330
1F
100
AcDbEntity
  8
HIDDEN
100
AcDbLine
 10
-77.5
 20
97.5
 30
0.0
 11
-77.5
 21
97.5
 31
0.0
1001
DBPROPERTIES
1002
{
1000
PbHidd
1002
}
  0
LINE
  5
226
330
1F
100
AcDbEntity
  8
HIDDEN
100
AcDbLine
 10
-77.49999999999999
 20
137.5
 30
0.0
 11
-77.49999999999999
 21
137.5
 31
0.0
1001
DBPROPERTIES
1002
{
1000
PbHidd
1002
}
  0
LINE
  5
227
330
1F
100
AcDbEntity
  8
HIDDEN
100
AcDbLine
 10
-77.5
 20
97.5
 30
0.0
 11
-77.5
 21
137.5
 31
0.0
1001
DBPROPERTIES
1002
{
1000
PbHidd
1002
}
  0
LINE
  5
228
330
1F
100
AcDbEntity
  8
HIDDEN
100
AcDbLine
 10
-37.49999999999999
 20
97.5
 30
0.0
 11
-37.49999999999999
 21
97.5
 31
0.0
1001
DBPROPERTIES
1002
{
1000
PbHidd
1002
}
  0
LINE
  5
229
330
1F
100
AcDbEntity
  8
HIDDEN
100
AcDbLine
 10
-37.49999999999999
 20
97.5
 30
0.0
 11
-77.5
 21
97.5
 31
0.0
1001
DBPROPERTIES
1002
{
1000
PbHidd
1002
}
  0
LINE
  5
22A
330
1F
100
AcDbEntity
  8
HIDDEN
100
AcDbLine
 10
-37.49999999999999
 20
137.5
 30
0.0
 11
-37.49999999999999
 21
137.5
 31
0.0
1001
DBPROPERTIES
1002
{
1000
PbHidd
1002
}
  0
LINE
  5
22B
330
1F
100
AcDbEntity
  8
HIDDEN
100
AcDbLine
 10
-37.49999999999999
 20
137.5
 30
0.0
 11
-37.49999999999999
 21
97.5
 31
0.0
1001
DBPROPERTIES
1002
{
1000
PbHidd
1002
}
  0
LINE
  5
22C
330
1F
100
AcDbEntity
  8
HIDDEN
100
AcDbLine
 10
-77.5
 20
137.5
 30
0.0
 11
-37.49999999999999
 21
137.5
 31
0.0
1001
DBPROPERTIES
1002
{
1000
PbHidd
1002
}
  0
LINE
  5
22D
330
1F
100
AcDbEntity
  8
HIDDEN
100
AcDbLine
 10
-137.5
 20
97.50000000000001
 30
0.0
 11
-137.5
 21
97.50000000000001
 31
0.0
1001
DBPROPERTIES
1002
{
1000
PbHidd
1002
}
  0
LINE
  5
22E
330
1F
100
AcDbEntity
  8
HIDDEN
100
AcDbLine
 10
-137.5
 20
137.5
 30
0.0
 11
-137.5
 21
137.5
 31
0.0
1001
DBPROPERTIES
1002
{
1000
PbHidd
1002
}
  0
LINE
  5
22F
330
1F
100
AcDbEntity
  8
HIDDEN
100
AcDbLine
 10
-137.5
 20
97.5
 30
0.0
 11
-137.5
 21
137.5
 31
0.0
1001
DBPROPERTIES
1002
{
1000
PbHidd
1002
}
  0
LINE
  5
230
330
1F
100
AcDbEntity
  8
HIDDEN
100
AcDbLine
 10
-97.5
 20
97.5
 30
0.0
 11
-97.5
 21
97.5
 31
0.0
1001
DBPROPERTIES
1002
{
1000
PbHidd
1002
}
  0
LINE
  5
231
330
1F
100
AcDbEntity
  8
HIDDEN
100
AcDbLine
 10
-97.5
 20
97.5
 30
0.0
 11
-137.5
 21
97.5
 31
0.0
1001
DBPROPERTIES
1002
{
1000
PbHidd
1002
}
  0
LINE
  5
232
330
1F
100
AcDbEntity
  8
HIDDEN
100
AcDbLine
 10
-97.49999999999999
 20
137.5
 30
0.0
 11
-97.49999999999999
 21
137.5
 31
0.0
1001
DBPROPERTIES
1002
{
1000
PbHidd
1002
}
  0
LINE
  5
233
330
1F
100
AcDbEntity
  8
HIDDEN
100
AcDbLine
 10
-97.5
 20
137.5
 30
0.0
 11
-97.5
 21
97.5
 31
0.0
1001
DBPROPERTIES
1002
{
1000
PbHidd
1002
}
  0
LINE
  5
234
330
1F
100
AcDbEntity
  8
HIDDEN
100
AcDbLine
 10
-137.5
 20
137.5
 30
0.0
 11
-97.5
 21
137.5
 31
0.0
1001
DBPROPERTIES
1002
{
1000
PbHidd
1002
}
  0
LINE
  5
235
330
1F
100
AcDbEntity
  8
HIDDEN
100
AcDbLine
 10
-197.5
 20
97.50000000000001
 30
0.0
 11
-197.5
 21
97.50000000000001
 31
0.0
1001
DBPROPERTIES
1002
{
1000
PbHidd
1002
}
  0
LINE
  5
236
330
1F
100
AcDbEntity
  8
HIDDEN
100
AcDbLine
 10
-197.5
 20
137.5
 30
0.0
 11
-197.5
 21
137.5
 31
0.0
1001
DBPROPERTIES
1002
{
1000
PbHidd
1002
}
  0
LINE
  5
237
330
1F
100
AcDbEntity
  8
HIDDEN
100
AcDbLine
 10
-197.5
 20
97.50000000000001
 30
0.0
 11
-197.5
 21
137.5
 31
0.0
1001
DBPROPERTIES
1002
{
1000
PbHidd
1002
}
  0
LINE
  5
238
330
1F
100
AcDbEntity
  8
HIDDEN
100
AcDbLine
 10
-157.5
 20
97.50000000000001
 30
0.0
 11
-157.5
 21
97.50000000000001
 31
0.0
1001
DBPROPERTIES
1002
{
1000
PbHidd
1002
}
  0
LINE
  5
239
330
1F
100
AcDbEntity
  8
HIDDEN
100
AcDbLine
 10
-157.5
 20
97.5
 30
0.0
 11
-197.5
 21
97.5
 31
0.0
1001
DBPROPERTIES
1002
{
1000
PbHidd
1002
}
  0
LINE
  5
23A
330
1F
100
AcDbEntity
  8
HIDDEN
100
AcDbLine
 10
-157.5
 20
137.5
 30
0.0
 11
-157.5
 21
137.5
 31
0.0
1001
DBPROPERTIES
1002
{
1000
PbHidd
1002
}
  0
LINE
  5
23B
330
1F
100
AcDbEntity
  8
HIDDEN
100
AcDbLine
 10
-157.5
 20
137.5
 30
0.0
 11
-157.5
 21
97.5
 31
0.0
1001
DBPROPERTIES
1002
{
1000
PbHidd
1002
}
  0
LINE
  5
23C
330
1F
100
AcDbEntity
  8
HIDDEN
100
AcDbLine
 10
-197.5
 20
137.5
 30
0.0
 11
-157.5
 21
137.5
 31
0.0
1001
DBPROPERTIES
1002
{
1000
PbHidd
1002
}
  0
LINE
  5
23D
330
1F
100
AcDbEntity
  8
HIDDEN
100
AcDbLine
 10
162.5
 20
157.5
 30
0.0
 11
162.5
 21
157.5
 31
0.0
1001
DBPROPERTIES
1002
{
1000
PbHidd
1002
}
  0
LINE
  5
23E
330
1F
100
AcDbEntity
  8
HIDDEN
100
AcDbLine
 10
162.5
 20
197.5
 30
0.0
 11
162.5
 21
197.5
 31
0.0
1001
DBPROPERTIES
1002
{
1000
PbHidd
1002
}
  0
LINE
  5
23F
330
1F
100
AcDbEntity
  8
HIDDEN
100
AcDbLine
 10
162.5
 20
157.5
 30
0.0
 11
162.5
 21
197.5
 31
0.0
1001
DBPROPERTIES
1002
{
1000
PbHidd
1002
}
  0
LINE
  5
240
330
1F
100
AcDbEntity
  8
HIDDEN
100
AcDbLine
 10
202.5
 20
157.5
 30
0.0
 11
202.5
 21
157.5
 31
0.0
1001
DBPROPERTIES
1002
{
1000
PbHidd
1002
}
  0
LINE
  5
241
330
1F
100
AcDbEntity
  8
HIDDEN
100
AcDbLine
 10
202.5
 20
157.5
 30
0.0
 11
162.5
 21
157.5
 31
0.0
1001
DBPROPERTIES
1002
{
1000
PbHidd
1002
}
  0
LINE
  5
242
330
1F
100
AcDbEntity
  8
HIDDEN
100
AcDbLine
 10
202.5
 20
197.5
 30
0.0
 11
202.5
 21
197.5
 31
0.0
1001
DBPROPERTIES
1002
{
1000
PbHidd
1002
}
  0
LINE
  5
243
330
1F
100
AcDbEntity
  8
HIDDEN
100
AcDbLine
 10
202.5
 20
197.5
 30
0.0
 11
202.5
 21
157.5
 31
0.0
1001
DBPROPERTIES
1002
{
1000
PbHidd
1002
}
  0
LINE
  5
244
330
1F
100
AcDbEntity
  8
HIDDEN
100
AcDbLine
 10
162.5
 20
197.5
 30
0.0
 11
202.5
 21
197.5
 31
0.0
1001
DBPROPERTIES
1002
{
1000
PbHidd
1002
}
  0
LINE
  5
245
330
1F
100
AcDbEntity
  8
HIDDEN
100
AcDbLine
 10
102.5
 20
157.5
 30
0.0
 11
102.5
 21
157.5
 31
0.0
1001
DBPROPERTIES
1002
{
1000
PbHidd
1002
}
  0
LINE
  5
246
330
1F
100
AcDbEntity
  8
HIDDEN
100
AcDbLine
 10
102.5
 20
197.5
 30
0.0
 11
102.5
 21
197.5
 31
0.0
1001
DBPROPERTIES
1002
{
1000
PbHidd
1002
}
  0
LINE
  5
247
330
1F
100
AcDbEntity
  8
HIDDEN
100
AcDbLine
 10
102.5
 20
157.5
 30
0.0
 11
102.5
 21
197.5
 31
0.0
1001
DBPROPERTIES
1002
{
1000
PbHidd
1002
}
  0
LINE
  5
248
330
1F
100
AcDbEntity
  8
HIDDEN
100
AcDbLine
 10
142.5
 20
157.5
 30
0.0
 11
142.5
 21
157.5
 31
0.0
1001
DBPROPERTIES
1002
{
1000
PbHidd
1002
}
  0
LINE
  5
249
330
1F
100
AcDbEntity
  8
HIDDEN
100
AcDbLine
 10
142.5
 20
157.5
 30
0.0
 11
102.5
 21
157.5
 31
0.0
1001
DBPROPERTIES
1002
{
1000
PbHidd
1002
}
  0
LINE
  5
24A
330
1F
100
AcDbEntity
  8
HIDDEN
100
AcDbLine
 10
142.5
 20
197.5
 30
0.0
 11
142.5
 21
197.5
 31
0.0
1001
DBPROPERTIES
1002
{
1000
PbHidd
1002
}
  0
LINE
  5
24B
330
1F
100
AcDbEntity
  8
HIDDEN
100
AcDbLine
 10
142.5
 20
197.5
 30
0.0
 11
142.5
 21
157.5
 31
0.0
1001
DBPROPERTIES
1002
{
1000
PbHidd
1002
}
  0
LINE
  5
24C
330
1F
100
AcDbEntity
  8
HIDDEN
100
AcDbLine
 10
102.5
 20
197.5
 30
0.0
 11
142.5
 21
197.5
 31
0.0
1001
DBPROPERTIES
1002
{
1000
PbHidd
1002
}
  0
LINE
  5
24D
330
1F
100
AcDbEntity
  8
HIDDEN
100
AcDbLine
 10
42.50000000000001
 20
157.5
 30
0.0
 11
42.50000000000001
 21
157.5
 31
0.0
1001
DBPROPERTIES
1002
{
1000
PbHidd
1002
}
  0
LINE
  5
24E
330
1F
100
AcDbEntity
  8
HIDDEN
100
AcDbLine
 10
42.50000000000001
 20
197.5
 30
0.0
 11
42.50000000000001
 21
197.5
 31
0.0
1001
DBPROPERTIES
1002
{
1000
PbHidd
1002
}
  0
LINE
  5
24F
330
1F
100
AcDbEntity
  8
HIDDEN
100
AcDbLine
 10
42.50000000000001
 20
157.5
 30
0.0
 11
42.50000000000001
 21
197.5
 31
0.0
1001
DBPROPERTIES
1002
{
1000
PbHidd
1002
}
  0
LINE
  5
250
330
1F
100
AcDbEntity
  8
HIDDEN
100
AcDbLine
 10
82.50000000000001
 20
157.5
 30
0.0
 11
82.50000000000001
 21
157.5
 31
0.0
1001
DBPROPERTIES
1002
{
1000
PbHidd
1002
}
  0
LINE
  5
251
330
1F
100
AcDbEntity
  8
HIDDEN
100
AcDbLine
 10
82.50000000000001
 20
157.5
 30
0.0
 11
42.50000000000001
 21
157.5
 31
0.0
1001
DBPROPERTIES
1002
{
1000
PbHidd
1002
}
  0
LINE
  5
252
330
1F
100
AcDbEntity
  8
HIDDEN
100
AcDbLine
 10
82.50000000000001
 20
197.5
 30
0.0
 11
82.50000000000001
 21
197.5
 31
0.0
1001
DBPROPERTIES
1002
{
1000
PbHidd
1002
}
  0
LINE
  5
253
330
1F
100
AcDbEntity
  8
HIDDEN
100
AcDbLine
 10
82.5
 20
197.5
 30
0.0
 11
82.5
 21
157.5
 31
0.0
1001
DBPROPERTIES
1002
{
1000
PbHidd
1002
}
  0
LINE
  5
254
330
1F
100
AcDbEntity
  8
HIDDEN
100
AcDbLine
 10
42.50000000000001
 20
197.5
 30
0.0
 11
82.50000000000001
 21
197.5
 31
0.0
1001
DBPROPERTIES
1002
{
1000
PbHidd
1002
}
  0
LINE
  5
255
330
1F
100
AcDbEntity
  8
HIDDEN
100
AcDbLine
 10
-17.49999999999999
 20
157.5
 30
0.0
 11
-17.49999999999999
 21
157.5
 31
0.0
1001
DBPROPERTIES
1002
{
1000
PbHidd
1002
}
  0
LINE
  5
256
330
1F
100
AcDbEntity
  8
HIDDEN
100
AcDbLine
 10
-17.49999999999999
 20
197.5
 30
0.0
 11
-17.49999999999999
 21
197.5
 31
0.0
1001
DBPROPERTIES
1002
{
1000
PbHidd
1002
}
  0
LINE
  5
257
330
1F
100
AcDbEntity
  8
HIDDEN
100
AcDbLine
 10
-17.49999999999999
 20
157.5
 30
0.0
 11
-17.49999999999999
 21
197.5
 31
0.0
1001
DBPROPERTIES
1002
{
1000
PbHidd
1002
}
  0
LINE
  5
258
330
1F
100
AcDbEntity
  8
HIDDEN
100
AcDbLine
 10
22.50000000000001
 20
157.5
 30
0.0
 11
22.50000000000001
 21
157.5
 31
0.0
1001
DBPROPERTIES
1002
{
1000
PbHidd
1002
}
  0
LINE
  5
259
330
1F
100
AcDbEntity
  8
HIDDEN
100
AcDbLine
 10
22.50000000000001
 20
157.5
 30
0.0
 11
-17.49999999999999
 21
157.5
 31
0.0
1001
DBPROPERTIES
1002
{
1000
PbHidd
1002
}
  0
LINE
  5
25A
330
1F
100
AcDbEntity
  8
HIDDEN
100
AcDbLine
 10
22.50000000000001
 20
197.5
 30
0.0
 11
22.50000000000001
 21
197.5
 31
0.0
1001
DBPROPERTIES
1002
{
1000
PbHidd
1002
}
  0
LINE
  5
25B
330
1F
100
AcDbEntity
  8
HIDDEN
100
AcDbLine
 10
22.50000000000001
 20
197.5
 30
0.0
 11
22.50000000000001
 21
157.5
 31
0.0
1001
DBPROPERTIES
1002
{
1000
PbHidd
1002
}
  0
LINE
  5
25C
330
1F
100
AcDbEntity
  8
HIDDEN
100
AcDbLine
 10
-17.49999999999999
 20
197.5
 30
0.0
 11
22.50000000000001
 21
197.5
 31
0.0
1001
DBPROPERTIES
1002
{
1000
PbHidd
1002
}
  0
LINE
  5
25D
330
1F
100
AcDbEntity
  8
HIDDEN
100
AcDbLine
 10
-77.49999999999999
 20
157.5
 30
0.0
 11
-77.49999999999999
 21
157.5
 31
0.0
1001
DBPROPERTIES
1002
{
1000
PbHidd
1002
}
  0
LINE
  5
25E
330
1F
100
AcDbEntity
  8
HIDDEN
100
AcDbLine
 10
-77.49999999999999
 20
197.5
 30
0.0
 11
-77.49999999999999
 21
197.5
 31
0.0
1001
DBPROPERTIES
1002
{
1000
PbHidd
1002
}
  0
LINE
  5
25F
330
1F
100
AcDbEntity
  8
HIDDEN
100
AcDbLine
 10
-77.5
 20
157.5
 30
0.0
 11
-77.5
 21
197.5
 31
0.0
1001
DBPROPERTIES
1002
{
1000
PbHidd
1002
}
  0
LINE
  5
260
330
1F
100
AcDbEntity
  8
HIDDEN
100
AcDbLine
 10
-37.49999999999999
 20
157.5
 30
0.0
 11
-37.49999999999999
 21
157.5
 31
0.0
1001
DBPROPERTIES
1002
{
1000
PbHidd
1002
}
  0
LINE
  5
261
330
1F
100
AcDbEntity
  8
HIDDEN
100
AcDbLine
 10
-37.49999999999999
 20
157.5
 30
0.0
 11
-77.49999999999999
 21
157.5
 31
0.0
1001
DBPROPERTIES
1002
{
1000
PbHidd
1002
}
  0
LINE
  5
262
330
1F
100
AcDbEntity
  8
HIDDEN
100
AcDbLine
 10
-37.49999999999999
 20
197.5
 30
0.0
 11
-37.49999999999999
 21
197.5
 31
0.0
1001
DBPROPERTIES
1002
{
1000
PbHidd
1002
}
  0
LINE
  5
263
330
1F
100
AcDbEntity
  8
HIDDEN
100
AcDbLine
 10
-37.49999999999999
 20
197.5
 30
0.0
 11
-37.49999999999999
 21
157.5
 31
0.0
1001
DBPROPERTIES
1002
{
1000
PbHidd
1002
}
  0
LINE
  5
264
330
1F
100
AcDbEntity
  8
HIDDEN
100
AcDbLine
 10
-77.49999999999999
 20
197.5
 30
0.0
 11
-37.49999999999999
 21
197.5
 31
0.0
1001
DBPROPERTIES
1002
{
1000
PbHidd
1002
}
  0
LINE
  5
265
330
1F
100
AcDbEntity
  8
HIDDEN
100
AcDbLine
 10
-137.5
 20
157.5
 30
0.0
 11
-137.5
 21
157.5
 31
0.0
1001
DBPROPERTIES
1002
{
1000
PbHidd
1002
}
  0
LINE
  5
266
330
1F
100
AcDbEntity
  8
HIDDEN
100
AcDbLine
 10
-137.5
 20
197.5
 30
0.0
 11
-137.5
 21
197.5
 31
0.0
1001
DBPROPERTIES
1002
{
1000
PbHidd
1002
}
  0
LINE
  5
267
330
1F
100
AcDbEntity
  8
HIDDEN
100
AcDbLine
 10
-137.5
 20
157.5
 30
0.0
 11
-137.5
 21
197.5
 31
0.0
1001
DBPROPERTIES
1002
{
1000
PbHidd
1002
}
  0
LINE
  5
268
330
1F
100
AcDbEntity
  8
HIDDEN
100
AcDbLine
 10
-97.49999999999999
 20
157.5
 30
0.0
 11
-97.49999999999999
 21
157.5
 31
0.0
1001
DBPROPERTIES
1002
{
1000
PbHidd
1002
}
  0
LINE
  5
269
330
1F
100
AcDbEntity
  8
HIDDEN
100
AcDbLine
 10
-97.5
 20
157.5
 30
0.0
 11
-137.5
 21
157.5
 31
0.0
1001
DBPROPERTIES
1002
{
1000
PbHidd
1002
}
  0
LINE
  5
26A
330
1F
100
AcDbEntity
  8
HIDDEN
100
AcDbLine
 10
-97.49999999999999
 20
197.5
 30
0.0
 11
-97.49999999999999
 21
197.5
 31
0.0
1001
DBPROPERTIES
1002
{
1000
PbHidd
1002
}
  0
LINE
  5
26B
330
1F
100
AcDbEntity
  8
HIDDEN
100
AcDbLine
 10
-97.5
 20
197.5
 30
0.0
 11
-97.5
 21
157.5
 31
0.0
1001
DBPROPERTIES
1002
{
1000
PbHidd
1002
}
  0
LINE
  5
26C
330
1F
100
AcDbEntity
  8
HIDDEN
100
AcDbLine
 10
-137.5
 20
197.5
 30
0.0
 11
-97.49999999999999
 21
197.5
 31
0.0
1001
DBPROPERTIES
1002
{
1000
PbHidd
1002
}
  0
LINE
  5
26D
330
1F
100
AcDbEntity
  8
HIDDEN
100
AcDbLine
 10
-197.5
 20
157.5
 30
0.0
 11
-197.5
 21
157.5
 31
0.0
1001
DBPROPERTIES
1002
{
1000
PbHidd
1002
}
  0
LINE
  5
26E
330
1F
100
AcDbEntity
  8
HIDDEN
100
AcDbLine
 10
-197.5
 20
197.5
 30
0.0
 11
-197.5
 21
197.5
 31
0.0
1001
DBPROPERTIES
1002
{
1000
PbHidd
1002
}
  0
LINE
  5
26F
330
1F
100
AcDbEntity
  8
HIDDEN
100
AcDbLine
 10
-197.5
 20
157.5
 30
0.0
 11
-197.5
 21
197.5
 31
0.0
1001
DBPROPERTIES
1002
{
1000
PbHidd
1002
}
  0
LINE
  5
270
330
1F
100
AcDbEntity
  8
HIDDEN
100
AcDbLine
 10
-157.5
 20
157.5
 30
0.0
 11
-157.5
 21
157.5
 31
0.0
1001
DBPROPERTIES
1002
{
1000
PbHidd
1002
}
  0
LINE
  5
271
330
1F
100
AcDbEntity
  8
HIDDEN
100
AcDbLine
 10
-157.5
 20
157.5
 30
0.0
 11
-197.5
 21
157.5
 31
0.0
1001
DBPROPERTIES
1002
{
1000
PbHidd
1002
}
  0
LINE
  5
272
330
1F
100
AcDbEntity
  8
HIDDEN
100
AcDbLine
 10
-157.5
 20
197.5
 30
0.0
 11
-157.5
 21
197.5
 31
0.0
1001
DBPROPERTIES
1002
{
1000
PbHidd
1002
}
  0
LINE
  5
273
330
1F
100
AcDbEntity
  8
HIDDEN
100
AcDbLine
 10
-157.5
 20
197.5
 30
0.0
 11
-157.5
 21
157.5
 31
0.0
1001
DBPROPERTIES
1002
{
1000
PbHidd
1002
}
  0
LINE
  5
274
330
1F
100
AcDbEntity
  8
HIDDEN
100
AcDbLine
 10
-197.5
 20
197.5
 30
0.0
 11
-157.5
 21
197.5
 31
0.0
1001
DBPROPERTIES
1002
{
1000
PbHidd
1002
}
  0
LINE
  5
275
330
1F
100
AcDbEntity
  8
HIDDEN
100
AcDbLine
 10
230.5
 20
-198.5
 30
0.0
 11
230.5
 21
-198.5
 31
0.0
1001
DBPROPERTIES
1002
{
1000
PbHidd
1002
}
  0
LINE
  5
276
330
1F
100
AcDbEntity
  8
HIDDEN
100
AcDbLine
 10
226.5
 20
-198.5
 30
0.0
 11
226.5
 21
-198.5
 31
0.0
1001
DBPROPERTIES
1002
{
1000
PbHidd
1002
}
  0
LINE
  5
277
330
1F
100
AcDbEntity
  8
HIDDEN
100
AcDbLine
 10
230.5
 20
-198.5
 30
0.0
 11
226.5
 21
-198.5
 31
0.0
1001
DBPROPERTIES
1002
{
1000
PbHidd
1002
}
  0
LINE
  5
278
330
1F
100
AcDbEntity
  8
HIDDEN
100
AcDbLine
 10
226.5
 20
-221.5
 30
0.0
 11
224.5
 21
-221.5
 31
0.0
1001
DBPROPERTIES
1002
{
1000
PbHidd
1002
}
  0
LINE
  5
279
330
1F
100
AcDbEntity
  8
HIDDEN
100
AcDbLine
 10
224.5
 20
221.5
 30
0.0
 11
226.5
 21
221.5
 31
0.0
1001
DBPROPERTIES
1002
{
1000
PbHidd
1002
}
  0
LINE
  5
27A
330
1F
100
AcDbEntity
  8
HIDDEN
100
AcDbLine
 10
224.5
 20
-221.5
 30
0.0
 11
224.5
 21
221.5
 31
0.0
1001
DBPROPERTIES
1002
{
1000
PbHidd
1002
}
  0
LINE
  5
27B
330
1F
100
AcDbEntity
  8
HIDDEN
100
AcDbLine
 10
-226.4999999999999
 20
-198.5
 30
0.0
 11
-226.5
 21
-198.5
 31
0.0
1001
DBPROPERTIES
1002
{
1000
PbHidd
1002
}
  0
LINE
  5
27C
330
1F
100
AcDbEntity
  8
HIDDEN
100
AcDbLine
 10
-230.5
 20
-198.5
 30
0.0
 11
-230.4999999999999
 21
-198.5
 31
0.0
1001
DBPROPERTIES
1002
{
1000
PbHidd
1002
}
  0
LINE
  5
27D
330
1F
100
AcDbEntity
  8
HIDDEN
100
AcDbLine
 10
-226.4999999999999
 20
-198.5
 30
0.0
 11
-230.4999999999999
 21
-198.5
 31
0.0
1001
DBPROPERTIES
1002
{
1000
PbHidd
1002
}
  0
LINE
  5
27E
330
1F
100
AcDbEntity
  8
HIDDEN
100
AcDbLine
 10
-230.5
 20
221.5
 30
0.0
 11
-230.5
 21
221.5
 31
0.0
1001
DBPROPERTIES
1002
{
1000
PbHidd
1002
}
  0
LINE
  5
27F
330
1F
100
AcDbEntity
  8
HIDDEN
100
AcDbLine
 10
-230.5
 20
-221.5
 30
0.0
 11
-230.5
 21
-221.5
 31
0.0
1001
DBPROPERTIES
1002
{
1000
PbHidd
1002
}
  0
LINE
  5
280
330
1F
100
AcDbEntity
  8
HIDDEN
100
AcDbLine
 10
-230.4999999999999
 20
-223.5
 30
0.0
 11
-230.5000000000001
 21
-223.5
 31
0.0
1001
DBPROPERTIES
1002
{
1000
PbHidd
1002
}
  0
LINE
  5
281
330
1F
100
AcDbEntity
  8
HIDDEN
100
AcDbLine
 10
-230.4999999999999
 20
-222.4999999999999
 30
0.0
 11
-230.4999999999999
 21
-223.5
 31
0.0
1001
DBPROPERTIES
1002
{
1000
PbHidd
1002
}
  0
LINE
  5
282
330
1F
100
AcDbEntity
  8
HIDDEN
100
AcDbLine
 10
-230.5
 20
-222.4999999999999
 30
0.0
 11
-230.5
 21
-212.1
 31
0.0
1001
DBPROPERTIES
1002
{
1000
PbHidd
1002
}
  0
LINE
  5
283
330
1F
100
AcDbEntity
  8
HIDDEN
100
AcDbLine
 10
-230.5
 20
-212.1
 30
0.0
 11
-230.5
 21
-212.1
 31
0.0
1001
DBPROPERTIES
1002
{
1000
PbHidd
1002
}
  0
LINE
  5
284
330
1F
100
AcDbEntity
  8
HIDDEN
100
AcDbLine
 10
-230.5
 20
-212.1
 30
0.0
 11
-230.5
 21
-212.1
 31
0.0
1001
DBPROPERTIES
1002
{
1000
PbHidd
1002
}
  0
LINE
  5
285
330
1F
100
AcDbEntity
  8
HIDDEN
100
AcDbLine
 10
-230.5
 20
212.1
 30
0.0
 11
-230.5
 21
-212.1
 31
0.0
1001
DBPROPERTIES
1002
{
1000
PbHidd
1002
}
  0
LINE
  5
286
330
1F
100
AcDbEntity
  8
HIDDEN
100
AcDbLine
 10
-230.5
 20
212.1
 30
0.0
 11
-230.5
 21
212.1
 31
0.0
1001
DBPROPERTIES
1002
{
1000
PbHidd
1002
}
  0
LINE
  5
287
330
1F
100
AcDbEntity
  8
HIDDEN
100
AcDbLine
 10
-230.5
 20
212.1
 30
0.0
 11
-230.5
 21
212.1
 31
0.0
1001
DBPROPERTIES
1002
{
1000
PbHidd
1002
}
  0
LINE
  5
288
330
1F
100
AcDbEntity
  8
HIDDEN
100
AcDbLine
 10
-230.5
 20
212.1
 30
0.0
 11
-230.5
 21
222.5
 31
0.0
1001
DBPROPERTIES
1002
{
1000
PbHidd
1002
}
  0
LINE
  5
289
330
1F
100
AcDbEntity
  8
HIDDEN
100
AcDbLine
 10
-230.5000000000001
 20
223.5
 30
0.0
 11
-230.5000000000001
 21
222.5
 31
0.0
1001
DBPROPERTIES
1002
{
1000
PbHidd
1002
}
  0
LINE
  5
28A
330
1F
100
AcDbEntity
  8
HIDDEN
100
AcDbLine
 10
-230.5
 20
223.5
 30
0.0
 11
-230.5
 21
223.5
 31
0.0
1001
DBPROPERTIES
1002
{
1000
PbHidd
1002
}
  0
LINE
  5
28B
330
1F
100
AcDbEntity
  8
HIDDEN
100
AcDbLine
 10
-230.5
 20
198.0
 30
0.0
 11
-230.5
 21
198.0
 31
0.0
1001
DBPROPERTIES
1002
{
1000
PbHidd
1002
}
  0
LINE
  5
28C
330
1F
100
AcDbEntity
  8
HIDDEN
100
AcDbLine
 10
-230.5
 20
-221.5
 30
0.0
 11
-248.5
 21
-221.5
 31
0.0
1001
DBPROPERTIES
1002
{
1000
PbHidd
1002
}
  0
LINE
  5
28D
330
1F
100
AcDbEntity
  8
HIDDEN
100
AcDbLine
 10
-248.5
 20
221.5
 30
0.0
 11
-230.5
 21
221.5
 31
0.0
1001
DBPROPERTIES
1002
{
1000
PbHidd
1002
}
  0
LINE
  5
28E
330
1F
100
AcDbEntity
  8
HIDDEN
100
AcDbLine
 10
-248.5
 20
-221.5
 30
0.0
 11
-248.5
 21
221.5
 31
0.0
1001
DBPROPERTIES
1002
{
1000
PbHidd
1002
}
  0
LINE
  5
28F
330
1F
100
AcDbEntity
  8
HIDDEN
100
AcDbLine
 10
-226.5
 20
221.5
 30
0.0
 11
-224.5
 21
221.5
 31
0.0
1001
DBPROPERTIES
1002
{
1000
PbHidd
1002
}
  0
LINE
  5
290
330
1F
100
AcDbEntity
  8
HIDDEN
100
AcDbLine
 10
-224.5
 20
-221.5
 30
0.0
 11
-226.5
 21
-221.5
 31
0.0
1001
DBPROPERTIES
1002
{
1000
PbHidd
1002
}
  0
LINE
  5
291
330
1F
100
AcDbEntity
  8
HIDDEN
100
AcDbLine
 10
-224.5
 20
221.5
 30
0.0
 11
-224.5
 21
-221.5
 31
0.0
1001
DBPROPERTIES
1002
{
1000
PbHidd
1002
}
  0
LINE
  5
292
330
1F
100
AcDbEntity
  8
HIDDEN
100
AcDbLine
 10
221.5
 20
224.5
 30
0.0
 11
221.5
 21
224.5
 31
0.0
1001
DBPROPERTIES
1002
{
1000
PbHidd
1002
}
  0
LINE
  5
293
330
1F
100
AcDbEntity
  8
HIDDEN
100
AcDbLine
 10
-221.5
 20
224.5
 30
0.0
 11
-221.5
 21
224.5
 31
0.0
1001
DBPROPERTIES
1002
{
1000
PbHidd
1002
}
  0
LINE
  5
294
330
1F
100
AcDbEntity
  8
HIDDEN
100
AcDbLine
 10
-221.5
 20
224.5
 30
0.0
 11
-221.5
 21
224.5
 31
0.0
1001
DBPROPERTIES
1002
{
1000
PbHidd
1002
}
  0
LINE
  5
295
330
1F
100
AcDbEntity
  8
HIDDEN
100
AcDbLine
 10
221.5
 20
224.5
 30
0.0
 11
221.5
 21
224.5
 31
0.0
1001
DBPROPERTIES
1002
{
1000
PbHidd
1002
}
  0
LINE
  5
296
330
1F
100
AcDbEntity
  8
HIDDEN
100
AcDbLine
 10
221.5
 20
224.5
 30
0.0
 11
-221.5
 21
224.5
 31
0.0
1001
DBPROPERTIES
1002
{
1000
PbHidd
1002
}
  0
LINE
  5
297
330
1F
100
AcDbEntity
  8
HIDDEN
100
AcDbLine
 10
221.5
 20
226.5
 30
0.0
 11
221.5
 21
226.5
 31
0.0
1001
DBPROPERTIES
1002
{
1000
PbHidd
1002
}
  0
LINE
  5
298
330
1F
100
AcDbEntity
  8
HIDDEN
100
AcDbLine
 10
221.5
 20
230.5
 30
0.0
 11
221.5
 21
230.5
 31
0.0
1001
DBPROPERTIES
1002
{
1000
PbHidd
1002
}
  0
LINE
  5
299
330
1F
100
AcDbEntity
  8
HIDDEN
100
AcDbLine
 10
221.5
 20
226.5
 30
0.0
 11
221.5
 21
226.5
 31
0.0
1001
DBPROPERTIES
1002
{
1000
PbHidd
1002
}
  0
LINE
  5
29A
330
1F
100
AcDbEntity
  8
HIDDEN
100
AcDbLine
 10
221.5
 20
248.5
 30
0.0
 11
221.5
 21
248.5
 31
0.0
1001
DBPROPERTIES
1002
{
1000
PbHidd
1002
}
  0
LINE
  5
29B
330
1F
100
AcDbEntity
  8
HIDDEN
100
AcDbLine
 10
221.5
 20
248.5
 30
0.0
 11
221.5
 21
224.5
 31
0.0
1001
DBPROPERTIES
1002
{
1000
PbHidd
1002
}
  0
LINE
  5
29C
330
1F
100
AcDbEntity
  8
HIDDEN
100
AcDbLine
 10
-221.5
 20
248.5
 30
0.0
 11
221.5
 21
248.5
 31
0.0
1001
DBPROPERTIES
1002
{
1000
PbHidd
1002
}
  0
LINE
  5
29D
330
1F
100
AcDbEntity
  8
HIDDEN
100
AcDbLine
 10
-221.5
 20
248.5
 30
0.0
 11
-221.5
 21
224.5
 31
0.0
1001
DBPROPERTIES
1002
{
1000
PbHidd
1002
}
  0
LINE
  5
29E
330
1F
100
AcDbEntity
  8
HIDDEN
100
AcDbLine
 10
-221.5
 20
248.5
 30
0.0
 11
-221.5
 21
248.5
 31
0.0
1001
DBPROPERTIES
1002
{
1000
PbHidd
1002
}
  0
LINE
  5
29F
330
1F
100
AcDbEntity
  8
HIDDEN
100
AcDbLine
 10
-221.5
 20
226.5
 30
0.0
 11
-221.5
 21
226.5
 31
0.0
1001
DBPROPERTIES
1002
{
1000
PbHidd
1002
}
  0
LINE
  5
2A0
330
1F
100
AcDbEntity
  8
HIDDEN
100
AcDbLine
 10
-221.5
 20
226.5
 30
0.0
 11
-221.5
 21
226.5
 31
0.0
1001
DBPROPERTIES
1002
{
1000
PbHidd
1002
}
  0
LINE
  5
2A1
330
1F
100
AcDbEntity
  8
HIDDEN
100
AcDbLine
 10
-221.5
 20
230.5
 30
0.0
 11
-221.5
 21
230.5
 31
0.0
1001
DBPROPERTIES
1002
{
1000
PbHidd
1002
}
  0
LINE
  5
2A2
330
1F
100
AcDbEntity
  8
HIDDEN
100
AcDbLine
 10
-212.1
 20
230.5
 30
0.0
 11
-212.1
 21
230.5
 31
0.0
1001
DBPROPERTIES
1002
{
1000
PbHidd
1002
}
  0
LINE
  5
2A3
330
1F
100
AcDbEntity
  8
HIDDEN
100
AcDbLine
 10
-212.1
 20
226.5
 30
0.0
 11
-212.1
 21
226.5
 31
0.0
1001
DBPROPERTIES
1002
{
1000
PbHidd
1002
}
  0
LINE
  5
2A4
330
1F
100
AcDbEntity
  8
HIDDEN
100
AcDbLine
 10
-212.1
 20
226.5
 30
0.0
 11
-212.1
 21
230.5
 31
0.0
1001
DBPROPERTIES
1002
{
1000
PbHidd
1002
}
  0
LINE
  5
2A5
330
1F
100
AcDbEntity
  8
HIDDEN
100
AcDbLine
 10
-212.1
 20
226.5
 30
0.0
 11
-212.1
 21
226.5
 31
0.0
1001
DBPROPERTIES
1002
{
1000
PbHidd
1002
}
  0
LINE
  5
2A6
330
1F
100
AcDbEntity
  8
HIDDEN
100
AcDbLine
 10
-212.1
 20
230.5
 30
0.0
 11
-212.1
 21
230.5
 31
0.0
1001
DBPROPERTIES
1002
{
1000
PbHidd
1002
}
  0
LINE
  5
2A7
330
1F
100
AcDbEntity
  8
HIDDEN
100
AcDbLine
 10
226.5
 20
221.5
 30
0.0
 11
224.5
 21
221.5
 31
0.0
1001
DBPROPERTIES
1002
{
1000
PbHidd
1002
}
  0
LINE
  5
2A8
330
1F
100
AcDbEntity
  8
HIDDEN
100
AcDbLine
 10
224.5
 20
-221.5
 30
0.0
 11
226.5
 21
-221.5
 31
0.0
1001
DBPROPERTIES
1002
{
1000
PbHidd
1002
}
  0
LINE
  5
2A9
330
1F
100
AcDbEntity
  8
HIDDEN
100
AcDbLine
 10
-226.5
 20
-221.5
 30
0.0
 11
-224.5
 21
-221.5
 31
0.0
1001
DBPROPERTIES
1002
{
1000
PbHidd
1002
}
  0
LINE
  5
2AA
330
1F
100
AcDbEntity
  8
HIDDEN
100
AcDbLine
 10
-224.5
 20
221.5
 30
0.0
 11
-226.5
 21
221.5
 31
0.0
1001
DBPROPERTIES
1002
{
1000
PbHidd
1002
}
  0
LINE
  5
2AB
330
1F
100
AcDbEntity
  8
HIDDEN
100
AcDbLine
 10
222.5
 20
226.5
 30
0.0
 11
221.5
 21
226.5
 31
0.0
1001
DBPROPERTIES
1002
{
1000
PbHidd
1002
}
  0
LINE
  5
2AC
330
1F
100
AcDbEntity
  8
HIDDEN
100
AcDbLine
 10
223.5
 20
226.5
 30
0.0
 11
223.5
 21
226.5
 31
0.0
1001
DBPROPERTIES
1002
{
1000
PbHidd
1002
}
  0
LINE
  5
2AD
330
1F
100
AcDbEntity
  8
HIDDEN
100
AcDbLine
 10
222.5
 20
226.5
 30
0.0
 11
223.5
 21
226.5
 31
0.0
1001
DBPROPERTIES
1002
{
1000
PbHidd
1002
}
  0
LINE
  5
2AE
330
1F
100
AcDbEntity
  8
HIDDEN
100
AcDbLine
 10
-222.5
 20
226.5
 30
0.0
 11
-221.5
 21
226.5
 31
0.0
1001
DBPROPERTIES
1002
{
1000
PbHidd
1002
}
  0
LINE
  5
2AF
330
1F
100
AcDbEntity
  8
HIDDEN
100
AcDbLine
 10
-223.5
 20
226.5
 30
0.0
 11
-222.5
 21
226.5
 31
0.0
1001
DBPROPERTIES
1002
{
1000
PbHidd
1002
}
  0
LINE
  5
2B0
330
1F
100
AcDbEntity
  8
HIDDEN
100
AcDbLine
 10
-223.5
 20
226.5
 30
0.0
 11
-223.5
 21
226.5
 31
0.0
1001
DBPROPERTIES
1002
{
1000
PbHidd
1002
}
  0
LINE
  5
2B1
330
1F
100
AcDbEntity
  8
HIDDEN
100
AcDbLine
 10
-223.5
 20
226.5
 30
0.0
 11
-223.5
 21
226.5
 31
0.0
1001
DBPROPERTIES
1002
{
1000
PbHidd
1002
}
  0
LINE
  5
2B2
330
1F
100
AcDbEntity
  8
HIDDEN
100
AcDbLine
 10
223.5
 20
226.5
 30
0.0
 11
223.5
 21
226.5
 31
0.0
1001
DBPROPERTIES
1002
{
1000
PbHidd
1002
}
  0
LINE
  5
2B3
330
1F
100
AcDbEntity
  8
HIDDEN
100
AcDbLine
 10
212.1
 20
226.5
 30
0.0
 11
212.1
 21
226.5
 31
0.0
1001
DBPROPERTIES
1002
{
1000
PbHidd
1002
}
  0
LINE
  5
2B4
330
1F
100
AcDbEntity
  8
HIDDEN
100
AcDbLine
 10
-212.1
 20
226.5
 30
0.0
 11
-212.1
 21
226.5
 31
0.0
1001
DBPROPERTIES
1002
{
1000
PbHidd
1002
}
  0
LINE
  5
2B5
330
1F
100
AcDbEntity
  8
HIDDEN
100
AcDbLine
 10
212.1000000000001
 20
226.5
 30
0.0
 11
212.1000000000001
 21
226.5
 31
0.0
1001
DBPROPERTIES
1002
{
1000
PbHidd
1002
}
  0
LINE
  5
2B6
330
1F
100
AcDbEntity
  8
HIDDEN
100
AcDbLine
 10
-222.5
 20
230.5
 30
0.0
 11
-221.5
 21
230.5
 31
0.0
1001
DBPROPERTIES
1002
{
1000
PbHidd
1002
}
  0
LINE
  5
2B7
330
1F
100
AcDbEntity
  8
HIDDEN
100
AcDbLine
 10
-223.5
 20
230.5
 30
0.0
 11
-223.5
 21
230.5
 31
0.0
1001
DBPROPERTIES
1002
{
1000
PbHidd
1002
}
  0
LINE
  5
2B8
330
1F
100
AcDbEntity
  8
HIDDEN
100
AcDbLine
 10
-222.5
 20
230.5
 30
0.0
 11
-223.5
 21
230.5
 31
0.0
1001
DBPROPERTIES
1002
{
1000
PbHidd
1002
}
  0
LINE
  5
2B9
330
1F
100
AcDbEntity
  8
HIDDEN
100
AcDbLine
 10
212.1
 20
230.5
 30
0.0
 11
212.1
 21
230.5
 31
0.0
1001
DBPROPERTIES
1002
{
1000
PbHidd
1002
}
  0
LINE
  5
2BA
330
1F
100
AcDbEntity
  8
HIDDEN
100
AcDbLine
 10
212.1
 20
230.5
 30
0.0
 11
212.1
 21
230.5
 31
0.0
1001
DBPROPERTIES
1002
{
1000
PbHidd
1002
}
  0
LINE
  5
2BB
330
1F
100
AcDbEntity
  8
HIDDEN
100
AcDbLine
 10
-212.0999999999999
 20
230.5
 30
0.0
 11
-212.0999999999999
 21
230.5
 31
0.0
1001
DBPROPERTIES
1002
{
1000
PbHidd
1002
}
  0
LINE
  5
2BC
330
1F
100
AcDbEntity
  8
HIDDEN
100
AcDbLine
 10
222.5
 20
230.5
 30
0.0
 11
221.5
 21
230.5
 31
0.0
1001
DBPROPERTIES
1002
{
1000
PbHidd
1002
}
  0
LINE
  5
2BD
330
1F
100
AcDbEntity
  8
HIDDEN
100
AcDbLine
 10
223.5
 20
230.5
 30
0.0
 11
222.5
 21
230.5
 31
0.0
1001
DBPROPERTIES
1002
{
1000
PbHidd
1002
}
  0
LINE
  5
2BE
330
1F
100
AcDbEntity
  8
HIDDEN
100
AcDbLine
 10
223.5
 20
230.5
 30
0.0
 11
223.5
 21
230.5
 31
0.0
1001
DBPROPERTIES
1002
{
1000
PbHidd
1002
}
  0
LINE
  5
2BF
330
1F
100
AcDbEntity
  8
HIDDEN
100
AcDbLine
 10
212.1
 20
230.5
 30
0.0
 11
212.1
 21
230.5
 31
0.0
1001
DBPROPERTIES
1002
{
1000
PbHidd
1002
}
  0
LINE
  5
2C0
330
1F
100
AcDbEntity
  8
HIDDEN
100
AcDbLine
 10
-212.1
 20
230.5
 30
0.0
 11
-212.1
 21
230.5
 31
0.0
1001
DBPROPERTIES
1002
{
1000
PbHidd
1002
}
  0
LINE
  5
2C1
330
1F
100
AcDbEntity
  8
HIDDEN
100
AcDbLine
 10
212.1
 20
230.5
 30
0.0
 11
-212.1
 21
230.5
 31
0.0
1001
DBPROPERTIES
1002
{
1000
PbHidd
1002
}
  0
LINE
  5
2C2
330
1F
100
AcDbEntity
  8
HIDDEN
100
AcDbLine
 10
212.1
 20
230.5
 30
0.0
 11
212.1
 21
230.5
 31
0.0
1001
DBPROPERTIES
1002
{
1000
PbHidd
1002
}
  0
LINE
  5
2C3
330
1F
100
AcDbEntity
  8
HIDDEN
100
AcDbLine
 10
221.5
 20
-224.5
 30
0.0
 11
221.5
 21
-224.5
 31
0.0
1001
DBPROPERTIES
1002
{
1000
PbHidd
1002
}
  0
LINE
  5
2C4
330
1F
100
AcDbEntity
  8
HIDDEN
100
AcDbLine
 10
-221.5
 20
-224.5
 30
0.0
 11
-221.5
 21
-224.5
 31
0.0
1001
DBPROPERTIES
1002
{
1000
PbHidd
1002
}
  0
LINE
  5
2C5
330
1F
100
AcDbEntity
  8
HIDDEN
100
AcDbLine
 10
-221.5
 20
-224.5
 30
0.0
 11
221.5
 21
-224.5
 31
0.0
1001
DBPROPERTIES
1002
{
1000
PbHidd
1002
}
  0
LINE
  5
2C6
330
1F
100
AcDbEntity
  8
HIDDEN
100
AcDbLine
 10
-221.5
 20
-224.5
 30
0.0
 11
-221.5
 21
-224.5
 31
0.0
1001
DBPROPERTIES
1002
{
1000
PbHidd
1002
}
  0
LINE
  5
2C7
330
1F
100
AcDbEntity
  8
HIDDEN
100
AcDbLine
 10
221.5
 20
-224.5
 30
0.0
 11
221.5
 21
-224.5
 31
0.0
1001
DBPROPERTIES
1002
{
1000
PbHidd
1002
}
  0
LINE
  5
2C8
330
1F
100
AcDbEntity
  8
HIDDEN
100
AcDbLine
 10
221.5
 20
-226.5
 30
0.0
 11
221.5
 21
-226.5
 31
0.0
1001
DBPROPERTIES
1002
{
1000
PbHidd
1002
}
  0
LINE
  5
2C9
330
1F
100
AcDbEntity
  8
HIDDEN
100
AcDbLine
 10
221.5
 20
-230.5
 30
0.0
 11
221.5
 21
-230.5
 31
0.0
1001
DBPROPERTIES
1002
{
1000
PbHidd
1002
}
  0
LINE
  5
2CA
330
1F
100
AcDbEntity
  8
HIDDEN
100
AcDbLine
 10
221.5
 20
-226.5
 30
0.0
 11
221.5
 21
-226.5
 31
0.0
1001
DBPROPERTIES
1002
{
1000
PbHidd
1002
}
  0
LINE
  5
2CB
330
1F
100
AcDbEntity
  8
HIDDEN
100
AcDbLine
 10
221.4999999999999
 20
-248.5
 30
0.0
 11
221.4999999999999
 21
-224.5
 31
0.0
1001
DBPROPERTIES
1002
{
1000
PbHidd
1002
}
  0
LINE
  5
2CC
330
1F
100
AcDbEntity
  8
HIDDEN
100
AcDbLine
 10
221.4999999999999
 20
-248.5
 30
0.0
 11
221.4999999999999
 21
-248.5
 31
0.0
1001
DBPROPERTIES
1002
{
1000
PbHidd
1002
}
  0
LINE
  5
2CD
330
1F
100
AcDbEntity
  8
HIDDEN
100
AcDbLine
 10
221.5
 20
-248.5
 30
0.0
 11
-221.5
 21
-248.5
 31
0.0
1001
DBPROPERTIES
1002
{
1000
PbHidd
1002
}
  0
LINE
  5
2CE
330
1F
100
AcDbEntity
  8
HIDDEN
100
AcDbLine
 10
-221.5000000000001
 20
-248.5
 30
0.0
 11
-221.5000000000001
 21
-224.5
 31
0.0
1001
DBPROPERTIES
1002
{
1000
PbHidd
1002
}
  0
LINE
  5
2CF
330
1F
100
AcDbEntity
  8
HIDDEN
100
AcDbLine
 10
-221.5000000000001
 20
-248.5
 30
0.0
 11
-221.5000000000001
 21
-248.5
 31
0.0
1001
DBPROPERTIES
1002
{
1000
PbHidd
1002
}
  0
LINE
  5
2D0
330
1F
100
AcDbEntity
  8
HIDDEN
100
AcDbLine
 10
-221.5
 20
-226.5
 30
0.0
 11
-221.5
 21
-226.5
 31
0.0
1001
DBPROPERTIES
1002
{
1000
PbHidd
1002
}
  0
LINE
  5
2D1
330
1F
100
AcDbEntity
  8
HIDDEN
100
AcDbLine
 10
-221.5
 20
-226.5
 30
0.0
 11
-221.5
 21
-226.5
 31
0.0
1001
DBPROPERTIES
1002
{
1000
PbHidd
1002
}
  0
LINE
  5
2D2
330
1F
100
AcDbEntity
  8
HIDDEN
100
AcDbLine
 10
-221.5
 20
-230.5
 30
0.0
 11
-221.5
 21
-230.5
 31
0.0
1001
DBPROPERTIES
1002
{
1000
PbHidd
1002
}
  0
LINE
  5
2D3
330
1F
100
AcDbEntity
  8
HIDDEN
100
AcDbLine
 10
212.1
 20
-230.5
 30
0.0
 11
212.1
 21
-230.5
 31
0.0
1001
DBPROPERTIES
1002
{
1000
PbHidd
1002
}
  0
LINE
  5
2D4
330
1F
100
AcDbEntity
  8
HIDDEN
100
AcDbLine
 10
212.1
 20
-226.5
 30
0.0
 11
212.1
 21
-226.5
 31
0.0
1001
DBPROPERTIES
1002
{
1000
PbHidd
1002
}
  0
LINE
  5
2D5
330
1F
100
AcDbEntity
  8
HIDDEN
100
AcDbLine
 10
212.1
 20
-230.5
 30
0.0
 11
212.1
 21
-226.5
 31
0.0
1001
DBPROPERTIES
1002
{
1000
PbHidd
1002
}
  0
LINE
  5
2D6
330
1F
100
AcDbEntity
  8
HIDDEN
100
AcDbLine
 10
-221.5
 20
-230.5
 30
0.0
 11
-222.5000000000001
 21
-230.5
 31
0.0
1001
DBPROPERTIES
1002
{
1000
PbHidd
1002
}
  0
LINE
  5
2D7
330
1F
100
AcDbEntity
  8
HIDDEN
100
AcDbLine
 10
-222.5000000000001
 20
-226.5
 30
0.0
 11
-221.5
 21
-226.5
 31
0.0
1001
DBPROPERTIES
1002
{
1000
PbHidd
1002
}
  0
LINE
  5
2D8
330
1F
100
AcDbEntity
  8
HIDDEN
100
AcDbLine
 10
-223.4999999999999
 20
-226.5
 30
0.0
 11
-223.5
 21
-226.5
 31
0.0
1001
DBPROPERTIES
1002
{
1000
PbHidd
1002
}
  0
LINE
  5
2D9
330
1F
100
AcDbEntity
  8
HIDDEN
100
AcDbLine
 10
-222.5000000000001
 20
-226.5
 30
0.0
 11
-223.5
 21
-226.5
 31
0.0
1001
DBPROPERTIES
1002
{
1000
PbHidd
1002
}
  0
LINE
  5
2DA
330
1F
100
AcDbEntity
  8
HIDDEN
100
AcDbLine
 10
221.5
 20
-226.5
 30
0.0
 11
222.5
 21
-226.5
 31
0.0
1001
DBPROPERTIES
1002
{
1000
PbHidd
1002
}
  0
LINE
  5
2DB
330
1F
100
AcDbEntity
  8
HIDDEN
100
AcDbLine
 10
223.5
 20
-226.5
 30
0.0
 11
222.5
 21
-226.5
 31
0.0
1001
DBPROPERTIES
1002
{
1000
PbHidd
1002
}
  0
LINE
  5
2DC
330
1F
100
AcDbEntity
  8
HIDDEN
100
AcDbLine
 10
223.5
 20
-226.5
 30
0.0
 11
223.5
 21
-226.5
 31
0.0
1001
DBPROPERTIES
1002
{
1000
PbHidd
1002
}
  0
LINE
  5
2DD
330
1F
100
AcDbEntity
  8
HIDDEN
100
AcDbLine
 10
222.5
 20
-230.5
 30
0.0
 11
221.5
 21
-230.5
 31
0.0
1001
DBPROPERTIES
1002
{
1000
PbHidd
1002
}
  0
LINE
  5
2DE
330
1F
100
AcDbEntity
  8
HIDDEN
100
AcDbLine
 10
223.5
 20
-230.5
 30
0.0
 11
223.5
 21
-230.5
 31
0.0
1001
DBPROPERTIES
1002
{
1000
PbHidd
1002
}
  0
LINE
  5
2DF
330
1F
100
AcDbEntity
  8
HIDDEN
100
AcDbLine
 10
222.5
 20
-230.5
 30
0.0
 11
223.5
 21
-230.5
 31
0.0
1001
DBPROPERTIES
1002
{
1000
PbHidd
1002
}
  0
LINE
  5
2E0
330
1F
100
AcDbEntity
  8
HIDDEN
100
AcDbLine
 10
212.1
 20
-230.5
 30
0.0
 11
212.1
 21
-230.5
 31
0.0
1001
DBPROPERTIES
1002
{
1000
PbHidd
1002
}
  0
LINE
  5
2E1
330
1F
100
AcDbEntity
  8
HIDDEN
100
AcDbLine
 10
-212.1
 20
-230.5
 30
0.0
 11
-212.1
 21
-230.5
 31
0.0
1001
DBPROPERTIES
1002
{
1000
PbHidd
1002
}
  0
LINE
  5
2E2
330
1F
100
AcDbEntity
  8
HIDDEN
100
AcDbLine
 10
-212.1
 20
-230.5
 30
0.0
 11
-212.1
 21
-230.5
 31
0.0
1001
DBPROPERTIES
1002
{
1000
PbHidd
1002
}
  0
LINE
  5
2E3
330
1F
100
AcDbEntity
  8
HIDDEN
100
AcDbLine
 10
212.1000000000002
 20
-230.5
 30
0.0
 11
212.1000000000002
 21
-230.5
 31
0.0
1001
DBPROPERTIES
1002
{
1000
PbHidd
1002
}
  0
LINE
  5
2E4
330
1F
100
AcDbEntity
  8
HIDDEN
100
AcDbLine
 10
-223.5
 20
-230.5
 30
0.0
 11
-222.5000000000001
 21
-230.5
 31
0.0
1001
DBPROPERTIES
1002
{
1000
PbHidd
1002
}
  0
LINE
  5
2E5
330
1F
100
AcDbEntity
  8
HIDDEN
100
AcDbLine
 10
-223.5000000000001
 20
-230.5
 30
0.0
 11
-223.4999999999999
 21
-230.5
 31
0.0
1001
DBPROPERTIES
1002
{
1000
PbHidd
1002
}
  0
LINE
  5
2E6
330
1F
100
AcDbEntity
  8
HIDDEN
100
AcDbLine
 10
-212.1
 20
-230.5
 30
0.0
 11
-212.1
 21
-230.5
 31
0.0
1001
DBPROPERTIES
1002
{
1000
PbHidd
1002
}
  0
LINE
  5
2E7
330
1F
100
AcDbEntity
  8
HIDDEN
100
AcDbLine
 10
212.1
 20
-230.5
 30
0.0
 11
212.1
 21
-230.5
 31
0.0
1001
DBPROPERTIES
1002
{
1000
PbHidd
1002
}
  0
LINE
  5
2E8
330
1F
100
AcDbEntity
  8
HIDDEN
100
AcDbLine
 10
-212.1
 20
-230.5
 30
0.0
 11
212.1
 21
-230.5
 31
0.0
1001
DBPROPERTIES
1002
{
1000
PbHidd
1002
}
  0
LINE
  5
2E9
330
1F
100
AcDbEntity
  8
HIDDEN
100
AcDbLine
 10
-212.1000000000001
 20
-230.5
 30
0.0
 11
-212.1000000000001
 21
-230.5
 31
0.0
1001
DBPROPERTIES
1002
{
1000
PbHidd
1002
}
  0
LINE
  5
2EA
330
1F
100
AcDbEntity
  8
HIDDEN
100
AcDbLine
 10
-212.1
 20
-226.5
 30
0.0
 11
-212.1
 21
-226.5
 31
0.0
1001
DBPROPERTIES
1002
{
1000
PbHidd
1002
}
  0
LINE
  5
2EB
330
1F
100
AcDbEntity
  8
HIDDEN
100
AcDbLine
 10
212.1
 20
-226.5
 30
0.0
 11
212.1
 21
-226.5
 31
0.0
1001
DBPROPERTIES
1002
{
1000
PbHidd
1002
}
  0
LINE
  5
2EC
330
1F
100
AcDbEntity
  8
HIDDEN
100
AcDbLine
 10
212.1
 20
-226.5
 30
0.0
 11
212.1
 21
-226.5
 31
0.0
1001
DBPROPERTIES
1002
{
1000
PbHidd
1002
}
  0
LINE
  5
2ED
330
1F
100
AcDbEntity
  8
HIDDEN
100
AcDbLine
 10
-212.1
 20
-226.5
 30
0.0
 11
-212.1
 21
-226.5
 31
0.0
1001
DBPROPERTIES
1002
{
1000
PbHidd
1002
}
  0
LINE
  5
2EE
330
1F
100
AcDbEntity
  8
HIDDEN
100
AcDbLine
 10
223.5
 20
-226.5
 30
0.0
 11
223.5
 21
-226.5
 31
0.0
1001
DBPROPERTIES
1002
{
1000
PbHidd
1002
}
  0
LINE
  5
2EF
330
1F
100
AcDbEntity
  8
HIDDEN
100
AcDbLine
 10
221.5000000000001
 20
-221.5
 30
0.0
 11
221.5000000000001
 21
-221.5
 31
0.0
1001
DBPROPERTIES
1002
{
1000
PbHidd
1002
}
  0
LINE
  5
2F0
330
1F
100
AcDbEntity
  8
HIDDEN
100
AcDbLine
 10
221.5000000000001
 20
221.5
 30
0.0
 11
221.5000000000001
 21
221.5
 31
0.0
1001
DBPROPERTIES
1002
{
1000
PbHidd
1002
}
  0
LINE
  5
2F1
330
1F
100
AcDbEntity
  8
HIDDEN
100
AcDbLine
 10
221.5000000000001
 20
-212.1
 30
0.0
 11
221.5000000000001
 21
-212.1
 31
0.0
1001
DBPROPERTIES
1002
{
1000
PbHidd
1002
}
  0
LINE
  5
2F2
330
1F
100
AcDbEntity
  8
HIDDEN
100
AcDbLine
 10
221.5000000000001
 20
212.1
 30
0.0
 11
221.5000000000001
 21
212.1
 31
0.0
1001
DBPROPERTIES
1002
{
1000
PbHidd
1002
}
  0
LINE
  5
2F3
330
1F
100
AcDbEntity
  8
HIDDEN
100
AcDbLine
 10
-221.4999999999999
 20
221.5
 30
0.0
 11
-221.4999999999999
 21
221.5
 31
0.0
1001
DBPROPERTIES
1002
{
1000
PbHidd
1002
}
  0
LINE
  5
2F4
330
1F
100
AcDbEntity
  8
HIDDEN
100
AcDbLine
 10
-212.1
 20
221.5
 30
0.0
 11
-212.1
 21
221.5
 31
0.0
1001
DBPROPERTIES
1002
{
1000
PbHidd
1002
}
  0
LINE
  5
2F5
330
1F
100
AcDbEntity
  8
HIDDEN
100
AcDbLine
 10
212.1
 20
221.5
 30
0.0
 11
212.1
 21
221.5
 31
0.0
1001
DBPROPERTIES
1002
{
1000
PbHidd
1002
}
  0
LINE
  5
2F6
330
1F
100
AcDbEntity
  8
HIDDEN
100
AcDbLine
 10
-221.4999999999999
 20
-221.5
 30
0.0
 11
-221.4999999999999
 21
-221.5
 31
0.0
1001
DBPROPERTIES
1002
{
1000
PbHidd
1002
}
  0
LINE
  5
2F7
330
1F
100
AcDbEntity
  8
HIDDEN
100
AcDbLine
 10
-221.4999999999999
 20
-212.1
 30
0.0
 11
-221.4999999999999
 21
-212.1
 31
0.0
1001
DBPROPERTIES
1002
{
1000
PbHidd
1002
}
  0
LINE
  5
2F8
330
1F
100
AcDbEntity
  8
HIDDEN
100
AcDbLine
 10
-221.4999999999999
 20
212.1
 30
0.0
 11
-221.4999999999999
 21
212.1
 31
0.0
1001
DBPROPERTIES
1002
{
1000
PbHidd
1002
}
  0
LINE
  5
2F9
330
1F
100
AcDbEntity
  8
HIDDEN
100
AcDbLine
 10
-212.1
 20
-221.5
 30
0.0
 11
-212.1
 21
-221.5
 31
0.0
1001
DBPROPERTIES
1002
{
1000
PbHidd
1002
}
  0
LINE
  5
2FA
330
1F
100
AcDbEntity
  8
HIDDEN
100
AcDbLine
 10
212.1
 20
-221.5
 30
0.0
 11
212.1
 21
-221.5
 31
0.0
1001
DBPROPERTIES
1002
{
1000
PbHidd
1002
}
  0
LINE
  5
2FB
330
1F
100
AcDbEntity
  8
HIDDEN
100
AcDbLine
 10
222.5000000000001
 20
212.1
 30
0.0
 11
222.5000000000001
 21
212.1
 31
0.0
1001
DBPROPERTIES
1002
{
1000
PbHidd
1002
}
  0
LINE
  5
2FC
330
1F
100
AcDbEntity
  8
HIDDEN
100
AcDbLine
 10
212.1000000000001
 20
222.5
 30
0.0
 11
212.1000000000001
 21
222.5
 31
0.0
1001
DBPROPERTIES
1002
{
1000
PbHidd
1002
}
  0
LINE
  5
2FD
330
1F
100
AcDbEntity
  8
HIDDEN
100
AcDbLine
 10
-222.4999999999999
 20
212.1
 30
0.0
 11
-222.4999999999999
 21
212.1
 31
0.0
1001
DBPROPERTIES
1002
{
1000
PbHidd
1002
}
  0
LINE
  5
2FE
330
1F
100
AcDbEntity
  8
HIDDEN
100
AcDbLine
 10
212.1000000000001
 20
-222.5
 30
0.0
 11
212.1000000000001
 21
-222.5
 31
0.0
1001
DBPROPERTIES
1002
{
1000
PbHidd
1002
}
  0
LINE
  5
2FF
330
1F
100
AcDbEntity
  8
HIDDEN
100
AcDbLine
 10
-226.5
 20
-221.5
 30
0.0
 11
-226.5
 21
-221.5
 31
0.0
1001
DBPROPERTIES
1002
{
1000
PbHidd
1002
}
  0
LINE
  5
300
330
1F
100
AcDbEntity
  8
HIDDEN
100
AcDbLine
 10
-224.5
 20
-221.5
 30
0.0
 11
-224.5
 21
-221.5
 31
0.0
1001
DBPROPERTIES
1002
{
1000
PbHidd
1002
}
  0
LINE
  5
301
330
1F
100
AcDbEntity
  8
HIDDEN
100
AcDbLine
 10
226.5
 20
-221.5
 30
0.0
 11
226.5
 21
-221.5
 31
0.0
1001
DBPROPERTIES
1002
{
1000
PbHidd
1002
}
  0
LINE
  5
302
330
1F
100
AcDbEntity
  8
HIDDEN
100
AcDbLine
 10
224.5
 20
-221.5
 30
0.0
 11
224.5
 21
-221.5
 31
0.0
1001
DBPROPERTIES
1002
{
1000
PbHidd
1002
}
  0
LINE
  5
303
330
1F
100
AcDbEntity
  8
HIDDEN
100
AcDbLine
 10
-226.5
 20
221.5
 30
0.0
 11
-226.5
 21
221.5
 31
0.0
1001
DBPROPERTIES
1002
{
1000
PbHidd
1002
}
  0
LINE
  5
304
330
1F
100
AcDbEntity
  8
HIDDEN
100
AcDbLine
 10
-224.5
 20
221.5
 30
0.0
 11
-224.5
 21
221.5
 31
0.0
1001
DBPROPERTIES
1002
{
1000
PbHidd
1002
}
  0
LINE
  5
305
330
1F
100
AcDbEntity
  8
HIDDEN
100
AcDbLine
 10
226.5
 20
221.5
 30
0.0
 11
226.5
 21
221.5
 31
0.0
1001
DBPROPERTIES
1002
{
1000
PbHidd
1002
}
  0
LINE
  5
306
330
1F
100
AcDbEntity
  8
HIDDEN
100
AcDbLine
 10
224.5
 20
221.5
 30
0.0
 11
224.5
 21
221.5
 31
0.0
1001
DBPROPERTIES
1002
{
1000
PbHidd
1002
}
  0
LINE
  5
307
330
1F
100
AcDbEntity
  8
HIDDEN
100
AcDbLine
 10
-230.5
 20
-221.5
 30
0.0
 11
-226.5
 21
-221.5
 31
0.0
1001
DBPROPERTIES
1002
{
1000
PbHidd
1002
}
  0
LINE
  5
308
330
1F
100
AcDbEntity
  8
HIDDEN
100
AcDbLine
 10
-248.5
 20
-221.5
 30
0.0
 11
-248.5
 21
-221.5
 31
0.0
1001
DBPROPERTIES
1002
{
1000
PbHidd
1002
}
  0
LINE
  5
309
330
1F
100
AcDbEntity
  8
HIDDEN
100
AcDbLine
 10
-224.5
 20
-221.5
 30
0.0
 11
-224.5
 21
-221.5
 31
0.0
1001
DBPROPERTIES
1002
{
1000
PbHidd
1002
}
  0
LINE
  5
30A
330
1F
100
AcDbEntity
  8
HIDDEN
100
AcDbLine
 10
-226.5
 20
-221.5
 30
0.0
 11
-226.5
 21
-221.5
 31
0.0
1001
DBPROPERTIES
1002
{
1000
PbHidd
1002
}
  0
LINE
  5
30B
330
1F
100
AcDbEntity
  8
HIDDEN
100
AcDbLine
 10
-248.5
 20
221.5
 30
0.0
 11
-248.5
 21
221.5
 31
0.0
1001
DBPROPERTIES
1002
{
1000
PbHidd
1002
}
  0
LINE
  5
30C
330
1F
100
AcDbEntity
  8
HIDDEN
100
AcDbLine
 10
-226.5
 20
221.5
 30
0.0
 11
-230.5
 21
221.5
 31
0.0
1001
DBPROPERTIES
1002
{
1000
PbHidd
1002
}
  0
LINE
  5
30D
330
1F
100
AcDbEntity
  8
HIDDEN
100
AcDbLine
 10
-226.5
 20
221.5
 30
0.0
 11
-226.5
 21
221.5
 31
0.0
1001
DBPROPERTIES
1002
{
1000
PbHidd
1002
}
  0
LINE
  5
30E
330
1F
100
AcDbEntity
  8
HIDDEN
100
AcDbLine
 10
-224.5
 20
221.5
 30
0.0
 11
-224.5
 21
221.5
 31
0.0
1001
DBPROPERTIES
1002
{
1000
PbHidd
1002
}
  0
LINE
  5
30F
330
1F
100
AcDbEntity
  8
HIDDEN
100
AcDbLine
 10
226.5
 20
-221.5
 30
0.0
 11
230.5
 21
-221.5
 31
0.0
1001
DBPROPERTIES
1002
{
1000
PbHidd
1002
}
  0
LINE
  5
310
330
1F
100
AcDbEntity
  8
HIDDEN
100
AcDbLine
 10
226.5
 20
-221.5
 30
0.0
 11
226.5
 21
-221.5
 31
0.0
1001
DBPROPERTIES
1002
{
1000
PbHidd
1002
}
  0
LINE
  5
311
330
1F
100
AcDbEntity
  8
HIDDEN
100
AcDbLine
 10
224.5
 20
-221.5
 30
0.0
 11
224.5
 21
-221.5
 31
0.0
1001
DBPROPERTIES
1002
{
1000
PbHidd
1002
}
  0
LINE
  5
312
330
1F
100
AcDbEntity
  8
HIDDEN
100
AcDbLine
 10
248.5
 20
-221.5
 30
0.0
 11
248.5
 21
-221.5
 31
0.0
1001
DBPROPERTIES
1002
{
1000
PbHidd
1002
}
  0
LINE
  5
313
330
1F
100
AcDbEntity
  8
HIDDEN
100
AcDbLine
 10
248.5
 20
-221.5
 30
0.0
 11
230.5
 21
-221.5
 31
0.0
1001
DBPROPERTIES
1002
{
1000
PbHidd
1002
}
  0
LINE
  5
314
330
1F
100
AcDbEntity
  8
HIDDEN
100
AcDbLine
 10
230.5
 20
-221.5
 30
0.0
 11
230.5
 21
-221.5
 31
0.0
1001
DBPROPERTIES
1002
{
1000
PbHidd
1002
}
  0
LINE
  5
315
330
1F
100
AcDbEntity
  8
HIDDEN
100
AcDbLine
 10
224.5
 20
221.5
 30
0.0
 11
224.5
 21
221.5
 31
0.0
1001
DBPROPERTIES
1002
{
1000
PbHidd
1002
}
  0
LINE
  5
316
330
1F
100
AcDbEntity
  8
HIDDEN
100
AcDbLine
 10
230.5
 20
221.5
 30
0.0
 11
248.5
 21
221.5
 31
0.0
1001
DBPROPERTIES
1002
{
1000
PbHidd
1002
}
  0
LINE
  5
317
330
1F
100
AcDbEntity
  8
HIDDEN
100
AcDbLine
 10
248.5
 20
221.5
 30
0.0
 11
248.5
 21
-221.5
 31
0.0
1001
DBPROPERTIES
1002
{
1000
PbHidd
1002
}
  0
LINE
  5
318
330
1F
100
AcDbEntity
  8
HIDDEN
100
AcDbLine
 10
248.5
 20
221.5
 30
0.0
 11
248.5
 21
221.5
 31
0.0
1001
DBPROPERTIES
1002
{
1000
PbHidd
1002
}
  0
LINE
  5
319
330
1F
100
AcDbEntity
  8
HIDDEN
100
AcDbLine
 10
230.5
 20
221.5
 30
0.0
 11
226.5
 21
221.5
 31
0.0
1001
DBPROPERTIES
1002
{
1000
PbHidd
1002
}
  0
LINE
  5
31A
330
1F
100
AcDbEntity
  8
HIDDEN
100
AcDbLine
 10
230.5
 20
221.5
 30
0.0
 11
230.5
 21
221.5
 31
0.0
1001
DBPROPERTIES
1002
{
1000
PbHidd
1002
}
  0
LINE
  5
31B
330
1F
100
AcDbEntity
  8
HIDDEN
100
AcDbLine
 10
226.5
 20
221.5
 30
0.0
 11
226.5
 21
221.5
 31
0.0
1001
DBPROPERTIES
1002
{
1000
PbHidd
1002
}
  0
LINE
  5
31C
330
1F
100
AcDbEntity
  8
HIDDEN
100
AcDbLine
 10
-230.5
 20
212.1
 30
0.0
 11
-230.5
 21
212.1
 31
0.0
1001
DBPROPERTIES
1002
{
1000
PbHidd
1002
}
  0
LINE
  5
31D
330
1F
100
AcDbEntity
  8
HIDDEN
100
AcDbLine
 10
-226.5
 20
212.1
 30
0.0
 11
-226.5
 21
212.1
 31
0.0
1001
DBPROPERTIES
1002
{
1000
PbHidd
1002
}
  0
LINE
  5
31E
330
1F
100
AcDbEntity
  8
HIDDEN
100
AcDbLine
 10
230.5
 20
-212.1
 30
0.0
 11
230.5
 21
-212.1
 31
0.0
1001
DBPROPERTIES
1002
{
1000
PbHidd
1002
}
  0
LINE
  5
31F
330
1F
100
AcDbEntity
  8
HIDDEN
100
AcDbLine
 10
226.5
 20
-212.1
 30
0.0
 11
226.5
 21
-212.1
 31
0.0
1001
DBPROPERTIES
1002
{
1000
PbHidd
1002
}
  0
LINE
  5
320
330
1F
100
AcDbEntity
  8
HIDDEN
100
AcDbLine
 10
-223.4999999999999
 20
-223.5
 30
0.0
 11
-223.5
 21
-223.5
 31
0.0
1001
DBPROPERTIES
1002
{
1000
PbHidd
1002
}
  0
LINE
  5
321
330
1F
100
AcDbEntity
  8
HIDDEN
100
AcDbLine
 10
-226.5
 20
-223.5
 30
0.0
 11
-226.4999999999999
 21
-223.5
 31
0.0
1001
DBPROPERTIES
1002
{
1000
PbHidd
1002
}
  0
LINE
  5
322
330
1F
100
AcDbEntity
  8
HIDDEN
100
AcDbLine
 10
-223.4999999999999
 20
-223.5
 30
0.0
 11
-226.5
 21
-223.5
 31
0.0
1001
DBPROPERTIES
1002
{
1000
PbHidd
1002
}
  0
LINE
  5
323
330
1F
100
AcDbEntity
  8
HIDDEN
100
AcDbLine
 10
-226.5000000000001
 20
-223.5
 30
0.0
 11
-226.5
 21
-223.5
 31
0.0
1001
DBPROPERTIES
1002
{
1000
PbHidd
1002
}
  0
LINE
  5
324
330
1F
100
AcDbEntity
  8
HIDDEN
100
AcDbLine
 10
-223.5
 20
-223.5
 30
0.0
 11
-223.5000000000001
 21
-223.5
 31
0.0
1001
DBPROPERTIES
1002
{
1000
PbHidd
1002
}
  0
LINE
  5
325
330
1F
100
AcDbEntity
  8
HIDDEN
100
AcDbLine
 10
-223.5
 20
-226.5
 30
0.0
 11
-223.5
 21
-223.5
 31
0.0
1001
DBPROPERTIES
1002
{
1000
PbHidd
1002
}
  0
LINE
  5
326
330
1F
100
AcDbEntity
  8
HIDDEN
100
AcDbLine
 10
-223.5
 20
-226.5
 30
0.0
 11
-223.5000000000001
 21
-226.5
 31
0.0
1001
DBPROPERTIES
1002
{
1000
PbHidd
1002
}
  0
LINE
  5
327
330
1F
100
AcDbEntity
  8
HIDDEN
100
AcDbLine
 10
-212.1
 20
-226.5
 30
0.0
 11
-212.1
 21
-226.5
 31
0.0
1001
DBPROPERTIES
1002
{
1000
PbHidd
1002
}
  0
LINE
  5
328
330
1F
100
AcDbEntity
  8
HIDDEN
100
AcDbLine
 10
-212.1
 20
-226.5
 30
0.0
 11
-212.1
 21
-226.5
 31
0.0
1001
DBPROPERTIES
1002
{
1000
PbHidd
1002
}
  0
LINE
  5
329
330
1F
100
AcDbEntity
  8
HIDDEN
100
AcDbLine
 10
212.1
 20
-226.5
 30
0.0
 11
-212.1
 21
-226.5
 31
0.0
1001
DBPROPERTIES
1002
{
1000
PbHidd
1002
}
  0
LINE
  5
32A
330
1F
100
AcDbEntity
  8
HIDDEN
100
AcDbLine
 10
212.1
 20
-226.5
 30
0.0
 11
212.1
 21
-226.5
 31
0.0
1001
DBPROPERTIES
1002
{
1000
PbHidd
1002
}
  0
LINE
  5
32B
330
1F
100
AcDbEntity
  8
HIDDEN
100
AcDbLine
 10
223.5
 20
-223.5
 30
0.0
 11
223.5
 21
-223.5
 31
0.0
1001
DBPROPERTIES
1002
{
1000
PbHidd
1002
}
  0
LINE
  5
32C
330
1F
100
AcDbEntity
  8
HIDDEN
100
AcDbLine
 10
223.5
 20
-223.5
 30
0.0
 11
223.5
 21
-226.5
 31
0.0
1001
DBPROPERTIES
1002
{
1000
PbHidd
1002
}
  0
LINE
  5
32D
330
1F
100
AcDbEntity
  8
HIDDEN
100
AcDbLine
 10
226.5
 20
-223.5
 30
0.0
 11
226.5
 21
-223.5
 31
0.0
1001
DBPROPERTIES
1002
{
1000
PbHidd
1002
}
  0
LINE
  5
32E
330
1F
100
AcDbEntity
  8
HIDDEN
100
AcDbLine
 10
226.5
 20
-223.5
 30
0.0
 11
223.5
 21
-223.5
 31
0.0
1001
DBPROPERTIES
1002
{
1000
PbHidd
1002
}
  0
LINE
  5
32F
330
1F
100
AcDbEntity
  8
HIDDEN
100
AcDbLine
 10
-226.5
 20
198.0
 30
0.0
 11
-226.5
 21
198.0
 31
0.0
1001
DBPROPERTIES
1002
{
1000
PbHidd
1002
}
  0
LINE
  5
330
330
1F
100
AcDbEntity
  8
HIDDEN
100
AcDbLine
 10
-226.5
 20
198.0
 30
0.0
 11
-230.5
 21
198.0
 31
0.0
1001
DBPROPERTIES
1002
{
1000
PbHidd
1002
}
  0
LINE
  5
331
330
1F
100
AcDbEntity
  8
HIDDEN
100
AcDbLine
 10
-226.5
 20
223.5
 30
0.0
 11
-226.5
 21
223.5
 31
0.0
1001
DBPROPERTIES
1002
{
1000
PbHidd
1002
}
  0
LINE
  5
332
330
1F
100
AcDbEntity
  8
HIDDEN
100
AcDbLine
 10
-226.5000000000001
 20
222.5
 30
0.0
 11
-226.5000000000001
 21
223.5
 31
0.0
1001
DBPROPERTIES
1002
{
1000
PbHidd
1002
}
  0
LINE
  5
333
330
1F
100
AcDbEntity
  8
HIDDEN
100
AcDbLine
 10
-226.5
 20
222.5
 30
0.0
 11
-226.5
 21
212.1
 31
0.0
1001
DBPROPERTIES
1002
{
1000
PbHidd
1002
}
  0
LINE
  5
334
330
1F
100
AcDbEntity
  8
HIDDEN
100
AcDbLine
 10
-226.5
 20
212.1
 30
0.0
 11
-226.5
 21
212.1
 31
0.0
1001
DBPROPERTIES
1002
{
1000
PbHidd
1002
}
  0
LINE
  5
335
330
1F
100
AcDbEntity
  8
HIDDEN
100
AcDbLine
 10
-226.5
 20
212.1
 30
0.0
 11
-226.5
 21
212.1
 31
0.0
1001
DBPROPERTIES
1002
{
1000
PbHidd
1002
}
  0
LINE
  5
336
330
1F
100
AcDbEntity
  8
HIDDEN
100
AcDbLine
 10
-226.5
 20
-212.1
 30
0.0
 11
-226.5
 21
212.1
 31
0.0
1001
DBPROPERTIES
1002
{
1000
PbHidd
1002
}
  0
LINE
  5
337
330
1F
100
AcDbEntity
  8
HIDDEN
100
AcDbLine
 10
-226.5
 20
-212.0999999999999
 30
0.0
 11
-226.5
 21
-212.0999999999999
 31
0.0
1001
DBPROPERTIES
1002
{
1000
PbHidd
1002
}
  0
LINE
  5
338
330
1F
100
AcDbEntity
  8
HIDDEN
100
AcDbLine
 10
-226.5
 20
-212.1
 30
0.0
 11
-226.5
 21
-212.1
 31
0.0
1001
DBPROPERTIES
1002
{
1000
PbHidd
1002
}
  0
LINE
  5
339
330
1F
100
AcDbEntity
  8
HIDDEN
100
AcDbLine
 10
-226.5
 20
-222.4999999999999
 30
0.0
 11
-226.5
 21
-212.1
 31
0.0
1001
DBPROPERTIES
1002
{
1000
PbHidd
1002
}
  0
LINE
  5
33A
330
1F
100
AcDbEntity
  8
HIDDEN
100
AcDbLine
 10
-226.5
 20
-223.5
 30
0.0
 11
-226.5
 21
-222.4999999999999
 31
0.0
1001
DBPROPERTIES
1002
{
1000
PbHidd
1002
}
  0
LINE
  5
33B
330
1F
100
AcDbEntity
  8
HIDDEN
100
AcDbLine
 10
-226.5
 20
223.5
 30
0.0
 11
-226.5
 21
223.5
 31
0.0
1001
DBPROPERTIES
1002
{
1000
PbHidd
1002
}
  0
LINE
  5
33C
330
1F
100
AcDbEntity
  8
HIDDEN
100
AcDbLine
 10
-226.5
 20
-212.1
 30
0.0
 11
-226.5
 21
-212.1
 31
0.0
1001
DBPROPERTIES
1002
{
1000
PbHidd
1002
}
  0
LINE
  5
33D
330
1F
100
AcDbEntity
  8
HIDDEN
100
AcDbLine
 10
-226.5
 20
-212.1
 30
0.0
 11
-226.5
 21
-212.1
 31
0.0
1001
DBPROPERTIES
1002
{
1000
PbHidd
1002
}
  0
LINE
  5
33E
330
1F
100
AcDbEntity
  8
HIDDEN
100
AcDbLine
 10
-226.5000000000001
 20
212.1
 30
0.0
 11
-226.5000000000001
 21
212.1
 31
0.0
1001
DBPROPERTIES
1002
{
1000
PbHidd
1002
}
  0
LINE
  5
33F
330
1F
100
AcDbEntity
  8
HIDDEN
100
AcDbLine
 10
-223.5
 20
223.5
 30
0.0
 11
-223.5
 21
223.5
 31
0.0
1001
DBPROPERTIES
1002
{
1000
PbHidd
1002
}
  0
LINE
  5
340
330
1F
100
AcDbEntity
  8
HIDDEN
100
AcDbLine
 10
-226.5
 20
223.5
 30
0.0
 11
-223.5
 21
223.5
 31
0.0
1001
DBPROPERTIES
1002
{
1000
PbHidd
1002
}
  0
LINE
  5
341
330
1F
100
AcDbEntity
  8
HIDDEN
100
AcDbLine
 10
-223.5
 20
223.5
 30
0.0
 11
-223.5
 21
226.5
 31
0.0
1001
DBPROPERTIES
1002
{
1000
PbHidd
1002
}
  0
LINE
  5
342
330
1F
100
AcDbEntity
  8
HIDDEN
100
AcDbLine
 10
230.5
 20
223.5
 30
0.0
 11
230.5
 21
223.5
 31
0.0
1001
DBPROPERTIES
1002
{
1000
PbHidd
1002
}
  0
LINE
  5
343
330
1F
100
AcDbEntity
  8
HIDDEN
100
AcDbLine
 10
230.5
 20
222.5
 30
0.0
 11
230.5
 21
223.5
 31
0.0
1001
DBPROPERTIES
1002
{
1000
PbHidd
1002
}
  0
LINE
  5
344
330
1F
100
AcDbEntity
  8
HIDDEN
100
AcDbLine
 10
230.5
 20
222.5
 30
0.0
 11
230.5
 21
212.1
 31
0.0
1001
DBPROPERTIES
1002
{
1000
PbHidd
1002
}
  0
LINE
  5
345
330
1F
100
AcDbEntity
  8
HIDDEN
100
AcDbLine
 10
230.5
 20
212.1
 30
0.0
 11
230.5
 21
212.1
 31
0.0
1001
DBPROPERTIES
1002
{
1000
PbHidd
1002
}
  0
LINE
  5
346
330
1F
100
AcDbEntity
  8
HIDDEN
100
AcDbLine
 10
230.5
 20
212.1
 30
0.0
 11
230.5
 21
212.1
 31
0.0
1001
DBPROPERTIES
1002
{
1000
PbHidd
1002
}
  0
LINE
  5
347
330
1F
100
AcDbEntity
  8
HIDDEN
100
AcDbLine
 10
230.4999999999999
 20
-212.1000000000001
 30
0.0
 11
230.5000000000001
 21
212.0999999999999
 31
0.0
1001
DBPROPERTIES
1002
{
1000
PbHidd
1002
}
  0
LINE
  5
348
330
1F
100
AcDbEntity
  8
HIDDEN
100
AcDbLine
 10
230.4999999999999
 20
-212.0999999999999
 30
0.0
 11
230.4999999999999
 21
-212.0999999999999
 31
0.0
1001
DBPROPERTIES
1002
{
1000
PbHidd
1002
}
  0
LINE
  5
349
330
1F
100
AcDbEntity
  8
HIDDEN
100
AcDbLine
 10
230.5
 20
-212.1
 30
0.0
 11
230.5
 21
-212.1
 31
0.0
1001
DBPROPERTIES
1002
{
1000
PbHidd
1002
}
  0
LINE
  5
34A
330
1F
100
AcDbEntity
  8
HIDDEN
100
AcDbLine
 10
230.5
 20
-222.5
 30
0.0
 11
230.5
 21
-212.1
 31
0.0
1001
DBPROPERTIES
1002
{
1000
PbHidd
1002
}
  0
LINE
  5
34B
330
1F
100
AcDbEntity
  8
HIDDEN
100
AcDbLine
 10
230.5
 20
-223.5
 30
0.0
 11
230.5
 21
-222.5
 31
0.0
1001
DBPROPERTIES
1002
{
1000
PbHidd
1002
}
  0
LINE
  5
34C
330
1F
100
AcDbEntity
  8
HIDDEN
100
AcDbLine
 10
230.5
 20
-223.5
 30
0.0
 11
230.5
 21
-223.5
 31
0.0
1001
DBPROPERTIES
1002
{
1000
PbHidd
1002
}
  0
LINE
  5
34D
330
1F
100
AcDbEntity
  8
HIDDEN
100
AcDbLine
 10
230.5
 20
198.0
 30
0.0
 11
230.5
 21
198.0
 31
0.0
1001
DBPROPERTIES
1002
{
1000
PbHidd
1002
}
  0
LINE
  5
34E
330
1F
100
AcDbEntity
  8
HIDDEN
100
AcDbLine
 10
226.5
 20
223.5
 30
0.0
 11
226.5
 21
223.5
 31
0.0
1001
DBPROPERTIES
1002
{
1000
PbHidd
1002
}
  0
LINE
  5
34F
330
1F
100
AcDbEntity
  8
HIDDEN
100
AcDbLine
 10
226.5
 20
-222.5
 30
0.0
 11
226.5
 21
-223.5
 31
0.0
1001
DBPROPERTIES
1002
{
1000
PbHidd
1002
}
  0
LINE
  5
350
330
1F
100
AcDbEntity
  8
HIDDEN
100
AcDbLine
 10
226.5
 20
-222.5
 30
0.0
 11
226.5
 21
-212.1
 31
0.0
1001
DBPROPERTIES
1002
{
1000
PbHidd
1002
}
  0
LINE
  5
351
330
1F
100
AcDbEntity
  8
HIDDEN
100
AcDbLine
 10
226.5
 20
-212.1
 30
0.0
 11
226.5
 21
-212.1
 31
0.0
1001
DBPROPERTIES
1002
{
1000
PbHidd
1002
}
  0
LINE
  5
352
330
1F
100
AcDbEntity
  8
HIDDEN
100
AcDbLine
 10
226.5
 20
-212.1
 30
0.0
 11
226.5
 21
-212.1
 31
0.0
1001
DBPROPERTIES
1002
{
1000
PbHidd
1002
}
  0
LINE
  5
353
330
1F
100
AcDbEntity
  8
HIDDEN
100
AcDbLine
 10
226.5000000000001
 20
212.0999999999999
 30
0.0
 11
226.4999999999999
 21
-212.1000000000001
 31
0.0
1001
DBPROPERTIES
1002
{
1000
PbHidd
1002
}
  0
LINE
  5
354
330
1F
100
AcDbEntity
  8
HIDDEN
100
AcDbLine
 10
226.5000000000001
 20
212.1
 30
0.0
 11
226.5000000000001
 21
212.1
 31
0.0
1001
DBPROPERTIES
1002
{
1000
PbHidd
1002
}
  0
LINE
  5
355
330
1F
100
AcDbEntity
  8
HIDDEN
100
AcDbLine
 10
226.5
 20
212.1
 30
0.0
 11
226.5
 21
212.1
 31
0.0
1001
DBPROPERTIES
1002
{
1000
PbHidd
1002
}
  0
LINE
  5
356
330
1F
100
AcDbEntity
  8
HIDDEN
100
AcDbLine
 10
226.5
 20
212.1
 30
0.0
 11
226.5
 21
222.5
 31
0.0
1001
DBPROPERTIES
1002
{
1000
PbHidd
1002
}
  0
LINE
  5
357
330
1F
100
AcDbEntity
  8
HIDDEN
100
AcDbLine
 10
226.5
 20
223.5
 30
0.0
 11
226.5
 21
222.5
 31
0.0
1001
DBPROPERTIES
1002
{
1000
PbHidd
1002
}
  0
LINE
  5
358
330
1F
100
AcDbEntity
  8
HIDDEN
100
AcDbLine
 10
226.5
 20
223.5
 30
0.0
 11
226.5
 21
223.5
 31
0.0
1001
DBPROPERTIES
1002
{
1000
PbHidd
1002
}
  0
LINE
  5
359
330
1F
100
AcDbEntity
  8
HIDDEN
100
AcDbLine
 10
226.5
 20
198.0
 30
0.0
 11
226.5
 21
198.0
 31
0.0
1001
DBPROPERTIES
1002
{
1000
PbHidd
1002
}
  0
LINE
  5
35A
330
1F
100
AcDbEntity
  8
HIDDEN
100
AcDbLine
 10
226.5
 20
-223.5
 30
0.0
 11
226.5
 21
-223.5
 31
0.0
1001
DBPROPERTIES
1002
{
1000
PbHidd
1002
}
  0
LINE
  5
35B
330
1F
100
AcDbEntity
  8
HIDDEN
100
AcDbLine
 10
226.5
 20
212.1
 30
0.0
 11
226.5
 21
212.1
 31
0.0
1001
DBPROPERTIES
1002
{
1000
PbHidd
1002
}
  0
LINE
  5
35C
330
1F
100
AcDbEntity
  8
HIDDEN
100
AcDbLine
 10
226.5
 20
212.1
 30
0.0
 11
226.5
 21
212.1
 31
0.0
1001
DBPROPERTIES
1002
{
1000
PbHidd
1002
}
  0
LINE
  5
35D
330
1F
100
AcDbEntity
  8
HIDDEN
100
AcDbLine
 10
226.5000000000001
 20
-212.0999999999999
 30
0.0
 11
226.5000000000001
 21
-212.0999999999999
 31
0.0
1001
DBPROPERTIES
1002
{
1000
PbHidd
1002
}
  0
LINE
  5
35E
330
1F
100
AcDbEntity
  8
HIDDEN
100
AcDbLine
 10
223.5
 20
223.5
 30
0.0
 11
223.5
 21
223.5
 31
0.0
1001
DBPROPERTIES
1002
{
1000
PbHidd
1002
}
  0
LINE
  5
35F
330
1F
100
AcDbEntity
  8
HIDDEN
100
AcDbLine
 10
223.5
 20
223.5
 30
0.0
 11
226.5
 21
223.5
 31
0.0
1001
DBPROPERTIES
1002
{
1000
PbHidd
1002
}
  0
LINE
  5
360
330
1F
100
AcDbEntity
  8
HIDDEN
100
AcDbLine
 10
223.5
 20
223.5
 30
0.0
 11
223.5
 21
223.5
 31
0.0
1001
DBPROPERTIES
1002
{
1000
PbHidd
1002
}
  0
LINE
  5
361
330
1F
100
AcDbEntity
  8
HIDDEN
100
AcDbLine
 10
223.5
 20
226.5
 30
0.0
 11
223.5
 21
223.5
 31
0.0
1001
DBPROPERTIES
1002
{
1000
PbHidd
1002
}
  0
LINE
  5
362
330
1F
100
AcDbEntity
  8
HIDDEN
100
AcDbLine
 10
212.1
 20
226.5
 30
0.0
 11
212.1
 21
226.5
 31
0.0
1001
DBPROPERTIES
1002
{
1000
PbHidd
1002
}
  0
LINE
  5
363
330
1F
100
AcDbEntity
  8
HIDDEN
100
AcDbLine
 10
212.1
 20
226.5
 30
0.0
 11
212.1
 21
226.5
 31
0.0
1001
DBPROPERTIES
1002
{
1000
PbHidd
1002
}
  0
LINE
  5
364
330
1F
100
AcDbEntity
  8
HIDDEN
100
AcDbLine
 10
-212.1
 20
226.5
 30
0.0
 11
212.1
 21
226.5
 31
0.0
1001
DBPROPERTIES
1002
{
1000
PbHidd
1002
}
  0
LINE
  5
365
330
1F
100
AcDbEntity
  8
HIDDEN
100
AcDbLine
 10
-212.1
 20
226.5
 30
0.0
 11
-212.1
 21
226.5
 31
0.0
1001
DBPROPERTIES
1002
{
1000
PbHidd
1002
}
  0
LINE
  5
366
330
1F
100
AcDbEntity
  8
THICK
100
AcDbLine
 10
221.5
 20
-221.5
 30
0.0
 11
221.5
 21
221.5
 31
0.0
1001
DBPROPERTIES
1002
{
1000
PbThick
1002
}
  0
LINE
  5
367
330
1F
100
AcDbEntity
  8
HIDDEN
100
AcDbLine
 10
221.5
 20
-221.5
 30
0.0
 11
221.5
 21
-221.5
 31
0.0
1001
DBPROPERTIES
1002
{
1000
PbHidd
1002
}
  0
LINE
  5
368
330
1F
100
AcDbEntity
  8
HIDDEN
100
AcDbLine
 10
221.5
 20
221.5
 30
0.0
 11
221.5
 21
221.5
 31
0.0
1001
DBPROPERTIES
1002
{
1000
PbHidd
1002
}
  0
LINE
  5
369
330
1F
100
AcDbEntity
  8
HIDDEN
100
AcDbLine
 10
221.5
 20
-212.1
 30
0.0
 11
221.5
 21
-212.1
 31
0.0
1001
DBPROPERTIES
1002
{
1000
PbHidd
1002
}
  0
LINE
  5
36A
330
1F
100
AcDbEntity
  8
HIDDEN
100
AcDbLine
 10
221.5
 20
212.1
 30
0.0
 11
221.5
 21
212.1
 31
0.0
1001
DBPROPERTIES
1002
{
1000
PbHidd
1002
}
  0
LINE
  5
36B
330
1F
100
AcDbEntity
  8
THICK
100
AcDbLine
 10
-221.5
 20
-221.5
 30
0.0
 11
221.5
 21
-221.5
 31
0.0
1001
DBPROPERTIES
1002
{
1000
PbThick
1002
}
  0
LINE
  5
36C
330
1F
100
AcDbEntity
  8
HIDDEN
100
AcDbLine
 10
-221.5
 20
-221.5
 30
0.0
 11
-221.5
 21
-221.5
 31
0.0
1001
DBPROPERTIES
1002
{
1000
PbHidd
1002
}
  0
LINE
  5
36D
330
1F
100
AcDbEntity
  8
HIDDEN
100
AcDbLine
 10
212.1
 20
-221.5
 30
0.0
 11
212.1
 21
-221.5
 31
0.0
1001
DBPROPERTIES
1002
{
1000
PbHidd
1002
}
  0
LINE
  5
36E
330
1F
100
AcDbEntity
  8
HIDDEN
100
AcDbLine
 10
-212.1
 20
-221.5
 30
0.0
 11
-212.1
 21
-221.5
 31
0.0
1001
DBPROPERTIES
1002
{
1000
PbHidd
1002
}
  0
LINE
  5
36F
330
1F
100
AcDbEntity
  8
THICK
100
AcDbLine
 10
-221.5
 20
221.5
 30
0.0
 11
-221.5
 21
-221.5
 31
0.0
1001
DBPROPERTIES
1002
{
1000
PbThick
1002
}
  0
LINE
  5
370
330
1F
100
AcDbEntity
  8
HIDDEN
100
AcDbLine
 10
-221.5
 20
221.5
 30
0.0
 11
-221.5
 21
221.5
 31
0.0
1001
DBPROPERTIES
1002
{
1000
PbHidd
1002
}
  0
LINE
  5
371
330
1F
100
AcDbEntity
  8
HIDDEN
100
AcDbLine
 10
-221.5
 20
212.1
 30
0.0
 11
-221.5
 21
212.1
 31
0.0
1001
DBPROPERTIES
1002
{
1000
PbHidd
1002
}
  0
LINE
  5
372
330
1F
100
AcDbEntity
  8
HIDDEN
100
AcDbLine
 10
-221.5
 20
-212.1
 30
0.0
 11
-221.5
 21
-212.1
 31
0.0
1001
DBPROPERTIES
1002
{
1000
PbHidd
1002
}
  0
LINE
  5
373
330
1F
100
AcDbEntity
  8
THICK
100
AcDbLine
 10
221.5
 20
221.5
 30
0.0
 11
-221.5
 21
221.5
 31
0.0
1001
DBPROPERTIES
1002
{
1000
PbThick
1002
}
  0
LINE
  5
374
330
1F
100
AcDbEntity
  8
HIDDEN
100
AcDbLine
 10
212.1
 20
221.5
 30
0.0
 11
212.1
 21
221.5
 31
0.0
1001
DBPROPERTIES
1002
{
1000
PbHidd
1002
}
  0
LINE
  5
375
330
1F
100
AcDbEntity
  8
HIDDEN
100
AcDbLine
 10
-212.1
 20
221.5
 30
0.0
 11
-212.1
 21
221.5
 31
0.0
1001
DBPROPERTIES
1002
{
1000
PbHidd
1002
}
  0
LINE
  5
376
330
1F
100
AcDbEntity
  8
THICK
100
AcDbLine
 10
222.5
 20
212.1
 30
0.0
 11
221.5
 21
212.1
 31
0.0
1001
DBPROPERTIES
1002
{
1000
PbThick
1002
}
  0
LINE
  5
377
330
1F
100
AcDbEntity
  8
HIDDEN
100
AcDbLine
 10
222.5
 20
212.1
 30
0.0
 11
222.5
 21
212.1
 31
0.0
1001
DBPROPERTIES
1002
{
1000
PbHidd
1002
}
  0
LINE
  5
378
330
1F
100
AcDbEntity
  8
THICK
100
AcDbLine
 10
-212.1
 20
-221.5
 30
0.0
 11
-212.1
 21
-222.5
 31
0.0
1001
DBPROPERTIES
1002
{
1000
PbThick
1002
}
  0
LINE
  5
379
330
1F
100
AcDbEntity
  8
HIDDEN
100
AcDbLine
 10
-212.1
 20
-222.5
 30
0.0
 11
-212.1
 21
-222.5
 31
0.0
1001
DBPROPERTIES
1002
{
1000
PbHidd
1002
}
  0
LINE
  5
37A
330
1F
100
AcDbEntity
  8
THICK
100
AcDbLine
 10
-222.5000000000001
 20
-212.1
 30
0.0
 11
-221.5
 21
-212.1
 31
0.0
1001
DBPROPERTIES
1002
{
1000
PbThick
1002
}
  0
LINE
  5
37B
330
1F
100
AcDbEntity
  8
HIDDEN
100
AcDbLine
 10
-222.5
 20
-212.1
 30
0.0
 11
-222.5
 21
-212.1
 31
0.0
1001
DBPROPERTIES
1002
{
1000
PbHidd
1002
}
  0
LINE
  5
37C
330
1F
100
AcDbEntity
  8
THICK
100
AcDbLine
 10
-212.1
 20
222.5
 30
0.0
 11
-212.1
 21
221.5
 31
0.0
1001
DBPROPERTIES
1002
{
1000
PbThick
1002
}
  0
LINE
  5
37D
330
1F
100
AcDbEntity
  8
HIDDEN
100
AcDbLine
 10
-212.1
 20
222.5
 30
0.0
 11
-212.1
 21
222.5
 31
0.0
1001
DBPROPERTIES
1002
{
1000
PbHidd
1002
}
  0
LINE
  5
37E
330
1F
100
AcDbEntity
  8
HIDDEN
100
AcDbLine
 10
-212.1
 20
222.5
 30
0.0
 11
-212.1
 21
223.5
 31
0.0
1001
DBPROPERTIES
1002
{
1000
PbHidd
1002
}
  0
LINE
  5
37F
330
1F
100
AcDbEntity
  8
HIDDEN
100
AcDbLine
 10
212.1
 20
223.5
 30
0.0
 11
212.1
 21
222.5
 31
0.0
1001
DBPROPERTIES
1002
{
1000
PbHidd
1002
}
  0
LINE
  5
380
330
1F
100
AcDbEntity
  8
HIDDEN
100
AcDbLine
 10
-223.5
 20
-212.0999999999999
 30
0.0
 11
-222.5000000000001
 21
-212.0999999999999
 31
0.0
1001
DBPROPERTIES
1002
{
1000
PbHidd
1002
}
  0
LINE
  5
381
330
1F
100
AcDbEntity
  8
HIDDEN
100
AcDbLine
 10
-222.5
 20
212.1
 30
0.0
 11
-223.5
 21
212.1
 31
0.0
1001
DBPROPERTIES
1002
{
1000
PbHidd
1002
}
  0
LINE
  5
382
330
1F
100
AcDbEntity
  8
HIDDEN
100
AcDbLine
 10
212.1
 20
-223.5
 30
0.0
 11
212.1
 21
-222.4999999999999
 31
0.0
1001
DBPROPERTIES
1002
{
1000
PbHidd
1002
}
  0
LINE
  5
383
330
1F
100
AcDbEntity
  8
HIDDEN
100
AcDbLine
 10
-212.1000000000001
 20
-222.5
 30
0.0
 11
-212.1000000000001
 21
-223.5
 31
0.0
1001
DBPROPERTIES
1002
{
1000
PbHidd
1002
}
  0
LINE
  5
384
330
1F
100
AcDbEntity
  8
THICK
100
AcDbLine
 10
212.1
 20
-222.4999999999999
 30
0.0
 11
212.1
 21
-221.5
 31
0.0
1001
DBPROPERTIES
1002
{
1000
PbThick
1002
}
  0
LINE
  5
385
330
1F
100
AcDbEntity
  8
THICK
100
AcDbLine
 10
-221.5
 20
212.1
 30
0.0
 11
-222.5
 21
212.1
 31
0.0
1001
DBPROPERTIES
1002
{
1000
PbThick
1002
}
  0
LINE
  5
386
330
1F
100
AcDbEntity
  8
THICK
100
AcDbLine
 10
212.1
 20
221.5
 30
0.0
 11
212.1
 21
222.5
 31
0.0
1001
DBPROPERTIES
1002
{
1000
PbThick
1002
}
  0
LINE
  5
387
330
1F
100
AcDbEntity
  8
THICK
100
AcDbLine
 10
221.5
 20
-212.1
 30
0.0
 11
222.4999999999999
 21
-212.1
 31
0.0
1001
DBPROPERTIES
1002
{
1000
PbThick
1002
}
  0
LINE
  5
388
330
1F
100
AcDbEntity
  8
HIDDEN
100
AcDbLine
 10
-251.5000000000001
 20
-223.4999999999999
 30
0.0
 11
-251.4999999999999
 21
-223.5
 31
0.0
1001
DBPROPERTIES
1002
{
1000
PbHidd
1002
}
  0
LINE
  5
389
330
1F
100
AcDbEntity
  8
HIDDEN
100
AcDbLine
 10
-251.5
 20
-239.5000000000001
 30
0.0
 11
-251.5000000000001
 21
-239.4999999999999
 31
0.0
1001
DBPROPERTIES
1002
{
1000
PbHidd
1002
}
  0
LINE
  5
38A
330
1F
100
AcDbEntity
  8
HIDDEN
100
AcDbLine
 10
-251.5
 20
-223.5
 30
0.0
 11
-251.5
 21
-239.5000000000001
 31
0.0
1001
DBPROPERTIES
1002
{
1000
PbHidd
1002
}
  0
LINE
  5
38B
330
1F
100
AcDbEntity
  8
HIDDEN
100
AcDbLine
 10
-239.5
 20
-251.5
 30
0.0
 11
-239.5000000000001
 21
-251.4999999999999
 31
0.0
1001
DBPROPERTIES
1002
{
1000
PbHidd
1002
}
  0
ARC
  5
38C
330
1F
100
AcDbEntity
  8
HIDDEN
100
AcDbCircle
 10
-239.5
 20
-239.5
 30
0.0
 40
12.0
100
AcDbArc
 50
179.9999801521572
 51
270.0000187239684
1001
DBPROPERTIES
1002
{
1000
PbHidd
1002
}
  0
LINE
  5
38D
330
1F
100
AcDbEntity
  8
HIDDEN
100
AcDbLine
 10
-223.5000000000001
 20
-251.5
 30
0.0
 11
-223.5
 21
-251.5
 31
0.0
1001
DBPROPERTIES
1002
{
1000
PbHidd
1002
}
  0
LINE
  5
38E
330
1F
100
AcDbEntity
  8
HIDDEN
100
AcDbLine
 10
-239.5
 20
-251.5
 30
0.0
 11
-223.5
 21
-251.5
 31
0.0
1001
DBPROPERTIES
1002
{
1000
PbHidd
1002
}
  0
LINE
  5
38F
330
1F
100
AcDbEntity
  8
HIDDEN
100
AcDbLine
 10
-223.5
 20
-251.5
 30
0.0
 11
-223.5
 21
-230.5
 31
0.0
1001
DBPROPERTIES
1002
{
1000
PbHidd
1002
}
  0
LINE
  5
390
330
1F
100
AcDbEntity
  8
HIDDEN
100
AcDbLine
 10
-230.5
 20
-223.5
 30
0.0
 11
-251.4999999999999
 21
-223.5
 31
0.0
1001
DBPROPERTIES
1002
{
1000
PbHidd
1002
}
  0
LINE
  5
391
330
1F
100
AcDbEntity
  8
HIDDEN
100
AcDbLine
 10
-230.5
 20
-212.1
 30
0.0
 11
-230.5
 21
-212.1
 31
0.0
1001
DBPROPERTIES
1002
{
1000
PbHidd
1002
}
  0
LINE
  5
392
330
1F
100
AcDbEntity
  8
HIDDEN
100
AcDbLine
 10
-230.5
 20
212.1
 30
0.0
 11
-230.5
 21
212.1
 31
0.0
1001
DBPROPERTIES
1002
{
1000
PbHidd
1002
}
  0
LINE
  5
393
330
1F
100
AcDbEntity
  8
HIDDEN
100
AcDbLine
 10
-230.4999999999999
 20
-212.0999999999999
 30
0.0
 11
-230.4999999999999
 21
-212.0999999999999
 31
0.0
1001
DBPROPERTIES
1002
{
1000
PbHidd
1002
}
  0
LINE
  5
394
330
1F
100
AcDbEntity
  8
HIDDEN
100
AcDbLine
 10
-212.1000000000001
 20
-230.5
 30
0.0
 11
-212.1000000000001
 21
-226.5
 31
0.0
1001
DBPROPERTIES
1002
{
1000
PbHidd
1002
}
  0
LINE
  5
395
330
1F
100
AcDbEntity
  8
HIDDEN
100
AcDbLine
 10
-251.5000000000001
 20
212.1
 30
0.0
 11
-251.5000000000001
 21
212.1
 31
0.0
1001
DBPROPERTIES
1002
{
1000
PbHidd
1002
}
  0
LINE
  5
396
330
1F
100
AcDbEntity
  8
HIDDEN
100
AcDbLine
 10
-251.4999999999999
 20
-212.0999999999999
 30
0.0
 11
-251.4999999999999
 21
-212.0999999999999
 31
0.0
1001
DBPROPERTIES
1002
{
1000
PbHidd
1002
}
  0
LINE
  5
397
330
1F
100
AcDbEntity
  8
HIDDEN
100
AcDbLine
 10
-239.4999999999999
 20
-212.0999999999999
 30
0.0
 11
-239.5000000000001
 21
212.1
 31
0.0
1001
DBPROPERTIES
1002
{
1000
PbHidd
1002
}
  0
LINE
  5
398
330
1F
100
AcDbEntity
  8
HIDDEN
100
AcDbLine
 10
-223.5
 20
212.1000000000001
 30
0.0
 11
-223.5
 21
212.1000000000001
 31
0.0
1001
DBPROPERTIES
1002
{
1000
PbHidd
1002
}
  0
LINE
  5
399
330
1F
100
AcDbEntity
  8
HIDDEN
100
AcDbLine
 10
-223.5
 20
-212.0999999999999
 30
0.0
 11
-223.5
 21
-212.0999999999999
 31
0.0
1001
DBPROPERTIES
1002
{
1000
PbHidd
1002
}
  0
LINE
  5
39A
330
1F
100
AcDbEntity
  8
HIDDEN
100
AcDbLine
 10
-222.5
 20
-212.0999999999999
 30
0.0
 11
-222.5
 21
-212.0999999999999
 31
0.0
1001
DBPROPERTIES
1002
{
1000
PbHidd
1002
}
  0
LINE
  5
39B
330
1F
100
AcDbEntity
  8
HIDDEN
100
AcDbLine
 10
-223.5
 20
212.1000000000001
 30
0.0
 11
-223.5
 21
212.1000000000001
 31
0.0
1001
DBPROPERTIES
1002
{
1000
PbHidd
1002
}
  0
LINE
  5
39C
330
1F
100
AcDbEntity
  8
HIDDEN
100
AcDbLine
 10
-223.5
 20
-212.0999999999999
 30
0.0
 11
-223.5
 21
-212.0999999999999
 31
0.0
1001
DBPROPERTIES
1002
{
1000
PbHidd
1002
}
  0
LINE
  5
39D
330
1F
100
AcDbEntity
  8
HIDDEN
100
AcDbLine
 10
-212.0999999999999
 20
222.5
 30
0.0
 11
-212.0999999999999
 21
222.5
 31
0.0
1001
DBPROPERTIES
1002
{
1000
PbHidd
1002
}
  0
LINE
  5
39E
330
1F
100
AcDbEntity
  8
HIDDEN
100
AcDbLine
 10
-252.4999999999999
 20
212.1
 30
0.0
 11
-252.4999999999999
 21
212.1
 31
0.0
1001
DBPROPERTIES
1002
{
1000
PbHidd
1002
}
  0
LINE
  5
39F
330
1F
100
AcDbEntity
  8
HIDDEN
100
AcDbLine
 10
-222.4999999999999
 20
212.1
 30
0.0
 11
-222.4999999999999
 21
212.1
 31
0.0
1001
DBPROPERTIES
1002
{
1000
PbHidd
1002
}
  0
LINE
  5
3A0
330
1F
100
AcDbEntity
  8
HIDDEN
100
AcDbLine
 10
-222.4999999999999
 20
212.1
 30
0.0
 11
-222.4999999999999
 21
212.1
 31
0.0
1001
DBPROPERTIES
1002
{
1000
PbHidd
1002
}
  0
LINE
  5
3A1
330
1F
100
AcDbEntity
  8
HIDDEN
100
AcDbLine
 10
-212.1
 20
-222.4999999999999
 30
0.0
 11
-212.1
 21
-222.4999999999999
 31
0.0
1001
DBPROPERTIES
1002
{
1000
PbHidd
1002
}
  0
LINE
  5
3A2
330
1F
100
AcDbEntity
  8
HIDDEN
100
AcDbLine
 10
-222.5
 20
-212.0999999999999
 30
0.0
 11
-222.5
 21
-212.0999999999999
 31
0.0
1001
DBPROPERTIES
1002
{
1000
PbHidd
1002
}
  0
LINE
  5
3A3
330
1F
100
AcDbEntity
  8
HIDDEN
100
AcDbLine
 10
-222.5
 20
-212.0999999999999
 30
0.0
 11
-222.5
 21
-212.0999999999999
 31
0.0
1001
DBPROPERTIES
1002
{
1000
PbHidd
1002
}
  0
LINE
  5
3A4
330
1F
100
AcDbEntity
  8
HIDDEN
100
AcDbLine
 10
-252.5
 20
-212.0999999999999
 30
0.0
 11
-252.5
 21
-212.0999999999999
 31
0.0
1001
DBPROPERTIES
1002
{
1000
PbHidd
1002
}
  0
LINE
  5
3A5
330
1F
100
AcDbEntity
  8
HIDDEN
100
AcDbLine
 10
212.0999999999999
 20
-223.5
 30
0.0
 11
212.0999999999999
 21
-223.5
 31
0.0
1001
DBPROPERTIES
1002
{
1000
PbHidd
1002
}
  0
LINE
  5
3A6
330
1F
100
AcDbEntity
  8
HIDDEN
100
AcDbLine
 10
-212.1000000000001
 20
-223.5
 30
0.0
 11
-212.1000000000001
 21
-223.5
 31
0.0
1001
DBPROPERTIES
1002
{
1000
PbHidd
1002
}
  0
LINE
  5
3A7
330
1F
100
AcDbEntity
  8
HIDDEN
100
AcDbLine
 10
212.0999999999999
 20
-223.5
 30
0.0
 11
212.0999999999999
 21
-223.5
 31
0.0
1001
DBPROPERTIES
1002
{
1000
PbHidd
1002
}
  0
LINE
  5
3A8
330
1F
100
AcDbEntity
  8
HIDDEN
100
AcDbLine
 10
-212.1000000000001
 20
-223.5
 30
0.0
 11
-212.1000000000001
 21
-223.5
 31
0.0
1001
DBPROPERTIES
1002
{
1000
PbHidd
1002
}
  0
LINE
  5
3A9
330
1F
100
AcDbEntity
  8
HIDDEN
100
AcDbLine
 10
212.1000000000001
 20
-239.5
 30
0.0
 11
-212.1000000000001
 21
-239.5
 31
0.0
1001
DBPROPERTIES
1002
{
1000
PbHidd
1002
}
  0
LINE
  5
3AA
330
1F
100
AcDbEntity
  8
HIDDEN
100
AcDbLine
 10
212.1000000000001
 20
-251.5
 30
0.0
 11
212.1000000000001
 21
-251.5
 31
0.0
1001
DBPROPERTIES
1002
{
1000
PbHidd
1002
}
  0
LINE
  5
3AB
330
1F
100
AcDbEntity
  8
HIDDEN
100
AcDbLine
 10
-212.1000000000001
 20
-251.5
 30
0.0
 11
-212.1000000000001
 21
-251.5
 31
0.0
1001
DBPROPERTIES
1002
{
1000
PbHidd
1002
}
  0
LINE
  5
3AC
330
1F
100
AcDbEntity
  8
HIDDEN
100
AcDbLine
 10
-212.1000000000001
 20
-252.4999999999999
 30
0.0
 11
-212.1000000000001
 21
-252.4999999999999
 31
0.0
1001
DBPROPERTIES
1002
{
1000
PbHidd
1002
}
  0
LINE
  5
3AD
330
1F
100
AcDbEntity
  8
HIDDEN
100
AcDbLine
 10
-212.1
 20
-222.4999999999999
 30
0.0
 11
-212.1
 21
-222.4999999999999
 31
0.0
1001
DBPROPERTIES
1002
{
1000
PbHidd
1002
}
  0
LINE
  5
3AE
330
1F
100
AcDbEntity
  8
HIDDEN
100
AcDbLine
 10
-212.1
 20
-222.4999999999999
 30
0.0
 11
-212.1
 21
-222.4999999999999
 31
0.0
1001
DBPROPERTIES
1002
{
1000
PbHidd
1002
}
  0
LINE
  5
3AF
330
1F
100
AcDbEntity
  8
HIDDEN
100
AcDbLine
 10
-212.1000000000001
 20
-240.4999999999999
 30
0.0
 11
-240.5000000000001
 21
-240.4999999999999
 31
0.0
1001
DBPROPERTIES
1002
{
1000
PbHidd
1002
}
  0
LINE
  5
3B0
330
1F
100
AcDbEntity
  8
HIDDEN
100
AcDbLine
 10
-240.5000000000001
 20
-240.4999999999999
 30
0.0
 11
-248.9852813742386
 21
-248.9852813742384
 31
0.0
1001
DBPROPERTIES
1002
{
1000
PbHidd
1002
}
  0
LINE
  5
3B1
330
1F
100
AcDbEntity
  8
HIDDEN
100
AcDbLine
 10
-240.5
 20
-212.0999999999999
 30
0.0
 11
-240.5
 21
-240.4999999999999
 31
0.0
1001
DBPROPERTIES
1002
{
1000
PbHidd
1002
}
  0
LINE
  5
3B2
330
1F
100
AcDbEntity
  8
HIDDEN
100
AcDbLine
 10
-240.5000000000001
 20
-252.4999999999999
 30
0.0
 11
-240.5000000000001
 21
-252.4999999999999
 31
0.0
1001
DBPROPERTIES
1002
{
1000
PbHidd
1002
}
  0
LINE
  5
3B3
330
1F
100
AcDbEntity
  8
HIDDEN
100
AcDbLine
 10
-252.5000000000001
 20
-240.4999999999999
 30
0.0
 11
-252.5000000000001
 21
-240.4999999999999
 31
0.0
1001
DBPROPERTIES
1002
{
1000
PbHidd
1002
}
  0
LINE
  5
3B4
330
1F
100
AcDbEntity
  8
HIDDEN
100
AcDbLine
 10
-222.5
 20
-222.4999999999999
 30
0.0
 11
-222.5
 21
-222.4999999999999
 31
0.0
1001
DBPROPERTIES
1002
{
1000
PbHidd
1002
}
  0
LINE
  5
3B5
330
1F
100
AcDbEntity
  8
HIDDEN
100
AcDbLine
 10
-252.5
 20
-222.4999999999999
 30
0.0
 11
-252.5
 21
-222.4999999999999
 31
0.0
1001
DBPROPERTIES
1002
{
1000
PbHidd
1002
}
  0
LINE
  5
3B6
330
1F
100
AcDbEntity
  8
HIDDEN
100
AcDbLine
 10
-222.5000000000001
 20
-252.4999999999999
 30
0.0
 11
-222.5000000000001
 21
-252.4999999999999
 31
0.0
1001
DBPROPERTIES
1002
{
1000
PbHidd
1002
}
  0
LINE
  5
3B7
330
1F
100
AcDbEntity
  8
HIDDEN
100
AcDbLine
 10
-222.5
 20
-222.4999999999999
 30
0.0
 11
-222.5
 21
-222.4999999999999
 31
0.0
1001
DBPROPERTIES
1002
{
1000
PbHidd
1002
}
  0
LINE
  5
3B8
330
1F
100
AcDbEntity
  8
HIDDEN
100
AcDbLine
 10
222.5000000000001
 20
-212.1
 30
0.0
 11
222.5000000000001
 21
-212.1
 31
0.0
1001
DBPROPERTIES
1002
{
1000
PbHidd
1002
}
  0
LINE
  5
3B9
330
1F
100
AcDbEntity
  8
HIDDEN
100
AcDbLine
 10
212.1000000000001
 20
-222.5
 30
0.0
 11
212.1000000000001
 21
-222.5
 31
0.0
1001
DBPROPERTIES
1002
{
1000
PbHidd
1002
}
  0
LINE
  5
3BA
330
1F
100
AcDbEntity
  8
HIDDEN
100
AcDbLine
 10
212.1000000000001
 20
-222.5
 30
0.0
 11
212.1000000000001
 21
-222.5
 31
0.0
1001
DBPROPERTIES
1002
{
1000
PbHidd
1002
}
  0
LINE
  5
3BB
330
1F
100
AcDbEntity
  8
HIDDEN
100
AcDbLine
 10
212.1000000000001
 20
-252.5
 30
0.0
 11
212.1000000000001
 21
-252.5
 31
0.0
1001
DBPROPERTIES
1002
{
1000
PbHidd
1002
}
  0
LINE
  5
3BC
330
1F
100
AcDbEntity
  8
HIDDEN
100
AcDbLine
 10
251.5000000000001
 20
-212.0999999999999
 30
0.0
 11
251.5000000000001
 21
-212.0999999999999
 31
0.0
1001
DBPROPERTIES
1002
{
1000
PbHidd
1002
}
  0
LINE
  5
3BD
330
1F
100
AcDbEntity
  8
HIDDEN
100
AcDbLine
 10
251.4999999999999
 20
212.1
 30
0.0
 11
251.4999999999999
 21
212.1
 31
0.0
1001
DBPROPERTIES
1002
{
1000
PbHidd
1002
}
  0
LINE
  5
3BE
330
1F
100
AcDbEntity
  8
HIDDEN
100
AcDbLine
 10
239.5
 20
212.1
 30
0.0
 11
239.5
 21
-212.0999999999999
 31
0.0
1001
DBPROPERTIES
1002
{
1000
PbHidd
1002
}
  0
LINE
  5
3BF
330
1F
100
AcDbEntity
  8
HIDDEN
100
AcDbLine
 10
223.5
 20
-212.1000000000001
 30
0.0
 11
223.5
 21
-212.1000000000001
 31
0.0
1001
DBPROPERTIES
1002
{
1000
PbHidd
1002
}
  0
LINE
  5
3C0
330
1F
100
AcDbEntity
  8
HIDDEN
100
AcDbLine
 10
223.5
 20
212.0999999999999
 30
0.0
 11
223.5
 21
212.0999999999999
 31
0.0
1001
DBPROPERTIES
1002
{
1000
PbHidd
1002
}
  0
LINE
  5
3C1
330
1F
100
AcDbEntity
  8
HIDDEN
100
AcDbLine
 10
223.5
 20
-212.1000000000001
 30
0.0
 11
223.5
 21
-212.1000000000001
 31
0.0
1001
DBPROPERTIES
1002
{
1000
PbHidd
1002
}
  0
LINE
  5
3C2
330
1F
100
AcDbEntity
  8
HIDDEN
100
AcDbLine
 10
223.5
 20
212.0999999999999
 30
0.0
 11
223.5
 21
212.0999999999999
 31
0.0
1001
DBPROPERTIES
1002
{
1000
PbHidd
1002
}
  0
LINE
  5
3C3
330
1F
100
AcDbEntity
  8
HIDDEN
100
AcDbLine
 10
230.5
 20
212.1
 30
0.0
 11
230.5
 21
212.1
 31
0.0
1001
DBPROPERTIES
1002
{
1000
PbHidd
1002
}
  0
LINE
  5
3C4
330
1F
100
AcDbEntity
  8
HIDDEN
100
AcDbLine
 10
230.5
 20
-212.1
 30
0.0
 11
230.5
 21
-212.1
 31
0.0
1001
DBPROPERTIES
1002
{
1000
PbHidd
1002
}
  0
LINE
  5
3C5
330
1F
100
AcDbEntity
  8
HIDDEN
100
AcDbLine
 10
230.4999999999999
 20
212.1
 30
0.0
 11
230.4999999999999
 21
212.1
 31
0.0
1001
DBPROPERTIES
1002
{
1000
PbHidd
1002
}
  0
LINE
  5
3C6
330
1F
100
AcDbEntity
  8
HIDDEN
100
AcDbLine
 10
252.5000000000001
 20
-212.0999999999999
 30
0.0
 11
252.5000000000001
 21
-212.0999999999999
 31
0.0
1001
DBPROPERTIES
1002
{
1000
PbHidd
1002
}
  0
LINE
  5
3C7
330
1F
100
AcDbEntity
  8
HIDDEN
100
AcDbLine
 10
222.5000000000001
 20
-212.1
 30
0.0
 11
222.5000000000001
 21
-212.1
 31
0.0
1001
DBPROPERTIES
1002
{
1000
PbHidd
1002
}
  0
LINE
  5
3C8
330
1F
100
AcDbEntity
  8
HIDDEN
100
AcDbLine
 10
222.5000000000001
 20
-212.1
 30
0.0
 11
222.5000000000001
 21
-212.1
 31
0.0
1001
DBPROPERTIES
1002
{
1000
PbHidd
1002
}
  0
LINE
  5
3C9
330
1F
100
AcDbEntity
  8
HIDDEN
100
AcDbLine
 10
222.5000000000001
 20
212.1
 30
0.0
 11
222.5000000000001
 21
212.1
 31
0.0
1001
DBPROPERTIES
1002
{
1000
PbHidd
1002
}
  0
LINE
  5
3CA
330
1F
100
AcDbEntity
  8
HIDDEN
100
AcDbLine
 10
222.5000000000001
 20
212.1
 30
0.0
 11
222.5000000000001
 21
212.1
 31
0.0
1001
DBPROPERTIES
1002
{
1000
PbHidd
1002
}
  0
LINE
  5
3CB
330
1F
100
AcDbEntity
  8
HIDDEN
100
AcDbLine
 10
252.5000000000001
 20
212.1
 30
0.0
 11
252.5000000000001
 21
212.1
 31
0.0
1001
DBPROPERTIES
1002
{
1000
PbHidd
1002
}
  0
LINE
  5
3CC
330
1F
100
AcDbEntity
  8
HIDDEN
100
AcDbLine
 10
251.5
 20
-223.5
 30
0.0
 11
251.5
 21
-223.5
 31
0.0
1001
DBPROPERTIES
1002
{
1000
PbHidd
1002
}
  0
LINE
  5
3CD
330
1F
100
AcDbEntity
  8
HIDDEN
100
AcDbLine
 10
251.5
 20
-239.5
 30
0.0
 11
251.5
 21
-223.5
 31
0.0
1001
DBPROPERTIES
1002
{
1000
PbHidd
1002
}
  0
LINE
  5
3CE
330
1F
100
AcDbEntity
  8
HIDDEN
100
AcDbLine
 10
251.4999999999999
 20
-239.5000000000001
 30
0.0
 11
251.5
 21
-239.5
 31
0.0
1001
DBPROPERTIES
1002
{
1000
PbHidd
1002
}
  0
LINE
  5
3CF
330
1F
100
AcDbEntity
  8
HIDDEN
100
AcDbLine
 10
223.5
 20
-223.5
 30
0.0
 11
223.5
 21
-223.5
 31
0.0
1001
DBPROPERTIES
1002
{
1000
PbHidd
1002
}
  0
ARC
  5
3D0
330
1F
100
AcDbEntity
  8
HIDDEN
100
AcDbCircle
 10
239.5000000000001
 20
-239.5
 30
0.0
 40
12.0
100
AcDbArc
 50
270.0000187239684
 51
0.0
1001
DBPROPERTIES
1002
{
1000
PbHidd
1002
}
  0
LINE
  5
3D1
330
1F
100
AcDbEntity
  8
HIDDEN
100
AcDbLine
 10
239.4999999999999
 20
-251.5000000000001
 30
0.0
 11
239.5
 21
-251.5
 31
0.0
1001
DBPROPERTIES
1002
{
1000
PbHidd
1002
}
  0
LINE
  5
3D2
330
1F
100
AcDbEntity
  8
HIDDEN
100
AcDbLine
 10
223.5
 20
-251.5
 30
0.0
 11
239.5
 21
-251.5
 31
0.0
1001
DBPROPERTIES
1002
{
1000
PbHidd
1002
}
  0
LINE
  5
3D3
330
1F
100
AcDbEntity
  8
HIDDEN
100
AcDbLine
 10
223.5
 20
-251.5
 30
0.0
 11
223.4999999999999
 21
-251.5
 31
0.0
1001
DBPROPERTIES
1002
{
1000
PbHidd
1002
}
  0
LINE
  5
3D4
330
1F
100
AcDbEntity
  8
HIDDEN
100
AcDbLine
 10
223.5
 20
-230.5
 30
0.0
 11
223.5
 21
-251.5
 31
0.0
1001
DBPROPERTIES
1002
{
1000
PbHidd
1002
}
  0
LINE
  5
3D5
330
1F
100
AcDbEntity
  8
HIDDEN
100
AcDbLine
 10
251.5
 20
-223.5
 30
0.0
 11
230.5
 21
-223.5
 31
0.0
1001
DBPROPERTIES
1002
{
1000
PbHidd
1002
}
  0
LINE
  5
3D6
330
1F
100
AcDbEntity
  8
HIDDEN
100
AcDbLine
 10
252.5000000000001
 20
-240.4999999999999
 30
0.0
 11
252.5000000000001
 21
-240.4999999999999
 31
0.0
1001
DBPROPERTIES
1002
{
1000
PbHidd
1002
}
  0
LINE
  5
3D7
330
1F
100
AcDbEntity
  8
HIDDEN
100
AcDbLine
 10
240.5000000000001
 20
-252.4999999999999
 30
0.0
 11
240.5000000000001
 21
-252.4999999999999
 31
0.0
1001
DBPROPERTIES
1002
{
1000
PbHidd
1002
}
  0
LINE
  5
3D8
330
1F
100
AcDbEntity
  8
HIDDEN
100
AcDbLine
 10
240.5000000000001
 20
-212.0999999999999
 30
0.0
 11
240.5000000000001
 21
-240.4999999999999
 31
0.0
1001
DBPROPERTIES
1002
{
1000
PbHidd
1002
}
  0
LINE
  5
3D9
330
1F
100
AcDbEntity
  8
HIDDEN
100
AcDbLine
 10
248.9852813742387
 20
-248.9852813742385
 30
0.0
 11
228.5000000000001
 21
-228.4999999999999
 31
0.0
1001
DBPROPERTIES
1002
{
1000
PbHidd
1002
}
  0
LINE
  5
3DA
330
1F
100
AcDbEntity
  8
HIDDEN
100
AcDbLine
 10
240.5000000000001
 20
-240.4999999999999
 30
0.0
 11
212.1000000000001
 21
-240.4999999999999
 31
0.0
1001
DBPROPERTIES
1002
{
1000
PbHidd
1002
}
  0
LINE
  5
3DB
330
1F
100
AcDbEntity
  8
HIDDEN
100
AcDbLine
 10
252.5000000000001
 20
-222.4999999999999
 30
0.0
 11
252.5000000000001
 21
-222.4999999999999
 31
0.0
1001
DBPROPERTIES
1002
{
1000
PbHidd
1002
}
  0
LINE
  5
3DC
330
1F
100
AcDbEntity
  8
HIDDEN
100
AcDbLine
 10
222.5000000000001
 20
-222.5
 30
0.0
 11
222.5000000000001
 21
-222.5
 31
0.0
1001
DBPROPERTIES
1002
{
1000
PbHidd
1002
}
  0
LINE
  5
3DD
330
1F
100
AcDbEntity
  8
HIDDEN
100
AcDbLine
 10
222.5000000000001
 20
-252.5
 30
0.0
 11
222.5000000000001
 21
-252.5
 31
0.0
1001
DBPROPERTIES
1002
{
1000
PbHidd
1002
}
  0
LINE
  5
3DE
330
1F
100
AcDbEntity
  8
HIDDEN
100
AcDbLine
 10
222.5000000000001
 20
-222.5
 30
0.0
 11
222.5000000000001
 21
-222.5
 31
0.0
1001
DBPROPERTIES
1002
{
1000
PbHidd
1002
}
  0
LINE
  5
3DF
330
1F
100
AcDbEntity
  8
HIDDEN
100
AcDbLine
 10
230.5
 20
198.0
 30
0.0
 11
226.5
 21
198.0
 31
0.0
1001
DBPROPERTIES
1002
{
1000
PbHidd
1002
}
  0
LINE
  5
3E0
330
1F
100
AcDbEntity
  8
HIDDEN
100
AcDbLine
 10
230.5
 20
212.1
 30
0.0
 11
226.5
 21
212.1
 31
0.0
1001
DBPROPERTIES
1002
{
1000
PbHidd
1002
}
  0
LINE
  5
3E1
330
1F
100
AcDbEntity
  8
HIDDEN
100
AcDbLine
 10
230.5
 20
-212.1
 30
0.0
 11
226.5
 21
-212.1
 31
0.0
1001
DBPROPERTIES
1002
{
1000
PbHidd
1002
}
  0
LINE
  5
3E2
330
1F
100
AcDbEntity
  8
HIDDEN
100
AcDbLine
 10
251.5000000000001
 20
212.1
 30
0.0
 11
251.5000000000001
 21
212.1
 31
0.0
1001
DBPROPERTIES
1002
{
1000
PbHidd
1002
}
  0
LINE
  5
3E3
330
1F
100
AcDbEntity
  8
THICK
100
AcDbLine
 10
251.4999999999999
 20
-212.0999999999999
 30
0.0
 11
251.5000000000001
 21
212.1
 31
0.0
1001
DBPROPERTIES
1002
{
1000
PbThick
1002
}
  0
LINE
  5
3E4
330
1F
100
AcDbEntity
  8
HIDDEN
100
AcDbLine
 10
251.4999999999999
 20
-212.0999999999999
 30
0.0
 11
251.4999999999999
 21
-212.0999999999999
 31
0.0
1001
DBPROPERTIES
1002
{
1000
PbHidd
1002
}
  0
LINE
  5
3E5
330
1F
100
AcDbEntity
  8
HIDDEN
100
AcDbLine
 10
226.5
 20
212.0999999999999
 30
0.0
 11
223.5
 21
212.0999999999999
 31
0.0
1001
DBPROPERTIES
1002
{
1000
PbHidd
1002
}
  0
LINE
  5
3E6
330
1F
100
AcDbEntity
  8
HIDDEN
100
AcDbLine
 10
223.5
 20
-212.1000000000001
 30
0.0
 11
226.5
 21
-212.1000000000001
 31
0.0
1001
DBPROPERTIES
1002
{
1000
PbHidd
1002
}
  0
LINE
  5
3E7
330
1F
100
AcDbEntity
  8
THICK
100
AcDbLine
 10
239.4999999999999
 20
-212.0999999999999
 30
0.0
 11
239.5000000000001
 21
212.1
 31
0.0
1001
DBPROPERTIES
1002
{
1000
PbThick
1002
}
  0
LINE
  5
3E8
330
1F
100
AcDbEntity
  8
THICK
100
AcDbLine
 10
223.5000000000001
 20
212.1
 30
0.0
 11
223.4999999999999
 21
-212.0999999999999
 31
0.0
1001
DBPROPERTIES
1002
{
1000
PbThick
1002
}
  0
LINE
  5
3E9
330
1F
100
AcDbEntity
  8
HIDDEN
100
AcDbLine
 10
223.5
 20
212.1
 30
0.0
 11
223.5
 21
212.1
 31
0.0
1001
DBPROPERTIES
1002
{
1000
PbHidd
1002
}
  0
LINE
  5
3EA
330
1F
100
AcDbEntity
  8
HIDDEN
100
AcDbLine
 10
223.5
 20
-212.1
 30
0.0
 11
223.5
 21
-212.1
 31
0.0
1001
DBPROPERTIES
1002
{
1000
PbHidd
1002
}
  0
LINE
  5
3EB
330
1F
100
AcDbEntity
  8
HIDDEN
100
AcDbLine
 10
222.4999999999999
 20
-212.0999999999999
 30
0.0
 11
222.4999999999999
 21
-212.0999999999999
 31
0.0
1001
DBPROPERTIES
1002
{
1000
PbHidd
1002
}
  0
LINE
  5
3EC
330
1F
100
AcDbEntity
  8
HIDDEN
100
AcDbLine
 10
223.5
 20
212.1
 30
0.0
 11
223.5
 21
212.1
 31
0.0
1001
DBPROPERTIES
1002
{
1000
PbHidd
1002
}
  0
LINE
  5
3ED
330
1F
100
AcDbEntity
  8
HIDDEN
100
AcDbLine
 10
223.5
 20
-212.1
 30
0.0
 11
223.5
 21
-212.1
 31
0.0
1001
DBPROPERTIES
1002
{
1000
PbHidd
1002
}
  0
LINE
  5
3EE
330
1F
100
AcDbEntity
  8
HIDDEN
100
AcDbLine
 10
212.1
 20
222.5
 30
0.0
 11
212.1
 21
222.5
 31
0.0
1001
DBPROPERTIES
1002
{
1000
PbHidd
1002
}
  0
LINE
  5
3EF
330
1F
100
AcDbEntity
  8
HIDDEN
100
AcDbLine
 10
252.5
 20
212.1
 30
0.0
 11
252.5
 21
212.1
 31
0.0
1001
DBPROPERTIES
1002
{
1000
PbHidd
1002
}
  0
LINE
  5
3F0
330
1F
100
AcDbEntity
  8
THICK
100
AcDbLine
 10
252.5
 20
212.1
 30
0.0
 11
240.5
 21
212.1
 31
0.0
1001
DBPROPERTIES
1002
{
1000
PbThick
1002
}
  0
LINE
  5
3F1
330
1F
100
AcDbEntity
  8
THICK
100
AcDbLine
 10
240.5
 20
212.1
 30
0.0
 11
222.5
 21
212.1
 31
0.0
1001
DBPROPERTIES
1002
{
1000
PbThick
1002
}
  0
LINE
  5
3F2
330
1F
100
AcDbEntity
  8
HIDDEN
100
AcDbLine
 10
222.5
 20
212.1
 30
0.0
 11
222.5
 21
212.1
 31
0.0
1001
DBPROPERTIES
1002
{
1000
PbHidd
1002
}
  0
LINE
  5
3F3
330
1F
100
AcDbEntity
  8
HIDDEN
100
AcDbLine
 10
223.5
 20
212.1
 30
0.0
 11
222.5
 21
212.1
 31
0.0
1001
DBPROPERTIES
1002
{
1000
PbHidd
1002
}
  0
LINE
  5
3F4
330
1F
100
AcDbEntity
  8
HIDDEN
100
AcDbLine
 10
222.5
 20
212.1
 30
0.0
 11
222.5
 21
212.1
 31
0.0
1001
DBPROPERTIES
1002
{
1000
PbHidd
1002
}
  0
LINE
  5
3F5
330
1F
100
AcDbEntity
  8
HIDDEN
100
AcDbLine
 10
212.0999999999999
 20
-222.4999999999999
 30
0.0
 11
212.0999999999999
 21
-222.4999999999999
 31
0.0
1001
DBPROPERTIES
1002
{
1000
PbHidd
1002
}
  0
LINE
  5
3F6
330
1F
100
AcDbEntity
  8
HIDDEN
100
AcDbLine
 10
222.4999999999999
 20
-212.0999999999999
 30
0.0
 11
222.4999999999999
 21
-212.0999999999999
 31
0.0
1001
DBPROPERTIES
1002
{
1000
PbHidd
1002
}
  0
LINE
  5
3F7
330
1F
100
AcDbEntity
  8
HIDDEN
100
AcDbLine
 10
222.4999999999999
 20
-212.0999999999999
 30
0.0
 11
223.5
 21
-212.0999999999999
 31
0.0
1001
DBPROPERTIES
1002
{
1000
PbHidd
1002
}
  0
LINE
  5
3F8
330
1F
100
AcDbEntity
  8
HIDDEN
100
AcDbLine
 10
222.4999999999999
 20
-212.0999999999999
 30
0.0
 11
222.4999999999999
 21
-212.0999999999999
 31
0.0
1001
DBPROPERTIES
1002
{
1000
PbHidd
1002
}
  0
LINE
  5
3F9
330
1F
100
AcDbEntity
  8
THICK
100
AcDbLine
 10
222.4999999999999
 20
-212.0999999999999
 30
0.0
 11
240.4999999999999
 21
-212.0999999999999
 31
0.0
1001
DBPROPERTIES
1002
{
1000
PbThick
1002
}
  0
LINE
  5
3FA
330
1F
100
AcDbEntity
  8
THICK
100
AcDbLine
 10
240.4999999999999
 20
-212.0999999999999
 30
0.0
 11
252.4999999999999
 21
-212.0999999999999
 31
0.0
1001
DBPROPERTIES
1002
{
1000
PbThick
1002
}
  0
LINE
  5
3FB
330
1F
100
AcDbEntity
  8
HIDDEN
100
AcDbLine
 10
252.4999999999999
 20
-212.0999999999999
 30
0.0
 11
252.4999999999999
 21
-212.0999999999999
 31
0.0
1001
DBPROPERTIES
1002
{
1000
PbHidd
1002
}
  0
LINE
  5
3FC
330
1F
100
AcDbEntity
  8
HIDDEN
100
AcDbLine
 10
212.0999999999999
 20
-251.5
 30
0.0
 11
212.0999999999999
 21
-251.5
 31
0.0
1001
DBPROPERTIES
1002
{
1000
PbHidd
1002
}
  0
LINE
  5
3FD
330
1F
100
AcDbEntity
  8
THICK
100
AcDbLine
 10
-212.1000000000001
 20
-251.5
 30
0.0
 11
212.0999999999999
 21
-251.5
 31
0.0
1001
DBPROPERTIES
1002
{
1000
PbThick
1002
}
  0
LINE
  5
3FE
330
1F
100
AcDbEntity
  8
HIDDEN
100
AcDbLine
 10
-212.1000000000001
 20
-251.5
 30
0.0
 11
-212.1000000000001
 21
-251.5
 31
0.0
1001
DBPROPERTIES
1002
{
1000
PbHidd
1002
}
  0
LINE
  5
3FF
330
1F
100
AcDbEntity
  8
HIDDEN
100
AcDbLine
 10
212.0999999999999
 20
-226.5
 30
0.0
 11
212.0999999999999
 21
-223.5
 31
0.0
1001
DBPROPERTIES
1002
{
1000
PbHidd
1002
}
  0
LINE
  5
400
330
1F
100
AcDbEntity
  8
HIDDEN
100
AcDbLine
 10
-212.1000000000001
 20
-223.5
 30
0.0
 11
-212.1000000000001
 21
-226.5
 31
0.0
1001
DBPROPERTIES
1002
{
1000
PbHidd
1002
}
  0
LINE
  5
401
330
1F
100
AcDbEntity
  8
THICK
100
AcDbLine
 10
-212.1000000000001
 20
-239.5
 30
0.0
 11
212.0999999999999
 21
-239.5
 31
0.0
1001
DBPROPERTIES
1002
{
1000
PbThick
1002
}
  0
LINE
  5
402
330
1F
100
AcDbEntity
  8
THICK
100
AcDbLine
 10
212.1
 20
-223.5
 30
0.0
 11
-212.1000000000001
 21
-223.5
 31
0.0
1001
DBPROPERTIES
1002
{
1000
PbThick
1002
}
  0
LINE
  5
403
330
1F
100
AcDbEntity
  8
HIDDEN
100
AcDbLine
 10
212.1
 20
-223.5
 30
0.0
 11
212.1
 21
-223.5
 31
0.0
1001
DBPROPERTIES
1002
{
1000
PbHidd
1002
}
  0
LINE
  5
404
330
1F
100
AcDbEntity
  8
HIDDEN
100
AcDbLine
 10
-212.1
 20
-223.5
 30
0.0
 11
-212.1
 21
-223.5
 31
0.0
1001
DBPROPERTIES
1002
{
1000
PbHidd
1002
}
  0
LINE
  5
405
330
1F
100
AcDbEntity
  8
HIDDEN
100
AcDbLine
 10
212.1
 20
-223.5
 30
0.0
 11
212.1
 21
-223.5
 31
0.0
1001
DBPROPERTIES
1002
{
1000
PbHidd
1002
}
  0
LINE
  5
406
330
1F
100
AcDbEntity
  8
HIDDEN
100
AcDbLine
 10
-212.1
 20
-223.5
 30
0.0
 11
-212.1
 21
-223.5
 31
0.0
1001
DBPROPERTIES
1002
{
1000
PbHidd
1002
}
  0
LINE
  5
407
330
1F
100
AcDbEntity
  8
HIDDEN
100
AcDbLine
 10
-212.1
 20
-222.5
 30
0.0
 11
-212.1
 21
-222.5
 31
0.0
1001
DBPROPERTIES
1002
{
1000
PbHidd
1002
}
  0
LINE
  5
408
330
1F
100
AcDbEntity
  8
HIDDEN
100
AcDbLine
 10
-212.1
 20
-222.5
 30
0.0
 11
-212.1
 21
-222.5
 31
0.0
1001
DBPROPERTIES
1002
{
1000
PbHidd
1002
}
  0
LINE
  5
409
330
1F
100
AcDbEntity
  8
THICK
100
AcDbLine
 10
-212.1000000000001
 20
-240.5
 30
0.0
 11
-212.1000000000001
 21
-222.5
 31
0.0
1001
DBPROPERTIES
1002
{
1000
PbThick
1002
}
  0
LINE
  5
40A
330
1F
100
AcDbEntity
  8
THICK
100
AcDbLine
 10
-212.1000000000001
 20
-252.5
 30
0.0
 11
-212.1000000000001
 21
-240.5
 31
0.0
1001
DBPROPERTIES
1002
{
1000
PbThick
1002
}
  0
LINE
  5
40B
330
1F
100
AcDbEntity
  8
HIDDEN
100
AcDbLine
 10
-212.1000000000001
 20
-252.5
 30
0.0
 11
-212.1000000000001
 21
-252.5
 31
0.0
1001
DBPROPERTIES
1002
{
1000
PbHidd
1002
}
  0
LINE
  5
40C
330
1F
100
AcDbEntity
  8
HIDDEN
100
AcDbLine
 10
-226.5
 20
212.1
 30
0.0
 11
-230.5
 21
212.1
 31
0.0
1001
DBPROPERTIES
1002
{
1000
PbHidd
1002
}
  0
LINE
  5
40D
330
1F
100
AcDbEntity
  8
HIDDEN
100
AcDbLine
 10
-222.5
 20
212.1
 30
0.0
 11
-222.5
 21
212.1
 31
0.0
1001
DBPROPERTIES
1002
{
1000
PbHidd
1002
}
  0
LINE
  5
40E
330
1F
100
AcDbEntity
  8
HIDDEN
100
AcDbLine
 10
-223.5
 20
212.1000000000001
 30
0.0
 11
-226.5
 21
212.1000000000001
 31
0.0
1001
DBPROPERTIES
1002
{
1000
PbHidd
1002
}
  0
LINE
  5
40F
330
1F
100
AcDbEntity
  8
HIDDEN
100
AcDbLine
 10
-226.5
 20
-212.0999999999999
 30
0.0
 11
-223.5
 21
-212.0999999999999
 31
0.0
1001
DBPROPERTIES
1002
{
1000
PbHidd
1002
}
  0
LINE
  5
410
330
1F
100
AcDbEntity
  8
HIDDEN
100
AcDbLine
 10
-223.5
 20
212.1
 30
0.0
 11
-223.5
 21
212.1
 31
0.0
1001
DBPROPERTIES
1002
{
1000
PbHidd
1002
}
  0
LINE
  5
411
330
1F
100
AcDbEntity
  8
THICK
100
AcDbLine
 10
-223.5
 20
-212.0999999999999
 30
0.0
 11
-223.5
 21
212.1
 31
0.0
1001
DBPROPERTIES
1002
{
1000
PbThick
1002
}
  0
LINE
  5
412
330
1F
100
AcDbEntity
  8
HIDDEN
100
AcDbLine
 10
-223.5
 20
-212.1
 30
0.0
 11
-223.5
 21
-212.1
 31
0.0
1001
DBPROPERTIES
1002
{
1000
PbHidd
1002
}
  0
LINE
  5
413
330
1F
100
AcDbEntity
  8
HIDDEN
100
AcDbLine
 10
-223.5
 20
212.1
 30
0.0
 11
-223.5
 21
212.1
 31
0.0
1001
DBPROPERTIES
1002
{
1000
PbHidd
1002
}
  0
LINE
  5
414
330
1F
100
AcDbEntity
  8
HIDDEN
100
AcDbLine
 10
-223.5
 20
-212.1
 30
0.0
 11
-223.5
 21
-212.1
 31
0.0
1001
DBPROPERTIES
1002
{
1000
PbHidd
1002
}
  0
LINE
  5
415
330
1F
100
AcDbEntity
  8
THICK
100
AcDbLine
 10
-239.5
 20
212.1
 30
0.0
 11
-239.5
 21
-212.0999999999999
 31
0.0
1001
DBPROPERTIES
1002
{
1000
PbThick
1002
}
  0
LINE
  5
416
330
1F
100
AcDbEntity
  8
THICK
100
AcDbLine
 10
-251.5
 20
212.1
 30
0.0
 11
-251.5
 21
-212.0999999999999
 31
0.0
1001
DBPROPERTIES
1002
{
1000
PbThick
1002
}
  0
LINE
  5
417
330
1F
100
AcDbEntity
  8
HIDDEN
100
AcDbLine
 10
-251.5
 20
212.1
 30
0.0
 11
-251.5
 21
212.1
 31
0.0
1001
DBPROPERTIES
1002
{
1000
PbHidd
1002
}
  0
LINE
  5
418
330
1F
100
AcDbEntity
  8
HIDDEN
100
AcDbLine
 10
-251.5
 20
-212.0999999999999
 30
0.0
 11
-251.5
 21
-212.0999999999999
 31
0.0
1001
DBPROPERTIES
1002
{
1000
PbHidd
1002
}
  0
LINE
  5
419
330
1F
100
AcDbEntity
  8
HIDDEN
100
AcDbLine
 10
-226.5
 20
-212.0999999999999
 30
0.0
 11
-230.5
 21
-212.0999999999999
 31
0.0
1001
DBPROPERTIES
1002
{
1000
PbHidd
1002
}
  0
LINE
  5
41A
330
1F
100
AcDbEntity
  8
HIDDEN
100
AcDbLine
 10
-252.5
 20
-212.0999999999999
 30
0.0
 11
-252.5
 21
-212.0999999999999
 31
0.0
1001
DBPROPERTIES
1002
{
1000
PbHidd
1002
}
  0
LINE
  5
41B
330
1F
100
AcDbEntity
  8
THICK
100
AcDbLine
 10
-252.5
 20
-212.0999999999999
 30
0.0
 11
-240.5
 21
-212.0999999999999
 31
0.0
1001
DBPROPERTIES
1002
{
1000
PbThick
1002
}
  0
LINE
  5
41C
330
1F
100
AcDbEntity
  8
THICK
100
AcDbLine
 10
-240.5
 20
-212.0999999999999
 30
0.0
 11
-222.5
 21
-212.0999999999999
 31
0.0
1001
DBPROPERTIES
1002
{
1000
PbThick
1002
}
  0
LINE
  5
41D
330
1F
100
AcDbEntity
  8
HIDDEN
100
AcDbLine
 10
-222.5
 20
-212.1
 30
0.0
 11
-222.5
 21
-212.1
 31
0.0
1001
DBPROPERTIES
1002
{
1000
PbHidd
1002
}
  0
LINE
  5
41E
330
1F
100
AcDbEntity
  8
HIDDEN
100
AcDbLine
 10
-222.5
 20
-212.1
 30
0.0
 11
-222.5
 21
-212.1
 31
0.0
1001
DBPROPERTIES
1002
{
1000
PbHidd
1002
}
  0
LINE
  5
41F
330
1F
100
AcDbEntity
  8
HIDDEN
100
AcDbLine
 10
-252.5000000000001
 20
-240.4999999999999
 30
0.0
 11
-252.5000000000001
 21
-240.4999999999999
 31
0.0
1001
DBPROPERTIES
1002
{
1000
PbHidd
1002
}
  0
LINE
  5
420
330
1F
100
AcDbEntity
  8
HIDDEN
100
AcDbLine
 10
-240.5000000000001
 20
-252.4999999999999
 30
0.0
 11
-240.5000000000001
 21
-252.4999999999999
 31
0.0
1001
DBPROPERTIES
1002
{
1000
PbHidd
1002
}
  0
ELLIPSE
  5
421
330
1F
100
AcDbEntity
  8
THICK
100
AcDbEllipse
 10
-240.5000000000001
 20
-240.4999999999999
 30
0.0
 11
-12.0
 21
3.673819061467132E-15
 31
0.0
210
0.0
220
0.0
230
1.0
 40
1.0
 41
0.7853981633974535
 42
1.570796326794897
1001
DBPROPERTIES
1002
{
1000
PbThick
1002
}
  0
ELLIPSE
  5
422
330
1F
100
AcDbEntity
  8
THICK
100
AcDbEllipse
 10
-240.5000000000001
 20
-240.4999999999999
 30
0.0
 11
-3.673819061467132E-15
 21
-12.0
 31
0.0
210
0.0
220
0.0
230
1.0
 40
1.0
 41
-1.570796326794896
 42
-0.7853981633974464
1001
DBPROPERTIES
1002
{
1000
PbThick
1002
}
  0
LINE
  5
423
330
1F
100
AcDbEntity
  8
THICK
100
AcDbLine
 10
-240.5000000000001
 20
-212.0999999999999
 30
0.0
 11
-240.5000000000001
 21
-240.4999999999999
 31
0.0
1001
DBPROPERTIES
1002
{
1000
PbThick
1002
}
  0
LINE
  5
424
330
1F
100
AcDbEntity
  8
THICK
100
AcDbLine
 10
-252.5
 20
-212.0999999999999
 30
0.0
 11
-252.5
 21
-240.4999999999999
 31
0.0
1001
DBPROPERTIES
1002
{
1000
PbThick
1002
}
  0
LINE
  5
425
330
1F
100
AcDbEntity
  8
THICK
100
AcDbLine
 10
-248.9852813742387
 20
-248.9852813742384
 30
0.0
 11
-240.5000000000001
 21
-240.4999999999999
 31
0.0
1001
DBPROPERTIES
1002
{
1000
PbThick
1002
}
  0
LINE
  5
426
330
1F
100
AcDbEntity
  8
THICK
100
AcDbLine
 10
-212.1000000000001
 20
-252.5
 30
0.0
 11
-240.5000000000001
 21
-252.5
 31
0.0
1001
DBPROPERTIES
1002
{
1000
PbThick
1002
}
  0
LINE
  5
427
330
1F
100
AcDbEntity
  8
THICK
100
AcDbLine
 10
-240.5000000000001
 20
-240.4999999999999
 30
0.0
 11
-212.1000000000001
 21
-240.4999999999999
 31
0.0
1001
DBPROPERTIES
1002
{
1000
PbThick
1002
}
  0
LINE
  5
428
330
1F
100
AcDbEntity
  8
HIDDEN
100
AcDbLine
 10
-252.5
 20
-222.4999999999999
 30
0.0
 11
-252.5
 21
-222.4999999999999
 31
0.0
1001
DBPROPERTIES
1002
{
1000
PbHidd
1002
}
  0
LINE
  5
429
330
1F
100
AcDbEntity
  8
HIDDEN
100
AcDbLine
 10
-222.5
 20
-222.4999999999999
 30
0.0
 11
-252.5
 21
-222.4999999999999
 31
0.0
1001
DBPROPERTIES
1002
{
1000
PbHidd
1002
}
  0
LINE
  5
42A
330
1F
100
AcDbEntity
  8
HIDDEN
100
AcDbLine
 10
-222.5
 20
-222.5
 30
0.0
 11
-222.5
 21
-222.5
 31
0.0
1001
DBPROPERTIES
1002
{
1000
PbHidd
1002
}
  0
LINE
  5
42B
330
1F
100
AcDbEntity
  8
HIDDEN
100
AcDbLine
 10
-222.5000000000001
 20
-252.5
 30
0.0
 11
-222.5000000000001
 21
-222.5
 31
0.0
1001
DBPROPERTIES
1002
{
1000
PbHidd
1002
}
  0
LINE
  5
42C
330
1F
100
AcDbEntity
  8
HIDDEN
100
AcDbLine
 10
-222.5000000000001
 20
-252.5
 30
0.0
 11
-222.5000000000001
 21
-252.5
 31
0.0
1001
DBPROPERTIES
1002
{
1000
PbHidd
1002
}
  0
LINE
  5
42D
330
1F
100
AcDbEntity
  8
THICK
100
AcDbLine
 10
-222.5
 20
-222.4999999999999
 30
0.0
 11
-212.1000000000001
 21
-222.4999999999999
 31
0.0
1001
DBPROPERTIES
1002
{
1000
PbThick
1002
}
  0
LINE
  5
42E
330
1F
100
AcDbEntity
  8
THICK
100
AcDbLine
 10
-222.5000000000001
 20
-222.5
 30
0.0
 11
-222.5000000000001
 21
-212.1
 31
0.0
1001
DBPROPERTIES
1002
{
1000
PbThick
1002
}
  0
LINE
  5
42F
330
1F
100
AcDbEntity
  8
HIDDEN
100
AcDbLine
 10
-222.5
 20
-222.5
 30
0.0
 11
-222.5
 21
-222.5
 31
0.0
1001
DBPROPERTIES
1002
{
1000
PbHidd
1002
}
  0
LINE
  5
430
330
1F
100
AcDbEntity
  8
HIDDEN
100
AcDbLine
 10
-222.5
 20
212.1
 30
0.0
 11
-222.5
 21
212.1
 31
0.0
1001
DBPROPERTIES
1002
{
1000
PbHidd
1002
}
  0
LINE
  5
431
330
1F
100
AcDbEntity
  8
HIDDEN
100
AcDbLine
 10
-222.5
 20
212.1
 30
0.0
 11
-222.5
 21
212.1
 31
0.0
1001
DBPROPERTIES
1002
{
1000
PbHidd
1002
}
  0
LINE
  5
432
330
1F
100
AcDbEntity
  8
THICK
100
AcDbLine
 10
-240.5
 20
212.1
 30
0.0
 11
-222.5
 21
212.1
 31
0.0
1001
DBPROPERTIES
1002
{
1000
PbThick
1002
}
  0
LINE
  5
433
330
1F
100
AcDbEntity
  8
THICK
100
AcDbLine
 10
-252.5
 20
212.1
 30
0.0
 11
-240.5
 21
212.1
 31
0.0
1001
DBPROPERTIES
1002
{
1000
PbThick
1002
}
  0
LINE
  5
434
330
1F
100
AcDbEntity
  8
HIDDEN
100
AcDbLine
 10
-252.5
 20
212.1
 30
0.0
 11
-252.5
 21
212.1
 31
0.0
1001
DBPROPERTIES
1002
{
1000
PbHidd
1002
}
  0
LINE
  5
435
330
1F
100
AcDbEntity
  8
HIDDEN
100
AcDbLine
 10
-223.4999999999999
 20
251.5
 30
0.0
 11
-223.5
 21
251.5
 31
0.0
1001
DBPROPERTIES
1002
{
1000
PbHidd
1002
}
  0
LINE
  5
436
330
1F
100
AcDbEntity
  8
HIDDEN
100
AcDbLine
 10
-239.5000000000001
 20
251.5
 30
0.0
 11
-239.4999999999999
 21
251.5
 31
0.0
1001
DBPROPERTIES
1002
{
1000
PbHidd
1002
}
  0
LINE
  5
437
330
1F
100
AcDbEntity
  8
HIDDEN
100
AcDbLine
 10
-223.5
 20
251.5
 30
0.0
 11
-239.5000000000001
 21
251.5
 31
0.0
1001
DBPROPERTIES
1002
{
1000
PbHidd
1002
}
  0
LINE
  5
438
330
1F
100
AcDbEntity
  8
HIDDEN
100
AcDbLine
 10
-223.5
 20
223.5
 30
0.0
 11
-223.5
 21
223.5
 31
0.0
1001
DBPROPERTIES
1002
{
1000
PbHidd
1002
}
  0
LINE
  5
439
330
1F
100
AcDbEntity
  8
HIDDEN
100
AcDbLine
 10
-251.5
 20
239.5
 30
0.0
 11
-251.4999999999999
 21
239.5
 31
0.0
1001
DBPROPERTIES
1002
{
1000
PbHidd
1002
}
  0
ARC
  5
43A
330
1F
100
AcDbEntity
  8
HIDDEN
100
AcDbCircle
 10
-239.5
 20
239.5
 30
0.0
 40
12.0
100
AcDbArc
 50
89.99998127603165
 51
180.0000198478428
1001
DBPROPERTIES
1002
{
1000
PbHidd
1002
}
  0
LINE
  5
43B
330
1F
100
AcDbEntity
  8
HIDDEN
100
AcDbLine
 10
-251.5
 20
223.5
 30
0.0
 11
-251.5
 21
223.5
 31
0.0
1001
DBPROPERTIES
1002
{
1000
PbHidd
1002
}
  0
LINE
  5
43C
330
1F
100
AcDbEntity
  8
HIDDEN
100
AcDbLine
 10
-251.5
 20
239.5
 30
0.0
 11
-251.5
 21
223.5
 31
0.0
1001
DBPROPERTIES
1002
{
1000
PbHidd
1002
}
  0
LINE
  5
43D
330
1F
100
AcDbEntity
  8
HIDDEN
100
AcDbLine
 10
-251.5
 20
223.5
 30
0.0
 11
-230.5
 21
223.5
 31
0.0
1001
DBPROPERTIES
1002
{
1000
PbHidd
1002
}
  0
LINE
  5
43E
330
1F
100
AcDbEntity
  8
HIDDEN
100
AcDbLine
 10
-223.5
 20
230.5
 30
0.0
 11
-223.5
 21
251.5
 31
0.0
1001
DBPROPERTIES
1002
{
1000
PbHidd
1002
}
  0
LINE
  5
43F
330
1F
100
AcDbEntity
  8
HIDDEN
100
AcDbLine
 10
212.1000000000001
 20
251.5
 30
0.0
 11
212.1000000000001
 21
251.5
 31
0.0
1001
DBPROPERTIES
1002
{
1000
PbHidd
1002
}
  0
LINE
  5
440
330
1F
100
AcDbEntity
  8
HIDDEN
100
AcDbLine
 10
-212.0999999999999
 20
251.5
 30
0.0
 11
-212.0999999999999
 21
251.5
 31
0.0
1001
DBPROPERTIES
1002
{
1000
PbHidd
1002
}
  0
LINE
  5
441
330
1F
100
AcDbEntity
  8
HIDDEN
100
AcDbLine
 10
-212.0999999999999
 20
239.5
 30
0.0
 11
212.1000000000001
 21
239.5
 31
0.0
1001
DBPROPERTIES
1002
{
1000
PbHidd
1002
}
  0
LINE
  5
442
330
1F
100
AcDbEntity
  8
HIDDEN
100
AcDbLine
 10
212.1000000000001
 20
223.5
 30
0.0
 11
212.1000000000001
 21
223.5
 31
0.0
1001
DBPROPERTIES
1002
{
1000
PbHidd
1002
}
  0
LINE
  5
443
330
1F
100
AcDbEntity
  8
HIDDEN
100
AcDbLine
 10
-212.0999999999999
 20
223.5
 30
0.0
 11
-212.0999999999999
 21
223.5
 31
0.0
1001
DBPROPERTIES
1002
{
1000
PbHidd
1002
}
  0
LINE
  5
444
330
1F
100
AcDbEntity
  8
HIDDEN
100
AcDbLine
 10
212.1000000000001
 20
223.5
 30
0.0
 11
212.1000000000001
 21
223.5
 31
0.0
1001
DBPROPERTIES
1002
{
1000
PbHidd
1002
}
  0
LINE
  5
445
330
1F
100
AcDbEntity
  8
HIDDEN
100
AcDbLine
 10
-212.0999999999999
 20
223.5
 30
0.0
 11
-212.0999999999999
 21
223.5
 31
0.0
1001
DBPROPERTIES
1002
{
1000
PbHidd
1002
}
  0
LINE
  5
446
330
1F
100
AcDbEntity
  8
HIDDEN
100
AcDbLine
 10
-212.0999999999999
 20
222.5
 30
0.0
 11
-212.0999999999999
 21
222.5
 31
0.0
1001
DBPROPERTIES
1002
{
1000
PbHidd
1002
}
  0
LINE
  5
447
330
1F
100
AcDbEntity
  8
HIDDEN
100
AcDbLine
 10
-212.0999999999999
 20
222.5
 30
0.0
 11
-212.0999999999999
 21
222.5
 31
0.0
1001
DBPROPERTIES
1002
{
1000
PbHidd
1002
}
  0
LINE
  5
448
330
1F
100
AcDbEntity
  8
HIDDEN
100
AcDbLine
 10
-212.0999999999999
 20
252.5
 30
0.0
 11
-212.0999999999999
 21
252.5
 31
0.0
1001
DBPROPERTIES
1002
{
1000
PbHidd
1002
}
  0
LINE
  5
449
330
1F
100
AcDbEntity
  8
HIDDEN
100
AcDbLine
 10
-240.4999999999999
 20
212.1
 30
0.0
 11
-240.4999999999999
 21
240.5
 31
0.0
1001
DBPROPERTIES
1002
{
1000
PbHidd
1002
}
  0
LINE
  5
44A
330
1F
100
AcDbEntity
  8
HIDDEN
100
AcDbLine
 10
-240.4999999999999
 20
240.5
 30
0.0
 11
-248.9852813742385
 21
248.9852813742386
 31
0.0
1001
DBPROPERTIES
1002
{
1000
PbHidd
1002
}
  0
LINE
  5
44B
330
1F
100
AcDbEntity
  8
HIDDEN
100
AcDbLine
 10
-212.0999999999999
 20
240.5
 30
0.0
 11
-240.4999999999999
 21
240.5
 31
0.0
1001
DBPROPERTIES
1002
{
1000
PbHidd
1002
}
  0
LINE
  5
44C
330
1F
100
AcDbEntity
  8
HIDDEN
100
AcDbLine
 10
-252.5
 20
240.5
 30
0.0
 11
-252.5
 21
240.5
 31
0.0
1001
DBPROPERTIES
1002
{
1000
PbHidd
1002
}
  0
LINE
  5
44D
330
1F
100
AcDbEntity
  8
HIDDEN
100
AcDbLine
 10
-240.4999999999999
 20
252.5
 30
0.0
 11
-240.4999999999999
 21
252.5
 31
0.0
1001
DBPROPERTIES
1002
{
1000
PbHidd
1002
}
  0
LINE
  5
44E
330
1F
100
AcDbEntity
  8
HIDDEN
100
AcDbLine
 10
-222.4999999999999
 20
222.5
 30
0.0
 11
-222.4999999999999
 21
222.5
 31
0.0
1001
DBPROPERTIES
1002
{
1000
PbHidd
1002
}
  0
LINE
  5
44F
330
1F
100
AcDbEntity
  8
HIDDEN
100
AcDbLine
 10
-222.4999999999999
 20
252.5
 30
0.0
 11
-222.4999999999999
 21
252.5
 31
0.0
1001
DBPROPERTIES
1002
{
1000
PbHidd
1002
}
  0
LINE
  5
450
330
1F
100
AcDbEntity
  8
HIDDEN
100
AcDbLine
 10
-252.4999999999999
 20
222.5
 30
0.0
 11
-252.4999999999999
 21
222.5
 31
0.0
1001
DBPROPERTIES
1002
{
1000
PbHidd
1002
}
  0
LINE
  5
451
330
1F
100
AcDbEntity
  8
HIDDEN
100
AcDbLine
 10
-222.4999999999999
 20
222.5
 30
0.0
 11
-222.4999999999999
 21
222.5
 31
0.0
1001
DBPROPERTIES
1002
{
1000
PbHidd
1002
}
  0
LINE
  5
452
330
1F
100
AcDbEntity
  8
HIDDEN
100
AcDbLine
 10
212.1000000000001
 20
252.5
 30
0.0
 11
212.1000000000001
 21
252.5
 31
0.0
1001
DBPROPERTIES
1002
{
1000
PbHidd
1002
}
  0
LINE
  5
453
330
1F
100
AcDbEntity
  8
HIDDEN
100
AcDbLine
 10
212.1000000000001
 20
222.5
 30
0.0
 11
212.1000000000001
 21
222.5
 31
0.0
1001
DBPROPERTIES
1002
{
1000
PbHidd
1002
}
  0
LINE
  5
454
330
1F
100
AcDbEntity
  8
HIDDEN
100
AcDbLine
 10
212.1000000000001
 20
222.5
 30
0.0
 11
212.1000000000001
 21
222.5
 31
0.0
1001
DBPROPERTIES
1002
{
1000
PbHidd
1002
}
  0
LINE
  5
455
330
1F
100
AcDbEntity
  8
HIDDEN
100
AcDbLine
 10
251.5
 20
223.5
 30
0.0
 11
251.5
 21
223.5
 31
0.0
1001
DBPROPERTIES
1002
{
1000
PbHidd
1002
}
  0
LINE
  5
456
330
1F
100
AcDbEntity
  8
HIDDEN
100
AcDbLine
 10
230.5
 20
223.5
 30
0.0
 11
251.5
 21
223.5
 31
0.0
1001
DBPROPERTIES
1002
{
1000
PbHidd
1002
}
  0
LINE
  5
457
330
1F
100
AcDbEntity
  8
HIDDEN
100
AcDbLine
 10
251.5000000000001
 20
239.5
 30
0.0
 11
251.5
 21
239.5
 31
0.0
1001
DBPROPERTIES
1002
{
1000
PbHidd
1002
}
  0
LINE
  5
458
330
1F
100
AcDbEntity
  8
HIDDEN
100
AcDbLine
 10
239.5000000000001
 20
251.5
 30
0.0
 11
239.5
 21
251.5
 31
0.0
1001
DBPROPERTIES
1002
{
1000
PbHidd
1002
}
  0
ARC
  5
459
330
1F
100
AcDbEntity
  8
HIDDEN
100
AcDbCircle
 10
239.5
 20
239.5
 30
0.0
 40
12.0
100
AcDbArc
 50
0.0
 51
89.99998127603165
1001
DBPROPERTIES
1002
{
1000
PbHidd
1002
}
  0
LINE
  5
45A
330
1F
100
AcDbEntity
  8
HIDDEN
100
AcDbLine
 10
223.5
 20
251.5
 30
0.0
 11
223.5
 21
251.5
 31
0.0
1001
DBPROPERTIES
1002
{
1000
PbHidd
1002
}
  0
LINE
  5
45B
330
1F
100
AcDbEntity
  8
HIDDEN
100
AcDbLine
 10
239.5
 20
251.5
 30
0.0
 11
223.5
 21
251.5
 31
0.0
1001
DBPROPERTIES
1002
{
1000
PbHidd
1002
}
  0
LINE
  5
45C
330
1F
100
AcDbEntity
  8
HIDDEN
100
AcDbLine
 10
251.5
 20
223.5
 30
0.0
 11
251.5
 21
239.5
 31
0.0
1001
DBPROPERTIES
1002
{
1000
PbHidd
1002
}
  0
LINE
  5
45D
330
1F
100
AcDbEntity
  8
HIDDEN
100
AcDbLine
 10
223.5
 20
251.5
 30
0.0
 11
223.5
 21
230.5
 31
0.0
1001
DBPROPERTIES
1002
{
1000
PbHidd
1002
}
  0
LINE
  5
45E
330
1F
100
AcDbEntity
  8
HIDDEN
100
AcDbLine
 10
212.1
 20
226.5
 30
0.0
 11
212.1
 21
223.5
 31
0.0
1001
DBPROPERTIES
1002
{
1000
PbHidd
1002
}
  0
LINE
  5
45F
330
1F
100
AcDbEntity
  8
HIDDEN
100
AcDbLine
 10
212.1
 20
222.5
 30
0.0
 11
212.1
 21
222.5
 31
0.0
1001
DBPROPERTIES
1002
{
1000
PbHidd
1002
}
  0
LINE
  5
460
330
1F
100
AcDbEntity
  8
HIDDEN
100
AcDbLine
 10
212.1
 20
223.5
 30
0.0
 11
212.1
 21
223.5
 31
0.0
1001
DBPROPERTIES
1002
{
1000
PbHidd
1002
}
  0
LINE
  5
461
330
1F
100
AcDbEntity
  8
HIDDEN
100
AcDbLine
 10
212.1
 20
251.5
 30
0.0
 11
212.1
 21
251.5
 31
0.0
1001
DBPROPERTIES
1002
{
1000
PbHidd
1002
}
  0
LINE
  5
462
330
1F
100
AcDbEntity
  8
HIDDEN
100
AcDbLine
 10
212.1
 20
223.5
 30
0.0
 11
212.1
 21
223.5
 31
0.0
1001
DBPROPERTIES
1002
{
1000
PbHidd
1002
}
  0
LINE
  5
463
330
1F
100
AcDbEntity
  8
HIDDEN
100
AcDbLine
 10
212.1
 20
222.5
 30
0.0
 11
212.1
 21
222.5
 31
0.0
1001
DBPROPERTIES
1002
{
1000
PbHidd
1002
}
  0
LINE
  5
464
330
1F
100
AcDbEntity
  8
THICK
100
AcDbLine
 10
212.1
 20
222.5
 30
0.0
 11
212.1
 21
240.5
 31
0.0
1001
DBPROPERTIES
1002
{
1000
PbThick
1002
}
  0
LINE
  5
465
330
1F
100
AcDbEntity
  8
THICK
100
AcDbLine
 10
212.1
 20
240.5
 30
0.0
 11
212.1
 21
252.5
 31
0.0
1001
DBPROPERTIES
1002
{
1000
PbThick
1002
}
  0
LINE
  5
466
330
1F
100
AcDbEntity
  8
HIDDEN
100
AcDbLine
 10
212.1
 20
252.5
 30
0.0
 11
212.1
 21
252.5
 31
0.0
1001
DBPROPERTIES
1002
{
1000
PbHidd
1002
}
  0
LINE
  5
467
330
1F
100
AcDbEntity
  8
THICK
100
AcDbLine
 10
240.5
 20
212.1
 30
0.0
 11
240.5
 21
240.5
 31
0.0
1001
DBPROPERTIES
1002
{
1000
PbThick
1002
}
  0
LINE
  5
468
330
1F
100
AcDbEntity
  8
THICK
100
AcDbLine
 10
252.5
 20
212.1
 30
0.0
 11
252.5
 21
240.5
 31
0.0
1001
DBPROPERTIES
1002
{
1000
PbThick
1002
}
  0
ELLIPSE
  5
469
330
1F
100
AcDbEntity
  8
THICK
100
AcDbEllipse
 10
240.5
 20
240.5
 30
0.0
 11
0.0
 21
12.0
 31
0.0
210
0.0
220
0.0
230
1.0
 40
1.0
 41
-1.570796326794897
 42
-0.7853981633974534
1001
DBPROPERTIES
1002
{
1000
PbThick
1002
}
  0
LINE
  5
46A
330
1F
100
AcDbEntity
  8
THICK
100
AcDbLine
 10
240.5
 20
240.5
 30
0.0
 11
248.9852813742386
 21
248.9852813742386
 31
0.0
1001
DBPROPERTIES
1002
{
1000
PbThick
1002
}
  0
LINE
  5
46B
330
1F
100
AcDbEntity
  8
THICK
100
AcDbLine
 10
212.1
 20
252.5
 30
0.0
 11
240.5
 21
252.5
 31
0.0
1001
DBPROPERTIES
1002
{
1000
PbThick
1002
}
  0
LINE
  5
46C
330
1F
100
AcDbEntity
  8
THICK
100
AcDbLine
 10
212.1
 20
240.5
 30
0.0
 11
240.5
 21
240.5
 31
0.0
1001
DBPROPERTIES
1002
{
1000
PbThick
1002
}
  0
ELLIPSE
  5
46D
330
1F
100
AcDbEntity
  8
THICK
100
AcDbEllipse
 10
240.5
 20
240.5
 30
0.0
 11
12.0
 21
-2.939055249173705E-15
 31
0.0
210
0.0
220
0.0
230
1.0
 40
1.0
 41
0.785398163397447
 42
1.570796326794897
1001
DBPROPERTIES
1002
{
1000
PbThick
1002
}
  0
LINE
  5
46E
330
1F
100
AcDbEntity
  8
HIDDEN
100
AcDbLine
 10
252.5
 20
240.5
 30
0.0
 11
252.5
 21
240.5
 31
0.0
1001
DBPROPERTIES
1002
{
1000
PbHidd
1002
}
  0
LINE
  5
46F
330
1F
100
AcDbEntity
  8
HIDDEN
100
AcDbLine
 10
240.5
 20
252.5
 30
0.0
 11
240.5
 21
252.5
 31
0.0
1001
DBPROPERTIES
1002
{
1000
PbHidd
1002
}
  0
LINE
  5
470
330
1F
100
AcDbEntity
  8
THICK
100
AcDbLine
 10
222.5
 20
222.5
 30
0.0
 11
212.1
 21
222.5
 31
0.0
1001
DBPROPERTIES
1002
{
1000
PbThick
1002
}
  0
LINE
  5
471
330
1F
100
AcDbEntity
  8
THICK
100
AcDbLine
 10
222.5
 20
212.1
 30
0.0
 11
222.5
 21
222.5
 31
0.0
1001
DBPROPERTIES
1002
{
1000
PbThick
1002
}
  0
LINE
  5
472
330
1F
100
AcDbEntity
  8
HIDDEN
100
AcDbLine
 10
222.5
 20
222.5
 30
0.0
 11
222.5
 21
222.5
 31
0.0
1001
DBPROPERTIES
1002
{
1000
PbHidd
1002
}
  0
LINE
  5
473
330
1F
100
AcDbEntity
  8
HIDDEN
100
AcDbLine
 10
252.5
 20
222.5
 30
0.0
 11
222.5
 21
222.5
 31
0.0
1001
DBPROPERTIES
1002
{
1000
PbHidd
1002
}
  0
LINE
  5
474
330
1F
100
AcDbEntity
  8
HIDDEN
100
AcDbLine
 10
222.5
 20
252.5
 30
0.0
 11
222.5
 21
252.5
 31
0.0
1001
DBPROPERTIES
1002
{
1000
PbHidd
1002
}
  0
LINE
  5
475
330
1F
100
AcDbEntity
  8
HIDDEN
100
AcDbLine
 10
252.5
 20
222.5
 30
0.0
 11
252.5
 21
222.5
 31
0.0
1001
DBPROPERTIES
1002
{
1000
PbHidd
1002
}
  0
LINE
  5
476
330
1F
100
AcDbEntity
  8
HIDDEN
100
AcDbLine
 10
222.5
 20
222.5
 30
0.0
 11
222.5
 21
222.5
 31
0.0
1001
DBPROPERTIES
1002
{
1000
PbHidd
1002
}
  0
LINE
  5
477
330
1F
100
AcDbEntity
  8
HIDDEN
100
AcDbLine
 10
222.5
 20
222.5
 30
0.0
 11
222.5
 21
252.5
 31
0.0
1001
DBPROPERTIES
1002
{
1000
PbHidd
1002
}
  0
LINE
  5
478
330
1F
100
AcDbEntity
  8
HIDDEN
100
AcDbLine
 10
212.1
 20
230.5
 30
0.0
 11
212.1
 21
226.5
 31
0.0
1001
DBPROPERTIES
1002
{
1000
PbHidd
1002
}
  0
LINE
  5
479
330
1F
100
AcDbEntity
  8
HIDDEN
100
AcDbLine
 10
-212.1
 20
223.5
 30
0.0
 11
-212.1
 21
226.5
 31
0.0
1001
DBPROPERTIES
1002
{
1000
PbHidd
1002
}
  0
LINE
  5
47A
330
1F
100
AcDbEntity
  8
THICK
100
AcDbLine
 10
-212.1
 20
223.5
 30
0.0
 11
212.1
 21
223.5
 31
0.0
1001
DBPROPERTIES
1002
{
1000
PbThick
1002
}
  0
LINE
  5
47B
330
1F
100
AcDbEntity
  8
HIDDEN
100
AcDbLine
 10
-212.1
 20
223.5
 30
0.0
 11
-212.1
 21
223.5
 31
0.0
1001
DBPROPERTIES
1002
{
1000
PbHidd
1002
}
  0
LINE
  5
47C
330
1F
100
AcDbEntity
  8
HIDDEN
100
AcDbLine
 10
-212.1
 20
223.5
 30
0.0
 11
-212.1
 21
223.5
 31
0.0
1001
DBPROPERTIES
1002
{
1000
PbHidd
1002
}
  0
LINE
  5
47D
330
1F
100
AcDbEntity
  8
HIDDEN
100
AcDbLine
 10
-212.1
 20
222.5
 30
0.0
 11
-212.1
 21
222.5
 31
0.0
1001
DBPROPERTIES
1002
{
1000
PbHidd
1002
}
  0
LINE
  5
47E
330
1F
100
AcDbEntity
  8
HIDDEN
100
AcDbLine
 10
-212.1
 20
222.5
 30
0.0
 11
-212.1
 21
222.5
 31
0.0
1001
DBPROPERTIES
1002
{
1000
PbHidd
1002
}
  0
LINE
  5
47F
330
1F
100
AcDbEntity
  8
HIDDEN
100
AcDbLine
 10
-212.1
 20
251.5
 30
0.0
 11
-212.1
 21
251.5
 31
0.0
1001
DBPROPERTIES
1002
{
1000
PbHidd
1002
}
  0
LINE
  5
480
330
1F
100
AcDbEntity
  8
HIDDEN
100
AcDbLine
 10
-212.1
 20
252.5
 30
0.0
 11
-212.1
 21
252.5
 31
0.0
1001
DBPROPERTIES
1002
{
1000
PbHidd
1002
}
  0
LINE
  5
481
330
1F
100
AcDbEntity
  8
THICK
100
AcDbLine
 10
-212.1
 20
252.5
 30
0.0
 11
-212.1
 21
240.5
 31
0.0
1001
DBPROPERTIES
1002
{
1000
PbThick
1002
}
  0
LINE
  5
482
330
1F
100
AcDbEntity
  8
THICK
100
AcDbLine
 10
-212.1
 20
222.5
 30
0.0
 11
-212.1
 21
240.5
 31
0.0
1001
DBPROPERTIES
1002
{
1000
PbThick
1002
}
  0
LINE
  5
483
330
1F
100
AcDbEntity
  8
THICK
100
AcDbLine
 10
-252.5
 20
212.1
 30
0.0
 11
-252.5
 21
240.5
 31
0.0
1001
DBPROPERTIES
1002
{
1000
PbThick
1002
}
  0
LINE
  5
484
330
1F
100
AcDbEntity
  8
THICK
100
AcDbLine
 10
-240.5
 20
212.1
 30
0.0
 11
-240.5
 21
240.5
 31
0.0
1001
DBPROPERTIES
1002
{
1000
PbThick
1002
}
  0
LINE
  5
485
330
1F
100
AcDbEntity
  8
THICK
100
AcDbLine
 10
-248.9852813742385
 20
248.9852813742386
 30
0.0
 11
-228.5
 21
228.5
 31
0.0
1001
DBPROPERTIES
1002
{
1000
PbThick
1002
}
  0
ELLIPSE
  5
486
330
1F
100
AcDbEntity
  8
THICK
100
AcDbEllipse
 10
-240.5
 20
240.5
 30
0.0
 11
7.347638122934264E-16
 21
12.0
 31
0.0
210
0.0
220
0.0
230
1.0
 40
1.0
 41
0.7853981633974466
 42
1.570796326794897
1001
DBPROPERTIES
1002
{
1000
PbThick
1002
}
  0
LINE
  5
487
330
1F
100
AcDbEntity
  8
HIDDEN
100
AcDbLine
 10
-240.5
 20
252.5
 30
0.0
 11
-240.5
 21
252.5
 31
0.0
1001
DBPROPERTIES
1002
{
1000
PbHidd
1002
}
  0
LINE
  5
488
330
1F
100
AcDbEntity
  8
HIDDEN
100
AcDbLine
 10
-252.5
 20
240.5
 30
0.0
 11
-252.5
 21
240.5
 31
0.0
1001
DBPROPERTIES
1002
{
1000
PbHidd
1002
}
  0
ELLIPSE
  5
489
330
1F
100
AcDbEntity
  8
THICK
100
AcDbEllipse
 10
-240.5
 20
240.5
 30
0.0
 11
-12.0
 21
-1.469527624586853E-15
 31
0.0
210
0.0
220
0.0
230
1.0
 40
1.0
 41
-1.570796326794897
 42
-0.7853981633974466
1001
DBPROPERTIES
1002
{
1000
PbThick
1002
}
  0
LINE
  5
48A
330
1F
100
AcDbEntity
  8
THICK
100
AcDbLine
 10
-212.1
 20
240.5
 30
0.0
 11
-240.5
 21
240.5
 31
0.0
1001
DBPROPERTIES
1002
{
1000
PbThick
1002
}
  0
LINE
  5
48B
330
1F
100
AcDbEntity
  8
THICK
100
AcDbLine
 10
-240.5
 20
252.5
 30
0.0
 11
-212.1
 21
252.5
 31
0.0
1001
DBPROPERTIES
1002
{
1000
PbThick
1002
}
  0
LINE
  5
48C
330
1F
100
AcDbEntity
  8
HIDDEN
100
AcDbLine
 10
-252.5
 20
222.5
 30
0.0
 11
-252.5
 21
222.5
 31
0.0
1001
DBPROPERTIES
1002
{
1000
PbHidd
1002
}
  0
LINE
  5
48D
330
1F
100
AcDbEntity
  8
HIDDEN
100
AcDbLine
 10
-222.5
 20
222.5
 30
0.0
 11
-252.5
 21
222.5
 31
0.0
1001
DBPROPERTIES
1002
{
1000
PbHidd
1002
}
  0
LINE
  5
48E
330
1F
100
AcDbEntity
  8
HIDDEN
100
AcDbLine
 10
-222.5
 20
222.5
 30
0.0
 11
-222.5
 21
222.5
 31
0.0
1001
DBPROPERTIES
1002
{
1000
PbHidd
1002
}
  0
LINE
  5
48F
330
1F
100
AcDbEntity
  8
THICK
100
AcDbLine
 10
-222.5
 20
212.1
 30
0.0
 11
-222.5
 21
222.5
 31
0.0
1001
DBPROPERTIES
1002
{
1000
PbThick
1002
}
  0
LINE
  5
490
330
1F
100
AcDbEntity
  8
HIDDEN
100
AcDbLine
 10
-222.5
 20
252.5
 30
0.0
 11
-222.5
 21
252.5
 31
0.0
1001
DBPROPERTIES
1002
{
1000
PbHidd
1002
}
  0
LINE
  5
491
330
1F
100
AcDbEntity
  8
HIDDEN
100
AcDbLine
 10
-222.5
 20
222.5
 30
0.0
 11
-222.5
 21
222.5
 31
0.0
1001
DBPROPERTIES
1002
{
1000
PbHidd
1002
}
  0
LINE
  5
492
330
1F
100
AcDbEntity
  8
THICK
100
AcDbLine
 10
-222.5
 20
222.5
 30
0.0
 11
-212.1
 21
222.5
 31
0.0
1001
DBPROPERTIES
1002
{
1000
PbThick
1002
}
  0
LINE
  5
493
330
1F
100
AcDbEntity
  8
HIDDEN
100
AcDbLine
 10
-222.5
 20
222.5
 30
0.0
 11
-222.5
 21
252.5
 31
0.0
1001
DBPROPERTIES
1002
{
1000
PbHidd
1002
}
  0
LINE
  5
494
330
1F
100
AcDbEntity
  8
THICK
100
AcDbLine
 10
212.1
 20
251.5
 30
0.0
 11
-212.1
 21
251.5
 31
0.0
1001
DBPROPERTIES
1002
{
1000
PbThick
1002
}
  0
LINE
  5
495
330
1F
100
AcDbEntity
  8
THICK
100
AcDbLine
 10
212.1
 20
239.5
 30
0.0
 11
-212.1
 21
239.5
 31
0.0
1001
DBPROPERTIES
1002
{
1000
PbThick
1002
}
  0
LINE
  5
496
330
1F
100
AcDbEntity
  8
HIDDEN
100
AcDbLine
 10
240.5000000000001
 20
212.1
 30
0.0
 11
240.5000000000001
 21
240.5
 31
0.0
1001
DBPROPERTIES
1002
{
1000
PbHidd
1002
}
  0
LINE
  5
497
330
1F
100
AcDbEntity
  8
HIDDEN
100
AcDbLine
 10
240.5000000000001
 20
240.5
 30
0.0
 11
248.9852813742386
 21
248.9852813742385
 31
0.0
1001
DBPROPERTIES
1002
{
1000
PbHidd
1002
}
  0
LINE
  5
498
330
1F
100
AcDbEntity
  8
HIDDEN
100
AcDbLine
 10
240.5000000000001
 20
252.5
 30
0.0
 11
240.5000000000001
 21
252.5
 31
0.0
1001
DBPROPERTIES
1002
{
1000
PbHidd
1002
}
  0
LINE
  5
499
330
1F
100
AcDbEntity
  8
HIDDEN
100
AcDbLine
 10
252.5
 20
240.5
 30
0.0
 11
252.5
 21
240.5
 31
0.0
1001
DBPROPERTIES
1002
{
1000
PbHidd
1002
}
  0
LINE
  5
49A
330
1F
100
AcDbEntity
  8
HIDDEN
100
AcDbLine
 10
212.1000000000001
 20
240.5
 30
0.0
 11
240.5000000000001
 21
240.5
 31
0.0
1001
DBPROPERTIES
1002
{
1000
PbHidd
1002
}
  0
LINE
  5
49B
330
1F
100
AcDbEntity
  8
HIDDEN
100
AcDbLine
 10
252.5000000000001
 20
222.5
 30
0.0
 11
252.5000000000001
 21
222.5
 31
0.0
1001
DBPROPERTIES
1002
{
1000
PbHidd
1002
}
  0
LINE
  5
49C
330
1F
100
AcDbEntity
  8
HIDDEN
100
AcDbLine
 10
222.5000000000001
 20
222.5
 30
0.0
 11
222.5000000000001
 21
222.5
 31
0.0
1001
DBPROPERTIES
1002
{
1000
PbHidd
1002
}
  0
LINE
  5
49D
330
1F
100
AcDbEntity
  8
HIDDEN
100
AcDbLine
 10
222.5000000000001
 20
252.5
 30
0.0
 11
222.5000000000001
 21
252.5
 31
0.0
1001
DBPROPERTIES
1002
{
1000
PbHidd
1002
}
  0
LINE
  5
49E
330
1F
100
AcDbEntity
  8
HIDDEN
100
AcDbLine
 10
222.5000000000001
 20
222.5
 30
0.0
 11
222.5000000000001
 21
222.5
 31
0.0
1001
DBPROPERTIES
1002
{
1000
PbHidd
1002
}
  0
LINE
  5
49F
330
1F
100
AcDbEntity
  8
HIDDEN
100
AcDbLine
 10
212.0999999999999
 20
-252.4999999999999
 30
0.0
 11
212.0999999999999
 21
-252.4999999999999
 31
0.0
1001
DBPROPERTIES
1002
{
1000
PbHidd
1002
}
  0
LINE
  5
4A0
330
1F
100
AcDbEntity
  8
THICK
100
AcDbLine
 10
212.0999999999999
 20
-252.4999999999999
 30
0.0
 11
212.0999999999999
 21
-240.4999999999999
 31
0.0
1001
DBPROPERTIES
1002
{
1000
PbThick
1002
}
  0
LINE
  5
4A1
330
1F
100
AcDbEntity
  8
THICK
100
AcDbLine
 10
212.0999999999999
 20
-240.4999999999999
 30
0.0
 11
212.0999999999999
 21
-222.4999999999999
 31
0.0
1001
DBPROPERTIES
1002
{
1000
PbThick
1002
}
  0
LINE
  5
4A2
330
1F
100
AcDbEntity
  8
HIDDEN
100
AcDbLine
 10
212.0999999999999
 20
-222.4999999999999
 30
0.0
 11
212.0999999999999
 21
-222.4999999999999
 31
0.0
1001
DBPROPERTIES
1002
{
1000
PbHidd
1002
}
  0
LINE
  5
4A3
330
1F
100
AcDbEntity
  8
HIDDEN
100
AcDbLine
 10
212.0999999999999
 20
-222.4999999999999
 30
0.0
 11
212.0999999999999
 21
-222.4999999999999
 31
0.0
1001
DBPROPERTIES
1002
{
1000
PbHidd
1002
}
  0
LINE
  5
4A4
330
1F
100
AcDbEntity
  8
THICK
100
AcDbLine
 10
212.0999999999999
 20
-240.4999999999999
 30
0.0
 11
240.4999999999999
 21
-240.4999999999999
 31
0.0
1001
DBPROPERTIES
1002
{
1000
PbThick
1002
}
  0
LINE
  5
4A5
330
1F
100
AcDbEntity
  8
THICK
100
AcDbLine
 10
212.0999999999999
 20
-252.4999999999999
 30
0.0
 11
240.4999999999999
 21
-252.4999999999999
 31
0.0
1001
DBPROPERTIES
1002
{
1000
PbThick
1002
}
  0
ELLIPSE
  5
4A6
330
1F
100
AcDbEntity
  8
THICK
100
AcDbEllipse
 10
240.4999999999999
 20
-240.4999999999999
 30
0.0
 11
12.0
 21
2.204291436880279E-15
 31
0.0
210
0.0
220
0.0
230
1.0
 40
1.0
 41
-1.570796326794897
 42
-0.7853981633974534
1001
DBPROPERTIES
1002
{
1000
PbThick
1002
}
  0
LINE
  5
4A7
330
1F
100
AcDbEntity
  8
THICK
100
AcDbLine
 10
240.4999999999999
 20
-240.4999999999999
 30
0.0
 11
248.9852813742385
 21
-248.9852813742385
 31
0.0
1001
DBPROPERTIES
1002
{
1000
PbThick
1002
}
  0
LINE
  5
4A8
330
1F
100
AcDbEntity
  8
THICK
100
AcDbLine
 10
252.4999999999999
 20
-212.0999999999999
 30
0.0
 11
252.4999999999999
 21
-240.4999999999999
 31
0.0
1001
DBPROPERTIES
1002
{
1000
PbThick
1002
}
  0
LINE
  5
4A9
330
1F
100
AcDbEntity
  8
THICK
100
AcDbLine
 10
240.4999999999999
 20
-212.0999999999999
 30
0.0
 11
240.4999999999999
 21
-240.4999999999999
 31
0.0
1001
DBPROPERTIES
1002
{
1000
PbThick
1002
}
  0
ELLIPSE
  5
4AA
330
1F
100
AcDbEntity
  8
THICK
100
AcDbEllipse
 10
240.4999999999999
 20
-240.4999999999999
 30
0.0
 11
-3.673819061467131E-15
 21
-12.0
 31
0.0
210
0.0
220
0.0
230
1.0
 40
1.0
 41
0.7853981633974466
 42
1.570796326794897
1001
DBPROPERTIES
1002
{
1000
PbThick
1002
}
  0
LINE
  5
4AB
330
1F
100
AcDbEntity
  8
HIDDEN
100
AcDbLine
 10
240.5
 20
-252.5
 30
0.0
 11
240.5
 21
-252.5
 31
0.0
1001
DBPROPERTIES
1002
{
1000
PbHidd
1002
}
  0
LINE
  5
4AC
330
1F
100
AcDbEntity
  8
HIDDEN
100
AcDbLine
 10
252.4999999999999
 20
-240.4999999999999
 30
0.0
 11
252.4999999999999
 21
-240.4999999999999
 31
0.0
1001
DBPROPERTIES
1002
{
1000
PbHidd
1002
}
  0
LINE
  5
4AD
330
1F
100
AcDbEntity
  8
THICK
100
AcDbLine
 10
222.4999999999999
 20
-222.4999999999999
 30
0.0
 11
222.4999999999999
 21
-212.0999999999999
 31
0.0
1001
DBPROPERTIES
1002
{
1000
PbThick
1002
}
  0
LINE
  5
4AE
330
1F
100
AcDbEntity
  8
THICK
100
AcDbLine
 10
212.1
 20
-222.4999999999999
 30
0.0
 11
222.4999999999999
 21
-222.4999999999999
 31
0.0
1001
DBPROPERTIES
1002
{
1000
PbThick
1002
}
  0
LINE
  5
4AF
330
1F
100
AcDbEntity
  8
HIDDEN
100
AcDbLine
 10
222.4999999999999
 20
-222.4999999999999
 30
0.0
 11
222.4999999999999
 21
-222.4999999999999
 31
0.0
1001
DBPROPERTIES
1002
{
1000
PbHidd
1002
}
  0
LINE
  5
4B0
330
1F
100
AcDbEntity
  8
HIDDEN
100
AcDbLine
 10
222.5
 20
-252.5
 30
0.0
 11
222.5
 21
-222.5
 31
0.0
1001
DBPROPERTIES
1002
{
1000
PbHidd
1002
}
  0
LINE
  5
4B1
330
1F
100
AcDbEntity
  8
HIDDEN
100
AcDbLine
 10
222.4999999999999
 20
-252.4999999999999
 30
0.0
 11
222.4999999999999
 21
-252.4999999999999
 31
0.0
1001
DBPROPERTIES
1002
{
1000
PbHidd
1002
}
  0
ENDSEC
  0
SECTION
  2
OBJECTS
  0
DICTIONARY
  5
C
330
0
100
AcDbDictionary
  3
ACAD_GROUP
350
D
  3
ACAD_LAYOUT
350
1A
  3
ACAD_MATERIAL
350
43
  3
ACAD_MLEADERSTYLE
350
6B
  3
ACAD_MLINESTYLE
350
17
  3
ACAD_PLOTSETTINGS
350
19
  3
ACAD_SCALELIST
350
47
  3
ACAD_VISUALSTYLE
350
2A
  3
ACDBVARIABLEDICTIONARY
350
4B2
1001
ACAD
1000
TREAT_AS_HARD
1070
     0
  0
DICTIONARY
  5
D
102
{ACAD_REACTORS
330
C
102
}
330
C
100
AcDbDictionary
1001
ACAD
1000
TREAT_AS_HARD
1070
     0
  0
DICTIONARY
  5
1A
102
{ACAD_REACTORS
330
C
102
}
330
C
100
AcDbDictionary
1001
ACAD
1000
TREAT_AS_HARD
1070
     0
  0
DICTIONARY
  5
43
102
{ACAD_REACTORS
330
C
102
}
330
C
100
AcDbDictionary
  3
BYBLOCK
350
45
  3
BYLAYER
350
44
  3
GLOBAL
350
46
1001
ACAD
1000
TREAT_AS_HARD
1070
     0
  0
DICTIONARY
  5
6B
102
{ACAD_REACTORS
330
C
102
}
330
C
100
AcDbDictionary
  3
STANDARD
350
6C
1001
ACAD
1000
TREAT_AS_HARD
1070
     0
  0
DICTIONARY
  5
17
102
{ACAD_REACTORS
330
C
102
}
330
C
100
AcDbDictionary
  3
STANDARD
350
18
1001
ACAD
1000
TREAT_AS_HARD
1070
     0
  0
DICTIONARY
  5
19
102
{ACAD_REACTORS
330
C
102
}
330
C
100
AcDbDictionary
1001
ACAD
1000
TREAT_AS_HARD
1070
     0
  0
DICTIONARY
  5
47
102
{ACAD_REACTORS
330
C
102
}
330
C
100
AcDbDictionary
  3
A0
350
48
  3
A1
350
49
  3
A2
350
4A
  3
A3
350
4B
  3
A4
350
4C
  3
A5
350
4D
  3
A6
350
4E
  3
A7
350
4F
  3
A8
350
50
  3
A9
350
51
  3
B0
350
52
  3
B1
350
53
  3
B2
350
54
  3
B3
350
55
  3
B4
350
56
  3
B5
350
57
  3
B6
350
58
  3
B7
350
59
  3
B8
350
5A
  3
B9
350
5B
  3
C0
350
5C
  3
C1
350
5D
  3
C2
350
5E
  3
C3
350
5F
  3
C4
350
60
  3
C5
350
61
  3
C6
350
62
  3
C7
350
63
  3
C8
350
64
  3
C9
350
65
  3
D0
350
66
  3
D1
350
67
  3
D2
350
68
1001
ACAD
1000
TREAT_AS_HARD
1070
     0
  0
DICTIONARY
  5
2A
102
{ACAD_REACTORS
330
C
102
}
330
C
100
AcDbDictionary
  3
2DWIREFRAME
350
2F
  3
BASIC
350
32
  3
BRIGHTEN
350
36
  3
COLORCHANGE
350
3A
  3
CONCEPTUAL
350
34
  3
DIM
350
35
  3
EDGECOLOROFF
350
3D
  3
FACEPATTERN
350
39
  3
FLAT
350
2B
  3
FLATWITHEDGES
350
2C
  3
GOURAUD
350
2D
  3
GOURAUDWITHEDGES
350
2E
  3
HIDDEN
350
31
  3
JITTEROFF
350
3B
  3
LINEPATTERN
350
38
  3
OVERHANGOFF
350
3C
  3
REALISTIC
350
33
  3
SHADED
350
42
  3
SHADED_WITH_EDGES
350
41
  3
SHADES_OF_GRAY
350
3E
  3
SKETCHY
350
3F
  3
THICKEN
350
37
  3
WIREFRAME
350
30
  3
X-RAY
350
40
1001
ACAD
1000
TREAT_AS_HARD
1070
     0
  0
DICTIONARY
  5
4B2
102
{ACAD_REACTORS
330
C
102
}
330
C
100
AcDbDictionary
  3
CANNOSCALE
350
4BD
  3
CENTEREXE
350
4B9
  3
CENTERLTYPEFILE
350
4BA
  3
CMLEADERSTYLE
350
4B4
  3
CTABLESTYLE
350
4B3
  3
DIMASSOC
350
4BB
  3
HIDETEXT
350
4BC
  3
MSLTSCALE
350
4BE
  3
PSOLHEIGHT
350
4B6
  3
PSOLWIDTH
350
4B5
1001
ACAD
1000
TREAT_AS_HARD
1070
     0
  0
MATERIAL
  5
45
102
{ACAD_REACTORS
330
43
102
}
102
{ACAD_XDICTIONARY
360
4C1
102
}
330
43
100
AcDbMaterial
  1
BYBLOCK
  0
MATERIAL
  5
44
102
{ACAD_REACTORS
330
43
102
}
102
{ACAD_XDICTIONARY
360
4BF
102
}
330
43
100
AcDbMaterial
  1
BYLAYER
  0
MATERIAL
  5
46
102
{ACAD_REACTORS
330
43
102
}
102
{ACAD_XDICTIONARY
360
4C3
102
}
330
43
100
AcDbMaterial
  1
GLOBAL
  0
ACAD_PROXY_OBJECT
  5
6C
102
{ACAD_REACTORS
330
6B
102
}
330
6B
100
AcDbZombieObject
 90
      499
 91
      505
 93
      610
310
40901902A4063FBFFFFFE0000000000000020400000000000020404214DD185B99185C990000000000000104090141901A00000000000004100000000000000041025764000000000000039000
340
14
340
0
340
11
340
0
 94
        0
1001
ACAD_MLEADERVER
1070
     2
  0
MLINESTYLE
  5
18
102
{ACAD_REACTORS
330
17
102
}
330
17
100
AcDbMlineStyle
  2
Standard
 70
     0
  3

 62
   256
 51
90.0
 52
90.0
 71
     2
 49
0.5
 62
   256
  6
BYLAYER
 49
-0.5
 62
   256
  6
BYLAYER
  0
ACAD_PROXY_OBJECT
  5
48
102
{ACAD_REACTORS
330
47
102
}
330
47
100
AcDbZombieObject
 90
      499
 91
      503
 93
       41
310
903313A31580
  0
ACAD_PROXY_OBJECT
  5
49
102
{ACAD_REACTORS
330
47
102
}
330
47
100
AcDbZombieObject
 90
      499
 91
      503
 93
      105
310
903313A324000000000000004000
  0
ACAD_PROXY_OBJECT
  5
4A
102
{ACAD_REACTORS
330
47
102
}
330
47
100
AcDbZombieObject
 90
      499
 91
      503
 93
      105
310
903313A344000000000000104000
  0
ACAD_PROXY_OBJECT
  5
4B
102
{ACAD_REACTORS
330
47
102
}
330
47
100
AcDbZombieObject
 90
      499
 91
      503
 93
      105
310
903313A354000000000000144000
  0
ACAD_PROXY_OBJECT
  5
4C
102
{ACAD_REACTORS
330
47
102
}
330
47
100
AcDbZombieObject
 90
      499
 91
      503
 93
      105
310
903313A384000000000000204000
  0
ACAD_PROXY_OBJECT
  5
4D
102
{ACAD_REACTORS
330
47
102
}
330
47
100
AcDbZombieObject
 90
      499
 91
      503
 93
      113
310
904313A31304000000000000244000
  0
ACAD_PROXY_OBJECT
  5
4E
102
{ACAD_REACTORS
330
47
102
}
330
47
100
AcDbZombieObject
 90
      499
 91
      503
 93
      113
310
904313A31364000000000000304000
  0
ACAD_PROXY_OBJECT
  5
4F
102
{ACAD_REACTORS
330
47
102
}
330
47
100
AcDbZombieObject
 90
      499
 91
      503
 93
      113
310
904313A32304000000000000344000
  0
ACAD_PROXY_OBJECT
  5
50
102
{ACAD_REACTORS
330
47
102
}
330
47
100
AcDbZombieObject
 90
      499
 91
      503
 93
      113
310
904313A333040000000000003E4000
  0
ACAD_PROXY_OBJECT
  5
51
102
{ACAD_REACTORS
330
47
102
}
330
47
100
AcDbZombieObject
 90
      499
 91
      503
 93
      113
310
904313A34304000000000000444000
  0
ACAD_PROXY_OBJECT
  5
52
102
{ACAD_REACTORS
330
47
102
}
330
47
100
AcDbZombieObject
 90
      499
 91
      503
 93
      113
310
904313A35304000000000000494000
  0
ACAD_PROXY_OBJECT
  5
53
102
{ACAD_REACTORS
330
47
102
}
330
47
100
AcDbZombieObject
 90
      499
 91
      503
 93
      121
310
905313A3130304000000000000594000
  0
ACAD_PROXY_OBJECT
  5
54
102
{ACAD_REACTORS
330
47
102
}
330
47
100
AcDbZombieObject
 90
      499
 91
      503
 93
      105
310
903323A310000000000000010100
  0
ACAD_PROXY_OBJECT
  5
55
102
{ACAD_REACTORS
330
47
102
}
330
47
100
AcDbZombieObject
 90
      499
 91
      503
 93
      105
310
903343A310000000000000410100
  0
ACAD_PROXY_OBJECT
  5
56
102
{ACAD_REACTORS
330
47
102
}
330
47
100
AcDbZombieObject
 90
      499
 91
      503
 93
      105
310
903383A310000000000000810100
  0
ACAD_PROXY_OBJECT
  5
57
102
{ACAD_REACTORS
330
47
102
}
330
47
100
AcDbZombieObject
 90
      499
 91
      503
 93
      113
310
90431303A310000000000000910100
  0
ACAD_PROXY_OBJECT
  5
58
102
{ACAD_REACTORS
330
47
102
}
330
47
100
AcDbZombieObject
 90
      499
 91
      503
 93
      121
310
9053130303A310000000000001650100
  0
ACAD_PROXY_OBJECT
  5
59
102
{ACAD_REACTORS
330
47
102
}
330
47
100
AcDbZombieObject
 90
      499
 91
      503
 93
      257
310
90E312F31323822203D2031272D3022000000000000200FC000000000000284000
  0
ACAD_PROXY_OBJECT
  5
5A
102
{ACAD_REACTORS
330
47
102
}
330
47
100
AcDbZombieObject
 90
      499
 91
      503
 93
      249
310
90D312F363422203D2031272D3022000000000000240FC000000000000284000
  0
ACAD_PROXY_OBJECT
  5
5B
102
{ACAD_REACTORS
330
47
102
}
330
47
100
AcDbZombieObject
 90
      499
 91
      503
 93
      249
310
90D312F333222203D2031272D3022000000000000280FC000000000000284000
  0
ACAD_PROXY_OBJECT
  5
5C
102
{ACAD_REACTORS
330
47
102
}
330
47
100
AcDbZombieObject
 90
      499
 91
      503
 93
      249
310
90D312F313622203D2031272D30220000000000002C0FC000000000000284000
  0
ACAD_PROXY_OBJECT
  5
5D
102
{ACAD_REACTORS
330
47
102
}
330
47
100
AcDbZombieObject
 90
      499
 91
      503
 93
      249
310
90D332F333222203D2031272D30220000000000002E0FC000000000000284000
  0
ACAD_PROXY_OBJECT
  5
5E
102
{ACAD_REACTORS
330
47
102
}
330
47
100
AcDbZombieObject
 90
      499
 91
      503
 93
      241
310
90C312F3822203D2031272D3022000000000000300FC000000000000284000
  0
ACAD_PROXY_OBJECT
  5
5F
102
{ACAD_REACTORS
330
47
102
}
330
47
100
AcDbZombieObject
 90
      499
 91
      503
 93
      249
310
90D332F313622203D2031272D3022000000000000320FC000000000000284000
  0
ACAD_PROXY_OBJECT
  5
60
102
{ACAD_REACTORS
330
47
102
}
330
47
100
AcDbZombieObject
 90
      499
 91
      503
 93
      241
310
90C312F3422203D2031272D3022000000000000340FC000000000000284000
  0
ACAD_PROXY_OBJECT
  5
61
102
{ACAD_REACTORS
330
47
102
}
330
47
100
AcDbZombieObject
 90
      499
 91
      503
 93
      241
310
90C332F3822203D2031272D3022000000000000360FC000000000000284000
  0
ACAD_PROXY_OBJECT
  5
62
102
{ACAD_REACTORS
330
47
102
}
330
47
100
AcDbZombieObject
 90
      499
 91
      503
 93
      241
310
90C312F3222203D2031272D3022000000000000380FC000000000000284000
  0
ACAD_PROXY_OBJECT
  5
63
102
{ACAD_REACTORS
330
47
102
}
330
47
100
AcDbZombieObject
 90
      499
 91
      503
 93
      241
310
90C332F3422203D2031272D30220000000000003A0FC000000000000284000
  0
ACAD_PROXY_OBJECT
  5
64
102
{ACAD_REACTORS
330
47
102
}
330
47
100
AcDbZombieObject
 90
      499
 91
      503
 93
      161
310
90A3122203D2031272D30224000000000000284000
  0
ACAD_PROXY_OBJECT
  5
65
102
{ACAD_REACTORS
330
47
102
}
330
47
100
AcDbZombieObject
 90
      499
 91
      503
 93
      257
310
90E312D312F3222203D2031272D30220000000000003E0FC000000000000284000
  0
ACAD_PROXY_OBJECT
  5
66
102
{ACAD_REACTORS
330
47
102
}
330
47
100
AcDbZombieObject
 90
      499
 91
      503
 93
      225
310
90A3322203D2031272D302200000000000002100000000000000284000
  0
ACAD_PROXY_OBJECT
  5
67
102
{ACAD_REACTORS
330
47
102
}
330
47
100
AcDbZombieObject
 90
      499
 91
      503
 93
      225
310
90A3622203D2031272D302200000000000006100000000000000284000
  0
ACAD_PROXY_OBJECT
  5
68
102
{ACAD_REACTORS
330
47
102
}
330
47
100
AcDbZombieObject
 90
      499
 91
      503
 93
      249
310
90D31272D3022203D2031272D30220000000000000A100000000000000284000
  0
ACAD_PROXY_OBJECT
  5
2F
102
{ACAD_REACTORS
330
2A
102
}
330
2A
100
AcDbZombieObject
 90
      499
 91
      501
 93
      436
310
42CC9915DA5C99599C985B595049028333333333333E33F0000000000000F90107901411070040501600405405064090741402480A0340
1001
ACAD
1000
AcDbSavedByObjectVersion
1070
     0
  0
ACAD_PROXY_OBJECT
  5
32
102
{ACAD_REACTORS
330
2A
102
}
330
2A
100
AcDbZombieObject
 90
      499
 91
      501
 93
      388
310
4150985CDA58D07406404333333333333E33F0000000000000F90107A41107004050150841D405064090741402480A0350
1001
ACAD
1000
AcDbSavedByObjectVersion
1070
     0
  0
ACAD_PROXY_OBJECT
  5
36
102
{ACAD_REACTORS
330
2A
102
}
330
2A
100
AcDbZombieObject
 90
      499
 91
      501
 93
      428
310
42109C9A59DA1D195B90C409028333333333333E33F0000000000000F9010790141107004050150841D405064090741402480A029950
1001
ACAD
1000
AcDbSavedByObjectVersion
1070
     0
  0
ACAD_PROXY_OBJECT
  5
3A
102
{ACAD_REACTORS
330
2A
102
}
330
2A
100
AcDbZombieObject
 90
      499
 91
      501
 93
      452
310
42D0DBDB1BDC90DA185B99D95104090240C333333333333E33F0000000000000F90108901411070040501508421405064090741402480A0350
1001
ACAD
1000
AcDbSavedByObjectVersion
1070
     0
  0
ACAD_PROXY_OBJECT
  5
34
102
{ACAD_REACTORS
330
2A
102
}
330
2A
100
AcDbZombieObject
 90
      499
 91
      501
 93
      500
310
4290DBDB98D95C1D1D585B10940D028333333333333E33F0000000000000F90107902409070040501000000000018199010841D405064090740C02480A0340
1001
ACAD
1000
AcDbSavedByObjectVersion
1070
     0
  0
ACAD_PROXY_OBJECT
  5
35
102
{ACAD_REACTORS
330
2A
102
}
330
2A
100
AcDbZombieObject
 90
      499
 91
      501
 93
      412
310
40D11A5B50B409028333333333333E33F0000000000000F9010790141107004050150841D405064090741402480A02677FFFFFD0
1001
ACAD
1000
AcDbSavedByObjectVersion
1070
     0
  0
ACAD_PROXY_OBJECT
  5
3D
102
{ACAD_REACTORS
330
2A
102
}
330
2A
100
AcDbZombieObject
 90
      499
 91
      501
 93
      452
310
43115919D950DBDB1BDC93D999916409028333333333333E33F0000000000000F9010790141107004050150841D405064090741402480A0350
1001
ACAD
1000
AcDbSavedByObjectVersion
1070
     0
  0
ACAD_PROXY_OBJECT
  5
39
102
{ACAD_REACTORS
330
2A
102
}
330
2A
100
AcDbZombieObject
 90
      499
 91
      501
 93
      444
310
42D19858D95C185D1D195C9B90F409028333333333333E33F0000000000000F9010790141107004050150841D405064090741402480A0350
1001
ACAD
1000
AcDbSavedByObjectVersion
1070
     0
  0
ACAD_PROXY_OBJECT
  5
2B
102
{ACAD_REACTORS
330
2A
102
}
330
2A
100
AcDbZombieObject
 90
      499
 91
      501
 93
      380
310
41119B185D240901404333333333333E33F0000000000000F9010740A907004050150841D405064090741402480A1B50
1001
ACAD
1000
AcDbSavedByObjectVersion
1070
     0
  0
ACAD_PROXY_OBJECT
  5
2C
102
{ACAD_REACTORS
330
2A
102
}
330
2A
100
AcDbZombieObject
 90
      499
 91
      501
 93
      468
310
43519B185D15DA5D1A115919D95CD0140901404333333333333E33F0000000000000F90107409019070040501600405405064090741402480A1B50
1001
ACAD
1000
AcDbSavedByObjectVersion
1070
     0
  0
ACAD_PROXY_OBJECT
  5
2D
102
{ACAD_REACTORS
330
2A
102
}
330
2A
100
AcDbZombieObject
 90
      499
 91
      501
 93
      404
310
41D1DBDD5C985D5910240902404333333333333E33F0000000000000F9010740A9070040501641D405064090741402480A1B50
1001
ACAD
1000
AcDbSavedByObjectVersion
1070
     0
  0
ACAD_PROXY_OBJECT
  5
2E
102
{ACAD_REACTORS
330
2A
102
}
330
2A
100
AcDbZombieObject
 90
      499
 91
      501
 93
      492
310
4411DBDD5C985D5915DA5D1A115919D95CD0340902404333333333333E33F0000000000000F90107409019070040501600405405064090741402480A1B50
1001
ACAD
1000
AcDbSavedByObjectVersion
1070
     0
  0
ACAD_PROXY_OBJECT
  5
31
102
{ACAD_REACTORS
330
2A
102
}
330
2A
100
AcDbZombieObject
 90
      499
 91
      501
 93
      476
310
41921A5919195B90640502408333333333333E33F0000000000000F901079024090700405020000000000001110200405405064090740C02480A0340
1001
ACAD
1000
AcDbSavedByObjectVersion
1070
     0
  0
ACAD_PROXY_OBJECT
  5
3B
102
{ACAD_REACTORS
330
2A
102
}
330
2A
100
AcDbZombieObject
 90
      499
 91
      501
 93
      428
310
42529A5D1D195C93D999914409028333333333333E33F0000000000000F9010790141107004050150A41D405064090741402480A0350
1001
ACAD
1000
AcDbSavedByObjectVersion
1070
     0
  0
ACAD_PROXY_OBJECT
  5
38
102
{ACAD_REACTORS
330
2A
102
}
330
2A
100
AcDbZombieObject
 90
      499
 91
      501
 93
      444
310
42D31A5B995C185D1D195C9B90E409028333333333333E33F0000000000000F9010790141107004050750841D405064090741402483A0350
1001
ACAD
1000
AcDbSavedByObjectVersion
1070
     0
  0
ACAD_PROXY_OBJECT
  5
3C
102
{ACAD_REACTORS
330
2A
102
}
330
2A
100
AcDbZombieObject
 90
      499
 91
      501
 93
      444
310
42D3DD995C9A185B99D3D999915409028333333333333E33F0000000000000F9010790141107004050150941D405064090741402480A0350
1001
ACAD
1000
AcDbSavedByObjectVersion
1070
     0
  0
ACAD_PROXY_OBJECT
  5
33
102
{ACAD_REACTORS
330
2A
102
}
330
2A
100
AcDbZombieObject
 90
      499
 91
      501
 93
      428
310
425499585B1A5CDD1A58D08409038333333333333E33F0000000000000F9010740A907004050150800405405064090740C02480A1B40
1001
ACAD
1000
AcDbSavedByObjectVersion
1070
     0
  0
ACAD_PROXY_OBJECT
  5
42
102
{ACAD_REACTORS
330
2A
102
}
330
2A
100
AcDbZombieObject
 90
      499
 91
      501
 93
      420
310
4194DA1859195911B40902404333333333333E33F0000000000000F9010740A41107004050150800405405064090840C02480A0B40
1001
ACAD
1000
AcDbSavedByObjectVersion
1070
     0
  0
ACAD_PROXY_OBJECT
  5
41
102
{ACAD_REACTORS
330
2A
102
}
330
2A
100
AcDbZombieObject
 90
      499
 91
      501
 93
      516
310
4454DA18591959081DDA5D1A08195919D95CD1A40902404333333333333E33F0000000000000F901074090142907004050250800405405064090740C02480A0B40
1001
ACAD
1000
AcDbSavedByObjectVersion
1070
     0
  0
ACAD_PROXY_OBJECT
  5
3E
102
{ACAD_REACTORS
330
2A
102
}
330
2A
100
AcDbZombieObject
 90
      499
 91
      501
 93
      532
310
4394DA1859195CC81BD98811DC985E5174090240C333333333333E33F0000000000000F901079024090741D01000000000000111010841D405064090740C02480A0340
1001
ACAD
1000
AcDbSavedByObjectVersion
1070
     0
  0
ACAD_PROXY_OBJECT
  5
3F
102
{ACAD_REACTORS
330
2A
102
}
330
2A
100
AcDbZombieObject
 90
      499
 91
      501
 93
      476
310
41D4DAD95D18DA1E51840502408333333333333E33F0000000000000F901079024090741D01000000000000111010B41D405064090741802480A0340
1001
ACAD
1000
AcDbSavedByObjectVersion
1070
     0
  0
ACAD_PROXY_OBJECT
  5
37
102
{ACAD_REACTORS
330
2A
102
}
330
2A
100
AcDbZombieObject
 90
      499
 91
      501
 93
      412
310
41D51A1A58DAD95B90D409028333333333333E33F0000000000000F9010790141107004050150C41D405064090741402480A0350
1001
ACAD
1000
AcDbSavedByObjectVersion
1070
     0
  0
ACAD_PROXY_OBJECT
  5
30
102
{ACAD_REACTORS
330
2A
102
}
330
2A
100
AcDbZombieObject
 90
      499
 91
      501
 93
      420
310
4255DA5C99599C985B595059028333333333333E33F0000000000000F90107901411070040501600405405064090740C02480A0340
1001
ACAD
1000
AcDbSavedByObjectVersion
1070
     0
  0
ACAD_PROXY_OBJECT
  5
40
102
{ACAD_REACTORS
330
2A
102
}
330
2A
100
AcDbZombieObject
 90
      499
 91
      501
 93
      404
310
41560B54985E51940902404000000000000E03F0000000000000F9010740501907004050150841D405064090740C02480A1B40
1001
ACAD
1000
AcDbSavedByObjectVersion
1070
     0
  0
DICTIONARYVAR
  5
4BD
102
{ACAD_REACTORS
330
4B2
102
}
330
4B2
100
DictionaryVariables
280
     0
  1
1:1
  0
DICTIONARYVAR
  5
4B9
102
{ACAD_REACTORS
330
4B2
102
}
330
4B2
100
DictionaryVariables
280
     0
  1
3.500000
  0
DICTIONARYVAR
  5
4BA
102
{ACAD_REACTORS
330
4B2
102
}
330
4B2
100
DictionaryVariables
280
     0
  1
acadiso.lin
  0
DICTIONARYVAR
  5
4B4
102
{ACAD_REACTORS
330
4B2
102
}
330
4B2
100
DictionaryVariables
280
     0
  1
Standard
  0
DICTIONARYVAR
  5
4B3
102
{ACAD_REACTORS
330
4B2
102
}
330
4B2
100
DictionaryVariables
280
     0
  1
Standard
  0
DICTIONARYVAR
  5
4BB
102
{ACAD_REACTORS
330
4B2
102
}
330
4B2
100
DictionaryVariables
280
     0
  1
2
  0
DICTIONARYVAR
  5
4BC
102
{ACAD_REACTORS
330
4B2
102
}
330
4B2
100
DictionaryVariables
280
     0
  1
1
  0
DICTIONARYVAR
  5
4BE
102
{ACAD_REACTORS
330
4B2
102
}
330
4B2
100
DictionaryVariables
280
     0
  1
1
  0
DICTIONARYVAR
  5
4B6
102
{ACAD_REACTORS
330
4B2
102
}
330
4B2
100
DictionaryVariables
280
     0
  1
80.000000
  0
DICTIONARYVAR
  5
4B5
102
{ACAD_REACTORS
330
4B2
102
}
330
4B2
100
DictionaryVariables
280
     0
  1
5.000000
  0
DICTIONARY
  5
4C1
330
45
100
AcDbDictionary
  3
ACAD_XREC_ROUNDTRIP
360
4C2
1001
ACAD
1000
TREAT_AS_HARD
1070
     1
  0
DICTIONARY
  5
4BF
330
44
100
AcDbDictionary
  3
ACAD_XREC_ROUNDTRIP
360
4C0
1001
ACAD
1000
TREAT_AS_HARD
1070
     1
  0
DICTIONARY
  5
4C3
330
46
100
AcDbDictionary
  3
ACAD_XREC_ROUNDTRIP
360
4C4
1001
ACAD
1000
TREAT_AS_HARD
1070
     1
  0
XRECORD
  5
4C2
102
{ACAD_REACTORS
330
4C1
102
}
330
4C1
100
AcDbXrecord
102
MATERIAL
148
0.0
149
0.0
149
0.0
 93
        0
 94
      127
282
     0
 72
     1
 77
     1
171
     1
175
     1
179
     1
273
     0
  0
XRECORD
  5
4C0
102
{ACAD_REACTORS
330
4BF
102
}
330
4BF
100
AcDbXrecord
102
MATERIAL
148
0.0
149
0.0
149
0.0
 93
        0
 94
      127
282
     0
 72
     1
 77
     1
171
     1
175
     1
179
     1
273
     0
  0
XRECORD
  5
4C4
102
{ACAD_REACTORS
330
4C3
102
}
330
4C3
100
AcDbXrecord
102
MATERIAL
148
0.0
149
0.0
149
0.0
 93
        0
 94
      127
282
     0
 72
     1
 77
     1
171
     1
175
     1
179
     1
273
     0
  0
ENDSEC
  0
EOF
