  0
SECTION
  2
HEADER
  9
$ACADVER
  1
AC1012
  9
$DWGCODEPAGE
  3
ansi_1252
  9
$INSBASE
 10
0.0
 20
0.0
 30
0.0
  9
$EXTMIN
 10
1.000000000000000E+20
 20
1.000000000000000E+20
 30
1.000000000000000E+20
  9
$EXTMAX
 10
-1.000000000000000E+20
 20
-1.000000000000000E+20
 30
-1.000000000000000E+20
  9
$LIMMIN
 10
0.0
 20
0.0
  9
$LIMMAX
 10
420.0
 20
297.0
  9
$ORTHOMODE
 70
     0
  9
$REGENMODE
 70
     1
  9
$FILLMODE
 70
     1
  9
$QTEXTMODE
 70
     0
  9
$MIRRTEXT
 70
     1
  9
$DRAGMODE
 70
     2
  9
$LTSCALE
 40
1.0
  9
$OSMODE
 70
    37
  9
$ATTMODE
 70
     1
  9
$TEXTSIZE
 40
2.5
  9
$TRACEWID
 40
1.0
  9
$TEXTSTYLE
  7
STANDARD
  9
$CLAYER
  8
0
  9
$CELTYPE
  6
BYLAYER
  9
$CECOLOR
 62
   256
  9
$CELTSCALE
 40
1.0
  9
$DELOBJ
 70
     1
  9
$DISPSILH
 70
     0
  9
$DIMSCALE
 40
1.0
  9
$DIMASZ
 40
2.5
  9
$DIMEXO
 40
0.625
  9
$DIMDLI
 40
3.75
  9
$DIMRND
 40
0.0
  9
$DIMDLE
 40
0.0
  9
$DIMEXE
 40
1.25
  9
$DIMTP
 40
0.0
  9
$DIMTM
 40
0.0
  9
$DIMTXT
 40
2.5
  9
$DIMCEN
 40
2.5
  9
$DIMTSZ
 40
0.0
  9
$DIMTOL
 70
     0
  9
$DIMLIM
 70
     0
  9
$DIMTIH
 70
     0
  9
$DIMTOH
 70
     0
  9
$DIMSE1
 70
     0
  9
$DIMSE2
 70
     0
  9
$DIMTAD
 70
     1
  9
$DIMZIN
 70
     8
  9
$DIMBLK
  1

  9
$DIMASO
 70
     1
  9
$DIMSHO
 70
     1
  9
$DIMPOST
  1

  9
$DIMAPOST
  1

  9
$DIMALT
 70
     0
  9
$DIMALTD
 70
     3
  9
$DIMALTF
 40
0.03937007874016
  9
$DIMLFAC
 40
1.0
  9
$DIMTOFL
 70
     1
  9
$DIMTVP
 40
0.0
  9
$DIMTIX
 70
     0
  9
$DIMSOXD
 70
     0
  9
$DIMSAH
 70
     0
  9
$DIMBLK1
  1

  9
$DIMBLK2
  1

  9
$DIMSTYLE
  2
ISO-25
  9
$DIMCLRD
 70
     0
  9
$DIMCLRE
 70
     0
  9
$DIMCLRT
 70
     0
  9
$DIMTFAC
 40
1.0
  9
$DIMGAP
 40
0.625
  9
$DIMJUST
 70
     0
  9
$DIMSD1
 70
     0
  9
$DIMSD2
 70
     0
  9
$DIMTOLJ
 70
     0
  9
$DIMTZIN
 70
     8
  9
$DIMALTZ
 70
     0
  9
$DIMALTTZ
 70
     0
  9
$DIMFIT
 70
     3
  9
$DIMUPT
 70
     0
  9
$DIMUNIT
 70
     2
  9
$DIMDEC
 70
     2
  9
$DIMTDEC
 70
     2
  9
$DIMALTU
 70
     2
  9
$DIMALTTD
 70
     3
  9
$DIMTXSTY
  7
STANDARD
  9
$DIMAUNIT
 70
     0
  9
$LUNITS
 70
     2
  9
$LUPREC
 70
     4
  9
$SKETCHINC
 40
1.0
  9
$FILLETRAD
 40
10.0
  9
$AUNITS
 70
     0
  9
$AUPREC
 70
     0
  9
$MENU
  1
.
  9
$ELEVATION
 40
0.0
  9
$PELEVATION
 40
0.0
  9
$THICKNESS
 40
0.0
  9
$LIMCHECK
 70
     0
  9
$CHAMFERA
 40
0.0
  9
$CHAMFERB
 40
0.0
  9
$CHAMFERC
 40
0.0
  9
$CHAMFERD
 40
0.0
  9
$SKPOLY
 70
     0
  9
$TDCREATE
 40
2457988.445057916
  9
$TDUPDATE
 40
2457988.445061701
  9
$TDINDWG
 40
0.0000000116
  9
$TDUSRTIMER
 40
0.0000000116
  9
$USRTIMER
 70
     1
  9
$ANGBASE
 50
0.0
  9
$ANGDIR
 70
     0
  9
$PDMODE
 70
     0
  9
$PDSIZE
 40
0.0
  9
$PLINEWID
 40
0.0
  9
$COORDS
 70
     1
  9
$SPLFRAME
 70
     0
  9
$SPLINETYPE
 70
     6
  9
$SPLINESEGS
 70
     8
  9
$ATTDIA
 70
     0
  9
$ATTREQ
 70
     1
  9
$HANDLING
 70
     1
  9
$HANDSEED
  5
671
  9
$SURFTAB1
 70
     6
  9
$SURFTAB2
 70
     6
  9
$SURFTYPE
 70
     6
  9
$SURFU
 70
     6
  9
$SURFV
 70
     6
  9
$UCSNAME
  2

  9
$UCSORG
 10
0.0
 20
0.0
 30
0.0
  9
$UCSXDIR
 10
1.0
 20
0.0
 30
0.0
  9
$UCSYDIR
 10
0.0
 20
1.0
 30
0.0
  9
$PUCSNAME
  2

  9
$PUCSORG
 10
0.0
 20
0.0
 30
0.0
  9
$PUCSXDIR
 10
1.0
 20
0.0
 30
0.0
  9
$PUCSYDIR
 10
0.0
 20
1.0
 30
0.0
  9
$USERI1
 70
     0
  9
$USERI2
 70
     0
  9
$USERI3
 70
     0
  9
$USERI4
 70
     0
  9
$USERI5
 70
     0
  9
$USERR1
 40
0.0
  9
$USERR2
 40
0.0
  9
$USERR3
 40
0.0
  9
$USERR4
 40
0.0
  9
$USERR5
 40
0.0
  9
$WORLDVIEW
 70
     1
  9
$SHADEDGE
 70
     3
  9
$SHADEDIF
 70
    70
  9
$TILEMODE
 70
     1
  9
$MAXACTVP
 70
    64
  9
$PINSBASE
 10
0.0
 20
0.0
 30
0.0
  9
$PLIMCHECK
 70
     0
  9
$PEXTMIN
 10
1.000000000000000E+20
 20
1.000000000000000E+20
 30
1.000000000000000E+20
  9
$PEXTMAX
 10
-1.000000000000000E+20
 20
-1.000000000000000E+20
 30
-1.000000000000000E+20
  9
$PLIMMIN
 10
0.0
 20
0.0
  9
$PLIMMAX
 10
420.0
 20
297.0
  9
$UNITMODE
 70
     0
  9
$VISRETAIN
 70
     1
  9
$PLINEGEN
 70
     0
  9
$PSLTSCALE
 70
     1
  9
$TREEDEPTH
 70
  3020
  9
$PICKSTYLE
 70
     1
  9
$CMLSTYLE
  2
STANDARD
  9
$CMLJUST
 70
     0
  9
$CMLSCALE
 40
20.0
  9
$SAVEIMAGES
 70
     1
  0
ENDSEC
  0
SECTION
  2
CLASSES
  0
CLASS
  1
ACDBDICTIONARYWDFLT
  2
AcDbDictionaryWithDefault
  3
ObjectDBX Classes
 90
    32768
280
     0
281
     0
  0
CLASS
  1
VISUALSTYLE
  2
AcDbVisualStyle
  3
ObjectDBX Classes
 90
     4095
280
     0
281
     0
  0
CLASS
  1
MATERIAL
  2
AcDbMaterial
  3
ObjectDBX Classes
 90
     1153
280
     0
281
     0
  0
CLASS
  1
SCALE
  2
AcDbScale
  3
ObjectDBX Classes
 90
     1153
280
     0
281
     0
  0
CLASS
  1
TABLESTYLE
  2
AcDbTableStyle
  3
ObjectDBX Classes
 90
     4095
280
     0
281
     0
  0
CLASS
  1
MLEADERSTYLE
  2
AcDbMLeaderStyle
  3
ACDB_MLEADERSTYLE_CLASS
 90
     4095
280
     0
281
     0
  0
CLASS
  1
SUN
  2
AcDbSun
  3
SCENEOE
 90
     1153
280
     0
281
     0
  0
CLASS
  1
DICTIONARYVAR
  2
AcDbDictionaryVar
  3
ObjectDBX Classes
 90
        0
280
     0
281
     0
  0
CLASS
  1
XRECORD
  2
AcDbXrecord
  3
ObjectDBX Classes
 90
    32768
280
     0
281
     0
  0
CLASS
  1
LWPOLYLINE
  2
AcDbPolyline
  3
ObjectDBX Classes
 90
    32768
280
     0
281
     1
  0
CLASS
  1
HATCH
  2
AcDbHatch
  3
ObjectDBX Classes
 90
    32768
280
     0
281
     1
  0
CLASS
  1
ACDBPLACEHOLDER
  2
AcDbPlaceHolder
  3
ObjectDBX Classes
 90
        0
280
     0
281
     0
  0
CLASS
  1
LAYOUT
  2
AcDbLayout
  3
ObjectDBX Classes
 90
        0
280
     0
281
     0
  0
ENDSEC
  0
SECTION
  2
TABLES
  0
TABLE
  2
VPORT
  5
8
330
0
100
AcDbSymbolTable
 70
     1
  0
VPORT
  5
29
330
8
100
AcDbSymbolTableRecord
100
AcDbViewportTableRecord
  2
*ACTIVE
 70
     0
 10
0.0
 20
0.0
 11
1.0
 21
1.0
 12
0.0000000000000568
 22
-144.0
 13
0.0
 23
0.0
 14
10.0
 24
10.0
 15
10.0
 25
10.0
 16
0.0
 26
0.0
 36
1.0
 17
0.0
 27
0.0
 37
0.0
 40
293.76
 41
1.631944444444444
 42
50.0
 43
0.0
 44
0.0
 50
0.0
 51
0.0
 71
     0
 72
   100
 73
     1
 74
     3
 75
     0
 76
     0
 77
     0
 78
     0
  0
ENDTAB
  0
TABLE
  2
LTYPE
  5
5
330
0
100
AcDbSymbolTable
 70
     1
  0
LTYPE
  5
14
330
5
100
AcDbSymbolTableRecord
100
AcDbLinetypeTableRecord
  2
BYBLOCK
 70
     0
  3

 72
    65
 73
     0
 40
0.0
  0
LTYPE
  5
15
330
5
100
AcDbSymbolTableRecord
100
AcDbLinetypeTableRecord
  2
BYLAYER
 70
     0
  3

 72
    65
 73
     0
 40
0.0
  0
LTYPE
  5
16
330
5
100
AcDbSymbolTableRecord
100
AcDbLinetypeTableRecord
  2
CONTINUOUS
 70
     0
  3
Solid line
 72
    65
 73
     0
 40
0.0
  0
ENDTAB
  0
TABLE
  2
LAYER
  5
2
330
0
100
AcDbSymbolTable
 70
     4
  0
LAYER
  5
10
330
2
100
AcDbSymbolTableRecord
100
AcDbLayerTableRecord
  2
0
 70
     0
 62
     7
  6
CONTINUOUS
  0
LAYER
  5
6E
330
2
100
AcDbSymbolTableRecord
100
AcDbLayerTableRecord
  2
THICK
 70
     0
 62
     7
  6
CONTINUOUS
  0
LAYER
  5
6F
330
2
100
AcDbSymbolTableRecord
100
AcDbLayerTableRecord
  2
HIDDEN
 70
     0
 62
     7
  6
CONTINUOUS
  0
LAYER
  5
70
330
2
100
AcDbSymbolTableRecord
100
AcDbLayerTableRecord
  2
HASHLINES
 70
     0
 62
     7
  6
CONTINUOUS
  0
ENDTAB
  0
TABLE
  2
STYLE
  5
3
330
0
100
AcDbSymbolTable
 70
     1
  0
STYLE
  5
11
330
3
100
AcDbSymbolTableRecord
100
AcDbTextStyleTableRecord
  2
STANDARD
 70
     0
 40
0.0
 41
1.0
 50
0.0
 71
     0
 42
2.5
  3
txt
  4

  0
ENDTAB
  0
TABLE
  2
VIEW
  5
6
330
0
100
AcDbSymbolTable
 70
     0
  0
ENDTAB
  0
TABLE
  2
UCS
  5
7
330
0
100
AcDbSymbolTable
 70
     0
  0
ENDTAB
  0
TABLE
  2
APPID
  5
9
330
0
100
AcDbSymbolTable
 70
     3
  0
APPID
  5
12
330
9
100
AcDbSymbolTableRecord
100
AcDbRegAppTableRecord
  2
ACAD
 70
     0
  0
APPID
  5
71
330
9
100
AcDbSymbolTableRecord
100
AcDbRegAppTableRecord
  2
DBPROPERTIES
 70
     0
  0
APPID
  5
670
330
9
100
AcDbSymbolTableRecord
100
AcDbRegAppTableRecord
  2
ACAD_MLEADERVER
 70
     0
  0
ENDTAB
  0
TABLE
  2
DIMSTYLE
  5
A
330
0
100
AcDbSymbolTable
 70
     1
  0
DIMSTYLE
105
27
330
A
100
AcDbSymbolTableRecord
100
AcDbDimStyleTableRecord
  2
ISO-25
 70
     0
  3

  4

  5

  6

  7

 40
1.0
 41
2.5
 42
0.625
 43
3.75
 44
1.25
 45
0.0
 46
0.0
 47
0.0
 48
0.0
140
2.5
141
2.5
142
0.0
143
0.03937007874016
144
1.0
145
0.0
146
1.0
147
0.625
 71
     0
 72
     0
 73
     0
 74
     0
 75
     0
 76
     0
 77
     1
 78
     8
170
     0
171
     3
172
     1
173
     0
174
     0
175
     0
176
     0
177
     0
178
     0
270
     2
271
     2
272
     2
273
     2
274
     3
340
11
275
     0
280
     0
281
     0
282
     0
283
     0
284
     8
285
     0
286
     0
287
     3
288
     0
  0
ENDTAB
  0
TABLE
  2
BLOCK_RECORD
  5
1
330
0
100
AcDbSymbolTable
 70
     0
  0
BLOCK_RECORD
  5
1F
330
1
100
AcDbSymbolTableRecord
100
AcDbBlockTableRecord
  2
*MODEL_SPACE
  0
BLOCK_RECORD
  5
1B
330
1
100
AcDbSymbolTableRecord
100
AcDbBlockTableRecord
  2
*PAPER_SPACE
  0
ENDTAB
  0
ENDSEC
  0
SECTION
  2
BLOCKS
  0
BLOCK
  5
20
330
1F
100
AcDbEntity
  8
0
100
AcDbBlockBegin
  2
*MODEL_SPACE
 70
     0
 10
0.0
 20
0.0
 30
0.0
  3
*MODEL_SPACE
  1

  0
ENDBLK
  5
21
330
1F
100
AcDbEntity
  8
0
100
AcDbBlockEnd
  0
BLOCK
  5
1C
330
1B
100
AcDbEntity
 67
     1
  8
0
100
AcDbBlockBegin
  2
*PAPER_SPACE
 70
     0
 10
0.0
 20
0.0
 30
0.0
  3
*PAPER_SPACE
  1

  0
ENDBLK
  5
1D
330
1B
100
AcDbEntity
 67
     1
  8
0
100
AcDbBlockEnd
  0
ENDSEC
  0
SECTION
  2
ENTITIES
  0
LINE
  5
72
330
1F
100
AcDbEntity
  8
THICK
100
AcDbLine
 10
157.0
 20
-288.0
 30
0.0
 11
0.0000000000000304
 21
-288.0
 31
0.0
1001
DBPROPERTIES
1002
{
1000
PbThick
1002
}
  0
LINE
  5
73
330
1F
100
AcDbEntity
  8
THICK
100
AcDbLine
 10
-157.0
 20
-288.0
 30
0.0
 11
-0.000000000000008
 21
-288.0
 31
0.0
1001
DBPROPERTIES
1002
{
1000
PbThick
1002
}
  0
LINE
  5
74
330
1F
100
AcDbEntity
  8
THICK
100
AcDbLine
 10
157.0
 20
-285.2
 30
0.0
 11
-0.0000000000000078
 21
-285.2
 31
0.0
1001
DBPROPERTIES
1002
{
1000
PbThick
1002
}
  0
LINE
  5
75
330
1F
100
AcDbEntity
  8
HIDDEN
100
AcDbLine
 10
-0.0000000000000463
 20
-285.2
 30
0.0
 11
157.0
 21
-285.2
 31
0.0
1001
DBPROPERTIES
1002
{
1000
PbHidd
1002
}
  0
LINE
  5
76
330
1F
100
AcDbEntity
  8
HIDDEN
100
AcDbLine
 10
-152.7
 20
-266.5
 30
0.0
 11
152.7
 21
-266.5
 31
0.0
1001
DBPROPERTIES
1002
{
1000
PbHidd
1002
}
  0
LINE
  5
77
330
1F
100
AcDbEntity
  8
THICK
100
AcDbLine
 10
-156.9999938964844
 20
-262.2000061035156
 30
0.0
 11
-152.6999984741211
 21
-266.5000015258789
 31
0.0
1001
DBPROPERTIES
1002
{
1000
PbThick
1002
}
  0
LINE
  5
78
330
1F
100
AcDbEntity
  8
HIDDEN
100
AcDbLine
 10
-0.0000000000000064
 20
-262.2
 30
0.0
 11
-157.0
 21
-262.2
 31
0.0
1001
DBPROPERTIES
1002
{
1000
PbHidd
1002
}
  0
LINE
  5
79
330
1F
100
AcDbEntity
  8
HIDDEN
100
AcDbLine
 10
157.0
 20
-262.2
 30
0.0
 11
-0.0000000000000064
 21
-262.2
 31
0.0
1001
DBPROPERTIES
1002
{
1000
PbHidd
1002
}
  0
LINE
  5
7A
330
1F
100
AcDbEntity
  8
THICK
100
AcDbLine
 10
152.6999984741211
 20
-266.5000015258789
 30
0.0
 11
156.9999938964844
 21
-262.2000061035156
 31
0.0
1001
DBPROPERTIES
1002
{
1000
PbThick
1002
}
  0
LINE
  5
7B
330
1F
100
AcDbEntity
  8
THICK
100
AcDbLine
 10
-152.7
 20
-266.5
 30
0.0
 11
-152.7
 21
-270.7999877929688
 31
0.0
1001
DBPROPERTIES
1002
{
1000
PbThick
1002
}
  0
LINE
  5
7C
330
1F
100
AcDbEntity
  8
THICK
100
AcDbLine
 10
152.7
 20
-270.7999877929688
 30
0.0
 11
152.7
 21
-266.5
 31
0.0
1001
DBPROPERTIES
1002
{
1000
PbThick
1002
}
  0
LINE
  5
7D
330
1F
100
AcDbEntity
  8
THICK
100
AcDbLine
 10
157.0
 20
-270.8
 30
0.0
 11
-0.000000000000007
 21
-270.8
 31
0.0
1001
DBPROPERTIES
1002
{
1000
PbThick
1002
}
  0
LINE
  5
7E
330
1F
100
AcDbEntity
  8
THICK
100
AcDbLine
 10
157.0
 20
-276.6000000000001
 30
0.0
 11
-0.0000000000000073
 21
-276.6
 31
0.0
1001
DBPROPERTIES
1002
{
1000
PbThick
1002
}
  0
LINE
  5
7F
330
1F
100
AcDbEntity
  8
HIDDEN
100
AcDbLine
 10
152.7
 20
-280.9
 30
0.0
 11
-152.7
 21
-280.9
 31
0.0
1001
DBPROPERTIES
1002
{
1000
PbHidd
1002
}
  0
LINE
  5
80
330
1F
100
AcDbEntity
  8
THICK
100
AcDbLine
 10
157.0000061035156
 20
-285.2000061035156
 30
0.0
 11
152.6999954223633
 21
-280.8999954223633
 31
0.0
1001
DBPROPERTIES
1002
{
1000
PbThick
1002
}
  0
LINE
  5
81
330
1F
100
AcDbEntity
  8
HIDDEN
100
AcDbLine
 10
-157.0
 20
-285.1999999999999
 30
0.0
 11
-0.0000000000000463
 21
-285.2
 31
0.0
1001
DBPROPERTIES
1002
{
1000
PbHidd
1002
}
  0
LINE
  5
82
330
1F
100
AcDbEntity
  8
THICK
100
AcDbLine
 10
-152.6999954223633
 20
-280.8999954223632
 30
0.0
 11
-157.0000061035157
 21
-285.2000061035155
 31
0.0
1001
DBPROPERTIES
1002
{
1000
PbThick
1002
}
  0
LINE
  5
83
330
1F
100
AcDbEntity
  8
THICK
100
AcDbLine
 10
152.7
 20
-280.8999938964844
 30
0.0
 11
152.7
 21
-276.6000061035156
 31
0.0
1001
DBPROPERTIES
1002
{
1000
PbThick
1002
}
  0
LINE
  5
84
330
1F
100
AcDbEntity
  8
THICK
100
AcDbLine
 10
-152.7
 20
-276.6000061035156
 30
0.0
 11
-152.7
 21
-280.8999938964844
 31
0.0
1001
DBPROPERTIES
1002
{
1000
PbThick
1002
}
  0
LINE
  5
85
330
1F
100
AcDbEntity
  8
THICK
100
AcDbLine
 10
-0.0000000000000064
 20
-262.2
 30
0.0
 11
157.0
 21
-262.2
 31
0.0
1001
DBPROPERTIES
1002
{
1000
PbThick
1002
}
  0
LINE
  5
86
330
1F
100
AcDbEntity
  8
THICK
100
AcDbLine
 10
-192.4
 20
-181.8
 30
0.0
 11
-66.2499999681933
 21
-181.8
 31
0.0
1001
DBPROPERTIES
1002
{
1000
PbThick
1002
}
  0
LINE
  5
87
330
1F
100
AcDbEntity
  8
HIDDEN
100
AcDbLine
 10
-66.2499999681933
 20
-181.8
 30
0.0
 11
-58.24999995744855
 21
-181.8
 31
0.0
1001
DBPROPERTIES
1002
{
1000
PbHidd
1002
}
  0
LINE
  5
88
330
1F
100
AcDbEntity
  8
THICK
100
AcDbLine
 10
-58.24999995744855
 20
-181.8
 30
0.0
 11
-0.0000000000000465
 21
-181.8
 31
0.0
1001
DBPROPERTIES
1002
{
1000
PbThick
1002
}
  0
ARC
  5
89
330
1F
100
AcDbEntity
  8
THICK
100
AcDbCircle
 10
-192.4
 20
-186.8
 30
0.0
 40
5.0
100
AcDbArc
 50
89.99992398025215
 51
180.0000374479367
1001
DBPROPERTIES
1002
{
1000
PbThick
1002
}
  0
LINE
  5
8A
330
1F
100
AcDbEntity
  8
THICK
100
AcDbLine
 10
0.000000000000001
 20
-186.8
 30
0.0
 11
-58.24999999096231
 21
-186.8
 31
0.0
1001
DBPROPERTIES
1002
{
1000
PbThick
1002
}
  0
LINE
  5
8B
330
1F
100
AcDbEntity
  8
HIDDEN
100
AcDbLine
 10
-58.24999999096231
 20
-186.8
 30
0.0
 11
-66.24999999900884
 21
-186.8
 31
0.0
1001
DBPROPERTIES
1002
{
1000
PbHidd
1002
}
  0
LINE
  5
8C
330
1F
100
AcDbEntity
  8
THICK
100
AcDbLine
 10
-66.24999999900884
 20
-186.8
 30
0.0
 11
-197.4
 21
-186.8
 31
0.0
1001
DBPROPERTIES
1002
{
1000
PbThick
1002
}
  0
LINE
  5
8D
330
1F
100
AcDbEntity
  8
THICK
100
AcDbLine
 10
197.4
 20
-186.8
 30
0.0
 11
0.0000000000000493
 21
-186.8
 31
0.0
1001
DBPROPERTIES
1002
{
1000
PbThick
1002
}
  0
ARC
  5
8E
330
1F
100
AcDbEntity
  8
THICK
100
AcDbCircle
 10
192.4
 20
-186.8
 30
0.0
 40
5.0
100
AcDbArc
 50
359.9999427042205
 51
90.00009586759069
1001
DBPROPERTIES
1002
{
1000
PbThick
1002
}
  0
LINE
  5
8F
330
1F
100
AcDbEntity
  8
THICK
100
AcDbLine
 10
0.0000000000000006
 20
-181.8
 30
0.0
 11
192.4
 21
-181.8
 31
0.0
1001
DBPROPERTIES
1002
{
1000
PbThick
1002
}
  0
LINE
  5
90
330
1F
100
AcDbEntity
  8
HIDDEN
100
AcDbLine
 10
-35.2999975510924
 20
-26.2405697346685
 30
0.0
 11
-85.64999999999999
 21
-26.2405697346685
 31
0.0
1001
DBPROPERTIES
1002
{
1000
PbHidd
1002
}
  0
LINE
  5
91
330
1F
100
AcDbEntity
  8
HIDDEN
100
AcDbLine
 10
0.0000000000000052
 20
-28.26056973466848
 30
0.0
 11
-85.64999999999998
 21
-28.26056973466848
 31
0.0
1001
DBPROPERTIES
1002
{
1000
PbHidd
1002
}
  0
LINE
  5
92
330
1F
100
AcDbEntity
  8
THICK
100
AcDbLine
 10
-85.64999999692803
 20
-28.26056973466848
 30
0.0
 11
-83.28459992761063
 21
-28.26056973466848
 31
0.0
1001
DBPROPERTIES
1002
{
1000
PbThick
1002
}
  0
LINE
  5
93
330
1F
100
AcDbEntity
  8
HIDDEN
100
AcDbLine
 10
-83.28459992761063
 20
-28.26056973466848
 30
0.0
 11
-33.09734848971986
 21
-28.26056973466848
 31
0.0
1001
DBPROPERTIES
1002
{
1000
PbHidd
1002
}
  0
LINE
  5
94
330
1F
100
AcDbEntity
  8
HIDDEN
100
AcDbLine
 10
-33.09734725952148
 20
-28.26057052612305
 30
0.0
 11
-33.25678253173828
 21
-28.20305252075195
 31
0.0
1001
DBPROPERTIES
1002
{
1000
PbHidd
1002
}
  0
LINE
  5
95
330
1F
100
AcDbEntity
  8
HIDDEN
100
AcDbLine
 10
-33.25678253173828
 20
-28.20305252075195
 30
0.0
 11
-33.41372299194336
 21
-28.13779640197754
 31
0.0
1001
DBPROPERTIES
1002
{
1000
PbHidd
1002
}
  0
LINE
  5
96
330
1F
100
AcDbEntity
  8
HIDDEN
100
AcDbLine
 10
-33.41372299194336
 20
-28.13779640197754
 30
0.0
 11
-33.5676383972168
 21
-28.06488418579102
 31
0.0
1001
DBPROPERTIES
1002
{
1000
PbHidd
1002
}
  0
LINE
  5
97
330
1F
100
AcDbEntity
  8
HIDDEN
100
AcDbLine
 10
-33.5676383972168
 20
-28.06488418579102
 30
0.0
 11
-33.71805191040039
 21
-27.98452377319336
 31
0.0
1001
DBPROPERTIES
1002
{
1000
PbHidd
1002
}
  0
LINE
  5
98
330
1F
100
AcDbEntity
  8
HIDDEN
100
AcDbLine
 10
-33.71805191040039
 20
-27.98452377319336
 30
0.0
 11
-33.86450576782227
 21
-27.89715957641602
 31
0.0
1001
DBPROPERTIES
1002
{
1000
PbHidd
1002
}
  0
LINE
  5
99
330
1F
100
AcDbEntity
  8
HIDDEN
100
AcDbLine
 10
-33.86450576782227
 20
-27.89715957641602
 30
0.0
 11
-34.00651550292969
 21
-27.80312919616699
 31
0.0
1001
DBPROPERTIES
1002
{
1000
PbHidd
1002
}
  0
LINE
  5
9A
330
1F
100
AcDbEntity
  8
HIDDEN
100
AcDbLine
 10
-34.00651550292969
 20
-27.80312919616699
 30
0.0
 11
-34.14357376098633
 21
-27.70277786254883
 31
0.0
1001
DBPROPERTIES
1002
{
1000
PbHidd
1002
}
  0
LINE
  5
9B
330
1F
100
AcDbEntity
  8
HIDDEN
100
AcDbLine
 10
-34.14357376098633
 20
-27.70277786254883
 30
0.0
 11
-34.27529907226562
 21
-27.59661865234375
 31
0.0
1001
DBPROPERTIES
1002
{
1000
PbHidd
1002
}
  0
LINE
  5
9C
330
1F
100
AcDbEntity
  8
HIDDEN
100
AcDbLine
 10
-34.27529907226562
 20
-27.59661865234375
 30
0.0
 11
-34.40139389038086
 21
-27.48530769348145
 31
0.0
1001
DBPROPERTIES
1002
{
1000
PbHidd
1002
}
  0
LINE
  5
9D
330
1F
100
AcDbEntity
  8
HIDDEN
100
AcDbLine
 10
-34.40139389038086
 20
-27.48530769348145
 30
0.0
 11
-34.52140808105469
 21
-27.36929702758789
 31
0.0
1001
DBPROPERTIES
1002
{
1000
PbHidd
1002
}
  0
LINE
  5
9E
330
1F
100
AcDbEntity
  8
HIDDEN
100
AcDbLine
 10
-34.52140808105469
 20
-27.36929702758789
 30
0.0
 11
-34.63516235351562
 21
-27.24933052062988
 31
0.0
1001
DBPROPERTIES
1002
{
1000
PbHidd
1002
}
  0
LINE
  5
9F
330
1F
100
AcDbEntity
  8
HIDDEN
100
AcDbLine
 10
-34.63516235351562
 20
-27.24933052062988
 30
0.0
 11
-34.74436187744141
 21
-27.12364387512207
 31
0.0
1001
DBPROPERTIES
1002
{
1000
PbHidd
1002
}
  0
LINE
  5
A0
330
1F
100
AcDbEntity
  8
HIDDEN
100
AcDbLine
 10
-34.74436187744141
 20
-27.12364387512207
 30
0.0
 11
-34.84968948364258
 21
-26.99111938476562
 31
0.0
1001
DBPROPERTIES
1002
{
1000
PbHidd
1002
}
  0
LINE
  5
A1
330
1F
100
AcDbEntity
  8
HIDDEN
100
AcDbLine
 10
-34.84968948364258
 20
-26.99111938476562
 30
0.0
 11
-34.95065307617188
 21
-26.85221672058105
 31
0.0
1001
DBPROPERTIES
1002
{
1000
PbHidd
1002
}
  0
LINE
  5
A2
330
1F
100
AcDbEntity
  8
HIDDEN
100
AcDbLine
 10
-34.95065307617188
 20
-26.85221672058105
 30
0.0
 11
-35.04664993286133
 21
-26.707275390625
 31
0.0
1001
DBPROPERTIES
1002
{
1000
PbHidd
1002
}
  0
LINE
  5
A3
330
1F
100
AcDbEntity
  8
HIDDEN
100
AcDbLine
 10
-35.04664993286133
 20
-26.707275390625
 30
0.0
 11
-35.13712310791016
 21
-26.55667686462402
 31
0.0
1001
DBPROPERTIES
1002
{
1000
PbHidd
1002
}
  0
LINE
  5
A4
330
1F
100
AcDbEntity
  8
HIDDEN
100
AcDbLine
 10
-35.13712310791016
 20
-26.55667686462402
 30
0.0
 11
-35.22167205810547
 21
-26.40091896057129
 31
0.0
1001
DBPROPERTIES
1002
{
1000
PbHidd
1002
}
  0
LINE
  5
A5
330
1F
100
AcDbEntity
  8
HIDDEN
100
AcDbLine
 10
-35.22167205810547
 20
-26.40091896057129
 30
0.0
 11
-35.29999923706055
 21
-26.24057006835938
 31
0.0
1001
DBPROPERTIES
1002
{
1000
PbHidd
1002
}
  0
LINE
  5
A6
330
1F
100
AcDbEntity
  8
THICK
100
AcDbLine
 10
-30.8776640833223
 20
-28.26056973466848
 30
0.0
 11
0.0000000000000052
 21
-28.26056973466848
 31
0.0
1001
DBPROPERTIES
1002
{
1000
PbThick
1002
}
  0
LINE
  5
A7
330
1F
100
AcDbEntity
  8
THICK
100
AcDbLine
 10
-28.60668499996244
 20
-26.2405697346685
 30
0.0
 11
0.0000000000000052
 21
-26.2405697346685
 31
0.0
1001
DBPROPERTIES
1002
{
1000
PbThick
1002
}
  0
LINE
  5
A8
330
1F
100
AcDbEntity
  8
THICK
100
AcDbLine
 10
-28.60668563842773
 20
-26.24057006835938
 30
0.0
 11
-28.68876457214355
 21
-26.40114212036133
 31
0.0
1001
DBPROPERTIES
1002
{
1000
PbThick
1002
}
  0
LINE
  5
A9
330
1F
100
AcDbEntity
  8
THICK
100
AcDbLine
 10
-28.68876457214355
 20
-26.40114212036133
 30
0.0
 11
-28.77724266052246
 21
-26.55706214904785
 31
0.0
1001
DBPROPERTIES
1002
{
1000
PbThick
1002
}
  0
LINE
  5
AA
330
1F
100
AcDbEntity
  8
THICK
100
AcDbLine
 10
-28.77724266052246
 20
-26.55706214904785
 30
0.0
 11
-28.87178039550781
 21
-26.70776176452637
 31
0.0
1001
DBPROPERTIES
1002
{
1000
PbThick
1002
}
  0
LINE
  5
AB
330
1F
100
AcDbEntity
  8
THICK
100
AcDbLine
 10
-28.87178039550781
 20
-26.70776176452637
 30
0.0
 11
-28.97192573547363
 21
-26.85274314880371
 31
0.0
1001
DBPROPERTIES
1002
{
1000
PbThick
1002
}
  0
LINE
  5
AC
330
1F
100
AcDbEntity
  8
THICK
100
AcDbLine
 10
-28.97192573547363
 20
-26.85274314880371
 30
0.0
 11
-29.07706069946289
 21
-26.99163436889648
 31
0.0
1001
DBPROPERTIES
1002
{
1000
PbThick
1002
}
  0
LINE
  5
AD
330
1F
100
AcDbEntity
  8
THICK
100
AcDbLine
 10
-29.07706069946289
 20
-26.99163436889648
 30
0.0
 11
-29.18653869628906
 21
-27.12408828735352
 31
0.0
1001
DBPROPERTIES
1002
{
1000
PbThick
1002
}
  0
LINE
  5
AE
330
1F
100
AcDbEntity
  8
THICK
100
AcDbLine
 10
-29.18653869628906
 20
-27.12408828735352
 30
0.0
 11
-29.29981422424316
 21
-27.24965286254883
 31
0.0
1001
DBPROPERTIES
1002
{
1000
PbThick
1002
}
  0
LINE
  5
AF
330
1F
100
AcDbEntity
  8
THICK
100
AcDbLine
 10
-29.29981422424316
 20
-27.24965286254883
 30
0.0
 11
-29.41769409179688
 21
-27.36957168579102
 31
0.0
1001
DBPROPERTIES
1002
{
1000
PbThick
1002
}
  0
LINE
  5
B0
330
1F
100
AcDbEntity
  8
THICK
100
AcDbLine
 10
-29.41769409179688
 20
-27.36957168579102
 30
0.0
 11
-29.54184341430664
 21
-27.48552894592285
 31
0.0
1001
DBPROPERTIES
1002
{
1000
PbThick
1002
}
  0
LINE
  5
B1
330
1F
100
AcDbEntity
  8
THICK
100
AcDbLine
 10
-29.54184341430664
 20
-27.48552894592285
 30
0.0
 11
-29.67203903198242
 21
-27.59678077697754
 31
0.0
1001
DBPROPERTIES
1002
{
1000
PbThick
1002
}
  0
LINE
  5
B2
330
1F
100
AcDbEntity
  8
THICK
100
AcDbLine
 10
-29.67203903198242
 20
-27.59678077697754
 30
0.0
 11
-29.80779647827148
 21
-27.70287322998047
 31
0.0
1001
DBPROPERTIES
1002
{
1000
PbThick
1002
}
  0
LINE
  5
B3
330
1F
100
AcDbEntity
  8
THICK
100
AcDbLine
 10
-29.80779647827148
 20
-27.70287322998047
 30
0.0
 11
-29.94878959655762
 21
-27.80315780639648
 31
0.0
1001
DBPROPERTIES
1002
{
1000
PbThick
1002
}
  0
LINE
  5
B4
330
1F
100
AcDbEntity
  8
THICK
100
AcDbLine
 10
-29.94878959655762
 20
-27.80315780639648
 30
0.0
 11
-30.09457969665527
 21
-27.89715003967285
 31
0.0
1001
DBPROPERTIES
1002
{
1000
PbThick
1002
}
  0
LINE
  5
B5
330
1F
100
AcDbEntity
  8
THICK
100
AcDbLine
 10
-30.09457969665527
 20
-27.89715003967285
 30
0.0
 11
-30.24465560913086
 21
-27.9844856262207
 31
0.0
1001
DBPROPERTIES
1002
{
1000
PbThick
1002
}
  0
LINE
  5
B6
330
1F
100
AcDbEntity
  8
THICK
100
AcDbLine
 10
-30.24465560913086
 20
-27.9844856262207
 30
0.0
 11
-30.39850616455078
 21
-28.06480407714844
 31
0.0
1001
DBPROPERTIES
1002
{
1000
PbThick
1002
}
  0
LINE
  5
B7
330
1F
100
AcDbEntity
  8
THICK
100
AcDbLine
 10
-30.39850616455078
 20
-28.06480407714844
 30
0.0
 11
-30.55561828613281
 21
-28.13774299621582
 31
0.0
1001
DBPROPERTIES
1002
{
1000
PbThick
1002
}
  0
LINE
  5
B8
330
1F
100
AcDbEntity
  8
THICK
100
AcDbLine
 10
-30.55561828613281
 20
-28.13774299621582
 30
0.0
 11
-30.71552276611328
 21
-28.20302200317383
 31
0.0
1001
DBPROPERTIES
1002
{
1000
PbThick
1002
}
  0
LINE
  5
B9
330
1F
100
AcDbEntity
  8
THICK
100
AcDbLine
 10
-30.71552276611328
 20
-28.20302200317383
 30
0.0
 11
-30.87766456604004
 21
-28.26057052612305
 31
0.0
1001
DBPROPERTIES
1002
{
1000
PbThick
1002
}
  0
LINE
  5
BA
330
1F
100
AcDbEntity
  8
THICK
100
AcDbLine
 10
-235.0
 20
-50.5
 30
0.0
 11
-0.0000000000000432
 21
-50.5
 31
0.0
1001
DBPROPERTIES
1002
{
1000
PbThick
1002
}
  0
LINE
  5
BB
330
1F
100
AcDbEntity
  8
THICK
100
AcDbLine
 10
-30.87766456604004
 20
-28.26057052612305
 30
0.0
 11
-30.96101760864258
 21
-28.27340316772461
 31
0.0
1001
DBPROPERTIES
1002
{
1000
PbThick
1002
}
  0
LINE
  5
BC
330
1F
100
AcDbEntity
  8
THICK
100
AcDbLine
 10
-30.96101760864258
 20
-28.27340316772461
 30
0.0
 11
-31.04609107971191
 21
-28.2862434387207
 31
0.0
1001
DBPROPERTIES
1002
{
1000
PbThick
1002
}
  0
LINE
  5
BD
330
1F
100
AcDbEntity
  8
THICK
100
AcDbLine
 10
-31.04609107971191
 20
-28.2862434387207
 30
0.0
 11
-31.13268280029297
 21
-28.29903221130371
 31
0.0
1001
DBPROPERTIES
1002
{
1000
PbThick
1002
}
  0
LINE
  5
BE
330
1F
100
AcDbEntity
  8
THICK
100
AcDbLine
 10
-31.13268280029297
 20
-28.29903221130371
 30
0.0
 11
-31.22060394287109
 21
-28.31170654296875
 31
0.0
1001
DBPROPERTIES
1002
{
1000
PbThick
1002
}
  0
LINE
  5
BF
330
1F
100
AcDbEntity
  8
THICK
100
AcDbLine
 10
-31.22060394287109
 20
-28.31170654296875
 30
0.0
 11
-31.30966949462891
 21
-28.32420539855957
 31
0.0
1001
DBPROPERTIES
1002
{
1000
PbThick
1002
}
  0
LINE
  5
C0
330
1F
100
AcDbEntity
  8
THICK
100
AcDbLine
 10
-31.30966949462891
 20
-28.32420539855957
 30
0.0
 11
-31.39969062805176
 21
-28.33646392822266
 31
0.0
1001
DBPROPERTIES
1002
{
1000
PbThick
1002
}
  0
LINE
  5
C1
330
1F
100
AcDbEntity
  8
THICK
100
AcDbLine
 10
-31.39969062805176
 20
-28.33646392822266
 30
0.0
 11
-31.49048042297363
 21
-28.34842491149902
 31
0.0
1001
DBPROPERTIES
1002
{
1000
PbThick
1002
}
  0
LINE
  5
C2
330
1F
100
AcDbEntity
  8
THICK
100
AcDbLine
 10
-31.49048042297363
 20
-28.34842491149902
 30
0.0
 11
-31.58185386657715
 21
-28.36002349853516
 31
0.0
1001
DBPROPERTIES
1002
{
1000
PbThick
1002
}
  0
LINE
  5
C3
330
1F
100
AcDbEntity
  8
THICK
100
AcDbLine
 10
-31.58185386657715
 20
-28.36002349853516
 30
0.0
 11
-31.67361068725586
 21
-28.3711986541748
 31
0.0
1001
DBPROPERTIES
1002
{
1000
PbThick
1002
}
  0
LINE
  5
C4
330
1F
100
AcDbEntity
  8
THICK
100
AcDbLine
 10
-31.67361068725586
 20
-28.3711986541748
 30
0.0
 11
-31.76535606384277
 21
-28.38185882568359
 31
0.0
1001
DBPROPERTIES
1002
{
1000
PbThick
1002
}
  0
LINE
  5
C5
330
1F
100
AcDbEntity
  8
THICK
100
AcDbLine
 10
-31.76535606384277
 20
-28.38185882568359
 30
0.0
 11
-31.85700988769531
 21
-28.39192771911621
 31
0.0
1001
DBPROPERTIES
1002
{
1000
PbThick
1002
}
  0
LINE
  5
C6
330
1F
100
AcDbEntity
  8
THICK
100
AcDbLine
 10
-31.85700988769531
 20
-28.39192771911621
 30
0.0
 11
-31.94862937927246
 21
-28.40134048461914
 31
0.0
1001
DBPROPERTIES
1002
{
1000
PbThick
1002
}
  0
LINE
  5
C7
330
1F
100
AcDbEntity
  8
THICK
100
AcDbLine
 10
-31.94862937927246
 20
-28.40134048461914
 30
0.0
 11
-32.04027938842773
 21
-28.41003036499023
 31
0.0
1001
DBPROPERTIES
1002
{
1000
PbThick
1002
}
  0
LINE
  5
C8
330
1F
100
AcDbEntity
  8
THICK
100
AcDbLine
 10
-32.04027938842773
 20
-28.41003036499023
 30
0.0
 11
-32.13201141357422
 21
-28.41792869567871
 31
0.0
1001
DBPROPERTIES
1002
{
1000
PbThick
1002
}
  0
LINE
  5
C9
330
1F
100
AcDbEntity
  8
THICK
100
AcDbLine
 10
-32.13201141357422
 20
-28.41792869567871
 30
0.0
 11
-32.22385406494141
 21
-28.42492485046387
 31
0.0
1001
DBPROPERTIES
1002
{
1000
PbThick
1002
}
  0
LINE
  5
CA
330
1F
100
AcDbEntity
  8
THICK
100
AcDbLine
 10
-32.22385406494141
 20
-28.42492485046387
 30
0.0
 11
-32.31616592407227
 21
-28.43087005615234
 31
0.0
1001
DBPROPERTIES
1002
{
1000
PbThick
1002
}
  0
LINE
  5
CB
330
1F
100
AcDbEntity
  8
THICK
100
AcDbLine
 10
-32.31616592407227
 20
-28.43087005615234
 30
0.0
 11
-32.40938186645508
 21
-28.43560600280762
 31
0.0
1001
DBPROPERTIES
1002
{
1000
PbThick
1002
}
  0
LINE
  5
CC
330
1F
100
AcDbEntity
  8
THICK
100
AcDbLine
 10
-32.40938186645508
 20
-28.43560600280762
 30
0.0
 11
-32.50394821166992
 21
-28.43880081176758
 31
0.0
1001
DBPROPERTIES
1002
{
1000
PbThick
1002
}
  0
LINE
  5
CD
330
1F
100
AcDbEntity
  8
THICK
100
AcDbLine
 10
-32.50394821166992
 20
-28.43880081176758
 30
0.0
 11
-32.59999465942383
 21
-28.43999671936035
 31
0.0
1001
DBPROPERTIES
1002
{
1000
PbThick
1002
}
  0
LINE
  5
CE
330
1F
100
AcDbEntity
  8
HIDDEN
100
AcDbLine
 10
-32.59999465942383
 20
-28.43999671936035
 30
0.0
 11
-32.69303512573242
 21
-28.43864250183105
 31
0.0
1001
DBPROPERTIES
1002
{
1000
PbHidd
1002
}
  0
LINE
  5
CF
330
1F
100
AcDbEntity
  8
HIDDEN
100
AcDbLine
 10
-32.69303512573242
 20
-28.43864250183105
 30
0.0
 11
-32.77774429321289
 21
-28.43449211120605
 31
0.0
1001
DBPROPERTIES
1002
{
1000
PbHidd
1002
}
  0
LINE
  5
D0
330
1F
100
AcDbEntity
  8
HIDDEN
100
AcDbLine
 10
-32.77774429321289
 20
-28.43449211120605
 30
0.0
 11
-32.85060882568359
 21
-28.42777252197266
 31
0.0
1001
DBPROPERTIES
1002
{
1000
PbHidd
1002
}
  0
LINE
  5
D1
330
1F
100
AcDbEntity
  8
HIDDEN
100
AcDbLine
 10
-32.85060882568359
 20
-28.42777252197266
 30
0.0
 11
-32.91059112548828
 21
-28.41915512084961
 31
0.0
1001
DBPROPERTIES
1002
{
1000
PbHidd
1002
}
  0
LINE
  5
D2
330
1F
100
AcDbEntity
  8
HIDDEN
100
AcDbLine
 10
-32.91059112548828
 20
-28.41915512084961
 30
0.0
 11
-32.95792007446289
 21
-28.4094123840332
 31
0.0
1001
DBPROPERTIES
1002
{
1000
PbHidd
1002
}
  0
LINE
  5
D3
330
1F
100
AcDbEntity
  8
HIDDEN
100
AcDbLine
 10
-32.95792007446289
 20
-28.4094123840332
 30
0.0
 11
-32.9964485168457
 21
-28.3985767364502
 31
0.0
1001
DBPROPERTIES
1002
{
1000
PbHidd
1002
}
  0
LINE
  5
D4
330
1F
100
AcDbEntity
  8
HIDDEN
100
AcDbLine
 10
-32.9964485168457
 20
-28.3985767364502
 30
0.0
 11
-33.02772521972656
 21
-28.3867244720459
 31
0.0
1001
DBPROPERTIES
1002
{
1000
PbHidd
1002
}
  0
LINE
  5
D5
330
1F
100
AcDbEntity
  8
HIDDEN
100
AcDbLine
 10
-33.02772521972656
 20
-28.3867244720459
 30
0.0
 11
-33.05253219604492
 21
-28.37401962280273
 31
0.0
1001
DBPROPERTIES
1002
{
1000
PbHidd
1002
}
  0
LINE
  5
D6
330
1F
100
AcDbEntity
  8
HIDDEN
100
AcDbLine
 10
-33.05253219604492
 20
-28.37401962280273
 30
0.0
 11
-33.07165145874023
 21
-28.36063194274902
 31
0.0
1001
DBPROPERTIES
1002
{
1000
PbHidd
1002
}
  0
LINE
  5
D7
330
1F
100
AcDbEntity
  8
HIDDEN
100
AcDbLine
 10
-33.07165145874023
 20
-28.36063194274902
 30
0.0
 11
-33.08585739135742
 21
-28.34672355651855
 31
0.0
1001
DBPROPERTIES
1002
{
1000
PbHidd
1002
}
  0
LINE
  5
D8
330
1F
100
AcDbEntity
  8
HIDDEN
100
AcDbLine
 10
-33.08585739135742
 20
-28.34672355651855
 30
0.0
 11
-33.09577560424805
 21
-28.33245086669922
 31
0.0
1001
DBPROPERTIES
1002
{
1000
PbHidd
1002
}
  0
LINE
  5
D9
330
1F
100
AcDbEntity
  8
HIDDEN
100
AcDbLine
 10
-33.09577560424805
 20
-28.33245086669922
 30
0.0
 11
-33.10184860229492
 21
-28.31795692443848
 31
0.0
1001
DBPROPERTIES
1002
{
1000
PbHidd
1002
}
  0
LINE
  5
DA
330
1F
100
AcDbEntity
  8
HIDDEN
100
AcDbLine
 10
-33.10184860229492
 20
-28.31795692443848
 30
0.0
 11
-33.10455703735352
 21
-28.30338859558105
 31
0.0
1001
DBPROPERTIES
1002
{
1000
PbHidd
1002
}
  0
LINE
  5
DB
330
1F
100
AcDbEntity
  8
HIDDEN
100
AcDbLine
 10
-33.10455703735352
 20
-28.30338859558105
 30
0.0
 11
-33.10439682006836
 21
-28.28889083862305
 31
0.0
1001
DBPROPERTIES
1002
{
1000
PbHidd
1002
}
  0
LINE
  5
DC
330
1F
100
AcDbEntity
  8
HIDDEN
100
AcDbLine
 10
-33.10439682006836
 20
-28.28889083862305
 30
0.0
 11
-33.10185241699219
 21
-28.27461051940918
 31
0.0
1001
DBPROPERTIES
1002
{
1000
PbHidd
1002
}
  0
LINE
  5
DD
330
1F
100
AcDbEntity
  8
HIDDEN
100
AcDbLine
 10
-33.10185241699219
 20
-28.27461051940918
 30
0.0
 11
-33.09735870361328
 21
-28.26057052612305
 31
0.0
1001
DBPROPERTIES
1002
{
1000
PbHidd
1002
}
  0
LINE
  5
DE
330
1F
100
AcDbEntity
  8
THICK
100
AcDbLine
 10
-62.25
 20
-47.37348175048828
 30
0.0
 11
-62.54554748535156
 21
-47.38507461547852
 31
0.0
1001
DBPROPERTIES
1002
{
1000
PbThick
1002
}
  0
LINE
  5
DF
330
1F
100
AcDbEntity
  8
THICK
100
AcDbLine
 10
-62.54554748535156
 20
-47.38507461547852
 30
0.0
 11
-62.8383674621582
 21
-47.39414215087891
 31
0.0
1001
DBPROPERTIES
1002
{
1000
PbThick
1002
}
  0
LINE
  5
E0
330
1F
100
AcDbEntity
  8
THICK
100
AcDbLine
 10
-62.8383674621582
 20
-47.39414215087891
 30
0.0
 11
-63.12670135498047
 21
-47.40068054199219
 31
0.0
1001
DBPROPERTIES
1002
{
1000
PbThick
1002
}
  0
LINE
  5
E1
330
1F
100
AcDbEntity
  8
THICK
100
AcDbLine
 10
-63.12670135498047
 20
-47.40068054199219
 30
0.0
 11
-63.40883255004883
 21
-47.40473937988281
 31
0.0
1001
DBPROPERTIES
1002
{
1000
PbThick
1002
}
  0
LINE
  5
E2
330
1F
100
AcDbEntity
  8
THICK
100
AcDbLine
 10
-63.40883255004883
 20
-47.40473937988281
 30
0.0
 11
-63.68306732177734
 21
-47.40639495849609
 31
0.0
1001
DBPROPERTIES
1002
{
1000
PbThick
1002
}
  0
LINE
  5
E3
330
1F
100
AcDbEntity
  8
THICK
100
AcDbLine
 10
-63.68306732177734
 20
-47.40639495849609
 30
0.0
 11
-63.95096969604492
 21
-47.40569686889648
 31
0.0
1001
DBPROPERTIES
1002
{
1000
PbThick
1002
}
  0
LINE
  5
E4
330
1F
100
AcDbEntity
  8
THICK
100
AcDbLine
 10
-63.95096969604492
 20
-47.40569686889648
 30
0.0
 11
-64.21752166748047
 21
-47.40262222290039
 31
0.0
1001
DBPROPERTIES
1002
{
1000
PbThick
1002
}
  0
LINE
  5
E5
330
1F
100
AcDbEntity
  8
THICK
100
AcDbLine
 10
-64.21752166748047
 20
-47.40262222290039
 30
0.0
 11
-64.48094940185547
 21
-47.39710235595703
 31
0.0
1001
DBPROPERTIES
1002
{
1000
PbThick
1002
}
  0
LINE
  5
E6
330
1F
100
AcDbEntity
  8
THICK
100
AcDbLine
 10
-64.48094940185547
 20
-47.39710235595703
 30
0.0
 11
-64.7392807006836
 21
-47.38906478881836
 31
0.0
1001
DBPROPERTIES
1002
{
1000
PbThick
1002
}
  0
LINE
  5
E7
330
1F
100
AcDbEntity
  8
THICK
100
AcDbLine
 10
-64.7392807006836
 20
-47.38906478881836
 30
0.0
 11
-64.99070739746094
 21
-47.37849044799805
 31
0.0
1001
DBPROPERTIES
1002
{
1000
PbThick
1002
}
  0
LINE
  5
E8
330
1F
100
AcDbEntity
  8
THICK
100
AcDbLine
 10
-64.99070739746094
 20
-47.37849044799805
 30
0.0
 11
-65.23363494873047
 21
-47.36542892456055
 31
0.0
1001
DBPROPERTIES
1002
{
1000
PbThick
1002
}
  0
LINE
  5
E9
330
1F
100
AcDbEntity
  8
THICK
100
AcDbLine
 10
-65.23363494873047
 20
-47.36542892456055
 30
0.0
 11
-65.46649169921875
 21
-47.34992218017578
 31
0.0
1001
DBPROPERTIES
1002
{
1000
PbThick
1002
}
  0
LINE
  5
EA
330
1F
100
AcDbEntity
  8
THICK
100
AcDbLine
 10
-65.46649169921875
 20
-47.34992218017578
 30
0.0
 11
-65.6878662109375
 21
-47.33203125
 31
0.0
1001
DBPROPERTIES
1002
{
1000
PbThick
1002
}
  0
LINE
  5
EB
330
1F
100
AcDbEntity
  8
THICK
100
AcDbLine
 10
-65.6878662109375
 20
-47.33203125
 30
0.0
 11
-65.89671325683594
 21
-47.31187438964844
 31
0.0
1001
DBPROPERTIES
1002
{
1000
PbThick
1002
}
  0
LINE
  5
EC
330
1F
100
AcDbEntity
  8
THICK
100
AcDbLine
 10
-65.89671325683594
 20
-47.31187438964844
 30
0.0
 11
-66.09193420410156
 21
-47.28960037231445
 31
0.0
1001
DBPROPERTIES
1002
{
1000
PbThick
1002
}
  0
LINE
  5
ED
330
1F
100
AcDbEntity
  8
THICK
100
AcDbLine
 10
-66.09193420410156
 20
-47.28960037231445
 30
0.0
 11
-66.27246856689453
 21
-47.26536178588867
 31
0.0
1001
DBPROPERTIES
1002
{
1000
PbThick
1002
}
  0
LINE
  5
EE
330
1F
100
AcDbEntity
  8
THICK
100
AcDbLine
 10
-66.27246856689453
 20
-47.26536178588867
 30
0.0
 11
-66.43757629394531
 21
-47.23935317993164
 31
0.0
1001
DBPROPERTIES
1002
{
1000
PbThick
1002
}
  0
LINE
  5
EF
330
1F
100
AcDbEntity
  8
THICK
100
AcDbLine
 10
-66.43757629394531
 20
-47.23935317993164
 30
0.0
 11
-66.58680725097656
 21
-47.21183013916016
 31
0.0
1001
DBPROPERTIES
1002
{
1000
PbThick
1002
}
  0
LINE
  5
F0
330
1F
100
AcDbEntity
  8
THICK
100
AcDbLine
 10
-66.58680725097656
 20
-47.21183013916016
 30
0.0
 11
-66.71978759765625
 21
-47.18302536010742
 31
0.0
1001
DBPROPERTIES
1002
{
1000
PbThick
1002
}
  0
LINE
  5
F1
330
1F
100
AcDbEntity
  8
THICK
100
AcDbLine
 10
-66.71978759765625
 20
-47.18302536010742
 30
0.0
 11
-66.83890533447266
 21
-47.1524772644043
 31
0.0
1001
DBPROPERTIES
1002
{
1000
PbThick
1002
}
  0
LINE
  5
F2
330
1F
100
AcDbEntity
  8
THICK
100
AcDbLine
 10
-66.83890533447266
 20
-47.1524772644043
 30
0.0
 11
-66.94493103027344
 21
-47.11989593505859
 31
0.0
1001
DBPROPERTIES
1002
{
1000
PbThick
1002
}
  0
LINE
  5
F3
330
1F
100
AcDbEntity
  8
THICK
100
AcDbLine
 10
-66.94493103027344
 20
-47.11989593505859
 30
0.0
 11
-67.03661346435547
 21
-47.08542633056641
 31
0.0
1001
DBPROPERTIES
1002
{
1000
PbThick
1002
}
  0
LINE
  5
F4
330
1F
100
AcDbEntity
  8
THICK
100
AcDbLine
 10
-67.03661346435547
 20
-47.08542633056641
 30
0.0
 11
-67.11274719238281
 21
-47.04921722412109
 31
0.0
1001
DBPROPERTIES
1002
{
1000
PbThick
1002
}
  0
LINE
  5
F5
330
1F
100
AcDbEntity
  8
THICK
100
AcDbLine
 10
-67.11274719238281
 20
-47.04921722412109
 30
0.0
 11
-67.17259216308594
 21
-47.01145553588867
 31
0.0
1001
DBPROPERTIES
1002
{
1000
PbThick
1002
}
  0
LINE
  5
F6
330
1F
100
AcDbEntity
  8
THICK
100
AcDbLine
 10
-67.17259216308594
 20
-47.01145553588867
 30
0.0
 11
-67.21566772460938
 21
-46.97235488891602
 31
0.0
1001
DBPROPERTIES
1002
{
1000
PbThick
1002
}
  0
LINE
  5
F7
330
1F
100
AcDbEntity
  8
THICK
100
AcDbLine
 10
-67.21566772460938
 20
-46.97235488891602
 30
0.0
 11
-67.24152374267578
 21
-46.93212127685547
 31
0.0
1001
DBPROPERTIES
1002
{
1000
PbThick
1002
}
  0
LINE
  5
F8
330
1F
100
AcDbEntity
  8
THICK
100
AcDbLine
 10
-67.24152374267578
 20
-46.93212127685547
 30
0.0
 11
-67.24993133544922
 21
-46.89095306396484
 31
0.0
1001
DBPROPERTIES
1002
{
1000
PbThick
1002
}
  0
LINE
  5
F9
330
1F
100
AcDbEntity
  8
THICK
100
AcDbLine
 10
-67.24993133544922
 20
-46.89095306396484
 30
0.0
 11
-67.24208068847656
 21
-46.85157775878906
 31
0.0
1001
DBPROPERTIES
1002
{
1000
PbThick
1002
}
  0
LINE
  5
FA
330
1F
100
AcDbEntity
  8
THICK
100
AcDbLine
 10
-67.24208068847656
 20
-46.85157775878906
 30
0.0
 11
-67.21917724609375
 21
-46.81179428100586
 31
0.0
1001
DBPROPERTIES
1002
{
1000
PbThick
1002
}
  0
LINE
  5
FB
330
1F
100
AcDbEntity
  8
THICK
100
AcDbLine
 10
-67.21917724609375
 20
-46.81179428100586
 30
0.0
 11
-67.18145751953125
 21
-46.77182006835938
 31
0.0
1001
DBPROPERTIES
1002
{
1000
PbThick
1002
}
  0
LINE
  5
FC
330
1F
100
AcDbEntity
  8
THICK
100
AcDbLine
 10
-67.18145751953125
 20
-46.77182006835938
 30
0.0
 11
-67.12954711914062
 21
-46.73187637329102
 31
0.0
1001
DBPROPERTIES
1002
{
1000
PbThick
1002
}
  0
LINE
  5
FD
330
1F
100
AcDbEntity
  8
THICK
100
AcDbLine
 10
-67.12954711914062
 20
-46.73187637329102
 30
0.0
 11
-67.06431579589844
 21
-46.69219207763672
 31
0.0
1001
DBPROPERTIES
1002
{
1000
PbThick
1002
}
  0
LINE
  5
FE
330
1F
100
AcDbEntity
  8
THICK
100
AcDbLine
 10
-67.06431579589844
 20
-46.69219207763672
 30
0.0
 11
-66.98665618896484
 21
-46.65300369262695
 31
0.0
1001
DBPROPERTIES
1002
{
1000
PbThick
1002
}
  0
LINE
  5
FF
330
1F
100
AcDbEntity
  8
THICK
100
AcDbLine
 10
-66.98665618896484
 20
-46.65300369262695
 30
0.0
 11
-66.89816284179688
 21
-46.61478805541992
 31
0.0
1001
DBPROPERTIES
1002
{
1000
PbThick
1002
}
  0
LINE
  5
100
330
1F
100
AcDbEntity
  8
THICK
100
AcDbLine
 10
-66.89816284179688
 20
-46.61478805541992
 30
0.0
 11
-66.79574584960938
 21
-46.57606506347656
 31
0.0
1001
DBPROPERTIES
1002
{
1000
PbThick
1002
}
  0
LINE
  5
101
330
1F
100
AcDbEntity
  8
THICK
100
AcDbLine
 10
-66.79574584960938
 20
-46.57606506347656
 30
0.0
 11
-66.67948913574219
 21
-46.53706359863281
 31
0.0
1001
DBPROPERTIES
1002
{
1000
PbThick
1002
}
  0
LINE
  5
102
330
1F
100
AcDbEntity
  8
THICK
100
AcDbLine
 10
-66.67948913574219
 20
-46.53706359863281
 30
0.0
 11
-66.54951477050781
 21
-46.49800872802734
 31
0.0
1001
DBPROPERTIES
1002
{
1000
PbThick
1002
}
  0
LINE
  5
103
330
1F
100
AcDbEntity
  8
THICK
100
AcDbLine
 10
-66.54951477050781
 20
-46.49800872802734
 30
0.0
 11
-66.40613555908203
 21
-46.4591178894043
 31
0.0
1001
DBPROPERTIES
1002
{
1000
PbThick
1002
}
  0
LINE
  5
104
330
1F
100
AcDbEntity
  8
THICK
100
AcDbLine
 10
-66.40613555908203
 20
-46.4591178894043
 30
0.0
 11
-66.25
 21
-46.42060089111328
 31
0.0
1001
DBPROPERTIES
1002
{
1000
PbThick
1002
}
  0
LINE
  5
105
330
1F
100
AcDbEntity
  8
HIDDEN
100
AcDbLine
 10
-66.25
 20
-46.42060089111328
 30
0.0
 11
-66.02332305908203
 21
-46.3702278137207
 31
0.0
1001
DBPROPERTIES
1002
{
1000
PbHidd
1002
}
  0
LINE
  5
106
330
1F
100
AcDbEntity
  8
HIDDEN
100
AcDbLine
 10
-66.02332305908203
 20
-46.3702278137207
 30
0.0
 11
-65.77680969238281
 21
-46.32133865356445
 31
0.0
1001
DBPROPERTIES
1002
{
1000
PbHidd
1002
}
  0
LINE
  5
107
330
1F
100
AcDbEntity
  8
HIDDEN
100
AcDbLine
 10
-65.77680969238281
 20
-46.32133865356445
 30
0.0
 11
-65.5127944946289
 21
-46.27433395385742
 31
0.0
1001
DBPROPERTIES
1002
{
1000
PbHidd
1002
}
  0
LINE
  5
108
330
1F
100
AcDbEntity
  8
HIDDEN
100
AcDbLine
 10
-65.5127944946289
 20
-46.27433395385742
 30
0.0
 11
-65.2339096069336
 21
-46.22963333129883
 31
0.0
1001
DBPROPERTIES
1002
{
1000
PbHidd
1002
}
  0
LINE
  5
109
330
1F
100
AcDbEntity
  8
HIDDEN
100
AcDbLine
 10
-65.2339096069336
 20
-46.22963333129883
 30
0.0
 11
-64.94309997558594
 21
-46.18761444091797
 31
0.0
1001
DBPROPERTIES
1002
{
1000
PbHidd
1002
}
  0
LINE
  5
10A
330
1F
100
AcDbEntity
  8
HIDDEN
100
AcDbLine
 10
-64.94309997558594
 20
-46.18761444091797
 30
0.0
 11
-64.64388275146484
 21
-46.14857482910156
 31
0.0
1001
DBPROPERTIES
1002
{
1000
PbHidd
1002
}
  0
LINE
  5
10B
330
1F
100
AcDbEntity
  8
HIDDEN
100
AcDbLine
 10
-64.64388275146484
 20
-46.14857482910156
 30
0.0
 11
-64.33738708496094
 21
-46.11252212524414
 31
0.0
1001
DBPROPERTIES
1002
{
1000
PbHidd
1002
}
  0
LINE
  5
10C
330
1F
100
AcDbEntity
  8
HIDDEN
100
AcDbLine
 10
-64.33738708496094
 20
-46.11252212524414
 30
0.0
 11
-64.01520538330078
 21
-46.0785026550293
 31
0.0
1001
DBPROPERTIES
1002
{
1000
PbHidd
1002
}
  0
LINE
  5
10D
330
1F
100
AcDbEntity
  8
HIDDEN
100
AcDbLine
 10
-64.01520538330078
 20
-46.0785026550293
 30
0.0
 11
-63.67868041992188
 21
-46.04683685302734
 31
0.0
1001
DBPROPERTIES
1002
{
1000
PbHidd
1002
}
  0
LINE
  5
10E
330
1F
100
AcDbEntity
  8
HIDDEN
100
AcDbLine
 10
-63.67868041992188
 20
-46.04683685302734
 30
0.0
 11
-63.3306999206543
 21
-46.01801300048828
 31
0.0
1001
DBPROPERTIES
1002
{
1000
PbHidd
1002
}
  0
LINE
  5
10F
330
1F
100
AcDbEntity
  8
HIDDEN
100
AcDbLine
 10
-63.3306999206543
 20
-46.01801300048828
 30
0.0
 11
-62.97444152832031
 21
-45.99238586425781
 31
0.0
1001
DBPROPERTIES
1002
{
1000
PbHidd
1002
}
  0
LINE
  5
110
330
1F
100
AcDbEntity
  8
HIDDEN
100
AcDbLine
 10
-62.97444152832031
 20
-45.99238586425781
 30
0.0
 11
-62.61318969726562
 21
-45.97026824951172
 31
0.0
1001
DBPROPERTIES
1002
{
1000
PbHidd
1002
}
  0
LINE
  5
111
330
1F
100
AcDbEntity
  8
HIDDEN
100
AcDbLine
 10
-62.61318969726562
 20
-45.97026824951172
 30
0.0
 11
-62.25
 21
-45.95189666748047
 31
0.0
1001
DBPROPERTIES
1002
{
1000
PbHidd
1002
}
  0
LINE
  5
112
330
1F
100
AcDbEntity
  8
HIDDEN
100
AcDbLine
 10
-62.25
 20
-45.95189666748047
 30
0.0
 11
-61.98371887207031
 21
-45.94084930419922
 31
0.0
1001
DBPROPERTIES
1002
{
1000
PbHidd
1002
}
  0
LINE
  5
113
330
1F
100
AcDbEntity
  8
HIDDEN
100
AcDbLine
 10
-61.98371887207031
 20
-45.94084930419922
 30
0.0
 11
-61.71951293945312
 21
-45.93193435668945
 31
0.0
1001
DBPROPERTIES
1002
{
1000
PbHidd
1002
}
  0
LINE
  5
114
330
1F
100
AcDbEntity
  8
HIDDEN
100
AcDbLine
 10
-61.71951293945312
 20
-45.93193435668945
 30
0.0
 11
-61.4587287902832
 21
-45.9251708984375
 31
0.0
1001
DBPROPERTIES
1002
{
1000
PbHidd
1002
}
  0
LINE
  5
115
330
1F
100
AcDbEntity
  8
HIDDEN
100
AcDbLine
 10
-61.4587287902832
 20
-45.9251708984375
 30
0.0
 11
-61.20268249511719
 21
-45.92053604125977
 31
0.0
1001
DBPROPERTIES
1002
{
1000
PbHidd
1002
}
  0
LINE
  5
116
330
1F
100
AcDbEntity
  8
HIDDEN
100
AcDbLine
 10
-61.20268249511719
 20
-45.92053604125977
 30
0.0
 11
-60.95265579223633
 21
-45.91796493530273
 31
0.0
1001
DBPROPERTIES
1002
{
1000
PbHidd
1002
}
  0
LINE
  5
117
330
1F
100
AcDbEntity
  8
HIDDEN
100
AcDbLine
 10
-60.95265579223633
 20
-45.91796493530273
 30
0.0
 11
-60.7097282409668
 21
-45.91740798950195
 31
0.0
1001
DBPROPERTIES
1002
{
1000
PbHidd
1002
}
  0
LINE
  5
118
330
1F
100
AcDbEntity
  8
HIDDEN
100
AcDbLine
 10
-60.7097282409668
 20
-45.91740798950195
 30
0.0
 11
-60.46923828125
 21
-45.91883850097656
 31
0.0
1001
DBPROPERTIES
1002
{
1000
PbHidd
1002
}
  0
LINE
  5
119
330
1F
100
AcDbEntity
  8
HIDDEN
100
AcDbLine
 10
-60.46923828125
 20
-45.91883850097656
 30
0.0
 11
-60.22994232177734
 21
-45.92230606079102
 31
0.0
1001
DBPROPERTIES
1002
{
1000
PbHidd
1002
}
  0
LINE
  5
11A
330
1F
100
AcDbEntity
  8
HIDDEN
100
AcDbLine
 10
-60.22994232177734
 20
-45.92230606079102
 30
0.0
 11
-59.99335479736328
 21
-45.9278678894043
 31
0.0
1001
DBPROPERTIES
1002
{
1000
PbHidd
1002
}
  0
LINE
  5
11B
330
1F
100
AcDbEntity
  8
HIDDEN
100
AcDbLine
 10
-59.99335479736328
 20
-45.9278678894043
 30
0.0
 11
-59.76097869873047
 21
-45.93556976318359
 31
0.0
1001
DBPROPERTIES
1002
{
1000
PbHidd
1002
}
  0
LINE
  5
11C
330
1F
100
AcDbEntity
  8
HIDDEN
100
AcDbLine
 10
-59.76097869873047
 20
-45.93556976318359
 30
0.0
 11
-59.53416442871094
 21
-45.94542694091797
 31
0.0
1001
DBPROPERTIES
1002
{
1000
PbHidd
1002
}
  0
LINE
  5
11D
330
1F
100
AcDbEntity
  8
HIDDEN
100
AcDbLine
 10
-59.53416442871094
 20
-45.94542694091797
 30
0.0
 11
-59.31412124633789
 21
-45.95738983154297
 31
0.0
1001
DBPROPERTIES
1002
{
1000
PbHidd
1002
}
  0
LINE
  5
11E
330
1F
100
AcDbEntity
  8
HIDDEN
100
AcDbLine
 10
-59.31412124633789
 20
-45.95738983154297
 30
0.0
 11
-59.10205841064453
 21
-45.97142028808594
 31
0.0
1001
DBPROPERTIES
1002
{
1000
PbHidd
1002
}
  0
LINE
  5
11F
330
1F
100
AcDbEntity
  8
HIDDEN
100
AcDbLine
 10
-59.10205841064453
 20
-45.97142028808594
 30
0.0
 11
-58.89908599853516
 21
-45.98747634887695
 31
0.0
1001
DBPROPERTIES
1002
{
1000
PbHidd
1002
}
  0
LINE
  5
120
330
1F
100
AcDbEntity
  8
HIDDEN
100
AcDbLine
 10
-58.89908599853516
 20
-45.98747634887695
 30
0.0
 11
-58.70601654052734
 21
-46.00546264648438
 31
0.0
1001
DBPROPERTIES
1002
{
1000
PbHidd
1002
}
  0
LINE
  5
121
330
1F
100
AcDbEntity
  8
HIDDEN
100
AcDbLine
 10
-58.70601654052734
 20
-46.00546264648438
 30
0.0
 11
-58.5236930847168
 21
-46.02525329589844
 31
0.0
1001
DBPROPERTIES
1002
{
1000
PbHidd
1002
}
  0
LINE
  5
122
330
1F
100
AcDbEntity
  8
HIDDEN
100
AcDbLine
 10
-58.5236930847168
 20
-46.02525329589844
 30
0.0
 11
-58.35295104980469
 21
-46.04673004150391
 31
0.0
1001
DBPROPERTIES
1002
{
1000
PbHidd
1002
}
  0
LINE
  5
123
330
1F
100
AcDbEntity
  8
HIDDEN
100
AcDbLine
 10
-58.35295104980469
 20
-46.04673004150391
 30
0.0
 11
-58.19449996948242
 21
-46.06974411010742
 31
0.0
1001
DBPROPERTIES
1002
{
1000
PbHidd
1002
}
  0
LINE
  5
124
330
1F
100
AcDbEntity
  8
HIDDEN
100
AcDbLine
 10
-58.19449996948242
 20
-46.06974411010742
 30
0.0
 11
-58.04873275756836
 21
-46.09410858154297
 31
0.0
1001
DBPROPERTIES
1002
{
1000
PbHidd
1002
}
  0
LINE
  5
125
330
1F
100
AcDbEntity
  8
HIDDEN
100
AcDbLine
 10
-58.04873275756836
 20
-46.09410858154297
 30
0.0
 11
-57.91599273681641
 21
-46.11961364746094
 31
0.0
1001
DBPROPERTIES
1002
{
1000
PbHidd
1002
}
  0
LINE
  5
126
330
1F
100
AcDbEntity
  8
HIDDEN
100
AcDbLine
 10
-57.91599273681641
 20
-46.11961364746094
 30
0.0
 11
-57.79605865478516
 21
-46.14619445800781
 31
0.0
1001
DBPROPERTIES
1002
{
1000
PbHidd
1002
}
  0
LINE
  5
127
330
1F
100
AcDbEntity
  8
HIDDEN
100
AcDbLine
 10
-57.79605865478516
 20
-46.14619445800781
 30
0.0
 11
-57.68623733520508
 21
-46.1744384765625
 31
0.0
1001
DBPROPERTIES
1002
{
1000
PbHidd
1002
}
  0
LINE
  5
128
330
1F
100
AcDbEntity
  8
HIDDEN
100
AcDbLine
 10
-57.68623733520508
 20
-46.1744384765625
 30
0.0
 11
-57.58696365356445
 21
-46.20434188842773
 31
0.0
1001
DBPROPERTIES
1002
{
1000
PbHidd
1002
}
  0
LINE
  5
129
330
1F
100
AcDbEntity
  8
HIDDEN
100
AcDbLine
 10
-57.58696365356445
 20
-46.20434188842773
 30
0.0
 11
-57.49921798706055
 21
-46.23579025268555
 31
0.0
1001
DBPROPERTIES
1002
{
1000
PbHidd
1002
}
  0
LINE
  5
12A
330
1F
100
AcDbEntity
  8
HIDDEN
100
AcDbLine
 10
-57.49921798706055
 20
-46.23579025268555
 30
0.0
 11
-57.42393493652344
 21
-46.2686653137207
 31
0.0
1001
DBPROPERTIES
1002
{
1000
PbHidd
1002
}
  0
LINE
  5
12B
330
1F
100
AcDbEntity
  8
HIDDEN
100
AcDbLine
 10
-57.42393493652344
 20
-46.2686653137207
 30
0.0
 11
-57.3616828918457
 21
-46.30281066894531
 31
0.0
1001
DBPROPERTIES
1002
{
1000
PbHidd
1002
}
  0
LINE
  5
12C
330
1F
100
AcDbEntity
  8
HIDDEN
100
AcDbLine
 10
-57.3616828918457
 20
-46.30281066894531
 30
0.0
 11
-57.3128547668457
 21
-46.33806610107422
 31
0.0
1001
DBPROPERTIES
1002
{
1000
PbHidd
1002
}
  0
LINE
  5
12D
330
1F
100
AcDbEntity
  8
HIDDEN
100
AcDbLine
 10
-57.3128547668457
 20
-46.33806610107422
 30
0.0
 11
-57.27785110473633
 21
-46.37425994873047
 31
0.0
1001
DBPROPERTIES
1002
{
1000
PbHidd
1002
}
  0
LINE
  5
12E
330
1F
100
AcDbEntity
  8
HIDDEN
100
AcDbLine
 10
-57.27785110473633
 20
-46.37425994873047
 30
0.0
 11
-57.25695419311523
 21
-46.41123962402344
 31
0.0
1001
DBPROPERTIES
1002
{
1000
PbHidd
1002
}
  0
LINE
  5
12F
330
1F
100
AcDbEntity
  8
HIDDEN
100
AcDbLine
 10
-57.25695419311523
 20
-46.41123962402344
 30
0.0
 11
-57.25007629394531
 21
-46.44882583618164
 31
0.0
1001
DBPROPERTIES
1002
{
1000
PbHidd
1002
}
  0
LINE
  5
130
330
1F
100
AcDbEntity
  8
THICK
100
AcDbLine
 10
-57.25007629394531
 20
-46.44882583618164
 30
0.0
 11
-57.25669479370117
 21
-46.48576354980469
 31
0.0
1001
DBPROPERTIES
1002
{
1000
PbThick
1002
}
  0
LINE
  5
131
330
1F
100
AcDbEntity
  8
THICK
100
AcDbLine
 10
-57.25669479370117
 20
-46.48576354980469
 30
0.0
 11
-57.27628326416016
 21
-46.52291107177734
 31
0.0
1001
DBPROPERTIES
1002
{
1000
PbThick
1002
}
  0
LINE
  5
132
330
1F
100
AcDbEntity
  8
THICK
100
AcDbLine
 10
-57.27628326416016
 20
-46.52291107177734
 30
0.0
 11
-57.30852890014648
 21
-46.56008148193359
 31
0.0
1001
DBPROPERTIES
1002
{
1000
PbThick
1002
}
  0
LINE
  5
133
330
1F
100
AcDbEntity
  8
THICK
100
AcDbLine
 10
-57.30852890014648
 20
-46.56008148193359
 30
0.0
 11
-57.35276794433594
 21
-46.59708404541016
 31
0.0
1001
DBPROPERTIES
1002
{
1000
PbThick
1002
}
  0
LINE
  5
134
330
1F
100
AcDbEntity
  8
THICK
100
AcDbLine
 10
-57.35276794433594
 20
-46.59708404541016
 30
0.0
 11
-57.4083137512207
 21
-46.63372039794922
 31
0.0
1001
DBPROPERTIES
1002
{
1000
PbThick
1002
}
  0
LINE
  5
135
330
1F
100
AcDbEntity
  8
THICK
100
AcDbLine
 10
-57.4083137512207
 20
-46.63372039794922
 30
0.0
 11
-57.4747428894043
 21
-46.66994476318359
 31
0.0
1001
DBPROPERTIES
1002
{
1000
PbThick
1002
}
  0
LINE
  5
136
330
1F
100
AcDbEntity
  8
THICK
100
AcDbLine
 10
-57.4747428894043
 20
-46.66994476318359
 30
0.0
 11
-57.5534553527832
 21
-46.70652008056641
 31
0.0
1001
DBPROPERTIES
1002
{
1000
PbThick
1002
}
  0
LINE
  5
137
330
1F
100
AcDbEntity
  8
THICK
100
AcDbLine
 10
-57.5534553527832
 20
-46.70652008056641
 30
0.0
 11
-57.64473342895508
 21
-46.74345016479492
 31
0.0
1001
DBPROPERTIES
1002
{
1000
PbThick
1002
}
  0
LINE
  5
138
330
1F
100
AcDbEntity
  8
THICK
100
AcDbLine
 10
-57.64473342895508
 20
-46.74345016479492
 30
0.0
 11
-57.7485466003418
 21
-46.78054809570312
 31
0.0
1001
DBPROPERTIES
1002
{
1000
PbThick
1002
}
  0
LINE
  5
139
330
1F
100
AcDbEntity
  8
THICK
100
AcDbLine
 10
-57.7485466003418
 20
-46.78054809570312
 30
0.0
 11
-57.86484527587891
 21
-46.817626953125
 31
0.0
1001
DBPROPERTIES
1002
{
1000
PbThick
1002
}
  0
LINE
  5
13A
330
1F
100
AcDbEntity
  8
THICK
100
AcDbLine
 10
-57.86484527587891
 20
-46.817626953125
 30
0.0
 11
-57.99334716796875
 21
-46.85451507568359
 31
0.0
1001
DBPROPERTIES
1002
{
1000
PbThick
1002
}
  0
LINE
  5
13B
330
1F
100
AcDbEntity
  8
THICK
100
AcDbLine
 10
-57.99334716796875
 20
-46.85451507568359
 30
0.0
 11
-58.133544921875
 21
-46.89103698730469
 31
0.0
1001
DBPROPERTIES
1002
{
1000
PbThick
1002
}
  0
LINE
  5
13C
330
1F
100
AcDbEntity
  8
THICK
100
AcDbLine
 10
-58.133544921875
 20
-46.89103698730469
 30
0.0
 11
-58.28492736816406
 21
-46.92703247070312
 31
0.0
1001
DBPROPERTIES
1002
{
1000
PbThick
1002
}
  0
LINE
  5
13D
330
1F
100
AcDbEntity
  8
THICK
100
AcDbLine
 10
-58.28492736816406
 20
-46.92703247070312
 30
0.0
 11
-58.44699096679688
 21
-46.96233367919922
 31
0.0
1001
DBPROPERTIES
1002
{
1000
PbThick
1002
}
  0
LINE
  5
13E
330
1F
100
AcDbEntity
  8
THICK
100
AcDbLine
 10
-58.44699096679688
 20
-46.96233367919922
 30
0.0
 11
-58.61911010742188
 21
-46.9968147277832
 31
0.0
1001
DBPROPERTIES
1002
{
1000
PbThick
1002
}
  0
LINE
  5
13F
330
1F
100
AcDbEntity
  8
THICK
100
AcDbLine
 10
-58.61911010742188
 20
-46.9968147277832
 30
0.0
 11
-58.80040740966797
 21
-47.03033065795898
 31
0.0
1001
DBPROPERTIES
1002
{
1000
PbThick
1002
}
  0
LINE
  5
140
330
1F
100
AcDbEntity
  8
THICK
100
AcDbLine
 10
-58.80040740966797
 20
-47.03033065795898
 30
0.0
 11
-58.989990234375
 21
-47.062744140625
 31
0.0
1001
DBPROPERTIES
1002
{
1000
PbThick
1002
}
  0
LINE
  5
141
330
1F
100
AcDbEntity
  8
THICK
100
AcDbLine
 10
-58.989990234375
 20
-47.062744140625
 30
0.0
 11
-59.18695068359375
 21
-47.09391784667969
 31
0.0
1001
DBPROPERTIES
1002
{
1000
PbThick
1002
}
  0
LINE
  5
142
330
1F
100
AcDbEntity
  8
THICK
100
AcDbLine
 10
-59.18695068359375
 20
-47.09391784667969
 30
0.0
 11
-59.39020156860352
 21
-47.12373352050781
 31
0.0
1001
DBPROPERTIES
1002
{
1000
PbThick
1002
}
  0
LINE
  5
143
330
1F
100
AcDbEntity
  8
THICK
100
AcDbLine
 10
-59.39020156860352
 20
-47.12373352050781
 30
0.0
 11
-59.59849166870117
 21
-47.152099609375
 31
0.0
1001
DBPROPERTIES
1002
{
1000
PbThick
1002
}
  0
LINE
  5
144
330
1F
100
AcDbEntity
  8
THICK
100
AcDbLine
 10
-59.59849166870117
 20
-47.152099609375
 30
0.0
 11
-59.81059265136719
 21
-47.17891693115234
 31
0.0
1001
DBPROPERTIES
1002
{
1000
PbThick
1002
}
  0
LINE
  5
145
330
1F
100
AcDbEntity
  8
THICK
100
AcDbLine
 10
-59.81059265136719
 20
-47.17891693115234
 30
0.0
 11
-60.02709197998047
 21
-47.20429992675781
 31
0.0
1001
DBPROPERTIES
1002
{
1000
PbThick
1002
}
  0
LINE
  5
146
330
1F
100
AcDbEntity
  8
THICK
100
AcDbLine
 10
-60.02709197998047
 20
-47.20429992675781
 30
0.0
 11
-60.25213623046875
 21
-47.22872543334961
 31
0.0
1001
DBPROPERTIES
1002
{
1000
PbThick
1002
}
  0
LINE
  5
147
330
1F
100
AcDbEntity
  8
THICK
100
AcDbLine
 10
-60.25213623046875
 20
-47.22872543334961
 30
0.0
 11
-60.48506546020508
 21
-47.25207138061523
 31
0.0
1001
DBPROPERTIES
1002
{
1000
PbThick
1002
}
  0
LINE
  5
148
330
1F
100
AcDbEntity
  8
THICK
100
AcDbLine
 10
-60.48506546020508
 20
-47.25207138061523
 30
0.0
 11
-60.72492218017578
 21
-47.27416610717773
 31
0.0
1001
DBPROPERTIES
1002
{
1000
PbThick
1002
}
  0
LINE
  5
149
330
1F
100
AcDbEntity
  8
THICK
100
AcDbLine
 10
-60.72492218017578
 20
-47.27416610717773
 30
0.0
 11
-60.9707145690918
 21
-47.29484939575195
 31
0.0
1001
DBPROPERTIES
1002
{
1000
PbThick
1002
}
  0
LINE
  5
14A
330
1F
100
AcDbEntity
  8
THICK
100
AcDbLine
 10
-60.9707145690918
 20
-47.29484939575195
 30
0.0
 11
-61.22135543823242
 21
-47.31400680541992
 31
0.0
1001
DBPROPERTIES
1002
{
1000
PbThick
1002
}
  0
LINE
  5
14B
330
1F
100
AcDbEntity
  8
THICK
100
AcDbLine
 10
-61.22135543823242
 20
-47.31400680541992
 30
0.0
 11
-61.4757080078125
 21
-47.33153533935547
 31
0.0
1001
DBPROPERTIES
1002
{
1000
PbThick
1002
}
  0
LINE
  5
14C
330
1F
100
AcDbEntity
  8
THICK
100
AcDbLine
 10
-61.4757080078125
 20
-47.33153533935547
 30
0.0
 11
-61.73263931274414
 21
-47.34734344482422
 31
0.0
1001
DBPROPERTIES
1002
{
1000
PbThick
1002
}
  0
LINE
  5
14D
330
1F
100
AcDbEntity
  8
THICK
100
AcDbLine
 10
-61.73263931274414
 20
-47.34734344482422
 30
0.0
 11
-61.99108123779297
 21
-47.3613395690918
 31
0.0
1001
DBPROPERTIES
1002
{
1000
PbThick
1002
}
  0
LINE
  5
14E
330
1F
100
AcDbEntity
  8
THICK
100
AcDbLine
 10
-61.99108123779297
 20
-47.3613395690918
 30
0.0
 11
-62.25
 21
-47.37348175048828
 31
0.0
1001
DBPROPERTIES
1002
{
1000
PbThick
1002
}
  0
LINE
  5
14F
330
1F
100
AcDbEntity
  8
THICK
100
AcDbLine
 10
-216.2
 20
-72.525
 30
0.0
 11
-0.0000000000000436
 21
-72.525
 31
0.0
1001
DBPROPERTIES
1002
{
1000
PbThick
1002
}
  0
LINE
  5
150
330
1F
100
AcDbEntity
  8
THICK
100
AcDbLine
 10
-192.7
 20
-63.125
 30
0.0
 11
-66.24999997187764
 21
-63.125
 31
0.0
1001
DBPROPERTIES
1002
{
1000
PbThick
1002
}
  0
LINE
  5
151
330
1F
100
AcDbEntity
  8
HIDDEN
100
AcDbLine
 10
-66.24999997187764
 20
-63.125
 30
0.0
 11
-58.24999996197241
 21
-63.125
 31
0.0
1001
DBPROPERTIES
1002
{
1000
PbHidd
1002
}
  0
LINE
  5
152
330
1F
100
AcDbEntity
  8
THICK
100
AcDbLine
 10
-58.24999996197241
 20
-63.125
 30
0.0
 11
-0.0000000000000393
 21
-63.125
 31
0.0
1001
DBPROPERTIES
1002
{
1000
PbThick
1002
}
  0
LINE
  5
153
330
1F
100
AcDbEntity
  8
THICK
100
AcDbLine
 10
-62.25000381469727
 20
-71.646484375
 30
0.0
 11
-62.54967880249023
 21
-71.67800903320312
 31
0.0
1001
DBPROPERTIES
1002
{
1000
PbThick
1002
}
  0
LINE
  5
154
330
1F
100
AcDbEntity
  8
THICK
100
AcDbLine
 10
-62.54967880249023
 20
-71.67800903320312
 30
0.0
 11
-62.84706878662109
 21
-71.7026138305664
 31
0.0
1001
DBPROPERTIES
1002
{
1000
PbThick
1002
}
  0
LINE
  5
155
330
1F
100
AcDbEntity
  8
THICK
100
AcDbLine
 10
-62.84706878662109
 20
-71.7026138305664
 30
0.0
 11
-63.14030075073242
 21
-71.72021484375
 31
0.0
1001
DBPROPERTIES
1002
{
1000
PbThick
1002
}
  0
LINE
  5
156
330
1F
100
AcDbEntity
  8
THICK
100
AcDbLine
 10
-63.14030075073242
 20
-71.72021484375
 30
0.0
 11
-63.42754364013672
 21
-71.73094940185547
 31
0.0
1001
DBPROPERTIES
1002
{
1000
PbThick
1002
}
  0
LINE
  5
157
330
1F
100
AcDbEntity
  8
THICK
100
AcDbLine
 10
-63.42754364013672
 20
-71.73094940185547
 30
0.0
 11
-63.70696640014648
 21
-71.7349853515625
 31
0.0
1001
DBPROPERTIES
1002
{
1000
PbThick
1002
}
  0
LINE
  5
158
330
1F
100
AcDbEntity
  8
THICK
100
AcDbLine
 10
-63.70696640014648
 20
-71.7349853515625
 30
0.0
 11
-63.98056030273438
 21
-71.73242950439453
 31
0.0
1001
DBPROPERTIES
1002
{
1000
PbThick
1002
}
  0
LINE
  5
159
330
1F
100
AcDbEntity
  8
THICK
100
AcDbLine
 10
-63.98056030273438
 20
-71.73242950439453
 30
0.0
 11
-64.25215911865234
 21
-71.72320556640625
 31
0.0
1001
DBPROPERTIES
1002
{
1000
PbThick
1002
}
  0
LINE
  5
15A
330
1F
100
AcDbEntity
  8
THICK
100
AcDbLine
 10
-64.25215911865234
 20
-71.72320556640625
 30
0.0
 11
-64.51976776123047
 21
-71.70714569091797
 31
0.0
1001
DBPROPERTIES
1002
{
1000
PbThick
1002
}
  0
LINE
  5
15B
330
1F
100
AcDbEntity
  8
THICK
100
AcDbLine
 10
-64.51976776123047
 20
-71.70714569091797
 30
0.0
 11
-64.78131866455078
 21
-71.68412017822266
 31
0.0
1001
DBPROPERTIES
1002
{
1000
PbThick
1002
}
  0
LINE
  5
15C
330
1F
100
AcDbEntity
  8
THICK
100
AcDbLine
 10
-64.78131866455078
 20
-71.68412017822266
 30
0.0
 11
-65.03500366210938
 21
-71.65412139892578
 31
0.0
1001
DBPROPERTIES
1002
{
1000
PbThick
1002
}
  0
LINE
  5
15D
330
1F
100
AcDbEntity
  8
THICK
100
AcDbLine
 10
-65.03500366210938
 20
-71.65412139892578
 30
0.0
 11
-65.27919006347656
 21
-71.61734771728516
 31
0.0
1001
DBPROPERTIES
1002
{
1000
PbThick
1002
}
  0
LINE
  5
15E
330
1F
100
AcDbEntity
  8
THICK
100
AcDbLine
 10
-65.27919006347656
 20
-71.61734771728516
 30
0.0
 11
-65.51229858398438
 21
-71.573974609375
 31
0.0
1001
DBPROPERTIES
1002
{
1000
PbThick
1002
}
  0
LINE
  5
15F
330
1F
100
AcDbEntity
  8
THICK
100
AcDbLine
 10
-65.51229858398438
 20
-71.573974609375
 30
0.0
 11
-65.73298645019531
 21
-71.52421569824219
 31
0.0
1001
DBPROPERTIES
1002
{
1000
PbThick
1002
}
  0
LINE
  5
160
330
1F
100
AcDbEntity
  8
THICK
100
AcDbLine
 10
-65.73298645019531
 20
-71.52421569824219
 30
0.0
 11
-65.94025421142578
 21
-71.4684829711914
 31
0.0
1001
DBPROPERTIES
1002
{
1000
PbThick
1002
}
  0
LINE
  5
161
330
1F
100
AcDbEntity
  8
THICK
100
AcDbLine
 10
-65.94025421142578
 20
-71.4684829711914
 30
0.0
 11
-66.13304901123047
 21
-71.40723419189453
 31
0.0
1001
DBPROPERTIES
1002
{
1000
PbThick
1002
}
  0
LINE
  5
162
330
1F
100
AcDbEntity
  8
THICK
100
AcDbLine
 10
-66.13304901123047
 20
-71.40723419189453
 30
0.0
 11
-66.31038665771484
 21
-71.3409652709961
 31
0.0
1001
DBPROPERTIES
1002
{
1000
PbThick
1002
}
  0
LINE
  5
163
330
1F
100
AcDbEntity
  8
THICK
100
AcDbLine
 10
-66.31038665771484
 20
-71.3409652709961
 30
0.0
 11
-66.4716796875
 21
-71.27029418945312
 31
0.0
1001
DBPROPERTIES
1002
{
1000
PbThick
1002
}
  0
LINE
  5
164
330
1F
100
AcDbEntity
  8
THICK
100
AcDbLine
 10
-66.4716796875
 20
-71.27029418945312
 30
0.0
 11
-66.61662292480469
 21
-71.19596862792969
 31
0.0
1001
DBPROPERTIES
1002
{
1000
PbThick
1002
}
  0
LINE
  5
165
330
1F
100
AcDbEntity
  8
THICK
100
AcDbLine
 10
-66.61662292480469
 20
-71.19596862792969
 30
0.0
 11
-66.7451400756836
 21
-71.11856079101562
 31
0.0
1001
DBPROPERTIES
1002
{
1000
PbThick
1002
}
  0
LINE
  5
166
330
1F
100
AcDbEntity
  8
THICK
100
AcDbLine
 10
-66.7451400756836
 20
-71.11856079101562
 30
0.0
 11
-66.86022186279297
 21
-71.0364990234375
 31
0.0
1001
DBPROPERTIES
1002
{
1000
PbThick
1002
}
  0
LINE
  5
167
330
1F
100
AcDbEntity
  8
THICK
100
AcDbLine
 10
-66.86022186279297
 20
-71.0364990234375
 30
0.0
 11
-66.96199035644531
 21
-70.94949340820312
 31
0.0
1001
DBPROPERTIES
1002
{
1000
PbThick
1002
}
  0
LINE
  5
168
330
1F
100
AcDbEntity
  8
THICK
100
AcDbLine
 10
-66.96199035644531
 20
-70.94949340820312
 30
0.0
 11
-67.04944610595703
 21
-70.8579330444336
 31
0.0
1001
DBPROPERTIES
1002
{
1000
PbThick
1002
}
  0
LINE
  5
169
330
1F
100
AcDbEntity
  8
THICK
100
AcDbLine
 10
-67.04944610595703
 20
-70.8579330444336
 30
0.0
 11
-67.12164306640625
 21
-70.76219940185547
 31
0.0
1001
DBPROPERTIES
1002
{
1000
PbThick
1002
}
  0
LINE
  5
16A
330
1F
100
AcDbEntity
  8
THICK
100
AcDbLine
 10
-67.12164306640625
 20
-70.76219940185547
 30
0.0
 11
-67.17807006835938
 21
-70.66279602050781
 31
0.0
1001
DBPROPERTIES
1002
{
1000
PbThick
1002
}
  0
LINE
  5
16B
330
1F
100
AcDbEntity
  8
THICK
100
AcDbLine
 10
-67.17807006835938
 20
-70.66279602050781
 30
0.0
 11
-67.21843719482422
 21
-70.56024169921875
 31
0.0
1001
DBPROPERTIES
1002
{
1000
PbThick
1002
}
  0
LINE
  5
16C
330
1F
100
AcDbEntity
  8
THICK
100
AcDbLine
 10
-67.21843719482422
 20
-70.56024169921875
 30
0.0
 11
-67.24241638183594
 21
-70.45506286621094
 31
0.0
1001
DBPROPERTIES
1002
{
1000
PbThick
1002
}
  0
LINE
  5
16D
330
1F
100
AcDbEntity
  8
THICK
100
AcDbLine
 10
-67.24241638183594
 20
-70.45506286621094
 30
0.0
 11
-67.24992370605469
 21
-70.34774017333984
 31
0.0
1001
DBPROPERTIES
1002
{
1000
PbThick
1002
}
  0
LINE
  5
16E
330
1F
100
AcDbEntity
  8
THICK
100
AcDbLine
 10
-67.24992370605469
 20
-70.34774017333984
 30
0.0
 11
-67.24170684814453
 21
-70.2419662475586
 31
0.0
1001
DBPROPERTIES
1002
{
1000
PbThick
1002
}
  0
LINE
  5
16F
330
1F
100
AcDbEntity
  8
THICK
100
AcDbLine
 10
-67.24170684814453
 20
-70.2419662475586
 30
0.0
 11
-67.21849060058594
 21
-70.1352767944336
 31
0.0
1001
DBPROPERTIES
1002
{
1000
PbThick
1002
}
  0
LINE
  5
170
330
1F
100
AcDbEntity
  8
THICK
100
AcDbLine
 10
-67.21849060058594
 20
-70.1352767944336
 30
0.0
 11
-67.18061065673828
 21
-70.02825927734375
 31
0.0
1001
DBPROPERTIES
1002
{
1000
PbThick
1002
}
  0
LINE
  5
171
330
1F
100
AcDbEntity
  8
THICK
100
AcDbLine
 10
-67.18061065673828
 20
-70.02825927734375
 30
0.0
 11
-67.12872314453125
 21
-69.9214859008789
 31
0.0
1001
DBPROPERTIES
1002
{
1000
PbThick
1002
}
  0
LINE
  5
172
330
1F
100
AcDbEntity
  8
THICK
100
AcDbLine
 10
-67.12872314453125
 20
-69.9214859008789
 30
0.0
 11
-67.06376647949219
 21
-69.81556701660156
 31
0.0
1001
DBPROPERTIES
1002
{
1000
PbThick
1002
}
  0
LINE
  5
173
330
1F
100
AcDbEntity
  8
THICK
100
AcDbLine
 10
-67.06376647949219
 20
-69.81556701660156
 30
0.0
 11
-66.98665618896484
 21
-69.71112060546875
 31
0.0
1001
DBPROPERTIES
1002
{
1000
PbThick
1002
}
  0
LINE
  5
174
330
1F
100
AcDbEntity
  8
THICK
100
AcDbLine
 10
-66.98665618896484
 20
-69.71112060546875
 30
0.0
 11
-66.89844512939453
 21
-69.6087646484375
 31
0.0
1001
DBPROPERTIES
1002
{
1000
PbThick
1002
}
  0
LINE
  5
175
330
1F
100
AcDbEntity
  8
THICK
100
AcDbLine
 10
-66.89844512939453
 20
-69.6087646484375
 30
0.0
 11
-66.79627227783203
 21
-69.50495147705078
 31
0.0
1001
DBPROPERTIES
1002
{
1000
PbThick
1002
}
  0
LINE
  5
176
330
1F
100
AcDbEntity
  8
THICK
100
AcDbLine
 10
-66.79627227783203
 20
-69.50495147705078
 30
0.0
 11
-66.68018341064453
 21
-69.40027618408203
 31
0.0
1001
DBPROPERTIES
1002
{
1000
PbThick
1002
}
  0
LINE
  5
177
330
1F
100
AcDbEntity
  8
THICK
100
AcDbLine
 10
-66.68018341064453
 20
-69.40027618408203
 30
0.0
 11
-66.55022430419922
 21
-69.29531860351562
 31
0.0
1001
DBPROPERTIES
1002
{
1000
PbThick
1002
}
  0
LINE
  5
178
330
1F
100
AcDbEntity
  8
THICK
100
AcDbLine
 10
-66.55022430419922
 20
-69.29531860351562
 30
0.0
 11
-66.40664672851562
 21
-69.19065856933594
 31
0.0
1001
DBPROPERTIES
1002
{
1000
PbThick
1002
}
  0
LINE
  5
179
330
1F
100
AcDbEntity
  8
THICK
100
AcDbLine
 10
-66.40664672851562
 20
-69.19065856933594
 30
0.0
 11
-66.25
 21
-69.08683776855469
 31
0.0
1001
DBPROPERTIES
1002
{
1000
PbThick
1002
}
  0
LINE
  5
17A
330
1F
100
AcDbEntity
  8
HIDDEN
100
AcDbLine
 10
-66.25
 20
-69.08683776855469
 30
0.0
 11
-66.02841186523438
 21
-68.95439147949219
 31
0.0
1001
DBPROPERTIES
1002
{
1000
PbHidd
1002
}
  0
LINE
  5
17B
330
1F
100
AcDbEntity
  8
HIDDEN
100
AcDbLine
 10
-66.02841186523438
 20
-68.95439147949219
 30
0.0
 11
-65.78713989257812
 21
-68.82540893554688
 31
0.0
1001
DBPROPERTIES
1002
{
1000
PbHidd
1002
}
  0
LINE
  5
17C
330
1F
100
AcDbEntity
  8
HIDDEN
100
AcDbLine
 10
-65.78713989257812
 20
-68.82540893554688
 30
0.0
 11
-65.52809143066406
 21
-68.70089721679688
 31
0.0
1001
DBPROPERTIES
1002
{
1000
PbHidd
1002
}
  0
LINE
  5
17D
330
1F
100
AcDbEntity
  8
HIDDEN
100
AcDbLine
 10
-65.52809143066406
 20
-68.70089721679688
 30
0.0
 11
-65.25350189208984
 21
-68.5818862915039
 31
0.0
1001
DBPROPERTIES
1002
{
1000
PbHidd
1002
}
  0
LINE
  5
17E
330
1F
100
AcDbEntity
  8
HIDDEN
100
AcDbLine
 10
-65.25350189208984
 20
-68.5818862915039
 30
0.0
 11
-64.96576690673828
 21
-68.46936798095703
 31
0.0
1001
DBPROPERTIES
1002
{
1000
PbHidd
1002
}
  0
LINE
  5
17F
330
1F
100
AcDbEntity
  8
HIDDEN
100
AcDbLine
 10
-64.96576690673828
 20
-68.46936798095703
 30
0.0
 11
-64.66790008544922
 21
-68.36415100097656
 31
0.0
1001
DBPROPERTIES
1002
{
1000
PbHidd
1002
}
  0
LINE
  5
180
330
1F
100
AcDbEntity
  8
HIDDEN
100
AcDbLine
 10
-64.66790008544922
 20
-68.36415100097656
 30
0.0
 11
-64.36231994628906
 21
-68.26676940917969
 31
0.0
1001
DBPROPERTIES
1002
{
1000
PbHidd
1002
}
  0
LINE
  5
181
330
1F
100
AcDbEntity
  8
HIDDEN
100
AcDbLine
 10
-64.36231994628906
 20
-68.26676940917969
 30
0.0
 11
-64.04096221923828
 21
-68.17481994628906
 31
0.0
1001
DBPROPERTIES
1002
{
1000
PbHidd
1002
}
  0
LINE
  5
182
330
1F
100
AcDbEntity
  8
HIDDEN
100
AcDbLine
 10
-64.04096221923828
 20
-68.17481994628906
 30
0.0
 11
-63.70299911499023
 21
-68.08863067626953
 31
0.0
1001
DBPROPERTIES
1002
{
1000
PbHidd
1002
}
  0
LINE
  5
183
330
1F
100
AcDbEntity
  8
HIDDEN
100
AcDbLine
 10
-63.70299911499023
 20
-68.08863067626953
 30
0.0
 11
-63.35147094726562
 21
-68.00972747802734
 31
0.0
1001
DBPROPERTIES
1002
{
1000
PbHidd
1002
}
  0
LINE
  5
184
330
1F
100
AcDbEntity
  8
HIDDEN
100
AcDbLine
 10
-63.35147094726562
 20
-68.00972747802734
 30
0.0
 11
-62.98976898193359
 21
-67.9393081665039
 31
0.0
1001
DBPROPERTIES
1002
{
1000
PbHidd
1002
}
  0
LINE
  5
185
330
1F
100
AcDbEntity
  8
HIDDEN
100
AcDbLine
 10
-62.98976898193359
 20
-67.9393081665039
 30
0.0
 11
-62.62149047851562
 21
-67.87838745117188
 31
0.0
1001
DBPROPERTIES
1002
{
1000
PbHidd
1002
}
  0
LINE
  5
186
330
1F
100
AcDbEntity
  8
HIDDEN
100
AcDbLine
 10
-62.62149047851562
 20
-67.87838745117188
 30
0.0
 11
-62.24999618530273
 21
-67.82778930664062
 31
0.0
1001
DBPROPERTIES
1002
{
1000
PbHidd
1002
}
  0
LINE
  5
187
330
1F
100
AcDbEntity
  8
HIDDEN
100
AcDbLine
 10
-62.24999618530273
 20
-67.82778930664062
 30
0.0
 11
-61.88884353637695
 21
-67.78888702392578
 31
0.0
1001
DBPROPERTIES
1002
{
1000
PbHidd
1002
}
  0
LINE
  5
188
330
1F
100
AcDbEntity
  8
HIDDEN
100
AcDbLine
 10
-61.88884353637695
 20
-67.78888702392578
 30
0.0
 11
-61.5316047668457
 21
-67.76052856445312
 31
0.0
1001
DBPROPERTIES
1002
{
1000
PbHidd
1002
}
  0
LINE
  5
189
330
1F
100
AcDbEntity
  8
HIDDEN
100
AcDbLine
 10
-61.5316047668457
 20
-67.76052856445312
 30
0.0
 11
-61.1817512512207
 21
-67.74276733398438
 31
0.0
1001
DBPROPERTIES
1002
{
1000
PbHidd
1002
}
  0
LINE
  5
18A
330
1F
100
AcDbEntity
  8
HIDDEN
100
AcDbLine
 10
-61.1817512512207
 20
-67.74276733398438
 30
0.0
 11
-60.84270095825195
 21
-67.73531341552734
 31
0.0
1001
DBPROPERTIES
1002
{
1000
PbHidd
1002
}
  0
LINE
  5
18B
330
1F
100
AcDbEntity
  8
HIDDEN
100
AcDbLine
 10
-60.84270095825195
 20
-67.73531341552734
 30
0.0
 11
-60.51338958740234
 21
-67.73788452148438
 31
0.0
1001
DBPROPERTIES
1002
{
1000
PbHidd
1002
}
  0
LINE
  5
18C
330
1F
100
AcDbEntity
  8
HIDDEN
100
AcDbLine
 10
-60.51338958740234
 20
-67.73788452148438
 30
0.0
 11
-60.18682098388672
 21
-67.75059509277344
 31
0.0
1001
DBPROPERTIES
1002
{
1000
PbHidd
1002
}
  0
LINE
  5
18D
330
1F
100
AcDbEntity
  8
HIDDEN
100
AcDbLine
 10
-60.18682098388672
 20
-67.75059509277344
 30
0.0
 11
-59.86641311645508
 21
-67.77377319335938
 31
0.0
1001
DBPROPERTIES
1002
{
1000
PbHidd
1002
}
  0
LINE
  5
18E
330
1F
100
AcDbEntity
  8
HIDDEN
100
AcDbLine
 10
-59.86641311645508
 20
-67.77377319335938
 30
0.0
 11
-59.55586624145508
 21
-67.8075942993164
 31
0.0
1001
DBPROPERTIES
1002
{
1000
PbHidd
1002
}
  0
LINE
  5
18F
330
1F
100
AcDbEntity
  8
HIDDEN
100
AcDbLine
 10
-59.55586624145508
 20
-67.8075942993164
 30
0.0
 11
-59.25832366943359
 21
-67.85179138183594
 31
0.0
1001
DBPROPERTIES
1002
{
1000
PbHidd
1002
}
  0
LINE
  5
190
330
1F
100
AcDbEntity
  8
HIDDEN
100
AcDbLine
 10
-59.25832366943359
 20
-67.85179138183594
 30
0.0
 11
-58.97678756713867
 21
-67.90599060058594
 31
0.0
1001
DBPROPERTIES
1002
{
1000
PbHidd
1002
}
  0
LINE
  5
191
330
1F
100
AcDbEntity
  8
HIDDEN
100
AcDbLine
 10
-58.97678756713867
 20
-67.90599060058594
 30
0.0
 11
-58.71358489990234
 21
-67.96964263916016
 31
0.0
1001
DBPROPERTIES
1002
{
1000
PbHidd
1002
}
  0
LINE
  5
192
330
1F
100
AcDbEntity
  8
HIDDEN
100
AcDbLine
 10
-58.71358489990234
 20
-67.96964263916016
 30
0.0
 11
-58.47068405151367
 21
-68.04186248779297
 31
0.0
1001
DBPROPERTIES
1002
{
1000
PbHidd
1002
}
  0
LINE
  5
193
330
1F
100
AcDbEntity
  8
HIDDEN
100
AcDbLine
 10
-58.47068405151367
 20
-68.04186248779297
 30
0.0
 11
-58.25001907348633
 21
-68.12169647216797
 31
0.0
1001
DBPROPERTIES
1002
{
1000
PbHidd
1002
}
  0
LINE
  5
194
330
1F
100
AcDbEntity
  8
THICK
100
AcDbLine
 10
-58.25001907348633
 20
-68.12169647216797
 30
0.0
 11
-58.04354095458984
 21
-68.2123031616211
 31
0.0
1001
DBPROPERTIES
1002
{
1000
PbThick
1002
}
  0
LINE
  5
195
330
1F
100
AcDbEntity
  8
THICK
100
AcDbLine
 10
-58.04354095458984
 20
-68.2123031616211
 30
0.0
 11
-57.86354827880859
 21
-68.30828094482422
 31
0.0
1001
DBPROPERTIES
1002
{
1000
PbThick
1002
}
  0
LINE
  5
196
330
1F
100
AcDbEntity
  8
THICK
100
AcDbLine
 10
-57.86354827880859
 20
-68.30828094482422
 30
0.0
 11
-57.7056770324707
 21
-68.41130065917969
 31
0.0
1001
DBPROPERTIES
1002
{
1000
PbThick
1002
}
  0
LINE
  5
197
330
1F
100
AcDbEntity
  8
THICK
100
AcDbLine
 10
-57.7056770324707
 20
-68.41130065917969
 30
0.0
 11
-57.56858825683594
 21
-68.5223617553711
 31
0.0
1001
DBPROPERTIES
1002
{
1000
PbThick
1002
}
  0
LINE
  5
198
330
1F
100
AcDbEntity
  8
THICK
100
AcDbLine
 10
-57.56858825683594
 20
-68.5223617553711
 30
0.0
 11
-57.45443725585938
 21
-68.6406478881836
 31
0.0
1001
DBPROPERTIES
1002
{
1000
PbThick
1002
}
  0
LINE
  5
199
330
1F
100
AcDbEntity
  8
THICK
100
AcDbLine
 10
-57.45443725585938
 20
-68.6406478881836
 30
0.0
 11
-57.36481094360352
 21
-68.76522064208984
 31
0.0
1001
DBPROPERTIES
1002
{
1000
PbThick
1002
}
  0
LINE
  5
19A
330
1F
100
AcDbEntity
  8
THICK
100
AcDbLine
 10
-57.36481094360352
 20
-68.76522064208984
 30
0.0
 11
-57.30052185058594
 21
-68.89496612548828
 31
0.0
1001
DBPROPERTIES
1002
{
1000
PbThick
1002
}
  0
LINE
  5
19B
330
1F
100
AcDbEntity
  8
THICK
100
AcDbLine
 10
-57.30052185058594
 20
-68.89496612548828
 30
0.0
 11
-57.26227951049805
 21
-69.02880096435547
 31
0.0
1001
DBPROPERTIES
1002
{
1000
PbThick
1002
}
  0
LINE
  5
19C
330
1F
100
AcDbEntity
  8
THICK
100
AcDbLine
 10
-57.26227951049805
 20
-69.02880096435547
 30
0.0
 11
-57.25008392333984
 21
-69.16561126708984
 31
0.0
1001
DBPROPERTIES
1002
{
1000
PbThick
1002
}
  0
LINE
  5
19D
330
1F
100
AcDbEntity
  8
THICK
100
AcDbLine
 10
-57.25008392333984
 20
-69.16561126708984
 30
0.0
 11
-57.26037979125977
 21
-69.28681182861328
 31
0.0
1001
DBPROPERTIES
1002
{
1000
PbThick
1002
}
  0
LINE
  5
19E
330
1F
100
AcDbEntity
  8
THICK
100
AcDbLine
 10
-57.26037979125977
 20
-69.28681182861328
 30
0.0
 11
-57.28985214233398
 21
-69.40846252441406
 31
0.0
1001
DBPROPERTIES
1002
{
1000
PbThick
1002
}
  0
LINE
  5
19F
330
1F
100
AcDbEntity
  8
THICK
100
AcDbLine
 10
-57.28985214233398
 20
-69.40846252441406
 30
0.0
 11
-57.33757400512695
 21
-69.52967071533203
 31
0.0
1001
DBPROPERTIES
1002
{
1000
PbThick
1002
}
  0
LINE
  5
1A0
330
1F
100
AcDbEntity
  8
THICK
100
AcDbLine
 10
-57.33757400512695
 20
-69.52967071533203
 30
0.0
 11
-57.40226745605469
 21
-69.6495361328125
 31
0.0
1001
DBPROPERTIES
1002
{
1000
PbThick
1002
}
  0
LINE
  5
1A1
330
1F
100
AcDbEntity
  8
THICK
100
AcDbLine
 10
-57.40226745605469
 20
-69.6495361328125
 30
0.0
 11
-57.48308181762695
 21
-69.76776123046875
 31
0.0
1001
DBPROPERTIES
1002
{
1000
PbThick
1002
}
  0
LINE
  5
1A2
330
1F
100
AcDbEntity
  8
THICK
100
AcDbLine
 10
-57.48308181762695
 20
-69.76776123046875
 30
0.0
 11
-57.58215713500977
 21
-69.88750457763672
 31
0.0
1001
DBPROPERTIES
1002
{
1000
PbThick
1002
}
  0
LINE
  5
1A3
330
1F
100
AcDbEntity
  8
THICK
100
AcDbLine
 10
-57.58215713500977
 20
-69.88750457763672
 30
0.0
 11
-57.70000076293945
 21
-70.00860595703125
 31
0.0
1001
DBPROPERTIES
1002
{
1000
PbThick
1002
}
  0
LINE
  5
1A4
330
1F
100
AcDbEntity
  8
THICK
100
AcDbLine
 10
-57.70000076293945
 20
-70.00860595703125
 30
0.0
 11
-57.83665466308594
 21
-70.13017272949219
 31
0.0
1001
DBPROPERTIES
1002
{
1000
PbThick
1002
}
  0
LINE
  5
1A5
330
1F
100
AcDbEntity
  8
THICK
100
AcDbLine
 10
-57.83665466308594
 20
-70.13017272949219
 30
0.0
 11
-57.99186325073242
 21
-70.25133514404297
 31
0.0
1001
DBPROPERTIES
1002
{
1000
PbThick
1002
}
  0
LINE
  5
1A6
330
1F
100
AcDbEntity
  8
THICK
100
AcDbLine
 10
-57.99186325073242
 20
-70.25133514404297
 30
0.0
 11
-58.16486740112305
 21
-70.37126922607422
 31
0.0
1001
DBPROPERTIES
1002
{
1000
PbThick
1002
}
  0
LINE
  5
1A7
330
1F
100
AcDbEntity
  8
THICK
100
AcDbLine
 10
-58.16486740112305
 20
-70.37126922607422
 30
0.0
 11
-58.35486602783203
 21
-70.48915100097656
 31
0.0
1001
DBPROPERTIES
1002
{
1000
PbThick
1002
}
  0
LINE
  5
1A8
330
1F
100
AcDbEntity
  8
THICK
100
AcDbLine
 10
-58.35486602783203
 20
-70.48915100097656
 30
0.0
 11
-58.56100463867188
 21
-70.60424041748047
 31
0.0
1001
DBPROPERTIES
1002
{
1000
PbThick
1002
}
  0
LINE
  5
1A9
330
1F
100
AcDbEntity
  8
THICK
100
AcDbLine
 10
-58.56100463867188
 20
-70.60424041748047
 30
0.0
 11
-58.78195190429688
 21
-70.71585845947266
 31
0.0
1001
DBPROPERTIES
1002
{
1000
PbThick
1002
}
  0
LINE
  5
1AA
330
1F
100
AcDbEntity
  8
THICK
100
AcDbLine
 10
-58.78195190429688
 20
-70.71585845947266
 30
0.0
 11
-59.01620864868164
 21
-70.82329559326172
 31
0.0
1001
DBPROPERTIES
1002
{
1000
PbThick
1002
}
  0
LINE
  5
1AB
330
1F
100
AcDbEntity
  8
THICK
100
AcDbLine
 10
-59.01620864868164
 20
-70.82329559326172
 30
0.0
 11
-59.26220321655273
 21
-70.92587280273438
 31
0.0
1001
DBPROPERTIES
1002
{
1000
PbThick
1002
}
  0
LINE
  5
1AC
330
1F
100
AcDbEntity
  8
THICK
100
AcDbLine
 10
-59.26220321655273
 20
-70.92587280273438
 30
0.0
 11
-59.51794815063477
 21
-71.02301025390625
 31
0.0
1001
DBPROPERTIES
1002
{
1000
PbThick
1002
}
  0
LINE
  5
1AD
330
1F
100
AcDbEntity
  8
THICK
100
AcDbLine
 10
-59.51794815063477
 20
-71.02301025390625
 30
0.0
 11
-59.78128051757812
 21
-71.11419677734375
 31
0.0
1001
DBPROPERTIES
1002
{
1000
PbThick
1002
}
  0
LINE
  5
1AE
330
1F
100
AcDbEntity
  8
THICK
100
AcDbLine
 10
-59.78128051757812
 20
-71.11419677734375
 30
0.0
 11
-60.05251312255859
 21
-71.19969177246094
 31
0.0
1001
DBPROPERTIES
1002
{
1000
PbThick
1002
}
  0
LINE
  5
1AF
330
1F
100
AcDbEntity
  8
THICK
100
AcDbLine
 10
-60.05251312255859
 20
-71.19969177246094
 30
0.0
 11
-60.33802795410156
 21
-71.28136444091797
 31
0.0
1001
DBPROPERTIES
1002
{
1000
PbThick
1002
}
  0
LINE
  5
1B0
330
1F
100
AcDbEntity
  8
THICK
100
AcDbLine
 10
-60.33802795410156
 20
-71.28136444091797
 30
0.0
 11
-60.63656616210938
 21
-71.35843658447266
 31
0.0
1001
DBPROPERTIES
1002
{
1000
PbThick
1002
}
  0
LINE
  5
1B1
330
1F
100
AcDbEntity
  8
THICK
100
AcDbLine
 10
-60.63656616210938
 20
-71.35843658447266
 30
0.0
 11
-60.94617080688477
 21
-71.42993927001953
 31
0.0
1001
DBPROPERTIES
1002
{
1000
PbThick
1002
}
  0
LINE
  5
1B2
330
1F
100
AcDbEntity
  8
THICK
100
AcDbLine
 10
-60.94617080688477
 20
-71.42993927001953
 30
0.0
 11
-61.26465225219727
 21
-71.4950942993164
 31
0.0
1001
DBPROPERTIES
1002
{
1000
PbThick
1002
}
  0
LINE
  5
1B3
330
1F
100
AcDbEntity
  8
THICK
100
AcDbLine
 10
-61.26465225219727
 20
-71.4950942993164
 30
0.0
 11
-61.58964157104492
 21
-71.55326843261719
 31
0.0
1001
DBPROPERTIES
1002
{
1000
PbThick
1002
}
  0
LINE
  5
1B4
330
1F
100
AcDbEntity
  8
THICK
100
AcDbLine
 10
-61.58964157104492
 20
-71.55326843261719
 30
0.0
 11
-61.9188117980957
 21
-71.60386657714844
 31
0.0
1001
DBPROPERTIES
1002
{
1000
PbThick
1002
}
  0
LINE
  5
1B5
330
1F
100
AcDbEntity
  8
THICK
100
AcDbLine
 10
-61.9188117980957
 20
-71.60386657714844
 30
0.0
 11
-62.25000381469727
 21
-71.646484375
 31
0.0
1001
DBPROPERTIES
1002
{
1000
PbThick
1002
}
  0
LINE
  5
1B6
330
1F
100
AcDbEntity
  8
THICK
100
AcDbLine
 10
-216.2
 20
-97.775
 30
0.0
 11
-0.0000000000000451
 21
-97.775
 31
0.0
1001
DBPROPERTIES
1002
{
1000
PbThick
1002
}
  0
LINE
  5
1B7
330
1F
100
AcDbEntity
  8
THICK
100
AcDbLine
 10
-192.7
 20
-88.375
 30
0.0
 11
-66.24999997187766
 21
-88.375
 31
0.0
1001
DBPROPERTIES
1002
{
1000
PbThick
1002
}
  0
LINE
  5
1B8
330
1F
100
AcDbEntity
  8
HIDDEN
100
AcDbLine
 10
-66.24999997187766
 20
-88.375
 30
0.0
 11
-58.24999996146406
 21
-88.375
 31
0.0
1001
DBPROPERTIES
1002
{
1000
PbHidd
1002
}
  0
LINE
  5
1B9
330
1F
100
AcDbEntity
  8
THICK
100
AcDbLine
 10
-58.24999996146406
 20
-88.375
 30
0.0
 11
-0.0000000000000408
 21
-88.375
 31
0.0
1001
DBPROPERTIES
1002
{
1000
PbThick
1002
}
  0
LINE
  5
1BA
330
1F
100
AcDbEntity
  8
THICK
100
AcDbLine
 10
-62.25000381469727
 20
-96.896484375
 30
0.0
 11
-62.54967880249023
 21
-96.92800903320312
 31
0.0
1001
DBPROPERTIES
1002
{
1000
PbThick
1002
}
  0
LINE
  5
1BB
330
1F
100
AcDbEntity
  8
THICK
100
AcDbLine
 10
-62.54967880249023
 20
-96.92800903320312
 30
0.0
 11
-62.84706878662109
 21
-96.9526138305664
 31
0.0
1001
DBPROPERTIES
1002
{
1000
PbThick
1002
}
  0
LINE
  5
1BC
330
1F
100
AcDbEntity
  8
THICK
100
AcDbLine
 10
-62.84706878662109
 20
-96.9526138305664
 30
0.0
 11
-63.14030075073242
 21
-96.97021484375
 31
0.0
1001
DBPROPERTIES
1002
{
1000
PbThick
1002
}
  0
LINE
  5
1BD
330
1F
100
AcDbEntity
  8
THICK
100
AcDbLine
 10
-63.14030075073242
 20
-96.97021484375
 30
0.0
 11
-63.42754364013672
 21
-96.98094940185547
 31
0.0
1001
DBPROPERTIES
1002
{
1000
PbThick
1002
}
  0
LINE
  5
1BE
330
1F
100
AcDbEntity
  8
THICK
100
AcDbLine
 10
-63.42754364013672
 20
-96.98094940185547
 30
0.0
 11
-63.70696640014648
 21
-96.9849853515625
 31
0.0
1001
DBPROPERTIES
1002
{
1000
PbThick
1002
}
  0
LINE
  5
1BF
330
1F
100
AcDbEntity
  8
THICK
100
AcDbLine
 10
-63.70696640014648
 20
-96.9849853515625
 30
0.0
 11
-63.98056030273438
 21
-96.98242950439453
 31
0.0
1001
DBPROPERTIES
1002
{
1000
PbThick
1002
}
  0
LINE
  5
1C0
330
1F
100
AcDbEntity
  8
THICK
100
AcDbLine
 10
-63.98056030273438
 20
-96.98242950439453
 30
0.0
 11
-64.25215911865234
 21
-96.97320556640625
 31
0.0
1001
DBPROPERTIES
1002
{
1000
PbThick
1002
}
  0
LINE
  5
1C1
330
1F
100
AcDbEntity
  8
THICK
100
AcDbLine
 10
-64.25215911865234
 20
-96.97320556640625
 30
0.0
 11
-64.51976776123047
 21
-96.95714569091797
 31
0.0
1001
DBPROPERTIES
1002
{
1000
PbThick
1002
}
  0
LINE
  5
1C2
330
1F
100
AcDbEntity
  8
THICK
100
AcDbLine
 10
-64.51976776123047
 20
-96.95714569091797
 30
0.0
 11
-64.78131866455078
 21
-96.93412017822266
 31
0.0
1001
DBPROPERTIES
1002
{
1000
PbThick
1002
}
  0
LINE
  5
1C3
330
1F
100
AcDbEntity
  8
THICK
100
AcDbLine
 10
-64.78131866455078
 20
-96.93412017822266
 30
0.0
 11
-65.03500366210938
 21
-96.90412139892578
 31
0.0
1001
DBPROPERTIES
1002
{
1000
PbThick
1002
}
  0
LINE
  5
1C4
330
1F
100
AcDbEntity
  8
THICK
100
AcDbLine
 10
-65.03500366210938
 20
-96.90412139892578
 30
0.0
 11
-65.27919006347656
 21
-96.86734771728516
 31
0.0
1001
DBPROPERTIES
1002
{
1000
PbThick
1002
}
  0
LINE
  5
1C5
330
1F
100
AcDbEntity
  8
THICK
100
AcDbLine
 10
-65.27919006347656
 20
-96.86734771728516
 30
0.0
 11
-65.51229858398438
 21
-96.823974609375
 31
0.0
1001
DBPROPERTIES
1002
{
1000
PbThick
1002
}
  0
LINE
  5
1C6
330
1F
100
AcDbEntity
  8
THICK
100
AcDbLine
 10
-65.51229858398438
 20
-96.823974609375
 30
0.0
 11
-65.73298645019531
 21
-96.77421569824219
 31
0.0
1001
DBPROPERTIES
1002
{
1000
PbThick
1002
}
  0
LINE
  5
1C7
330
1F
100
AcDbEntity
  8
THICK
100
AcDbLine
 10
-65.73298645019531
 20
-96.77421569824219
 30
0.0
 11
-65.94025421142578
 21
-96.7184829711914
 31
0.0
1001
DBPROPERTIES
1002
{
1000
PbThick
1002
}
  0
LINE
  5
1C8
330
1F
100
AcDbEntity
  8
THICK
100
AcDbLine
 10
-65.94025421142578
 20
-96.7184829711914
 30
0.0
 11
-66.13304901123047
 21
-96.65723419189453
 31
0.0
1001
DBPROPERTIES
1002
{
1000
PbThick
1002
}
  0
LINE
  5
1C9
330
1F
100
AcDbEntity
  8
THICK
100
AcDbLine
 10
-66.13304901123047
 20
-96.65723419189453
 30
0.0
 11
-66.31038665771484
 21
-96.5909652709961
 31
0.0
1001
DBPROPERTIES
1002
{
1000
PbThick
1002
}
  0
LINE
  5
1CA
330
1F
100
AcDbEntity
  8
THICK
100
AcDbLine
 10
-66.31038665771484
 20
-96.5909652709961
 30
0.0
 11
-66.4716796875
 21
-96.52029418945312
 31
0.0
1001
DBPROPERTIES
1002
{
1000
PbThick
1002
}
  0
LINE
  5
1CB
330
1F
100
AcDbEntity
  8
THICK
100
AcDbLine
 10
-66.4716796875
 20
-96.52029418945312
 30
0.0
 11
-66.61662292480469
 21
-96.44596862792969
 31
0.0
1001
DBPROPERTIES
1002
{
1000
PbThick
1002
}
  0
LINE
  5
1CC
330
1F
100
AcDbEntity
  8
THICK
100
AcDbLine
 10
-66.61662292480469
 20
-96.44596862792969
 30
0.0
 11
-66.7451400756836
 21
-96.36856079101562
 31
0.0
1001
DBPROPERTIES
1002
{
1000
PbThick
1002
}
  0
LINE
  5
1CD
330
1F
100
AcDbEntity
  8
THICK
100
AcDbLine
 10
-66.7451400756836
 20
-96.36856079101562
 30
0.0
 11
-66.86022186279297
 21
-96.2864990234375
 31
0.0
1001
DBPROPERTIES
1002
{
1000
PbThick
1002
}
  0
LINE
  5
1CE
330
1F
100
AcDbEntity
  8
THICK
100
AcDbLine
 10
-66.86022186279297
 20
-96.2864990234375
 30
0.0
 11
-66.96199035644531
 21
-96.19949340820312
 31
0.0
1001
DBPROPERTIES
1002
{
1000
PbThick
1002
}
  0
LINE
  5
1CF
330
1F
100
AcDbEntity
  8
THICK
100
AcDbLine
 10
-66.96199035644531
 20
-96.19949340820312
 30
0.0
 11
-67.04944610595703
 21
-96.1079330444336
 31
0.0
1001
DBPROPERTIES
1002
{
1000
PbThick
1002
}
  0
LINE
  5
1D0
330
1F
100
AcDbEntity
  8
THICK
100
AcDbLine
 10
-67.04944610595703
 20
-96.1079330444336
 30
0.0
 11
-67.12164306640625
 21
-96.01219940185547
 31
0.0
1001
DBPROPERTIES
1002
{
1000
PbThick
1002
}
  0
LINE
  5
1D1
330
1F
100
AcDbEntity
  8
THICK
100
AcDbLine
 10
-67.12164306640625
 20
-96.01219940185547
 30
0.0
 11
-67.17807006835938
 21
-95.91279602050781
 31
0.0
1001
DBPROPERTIES
1002
{
1000
PbThick
1002
}
  0
LINE
  5
1D2
330
1F
100
AcDbEntity
  8
THICK
100
AcDbLine
 10
-67.17807006835938
 20
-95.91279602050781
 30
0.0
 11
-67.21843719482422
 21
-95.81024169921875
 31
0.0
1001
DBPROPERTIES
1002
{
1000
PbThick
1002
}
  0
LINE
  5
1D3
330
1F
100
AcDbEntity
  8
THICK
100
AcDbLine
 10
-67.21843719482422
 20
-95.81024169921875
 30
0.0
 11
-67.24241638183594
 21
-95.70506286621094
 31
0.0
1001
DBPROPERTIES
1002
{
1000
PbThick
1002
}
  0
LINE
  5
1D4
330
1F
100
AcDbEntity
  8
THICK
100
AcDbLine
 10
-67.24241638183594
 20
-95.70506286621094
 30
0.0
 11
-67.24992370605469
 21
-95.59774017333984
 31
0.0
1001
DBPROPERTIES
1002
{
1000
PbThick
1002
}
  0
LINE
  5
1D5
330
1F
100
AcDbEntity
  8
THICK
100
AcDbLine
 10
-67.24992370605469
 20
-95.59774017333984
 30
0.0
 11
-67.24170684814453
 21
-95.4919662475586
 31
0.0
1001
DBPROPERTIES
1002
{
1000
PbThick
1002
}
  0
LINE
  5
1D6
330
1F
100
AcDbEntity
  8
THICK
100
AcDbLine
 10
-67.24170684814453
 20
-95.4919662475586
 30
0.0
 11
-67.21849060058594
 21
-95.3852767944336
 31
0.0
1001
DBPROPERTIES
1002
{
1000
PbThick
1002
}
  0
LINE
  5
1D7
330
1F
100
AcDbEntity
  8
THICK
100
AcDbLine
 10
-67.21849060058594
 20
-95.3852767944336
 30
0.0
 11
-67.18061065673828
 21
-95.27825927734375
 31
0.0
1001
DBPROPERTIES
1002
{
1000
PbThick
1002
}
  0
LINE
  5
1D8
330
1F
100
AcDbEntity
  8
THICK
100
AcDbLine
 10
-67.18061065673828
 20
-95.27825927734375
 30
0.0
 11
-67.12872314453125
 21
-95.1714859008789
 31
0.0
1001
DBPROPERTIES
1002
{
1000
PbThick
1002
}
  0
LINE
  5
1D9
330
1F
100
AcDbEntity
  8
THICK
100
AcDbLine
 10
-67.12872314453125
 20
-95.1714859008789
 30
0.0
 11
-67.06376647949219
 21
-95.06556701660156
 31
0.0
1001
DBPROPERTIES
1002
{
1000
PbThick
1002
}
  0
LINE
  5
1DA
330
1F
100
AcDbEntity
  8
THICK
100
AcDbLine
 10
-67.06376647949219
 20
-95.06556701660156
 30
0.0
 11
-66.98665618896484
 21
-94.96112060546875
 31
0.0
1001
DBPROPERTIES
1002
{
1000
PbThick
1002
}
  0
LINE
  5
1DB
330
1F
100
AcDbEntity
  8
THICK
100
AcDbLine
 10
-66.98665618896484
 20
-94.96112060546875
 30
0.0
 11
-66.89844512939453
 21
-94.8587646484375
 31
0.0
1001
DBPROPERTIES
1002
{
1000
PbThick
1002
}
  0
LINE
  5
1DC
330
1F
100
AcDbEntity
  8
THICK
100
AcDbLine
 10
-66.89844512939453
 20
-94.8587646484375
 30
0.0
 11
-66.79627227783203
 21
-94.75495147705078
 31
0.0
1001
DBPROPERTIES
1002
{
1000
PbThick
1002
}
  0
LINE
  5
1DD
330
1F
100
AcDbEntity
  8
THICK
100
AcDbLine
 10
-66.79627227783203
 20
-94.75495147705078
 30
0.0
 11
-66.68018341064453
 21
-94.65027618408203
 31
0.0
1001
DBPROPERTIES
1002
{
1000
PbThick
1002
}
  0
LINE
  5
1DE
330
1F
100
AcDbEntity
  8
THICK
100
AcDbLine
 10
-66.68018341064453
 20
-94.65027618408203
 30
0.0
 11
-66.55022430419922
 21
-94.54531860351562
 31
0.0
1001
DBPROPERTIES
1002
{
1000
PbThick
1002
}
  0
LINE
  5
1DF
330
1F
100
AcDbEntity
  8
THICK
100
AcDbLine
 10
-66.55022430419922
 20
-94.54531860351562
 30
0.0
 11
-66.40664672851562
 21
-94.44065856933594
 31
0.0
1001
DBPROPERTIES
1002
{
1000
PbThick
1002
}
  0
LINE
  5
1E0
330
1F
100
AcDbEntity
  8
THICK
100
AcDbLine
 10
-66.40664672851562
 20
-94.44065856933594
 30
0.0
 11
-66.25
 21
-94.33683776855469
 31
0.0
1001
DBPROPERTIES
1002
{
1000
PbThick
1002
}
  0
LINE
  5
1E1
330
1F
100
AcDbEntity
  8
HIDDEN
100
AcDbLine
 10
-66.25
 20
-94.33683776855469
 30
0.0
 11
-66.02841186523438
 21
-94.20439147949219
 31
0.0
1001
DBPROPERTIES
1002
{
1000
PbHidd
1002
}
  0
LINE
  5
1E2
330
1F
100
AcDbEntity
  8
HIDDEN
100
AcDbLine
 10
-66.02841186523438
 20
-94.20439147949219
 30
0.0
 11
-65.78713989257812
 21
-94.07540893554688
 31
0.0
1001
DBPROPERTIES
1002
{
1000
PbHidd
1002
}
  0
LINE
  5
1E3
330
1F
100
AcDbEntity
  8
HIDDEN
100
AcDbLine
 10
-65.78713989257812
 20
-94.07540893554688
 30
0.0
 11
-65.52809143066406
 21
-93.95089721679688
 31
0.0
1001
DBPROPERTIES
1002
{
1000
PbHidd
1002
}
  0
LINE
  5
1E4
330
1F
100
AcDbEntity
  8
HIDDEN
100
AcDbLine
 10
-65.52809143066406
 20
-93.95089721679688
 30
0.0
 11
-65.25350189208984
 21
-93.8318862915039
 31
0.0
1001
DBPROPERTIES
1002
{
1000
PbHidd
1002
}
  0
LINE
  5
1E5
330
1F
100
AcDbEntity
  8
HIDDEN
100
AcDbLine
 10
-65.25350189208984
 20
-93.8318862915039
 30
0.0
 11
-64.96576690673828
 21
-93.71936798095703
 31
0.0
1001
DBPROPERTIES
1002
{
1000
PbHidd
1002
}
  0
LINE
  5
1E6
330
1F
100
AcDbEntity
  8
HIDDEN
100
AcDbLine
 10
-64.96576690673828
 20
-93.71936798095703
 30
0.0
 11
-64.66790008544922
 21
-93.61415100097656
 31
0.0
1001
DBPROPERTIES
1002
{
1000
PbHidd
1002
}
  0
LINE
  5
1E7
330
1F
100
AcDbEntity
  8
HIDDEN
100
AcDbLine
 10
-64.66790008544922
 20
-93.61415100097656
 30
0.0
 11
-64.36231994628906
 21
-93.51676940917969
 31
0.0
1001
DBPROPERTIES
1002
{
1000
PbHidd
1002
}
  0
LINE
  5
1E8
330
1F
100
AcDbEntity
  8
HIDDEN
100
AcDbLine
 10
-64.36231994628906
 20
-93.51676940917969
 30
0.0
 11
-64.04096221923828
 21
-93.42481994628906
 31
0.0
1001
DBPROPERTIES
1002
{
1000
PbHidd
1002
}
  0
LINE
  5
1E9
330
1F
100
AcDbEntity
  8
HIDDEN
100
AcDbLine
 10
-64.04096221923828
 20
-93.42481994628906
 30
0.0
 11
-63.70299911499023
 21
-93.33863067626953
 31
0.0
1001
DBPROPERTIES
1002
{
1000
PbHidd
1002
}
  0
LINE
  5
1EA
330
1F
100
AcDbEntity
  8
HIDDEN
100
AcDbLine
 10
-63.70299911499023
 20
-93.33863067626953
 30
0.0
 11
-63.35147094726562
 21
-93.25972747802734
 31
0.0
1001
DBPROPERTIES
1002
{
1000
PbHidd
1002
}
  0
LINE
  5
1EB
330
1F
100
AcDbEntity
  8
HIDDEN
100
AcDbLine
 10
-63.35147094726562
 20
-93.25972747802734
 30
0.0
 11
-62.98976898193359
 21
-93.1893081665039
 31
0.0
1001
DBPROPERTIES
1002
{
1000
PbHidd
1002
}
  0
LINE
  5
1EC
330
1F
100
AcDbEntity
  8
HIDDEN
100
AcDbLine
 10
-62.98976898193359
 20
-93.1893081665039
 30
0.0
 11
-62.62149047851562
 21
-93.12838745117188
 31
0.0
1001
DBPROPERTIES
1002
{
1000
PbHidd
1002
}
  0
LINE
  5
1ED
330
1F
100
AcDbEntity
  8
HIDDEN
100
AcDbLine
 10
-62.62149047851562
 20
-93.12838745117188
 30
0.0
 11
-62.24999618530273
 21
-93.07778930664062
 31
0.0
1001
DBPROPERTIES
1002
{
1000
PbHidd
1002
}
  0
LINE
  5
1EE
330
1F
100
AcDbEntity
  8
HIDDEN
100
AcDbLine
 10
-62.24999618530273
 20
-93.07778930664062
 30
0.0
 11
-61.88884353637695
 21
-93.03888702392578
 31
0.0
1001
DBPROPERTIES
1002
{
1000
PbHidd
1002
}
  0
LINE
  5
1EF
330
1F
100
AcDbEntity
  8
HIDDEN
100
AcDbLine
 10
-61.88884353637695
 20
-93.03888702392578
 30
0.0
 11
-61.5316047668457
 21
-93.01052856445312
 31
0.0
1001
DBPROPERTIES
1002
{
1000
PbHidd
1002
}
  0
LINE
  5
1F0
330
1F
100
AcDbEntity
  8
HIDDEN
100
AcDbLine
 10
-61.5316047668457
 20
-93.01052856445312
 30
0.0
 11
-61.1817512512207
 21
-92.99276733398438
 31
0.0
1001
DBPROPERTIES
1002
{
1000
PbHidd
1002
}
  0
LINE
  5
1F1
330
1F
100
AcDbEntity
  8
HIDDEN
100
AcDbLine
 10
-61.1817512512207
 20
-92.99276733398438
 30
0.0
 11
-60.84270095825195
 21
-92.98531341552734
 31
0.0
1001
DBPROPERTIES
1002
{
1000
PbHidd
1002
}
  0
LINE
  5
1F2
330
1F
100
AcDbEntity
  8
HIDDEN
100
AcDbLine
 10
-60.84270095825195
 20
-92.98531341552734
 30
0.0
 11
-60.51338958740234
 21
-92.98788452148438
 31
0.0
1001
DBPROPERTIES
1002
{
1000
PbHidd
1002
}
  0
LINE
  5
1F3
330
1F
100
AcDbEntity
  8
HIDDEN
100
AcDbLine
 10
-60.51338958740234
 20
-92.98788452148438
 30
0.0
 11
-60.18682098388672
 21
-93.00059509277344
 31
0.0
1001
DBPROPERTIES
1002
{
1000
PbHidd
1002
}
  0
LINE
  5
1F4
330
1F
100
AcDbEntity
  8
HIDDEN
100
AcDbLine
 10
-60.18682098388672
 20
-93.00059509277344
 30
0.0
 11
-59.86641311645508
 21
-93.02377319335938
 31
0.0
1001
DBPROPERTIES
1002
{
1000
PbHidd
1002
}
  0
LINE
  5
1F5
330
1F
100
AcDbEntity
  8
HIDDEN
100
AcDbLine
 10
-59.86641311645508
 20
-93.02377319335938
 30
0.0
 11
-59.55586624145508
 21
-93.0575942993164
 31
0.0
1001
DBPROPERTIES
1002
{
1000
PbHidd
1002
}
  0
LINE
  5
1F6
330
1F
100
AcDbEntity
  8
HIDDEN
100
AcDbLine
 10
-59.55586624145508
 20
-93.0575942993164
 30
0.0
 11
-59.25832366943359
 21
-93.10179138183594
 31
0.0
1001
DBPROPERTIES
1002
{
1000
PbHidd
1002
}
  0
LINE
  5
1F7
330
1F
100
AcDbEntity
  8
HIDDEN
100
AcDbLine
 10
-59.25832366943359
 20
-93.10179138183594
 30
0.0
 11
-58.97678756713867
 21
-93.15599060058594
 31
0.0
1001
DBPROPERTIES
1002
{
1000
PbHidd
1002
}
  0
LINE
  5
1F8
330
1F
100
AcDbEntity
  8
HIDDEN
100
AcDbLine
 10
-58.97678756713867
 20
-93.15599060058594
 30
0.0
 11
-58.71358489990234
 21
-93.21964263916016
 31
0.0
1001
DBPROPERTIES
1002
{
1000
PbHidd
1002
}
  0
LINE
  5
1F9
330
1F
100
AcDbEntity
  8
HIDDEN
100
AcDbLine
 10
-58.71358489990234
 20
-93.21964263916016
 30
0.0
 11
-58.47068405151367
 21
-93.29186248779297
 31
0.0
1001
DBPROPERTIES
1002
{
1000
PbHidd
1002
}
  0
LINE
  5
1FA
330
1F
100
AcDbEntity
  8
HIDDEN
100
AcDbLine
 10
-58.47068405151367
 20
-93.29186248779297
 30
0.0
 11
-58.25001907348633
 21
-93.37169647216797
 31
0.0
1001
DBPROPERTIES
1002
{
1000
PbHidd
1002
}
  0
LINE
  5
1FB
330
1F
100
AcDbEntity
  8
THICK
100
AcDbLine
 10
-58.25001907348633
 20
-93.37169647216797
 30
0.0
 11
-58.04354095458984
 21
-93.4623031616211
 31
0.0
1001
DBPROPERTIES
1002
{
1000
PbThick
1002
}
  0
LINE
  5
1FC
330
1F
100
AcDbEntity
  8
THICK
100
AcDbLine
 10
-58.04354095458984
 20
-93.4623031616211
 30
0.0
 11
-57.86354827880859
 21
-93.55828094482422
 31
0.0
1001
DBPROPERTIES
1002
{
1000
PbThick
1002
}
  0
LINE
  5
1FD
330
1F
100
AcDbEntity
  8
THICK
100
AcDbLine
 10
-57.86354827880859
 20
-93.55828094482422
 30
0.0
 11
-57.7056770324707
 21
-93.66130065917969
 31
0.0
1001
DBPROPERTIES
1002
{
1000
PbThick
1002
}
  0
LINE
  5
1FE
330
1F
100
AcDbEntity
  8
THICK
100
AcDbLine
 10
-57.7056770324707
 20
-93.66130065917969
 30
0.0
 11
-57.56858825683594
 21
-93.7723617553711
 31
0.0
1001
DBPROPERTIES
1002
{
1000
PbThick
1002
}
  0
LINE
  5
1FF
330
1F
100
AcDbEntity
  8
THICK
100
AcDbLine
 10
-57.56858825683594
 20
-93.7723617553711
 30
0.0
 11
-57.45443725585938
 21
-93.8906478881836
 31
0.0
1001
DBPROPERTIES
1002
{
1000
PbThick
1002
}
  0
LINE
  5
200
330
1F
100
AcDbEntity
  8
THICK
100
AcDbLine
 10
-57.45443725585938
 20
-93.8906478881836
 30
0.0
 11
-57.36481094360352
 21
-94.01522064208984
 31
0.0
1001
DBPROPERTIES
1002
{
1000
PbThick
1002
}
  0
LINE
  5
201
330
1F
100
AcDbEntity
  8
THICK
100
AcDbLine
 10
-57.36481094360352
 20
-94.01522064208984
 30
0.0
 11
-57.30052185058594
 21
-94.14496612548828
 31
0.0
1001
DBPROPERTIES
1002
{
1000
PbThick
1002
}
  0
LINE
  5
202
330
1F
100
AcDbEntity
  8
THICK
100
AcDbLine
 10
-57.30052185058594
 20
-94.14496612548828
 30
0.0
 11
-57.26227951049805
 21
-94.27880096435547
 31
0.0
1001
DBPROPERTIES
1002
{
1000
PbThick
1002
}
  0
LINE
  5
203
330
1F
100
AcDbEntity
  8
THICK
100
AcDbLine
 10
-57.26227951049805
 20
-94.27880096435547
 30
0.0
 11
-57.25008392333984
 21
-94.41561126708984
 31
0.0
1001
DBPROPERTIES
1002
{
1000
PbThick
1002
}
  0
LINE
  5
204
330
1F
100
AcDbEntity
  8
THICK
100
AcDbLine
 10
-57.25008392333984
 20
-94.41561126708984
 30
0.0
 11
-57.26037979125977
 21
-94.53681182861328
 31
0.0
1001
DBPROPERTIES
1002
{
1000
PbThick
1002
}
  0
LINE
  5
205
330
1F
100
AcDbEntity
  8
THICK
100
AcDbLine
 10
-57.26037979125977
 20
-94.53681182861328
 30
0.0
 11
-57.28985214233398
 21
-94.65846252441406
 31
0.0
1001
DBPROPERTIES
1002
{
1000
PbThick
1002
}
  0
LINE
  5
206
330
1F
100
AcDbEntity
  8
THICK
100
AcDbLine
 10
-57.28985214233398
 20
-94.65846252441406
 30
0.0
 11
-57.33757400512695
 21
-94.77967071533203
 31
0.0
1001
DBPROPERTIES
1002
{
1000
PbThick
1002
}
  0
LINE
  5
207
330
1F
100
AcDbEntity
  8
THICK
100
AcDbLine
 10
-57.33757400512695
 20
-94.77967071533203
 30
0.0
 11
-57.40226745605469
 21
-94.8995361328125
 31
0.0
1001
DBPROPERTIES
1002
{
1000
PbThick
1002
}
  0
LINE
  5
208
330
1F
100
AcDbEntity
  8
THICK
100
AcDbLine
 10
-57.40226745605469
 20
-94.8995361328125
 30
0.0
 11
-57.48308181762695
 21
-95.01776123046875
 31
0.0
1001
DBPROPERTIES
1002
{
1000
PbThick
1002
}
  0
LINE
  5
209
330
1F
100
AcDbEntity
  8
THICK
100
AcDbLine
 10
-57.48308181762695
 20
-95.01776123046875
 30
0.0
 11
-57.58215713500977
 21
-95.13750457763672
 31
0.0
1001
DBPROPERTIES
1002
{
1000
PbThick
1002
}
  0
LINE
  5
20A
330
1F
100
AcDbEntity
  8
THICK
100
AcDbLine
 10
-57.58215713500977
 20
-95.13750457763672
 30
0.0
 11
-57.70000076293945
 21
-95.25860595703125
 31
0.0
1001
DBPROPERTIES
1002
{
1000
PbThick
1002
}
  0
LINE
  5
20B
330
1F
100
AcDbEntity
  8
THICK
100
AcDbLine
 10
-57.70000076293945
 20
-95.25860595703125
 30
0.0
 11
-57.83665466308594
 21
-95.38017272949219
 31
0.0
1001
DBPROPERTIES
1002
{
1000
PbThick
1002
}
  0
LINE
  5
20C
330
1F
100
AcDbEntity
  8
THICK
100
AcDbLine
 10
-57.83665466308594
 20
-95.38017272949219
 30
0.0
 11
-57.99186325073242
 21
-95.50133514404297
 31
0.0
1001
DBPROPERTIES
1002
{
1000
PbThick
1002
}
  0
LINE
  5
20D
330
1F
100
AcDbEntity
  8
THICK
100
AcDbLine
 10
-57.99186325073242
 20
-95.50133514404297
 30
0.0
 11
-58.16486740112305
 21
-95.62126922607422
 31
0.0
1001
DBPROPERTIES
1002
{
1000
PbThick
1002
}
  0
LINE
  5
20E
330
1F
100
AcDbEntity
  8
THICK
100
AcDbLine
 10
-58.16486740112305
 20
-95.62126922607422
 30
0.0
 11
-58.35486602783203
 21
-95.73915100097656
 31
0.0
1001
DBPROPERTIES
1002
{
1000
PbThick
1002
}
  0
LINE
  5
20F
330
1F
100
AcDbEntity
  8
THICK
100
AcDbLine
 10
-58.35486602783203
 20
-95.73915100097656
 30
0.0
 11
-58.56100463867188
 21
-95.85424041748047
 31
0.0
1001
DBPROPERTIES
1002
{
1000
PbThick
1002
}
  0
LINE
  5
210
330
1F
100
AcDbEntity
  8
THICK
100
AcDbLine
 10
-58.56100463867188
 20
-95.85424041748047
 30
0.0
 11
-58.78195190429688
 21
-95.96585845947266
 31
0.0
1001
DBPROPERTIES
1002
{
1000
PbThick
1002
}
  0
LINE
  5
211
330
1F
100
AcDbEntity
  8
THICK
100
AcDbLine
 10
-58.78195190429688
 20
-95.96585845947266
 30
0.0
 11
-59.01620864868164
 21
-96.07329559326172
 31
0.0
1001
DBPROPERTIES
1002
{
1000
PbThick
1002
}
  0
LINE
  5
212
330
1F
100
AcDbEntity
  8
THICK
100
AcDbLine
 10
-59.01620864868164
 20
-96.07329559326172
 30
0.0
 11
-59.26220321655273
 21
-96.17587280273438
 31
0.0
1001
DBPROPERTIES
1002
{
1000
PbThick
1002
}
  0
LINE
  5
213
330
1F
100
AcDbEntity
  8
THICK
100
AcDbLine
 10
-59.26220321655273
 20
-96.17587280273438
 30
0.0
 11
-59.51794815063477
 21
-96.27301025390625
 31
0.0
1001
DBPROPERTIES
1002
{
1000
PbThick
1002
}
  0
LINE
  5
214
330
1F
100
AcDbEntity
  8
THICK
100
AcDbLine
 10
-59.51794815063477
 20
-96.27301025390625
 30
0.0
 11
-59.78128051757812
 21
-96.36419677734375
 31
0.0
1001
DBPROPERTIES
1002
{
1000
PbThick
1002
}
  0
LINE
  5
215
330
1F
100
AcDbEntity
  8
THICK
100
AcDbLine
 10
-59.78128051757812
 20
-96.36419677734375
 30
0.0
 11
-60.05251312255859
 21
-96.44969177246094
 31
0.0
1001
DBPROPERTIES
1002
{
1000
PbThick
1002
}
  0
LINE
  5
216
330
1F
100
AcDbEntity
  8
THICK
100
AcDbLine
 10
-60.05251312255859
 20
-96.44969177246094
 30
0.0
 11
-60.33802795410156
 21
-96.53136444091797
 31
0.0
1001
DBPROPERTIES
1002
{
1000
PbThick
1002
}
  0
LINE
  5
217
330
1F
100
AcDbEntity
  8
THICK
100
AcDbLine
 10
-60.33802795410156
 20
-96.53136444091797
 30
0.0
 11
-60.63656616210938
 21
-96.60843658447266
 31
0.0
1001
DBPROPERTIES
1002
{
1000
PbThick
1002
}
  0
LINE
  5
218
330
1F
100
AcDbEntity
  8
THICK
100
AcDbLine
 10
-60.63656616210938
 20
-96.60843658447266
 30
0.0
 11
-60.94617080688477
 21
-96.67993927001953
 31
0.0
1001
DBPROPERTIES
1002
{
1000
PbThick
1002
}
  0
LINE
  5
219
330
1F
100
AcDbEntity
  8
THICK
100
AcDbLine
 10
-60.94617080688477
 20
-96.67993927001953
 30
0.0
 11
-61.26465225219727
 21
-96.7450942993164
 31
0.0
1001
DBPROPERTIES
1002
{
1000
PbThick
1002
}
  0
LINE
  5
21A
330
1F
100
AcDbEntity
  8
THICK
100
AcDbLine
 10
-61.26465225219727
 20
-96.7450942993164
 30
0.0
 11
-61.58964157104492
 21
-96.80326843261719
 31
0.0
1001
DBPROPERTIES
1002
{
1000
PbThick
1002
}
  0
LINE
  5
21B
330
1F
100
AcDbEntity
  8
THICK
100
AcDbLine
 10
-61.58964157104492
 20
-96.80326843261719
 30
0.0
 11
-61.9188117980957
 21
-96.85386657714844
 31
0.0
1001
DBPROPERTIES
1002
{
1000
PbThick
1002
}
  0
LINE
  5
21C
330
1F
100
AcDbEntity
  8
THICK
100
AcDbLine
 10
-61.9188117980957
 20
-96.85386657714844
 30
0.0
 11
-62.25000381469727
 21
-96.896484375
 31
0.0
1001
DBPROPERTIES
1002
{
1000
PbThick
1002
}
  0
LINE
  5
21D
330
1F
100
AcDbEntity
  8
THICK
100
AcDbLine
 10
-216.2
 20
-123.025
 30
0.0
 11
-0.0000000000000467
 21
-123.025
 31
0.0
1001
DBPROPERTIES
1002
{
1000
PbThick
1002
}
  0
LINE
  5
21E
330
1F
100
AcDbEntity
  8
THICK
100
AcDbLine
 10
-192.7
 20
-113.625
 30
0.0
 11
-66.24999997187781
 21
-113.625
 31
0.0
1001
DBPROPERTIES
1002
{
1000
PbThick
1002
}
  0
LINE
  5
21F
330
1F
100
AcDbEntity
  8
HIDDEN
100
AcDbLine
 10
-66.24999997187781
 20
-113.625
 30
0.0
 11
-58.24999996095569
 21
-113.625
 31
0.0
1001
DBPROPERTIES
1002
{
1000
PbHidd
1002
}
  0
LINE
  5
220
330
1F
100
AcDbEntity
  8
THICK
100
AcDbLine
 10
-58.24999996095569
 20
-113.625
 30
0.0
 11
-0.0000000000000424
 21
-113.625
 31
0.0
1001
DBPROPERTIES
1002
{
1000
PbThick
1002
}
  0
LINE
  5
221
330
1F
100
AcDbEntity
  8
THICK
100
AcDbLine
 10
-62.25000381469727
 20
-122.146484375
 30
0.0
 11
-62.54967880249023
 21
-122.1780090332031
 31
0.0
1001
DBPROPERTIES
1002
{
1000
PbThick
1002
}
  0
LINE
  5
222
330
1F
100
AcDbEntity
  8
THICK
100
AcDbLine
 10
-62.54967880249023
 20
-122.1780090332031
 30
0.0
 11
-62.84706878662109
 21
-122.2026138305664
 31
0.0
1001
DBPROPERTIES
1002
{
1000
PbThick
1002
}
  0
LINE
  5
223
330
1F
100
AcDbEntity
  8
THICK
100
AcDbLine
 10
-62.84706878662109
 20
-122.2026138305664
 30
0.0
 11
-63.14030075073242
 21
-122.22021484375
 31
0.0
1001
DBPROPERTIES
1002
{
1000
PbThick
1002
}
  0
LINE
  5
224
330
1F
100
AcDbEntity
  8
THICK
100
AcDbLine
 10
-63.14030075073242
 20
-122.22021484375
 30
0.0
 11
-63.42754364013672
 21
-122.2309494018555
 31
0.0
1001
DBPROPERTIES
1002
{
1000
PbThick
1002
}
  0
LINE
  5
225
330
1F
100
AcDbEntity
  8
THICK
100
AcDbLine
 10
-63.42754364013672
 20
-122.2309494018555
 30
0.0
 11
-63.70696640014648
 21
-122.2349853515625
 31
0.0
1001
DBPROPERTIES
1002
{
1000
PbThick
1002
}
  0
LINE
  5
226
330
1F
100
AcDbEntity
  8
THICK
100
AcDbLine
 10
-63.70696640014648
 20
-122.2349853515625
 30
0.0
 11
-63.98056030273438
 21
-122.2324295043945
 31
0.0
1001
DBPROPERTIES
1002
{
1000
PbThick
1002
}
  0
LINE
  5
227
330
1F
100
AcDbEntity
  8
THICK
100
AcDbLine
 10
-63.98056030273438
 20
-122.2324295043945
 30
0.0
 11
-64.25215911865234
 21
-122.2232055664062
 31
0.0
1001
DBPROPERTIES
1002
{
1000
PbThick
1002
}
  0
LINE
  5
228
330
1F
100
AcDbEntity
  8
THICK
100
AcDbLine
 10
-64.25215911865234
 20
-122.2232055664062
 30
0.0
 11
-64.51976776123047
 21
-122.207145690918
 31
0.0
1001
DBPROPERTIES
1002
{
1000
PbThick
1002
}
  0
LINE
  5
229
330
1F
100
AcDbEntity
  8
THICK
100
AcDbLine
 10
-64.51976776123047
 20
-122.207145690918
 30
0.0
 11
-64.78131866455078
 21
-122.1841201782227
 31
0.0
1001
DBPROPERTIES
1002
{
1000
PbThick
1002
}
  0
LINE
  5
22A
330
1F
100
AcDbEntity
  8
THICK
100
AcDbLine
 10
-64.78131866455078
 20
-122.1841201782227
 30
0.0
 11
-65.03500366210938
 21
-122.1541213989258
 31
0.0
1001
DBPROPERTIES
1002
{
1000
PbThick
1002
}
  0
LINE
  5
22B
330
1F
100
AcDbEntity
  8
THICK
100
AcDbLine
 10
-65.03500366210938
 20
-122.1541213989258
 30
0.0
 11
-65.27919006347656
 21
-122.1173477172852
 31
0.0
1001
DBPROPERTIES
1002
{
1000
PbThick
1002
}
  0
LINE
  5
22C
330
1F
100
AcDbEntity
  8
THICK
100
AcDbLine
 10
-65.27919006347656
 20
-122.1173477172852
 30
0.0
 11
-65.51229858398438
 21
-122.073974609375
 31
0.0
1001
DBPROPERTIES
1002
{
1000
PbThick
1002
}
  0
LINE
  5
22D
330
1F
100
AcDbEntity
  8
THICK
100
AcDbLine
 10
-65.51229858398438
 20
-122.073974609375
 30
0.0
 11
-65.73298645019531
 21
-122.0242156982422
 31
0.0
1001
DBPROPERTIES
1002
{
1000
PbThick
1002
}
  0
LINE
  5
22E
330
1F
100
AcDbEntity
  8
THICK
100
AcDbLine
 10
-65.73298645019531
 20
-122.0242156982422
 30
0.0
 11
-65.94025421142578
 21
-121.9684829711914
 31
0.0
1001
DBPROPERTIES
1002
{
1000
PbThick
1002
}
  0
LINE
  5
22F
330
1F
100
AcDbEntity
  8
THICK
100
AcDbLine
 10
-65.94025421142578
 20
-121.9684829711914
 30
0.0
 11
-66.13304901123047
 21
-121.9072341918945
 31
0.0
1001
DBPROPERTIES
1002
{
1000
PbThick
1002
}
  0
LINE
  5
230
330
1F
100
AcDbEntity
  8
THICK
100
AcDbLine
 10
-66.13304901123047
 20
-121.9072341918945
 30
0.0
 11
-66.31038665771484
 21
-121.8409652709961
 31
0.0
1001
DBPROPERTIES
1002
{
1000
PbThick
1002
}
  0
LINE
  5
231
330
1F
100
AcDbEntity
  8
THICK
100
AcDbLine
 10
-66.31038665771484
 20
-121.8409652709961
 30
0.0
 11
-66.4716796875
 21
-121.7702941894531
 31
0.0
1001
DBPROPERTIES
1002
{
1000
PbThick
1002
}
  0
LINE
  5
232
330
1F
100
AcDbEntity
  8
THICK
100
AcDbLine
 10
-66.4716796875
 20
-121.7702941894531
 30
0.0
 11
-66.61662292480469
 21
-121.6959686279297
 31
0.0
1001
DBPROPERTIES
1002
{
1000
PbThick
1002
}
  0
LINE
  5
233
330
1F
100
AcDbEntity
  8
THICK
100
AcDbLine
 10
-66.61662292480469
 20
-121.6959686279297
 30
0.0
 11
-66.7451400756836
 21
-121.6185607910156
 31
0.0
1001
DBPROPERTIES
1002
{
1000
PbThick
1002
}
  0
LINE
  5
234
330
1F
100
AcDbEntity
  8
THICK
100
AcDbLine
 10
-66.7451400756836
 20
-121.6185607910156
 30
0.0
 11
-66.86022186279297
 21
-121.5364990234375
 31
0.0
1001
DBPROPERTIES
1002
{
1000
PbThick
1002
}
  0
LINE
  5
235
330
1F
100
AcDbEntity
  8
THICK
100
AcDbLine
 10
-66.86022186279297
 20
-121.5364990234375
 30
0.0
 11
-66.96199035644531
 21
-121.4494934082031
 31
0.0
1001
DBPROPERTIES
1002
{
1000
PbThick
1002
}
  0
LINE
  5
236
330
1F
100
AcDbEntity
  8
THICK
100
AcDbLine
 10
-66.96199035644531
 20
-121.4494934082031
 30
0.0
 11
-67.04944610595703
 21
-121.3579330444336
 31
0.0
1001
DBPROPERTIES
1002
{
1000
PbThick
1002
}
  0
LINE
  5
237
330
1F
100
AcDbEntity
  8
THICK
100
AcDbLine
 10
-67.04944610595703
 20
-121.3579330444336
 30
0.0
 11
-67.12164306640625
 21
-121.2621994018555
 31
0.0
1001
DBPROPERTIES
1002
{
1000
PbThick
1002
}
  0
LINE
  5
238
330
1F
100
AcDbEntity
  8
THICK
100
AcDbLine
 10
-67.12164306640625
 20
-121.2621994018555
 30
0.0
 11
-67.17807006835938
 21
-121.1627960205078
 31
0.0
1001
DBPROPERTIES
1002
{
1000
PbThick
1002
}
  0
LINE
  5
239
330
1F
100
AcDbEntity
  8
THICK
100
AcDbLine
 10
-67.17807006835938
 20
-121.1627960205078
 30
0.0
 11
-67.21843719482422
 21
-121.0602416992188
 31
0.0
1001
DBPROPERTIES
1002
{
1000
PbThick
1002
}
  0
LINE
  5
23A
330
1F
100
AcDbEntity
  8
THICK
100
AcDbLine
 10
-67.21843719482422
 20
-121.0602416992188
 30
0.0
 11
-67.24241638183594
 21
-120.9550628662109
 31
0.0
1001
DBPROPERTIES
1002
{
1000
PbThick
1002
}
  0
LINE
  5
23B
330
1F
100
AcDbEntity
  8
THICK
100
AcDbLine
 10
-67.24241638183594
 20
-120.9550628662109
 30
0.0
 11
-67.24992370605469
 21
-120.8477401733398
 31
0.0
1001
DBPROPERTIES
1002
{
1000
PbThick
1002
}
  0
LINE
  5
23C
330
1F
100
AcDbEntity
  8
THICK
100
AcDbLine
 10
-67.24992370605469
 20
-120.8477401733398
 30
0.0
 11
-67.24170684814453
 21
-120.7419662475586
 31
0.0
1001
DBPROPERTIES
1002
{
1000
PbThick
1002
}
  0
LINE
  5
23D
330
1F
100
AcDbEntity
  8
THICK
100
AcDbLine
 10
-67.24170684814453
 20
-120.7419662475586
 30
0.0
 11
-67.21849060058594
 21
-120.6352767944336
 31
0.0
1001
DBPROPERTIES
1002
{
1000
PbThick
1002
}
  0
LINE
  5
23E
330
1F
100
AcDbEntity
  8
THICK
100
AcDbLine
 10
-67.21849060058594
 20
-120.6352767944336
 30
0.0
 11
-67.18061065673828
 21
-120.5282592773438
 31
0.0
1001
DBPROPERTIES
1002
{
1000
PbThick
1002
}
  0
LINE
  5
23F
330
1F
100
AcDbEntity
  8
THICK
100
AcDbLine
 10
-67.18061065673828
 20
-120.5282592773438
 30
0.0
 11
-67.12872314453125
 21
-120.4214859008789
 31
0.0
1001
DBPROPERTIES
1002
{
1000
PbThick
1002
}
  0
LINE
  5
240
330
1F
100
AcDbEntity
  8
THICK
100
AcDbLine
 10
-67.12872314453125
 20
-120.4214859008789
 30
0.0
 11
-67.06376647949219
 21
-120.3155670166016
 31
0.0
1001
DBPROPERTIES
1002
{
1000
PbThick
1002
}
  0
LINE
  5
241
330
1F
100
AcDbEntity
  8
THICK
100
AcDbLine
 10
-67.06376647949219
 20
-120.3155670166016
 30
0.0
 11
-66.98665618896484
 21
-120.2111206054688
 31
0.0
1001
DBPROPERTIES
1002
{
1000
PbThick
1002
}
  0
LINE
  5
242
330
1F
100
AcDbEntity
  8
THICK
100
AcDbLine
 10
-66.98665618896484
 20
-120.2111206054688
 30
0.0
 11
-66.89844512939453
 21
-120.1087646484375
 31
0.0
1001
DBPROPERTIES
1002
{
1000
PbThick
1002
}
  0
LINE
  5
243
330
1F
100
AcDbEntity
  8
THICK
100
AcDbLine
 10
-66.89844512939453
 20
-120.1087646484375
 30
0.0
 11
-66.79627227783203
 21
-120.0049514770508
 31
0.0
1001
DBPROPERTIES
1002
{
1000
PbThick
1002
}
  0
LINE
  5
244
330
1F
100
AcDbEntity
  8
THICK
100
AcDbLine
 10
-66.79627227783203
 20
-120.0049514770508
 30
0.0
 11
-66.68018341064453
 21
-119.900276184082
 31
0.0
1001
DBPROPERTIES
1002
{
1000
PbThick
1002
}
  0
LINE
  5
245
330
1F
100
AcDbEntity
  8
THICK
100
AcDbLine
 10
-66.68018341064453
 20
-119.900276184082
 30
0.0
 11
-66.55022430419922
 21
-119.7953186035156
 31
0.0
1001
DBPROPERTIES
1002
{
1000
PbThick
1002
}
  0
LINE
  5
246
330
1F
100
AcDbEntity
  8
THICK
100
AcDbLine
 10
-66.55022430419922
 20
-119.7953186035156
 30
0.0
 11
-66.40664672851562
 21
-119.6906585693359
 31
0.0
1001
DBPROPERTIES
1002
{
1000
PbThick
1002
}
  0
LINE
  5
247
330
1F
100
AcDbEntity
  8
THICK
100
AcDbLine
 10
-66.40664672851562
 20
-119.6906585693359
 30
0.0
 11
-66.25
 21
-119.5868377685547
 31
0.0
1001
DBPROPERTIES
1002
{
1000
PbThick
1002
}
  0
LINE
  5
248
330
1F
100
AcDbEntity
  8
HIDDEN
100
AcDbLine
 10
-66.25
 20
-119.5868377685547
 30
0.0
 11
-66.02841186523438
 21
-119.4543914794922
 31
0.0
1001
DBPROPERTIES
1002
{
1000
PbHidd
1002
}
  0
LINE
  5
249
330
1F
100
AcDbEntity
  8
HIDDEN
100
AcDbLine
 10
-66.02841186523438
 20
-119.4543914794922
 30
0.0
 11
-65.78713989257812
 21
-119.3254089355469
 31
0.0
1001
DBPROPERTIES
1002
{
1000
PbHidd
1002
}
  0
LINE
  5
24A
330
1F
100
AcDbEntity
  8
HIDDEN
100
AcDbLine
 10
-65.78713989257812
 20
-119.3254089355469
 30
0.0
 11
-65.52809143066406
 21
-119.2008972167969
 31
0.0
1001
DBPROPERTIES
1002
{
1000
PbHidd
1002
}
  0
LINE
  5
24B
330
1F
100
AcDbEntity
  8
HIDDEN
100
AcDbLine
 10
-65.52809143066406
 20
-119.2008972167969
 30
0.0
 11
-65.25350189208984
 21
-119.0818862915039
 31
0.0
1001
DBPROPERTIES
1002
{
1000
PbHidd
1002
}
  0
LINE
  5
24C
330
1F
100
AcDbEntity
  8
HIDDEN
100
AcDbLine
 10
-65.25350189208984
 20
-119.0818862915039
 30
0.0
 11
-64.96576690673828
 21
-118.969367980957
 31
0.0
1001
DBPROPERTIES
1002
{
1000
PbHidd
1002
}
  0
LINE
  5
24D
330
1F
100
AcDbEntity
  8
HIDDEN
100
AcDbLine
 10
-64.96576690673828
 20
-118.969367980957
 30
0.0
 11
-64.66790008544922
 21
-118.8641510009766
 31
0.0
1001
DBPROPERTIES
1002
{
1000
PbHidd
1002
}
  0
LINE
  5
24E
330
1F
100
AcDbEntity
  8
HIDDEN
100
AcDbLine
 10
-64.66790008544922
 20
-118.8641510009766
 30
0.0
 11
-64.36231994628906
 21
-118.7667694091797
 31
0.0
1001
DBPROPERTIES
1002
{
1000
PbHidd
1002
}
  0
LINE
  5
24F
330
1F
100
AcDbEntity
  8
HIDDEN
100
AcDbLine
 10
-64.36231994628906
 20
-118.7667694091797
 30
0.0
 11
-64.04096221923828
 21
-118.6748199462891
 31
0.0
1001
DBPROPERTIES
1002
{
1000
PbHidd
1002
}
  0
LINE
  5
250
330
1F
100
AcDbEntity
  8
HIDDEN
100
AcDbLine
 10
-64.04096221923828
 20
-118.6748199462891
 30
0.0
 11
-63.70299911499023
 21
-118.5886306762695
 31
0.0
1001
DBPROPERTIES
1002
{
1000
PbHidd
1002
}
  0
LINE
  5
251
330
1F
100
AcDbEntity
  8
HIDDEN
100
AcDbLine
 10
-63.70299911499023
 20
-118.5886306762695
 30
0.0
 11
-63.35147094726562
 21
-118.5097274780273
 31
0.0
1001
DBPROPERTIES
1002
{
1000
PbHidd
1002
}
  0
LINE
  5
252
330
1F
100
AcDbEntity
  8
HIDDEN
100
AcDbLine
 10
-63.35147094726562
 20
-118.5097274780273
 30
0.0
 11
-62.98976898193359
 21
-118.4393081665039
 31
0.0
1001
DBPROPERTIES
1002
{
1000
PbHidd
1002
}
  0
LINE
  5
253
330
1F
100
AcDbEntity
  8
HIDDEN
100
AcDbLine
 10
-62.98976898193359
 20
-118.4393081665039
 30
0.0
 11
-62.62149047851562
 21
-118.3783874511719
 31
0.0
1001
DBPROPERTIES
1002
{
1000
PbHidd
1002
}
  0
LINE
  5
254
330
1F
100
AcDbEntity
  8
HIDDEN
100
AcDbLine
 10
-62.62149047851562
 20
-118.3783874511719
 30
0.0
 11
-62.24999618530273
 21
-118.3277893066406
 31
0.0
1001
DBPROPERTIES
1002
{
1000
PbHidd
1002
}
  0
LINE
  5
255
330
1F
100
AcDbEntity
  8
HIDDEN
100
AcDbLine
 10
-62.24999618530273
 20
-118.3277893066406
 30
0.0
 11
-61.88884353637695
 21
-118.2888870239258
 31
0.0
1001
DBPROPERTIES
1002
{
1000
PbHidd
1002
}
  0
LINE
  5
256
330
1F
100
AcDbEntity
  8
HIDDEN
100
AcDbLine
 10
-61.88884353637695
 20
-118.2888870239258
 30
0.0
 11
-61.5316047668457
 21
-118.2605285644531
 31
0.0
1001
DBPROPERTIES
1002
{
1000
PbHidd
1002
}
  0
LINE
  5
257
330
1F
100
AcDbEntity
  8
HIDDEN
100
AcDbLine
 10
-61.5316047668457
 20
-118.2605285644531
 30
0.0
 11
-61.1817512512207
 21
-118.2427673339844
 31
0.0
1001
DBPROPERTIES
1002
{
1000
PbHidd
1002
}
  0
LINE
  5
258
330
1F
100
AcDbEntity
  8
HIDDEN
100
AcDbLine
 10
-61.1817512512207
 20
-118.2427673339844
 30
0.0
 11
-60.84270095825195
 21
-118.2353134155273
 31
0.0
1001
DBPROPERTIES
1002
{
1000
PbHidd
1002
}
  0
LINE
  5
259
330
1F
100
AcDbEntity
  8
HIDDEN
100
AcDbLine
 10
-60.84270095825195
 20
-118.2353134155273
 30
0.0
 11
-60.51338958740234
 21
-118.2378845214844
 31
0.0
1001
DBPROPERTIES
1002
{
1000
PbHidd
1002
}
  0
LINE
  5
25A
330
1F
100
AcDbEntity
  8
HIDDEN
100
AcDbLine
 10
-60.51338958740234
 20
-118.2378845214844
 30
0.0
 11
-60.18682098388672
 21
-118.2505950927734
 31
0.0
1001
DBPROPERTIES
1002
{
1000
PbHidd
1002
}
  0
LINE
  5
25B
330
1F
100
AcDbEntity
  8
HIDDEN
100
AcDbLine
 10
-60.18682098388672
 20
-118.2505950927734
 30
0.0
 11
-59.86641311645508
 21
-118.2737731933594
 31
0.0
1001
DBPROPERTIES
1002
{
1000
PbHidd
1002
}
  0
LINE
  5
25C
330
1F
100
AcDbEntity
  8
HIDDEN
100
AcDbLine
 10
-59.86641311645508
 20
-118.2737731933594
 30
0.0
 11
-59.55586624145508
 21
-118.3075942993164
 31
0.0
1001
DBPROPERTIES
1002
{
1000
PbHidd
1002
}
  0
LINE
  5
25D
330
1F
100
AcDbEntity
  8
HIDDEN
100
AcDbLine
 10
-59.55586624145508
 20
-118.3075942993164
 30
0.0
 11
-59.25832366943359
 21
-118.3517913818359
 31
0.0
1001
DBPROPERTIES
1002
{
1000
PbHidd
1002
}
  0
LINE
  5
25E
330
1F
100
AcDbEntity
  8
HIDDEN
100
AcDbLine
 10
-59.25832366943359
 20
-118.3517913818359
 30
0.0
 11
-58.97678756713867
 21
-118.4059906005859
 31
0.0
1001
DBPROPERTIES
1002
{
1000
PbHidd
1002
}
  0
LINE
  5
25F
330
1F
100
AcDbEntity
  8
HIDDEN
100
AcDbLine
 10
-58.97678756713867
 20
-118.4059906005859
 30
0.0
 11
-58.71358489990234
 21
-118.4696426391602
 31
0.0
1001
DBPROPERTIES
1002
{
1000
PbHidd
1002
}
  0
LINE
  5
260
330
1F
100
AcDbEntity
  8
HIDDEN
100
AcDbLine
 10
-58.71358489990234
 20
-118.4696426391602
 30
0.0
 11
-58.47068405151367
 21
-118.541862487793
 31
0.0
1001
DBPROPERTIES
1002
{
1000
PbHidd
1002
}
  0
LINE
  5
261
330
1F
100
AcDbEntity
  8
HIDDEN
100
AcDbLine
 10
-58.47068405151367
 20
-118.541862487793
 30
0.0
 11
-58.25001907348633
 21
-118.621696472168
 31
0.0
1001
DBPROPERTIES
1002
{
1000
PbHidd
1002
}
  0
LINE
  5
262
330
1F
100
AcDbEntity
  8
THICK
100
AcDbLine
 10
-58.25001907348633
 20
-118.621696472168
 30
0.0
 11
-58.04354095458984
 21
-118.7123031616211
 31
0.0
1001
DBPROPERTIES
1002
{
1000
PbThick
1002
}
  0
LINE
  5
263
330
1F
100
AcDbEntity
  8
THICK
100
AcDbLine
 10
-58.04354095458984
 20
-118.7123031616211
 30
0.0
 11
-57.86354827880859
 21
-118.8082809448242
 31
0.0
1001
DBPROPERTIES
1002
{
1000
PbThick
1002
}
  0
LINE
  5
264
330
1F
100
AcDbEntity
  8
THICK
100
AcDbLine
 10
-57.86354827880859
 20
-118.8082809448242
 30
0.0
 11
-57.7056770324707
 21
-118.9113006591797
 31
0.0
1001
DBPROPERTIES
1002
{
1000
PbThick
1002
}
  0
LINE
  5
265
330
1F
100
AcDbEntity
  8
THICK
100
AcDbLine
 10
-57.7056770324707
 20
-118.9113006591797
 30
0.0
 11
-57.56858825683594
 21
-119.0223617553711
 31
0.0
1001
DBPROPERTIES
1002
{
1000
PbThick
1002
}
  0
LINE
  5
266
330
1F
100
AcDbEntity
  8
THICK
100
AcDbLine
 10
-57.56858825683594
 20
-119.0223617553711
 30
0.0
 11
-57.45443725585938
 21
-119.1406478881836
 31
0.0
1001
DBPROPERTIES
1002
{
1000
PbThick
1002
}
  0
LINE
  5
267
330
1F
100
AcDbEntity
  8
THICK
100
AcDbLine
 10
-57.45443725585938
 20
-119.1406478881836
 30
0.0
 11
-57.36481094360352
 21
-119.2652206420898
 31
0.0
1001
DBPROPERTIES
1002
{
1000
PbThick
1002
}
  0
LINE
  5
268
330
1F
100
AcDbEntity
  8
THICK
100
AcDbLine
 10
-57.36481094360352
 20
-119.2652206420898
 30
0.0
 11
-57.30052185058594
 21
-119.3949661254883
 31
0.0
1001
DBPROPERTIES
1002
{
1000
PbThick
1002
}
  0
LINE
  5
269
330
1F
100
AcDbEntity
  8
THICK
100
AcDbLine
 10
-57.30052185058594
 20
-119.3949661254883
 30
0.0
 11
-57.26227951049805
 21
-119.5288009643555
 31
0.0
1001
DBPROPERTIES
1002
{
1000
PbThick
1002
}
  0
LINE
  5
26A
330
1F
100
AcDbEntity
  8
THICK
100
AcDbLine
 10
-57.26227951049805
 20
-119.5288009643555
 30
0.0
 11
-57.25008392333984
 21
-119.6656112670898
 31
0.0
1001
DBPROPERTIES
1002
{
1000
PbThick
1002
}
  0
LINE
  5
26B
330
1F
100
AcDbEntity
  8
THICK
100
AcDbLine
 10
-57.25008392333984
 20
-119.6656112670898
 30
0.0
 11
-57.26037979125977
 21
-119.7868118286133
 31
0.0
1001
DBPROPERTIES
1002
{
1000
PbThick
1002
}
  0
LINE
  5
26C
330
1F
100
AcDbEntity
  8
THICK
100
AcDbLine
 10
-57.26037979125977
 20
-119.7868118286133
 30
0.0
 11
-57.28985214233398
 21
-119.9084625244141
 31
0.0
1001
DBPROPERTIES
1002
{
1000
PbThick
1002
}
  0
LINE
  5
26D
330
1F
100
AcDbEntity
  8
THICK
100
AcDbLine
 10
-57.28985214233398
 20
-119.9084625244141
 30
0.0
 11
-57.33757400512695
 21
-120.029670715332
 31
0.0
1001
DBPROPERTIES
1002
{
1000
PbThick
1002
}
  0
LINE
  5
26E
330
1F
100
AcDbEntity
  8
THICK
100
AcDbLine
 10
-57.33757400512695
 20
-120.029670715332
 30
0.0
 11
-57.40226745605469
 21
-120.1495361328125
 31
0.0
1001
DBPROPERTIES
1002
{
1000
PbThick
1002
}
  0
LINE
  5
26F
330
1F
100
AcDbEntity
  8
THICK
100
AcDbLine
 10
-57.40226745605469
 20
-120.1495361328125
 30
0.0
 11
-57.48308181762695
 21
-120.2677612304688
 31
0.0
1001
DBPROPERTIES
1002
{
1000
PbThick
1002
}
  0
LINE
  5
270
330
1F
100
AcDbEntity
  8
THICK
100
AcDbLine
 10
-57.48308181762695
 20
-120.2677612304688
 30
0.0
 11
-57.58215713500977
 21
-120.3875045776367
 31
0.0
1001
DBPROPERTIES
1002
{
1000
PbThick
1002
}
  0
LINE
  5
271
330
1F
100
AcDbEntity
  8
THICK
100
AcDbLine
 10
-57.58215713500977
 20
-120.3875045776367
 30
0.0
 11
-57.70000076293945
 21
-120.5086059570312
 31
0.0
1001
DBPROPERTIES
1002
{
1000
PbThick
1002
}
  0
LINE
  5
272
330
1F
100
AcDbEntity
  8
THICK
100
AcDbLine
 10
-57.70000076293945
 20
-120.5086059570312
 30
0.0
 11
-57.83665466308594
 21
-120.6301727294922
 31
0.0
1001
DBPROPERTIES
1002
{
1000
PbThick
1002
}
  0
LINE
  5
273
330
1F
100
AcDbEntity
  8
THICK
100
AcDbLine
 10
-57.83665466308594
 20
-120.6301727294922
 30
0.0
 11
-57.99186325073242
 21
-120.751335144043
 31
0.0
1001
DBPROPERTIES
1002
{
1000
PbThick
1002
}
  0
LINE
  5
274
330
1F
100
AcDbEntity
  8
THICK
100
AcDbLine
 10
-57.99186325073242
 20
-120.751335144043
 30
0.0
 11
-58.16486740112305
 21
-120.8712692260742
 31
0.0
1001
DBPROPERTIES
1002
{
1000
PbThick
1002
}
  0
LINE
  5
275
330
1F
100
AcDbEntity
  8
THICK
100
AcDbLine
 10
-58.16486740112305
 20
-120.8712692260742
 30
0.0
 11
-58.35486602783203
 21
-120.9891510009766
 31
0.0
1001
DBPROPERTIES
1002
{
1000
PbThick
1002
}
  0
LINE
  5
276
330
1F
100
AcDbEntity
  8
THICK
100
AcDbLine
 10
-58.35486602783203
 20
-120.9891510009766
 30
0.0
 11
-58.56100463867188
 21
-121.1042404174805
 31
0.0
1001
DBPROPERTIES
1002
{
1000
PbThick
1002
}
  0
LINE
  5
277
330
1F
100
AcDbEntity
  8
THICK
100
AcDbLine
 10
-58.56100463867188
 20
-121.1042404174805
 30
0.0
 11
-58.78195190429688
 21
-121.2158584594727
 31
0.0
1001
DBPROPERTIES
1002
{
1000
PbThick
1002
}
  0
LINE
  5
278
330
1F
100
AcDbEntity
  8
THICK
100
AcDbLine
 10
-58.78195190429688
 20
-121.2158584594727
 30
0.0
 11
-59.01620864868164
 21
-121.3232955932617
 31
0.0
1001
DBPROPERTIES
1002
{
1000
PbThick
1002
}
  0
LINE
  5
279
330
1F
100
AcDbEntity
  8
THICK
100
AcDbLine
 10
-59.01620864868164
 20
-121.3232955932617
 30
0.0
 11
-59.26220321655273
 21
-121.4258728027344
 31
0.0
1001
DBPROPERTIES
1002
{
1000
PbThick
1002
}
  0
LINE
  5
27A
330
1F
100
AcDbEntity
  8
THICK
100
AcDbLine
 10
-59.26220321655273
 20
-121.4258728027344
 30
0.0
 11
-59.51794815063477
 21
-121.5230102539062
 31
0.0
1001
DBPROPERTIES
1002
{
1000
PbThick
1002
}
  0
LINE
  5
27B
330
1F
100
AcDbEntity
  8
THICK
100
AcDbLine
 10
-59.51794815063477
 20
-121.5230102539062
 30
0.0
 11
-59.78128051757812
 21
-121.6141967773438
 31
0.0
1001
DBPROPERTIES
1002
{
1000
PbThick
1002
}
  0
LINE
  5
27C
330
1F
100
AcDbEntity
  8
THICK
100
AcDbLine
 10
-59.78128051757812
 20
-121.6141967773438
 30
0.0
 11
-60.05251312255859
 21
-121.6996917724609
 31
0.0
1001
DBPROPERTIES
1002
{
1000
PbThick
1002
}
  0
LINE
  5
27D
330
1F
100
AcDbEntity
  8
THICK
100
AcDbLine
 10
-60.05251312255859
 20
-121.6996917724609
 30
0.0
 11
-60.33802795410156
 21
-121.781364440918
 31
0.0
1001
DBPROPERTIES
1002
{
1000
PbThick
1002
}
  0
LINE
  5
27E
330
1F
100
AcDbEntity
  8
THICK
100
AcDbLine
 10
-60.33802795410156
 20
-121.781364440918
 30
0.0
 11
-60.63656616210938
 21
-121.8584365844727
 31
0.0
1001
DBPROPERTIES
1002
{
1000
PbThick
1002
}
  0
LINE
  5
27F
330
1F
100
AcDbEntity
  8
THICK
100
AcDbLine
 10
-60.63656616210938
 20
-121.8584365844727
 30
0.0
 11
-60.94617080688477
 21
-121.9299392700195
 31
0.0
1001
DBPROPERTIES
1002
{
1000
PbThick
1002
}
  0
LINE
  5
280
330
1F
100
AcDbEntity
  8
THICK
100
AcDbLine
 10
-60.94617080688477
 20
-121.9299392700195
 30
0.0
 11
-61.26465225219727
 21
-121.9950942993164
 31
0.0
1001
DBPROPERTIES
1002
{
1000
PbThick
1002
}
  0
LINE
  5
281
330
1F
100
AcDbEntity
  8
THICK
100
AcDbLine
 10
-61.26465225219727
 20
-121.9950942993164
 30
0.0
 11
-61.58964157104492
 21
-122.0532684326172
 31
0.0
1001
DBPROPERTIES
1002
{
1000
PbThick
1002
}
  0
LINE
  5
282
330
1F
100
AcDbEntity
  8
THICK
100
AcDbLine
 10
-61.58964157104492
 20
-122.0532684326172
 30
0.0
 11
-61.9188117980957
 21
-122.1038665771484
 31
0.0
1001
DBPROPERTIES
1002
{
1000
PbThick
1002
}
  0
LINE
  5
283
330
1F
100
AcDbEntity
  8
THICK
100
AcDbLine
 10
-61.9188117980957
 20
-122.1038665771484
 30
0.0
 11
-62.25000381469727
 21
-122.146484375
 31
0.0
1001
DBPROPERTIES
1002
{
1000
PbThick
1002
}
  0
LINE
  5
284
330
1F
100
AcDbEntity
  8
THICK
100
AcDbLine
 10
-216.2
 20
-148.275
 30
0.0
 11
-0.0000000000000482
 21
-148.275
 31
0.0
1001
DBPROPERTIES
1002
{
1000
PbThick
1002
}
  0
LINE
  5
285
330
1F
100
AcDbEntity
  8
THICK
100
AcDbLine
 10
-192.7
 20
-138.875
 30
0.0
 11
-66.24999997187781
 21
-138.875
 31
0.0
1001
DBPROPERTIES
1002
{
1000
PbThick
1002
}
  0
LINE
  5
286
330
1F
100
AcDbEntity
  8
HIDDEN
100
AcDbLine
 10
-66.24999997187781
 20
-138.875
 30
0.0
 11
-58.2499999604475
 21
-138.875
 31
0.0
1001
DBPROPERTIES
1002
{
1000
PbHidd
1002
}
  0
LINE
  5
287
330
1F
100
AcDbEntity
  8
THICK
100
AcDbLine
 10
-58.2499999604475
 20
-138.875
 30
0.0
 11
-0.0000000000000439
 21
-138.875
 31
0.0
1001
DBPROPERTIES
1002
{
1000
PbThick
1002
}
  0
LINE
  5
288
330
1F
100
AcDbEntity
  8
THICK
100
AcDbLine
 10
-62.25000381469727
 20
-147.396484375
 30
0.0
 11
-62.54967880249023
 21
-147.4280090332031
 31
0.0
1001
DBPROPERTIES
1002
{
1000
PbThick
1002
}
  0
LINE
  5
289
330
1F
100
AcDbEntity
  8
THICK
100
AcDbLine
 10
-62.54967880249023
 20
-147.4280090332031
 30
0.0
 11
-62.84706878662109
 21
-147.4526062011719
 31
0.0
1001
DBPROPERTIES
1002
{
1000
PbThick
1002
}
  0
LINE
  5
28A
330
1F
100
AcDbEntity
  8
THICK
100
AcDbLine
 10
-62.84706878662109
 20
-147.4526062011719
 30
0.0
 11
-63.14030075073242
 21
-147.47021484375
 31
0.0
1001
DBPROPERTIES
1002
{
1000
PbThick
1002
}
  0
LINE
  5
28B
330
1F
100
AcDbEntity
  8
THICK
100
AcDbLine
 10
-63.14030075073242
 20
-147.47021484375
 30
0.0
 11
-63.42754364013672
 21
-147.48095703125
 31
0.0
1001
DBPROPERTIES
1002
{
1000
PbThick
1002
}
  0
LINE
  5
28C
330
1F
100
AcDbEntity
  8
THICK
100
AcDbLine
 10
-63.42754364013672
 20
-147.48095703125
 30
0.0
 11
-63.70696640014648
 21
-147.4849853515625
 31
0.0
1001
DBPROPERTIES
1002
{
1000
PbThick
1002
}
  0
LINE
  5
28D
330
1F
100
AcDbEntity
  8
THICK
100
AcDbLine
 10
-63.70696640014648
 20
-147.4849853515625
 30
0.0
 11
-63.98056030273438
 21
-147.482421875
 31
0.0
1001
DBPROPERTIES
1002
{
1000
PbThick
1002
}
  0
LINE
  5
28E
330
1F
100
AcDbEntity
  8
THICK
100
AcDbLine
 10
-63.98056030273438
 20
-147.482421875
 30
0.0
 11
-64.25215911865234
 21
-147.4732055664062
 31
0.0
1001
DBPROPERTIES
1002
{
1000
PbThick
1002
}
  0
LINE
  5
28F
330
1F
100
AcDbEntity
  8
THICK
100
AcDbLine
 10
-64.25215911865234
 20
-147.4732055664062
 30
0.0
 11
-64.51976776123047
 21
-147.4571533203125
 31
0.0
1001
DBPROPERTIES
1002
{
1000
PbThick
1002
}
  0
LINE
  5
290
330
1F
100
AcDbEntity
  8
THICK
100
AcDbLine
 10
-64.51976776123047
 20
-147.4571533203125
 30
0.0
 11
-64.78131866455078
 21
-147.4341125488281
 31
0.0
1001
DBPROPERTIES
1002
{
1000
PbThick
1002
}
  0
LINE
  5
291
330
1F
100
AcDbEntity
  8
THICK
100
AcDbLine
 10
-64.78131866455078
 20
-147.4341125488281
 30
0.0
 11
-65.03500366210938
 21
-147.4041290283203
 31
0.0
1001
DBPROPERTIES
1002
{
1000
PbThick
1002
}
  0
LINE
  5
292
330
1F
100
AcDbEntity
  8
THICK
100
AcDbLine
 10
-65.03500366210938
 20
-147.4041290283203
 30
0.0
 11
-65.27919006347656
 21
-147.3673553466797
 31
0.0
1001
DBPROPERTIES
1002
{
1000
PbThick
1002
}
  0
LINE
  5
293
330
1F
100
AcDbEntity
  8
THICK
100
AcDbLine
 10
-65.27919006347656
 20
-147.3673553466797
 30
0.0
 11
-65.51229858398438
 21
-147.323974609375
 31
0.0
1001
DBPROPERTIES
1002
{
1000
PbThick
1002
}
  0
LINE
  5
294
330
1F
100
AcDbEntity
  8
THICK
100
AcDbLine
 10
-65.51229858398438
 20
-147.323974609375
 30
0.0
 11
-65.73298645019531
 21
-147.2742156982422
 31
0.0
1001
DBPROPERTIES
1002
{
1000
PbThick
1002
}
  0
LINE
  5
295
330
1F
100
AcDbEntity
  8
THICK
100
AcDbLine
 10
-65.73298645019531
 20
-147.2742156982422
 30
0.0
 11
-65.94025421142578
 21
-147.2184753417969
 31
0.0
1001
DBPROPERTIES
1002
{
1000
PbThick
1002
}
  0
LINE
  5
296
330
1F
100
AcDbEntity
  8
THICK
100
AcDbLine
 10
-65.94025421142578
 20
-147.2184753417969
 30
0.0
 11
-66.13304901123047
 21
-147.1572418212891
 31
0.0
1001
DBPROPERTIES
1002
{
1000
PbThick
1002
}
  0
LINE
  5
297
330
1F
100
AcDbEntity
  8
THICK
100
AcDbLine
 10
-66.13304901123047
 20
-147.1572418212891
 30
0.0
 11
-66.31038665771484
 21
-147.0909576416016
 31
0.0
1001
DBPROPERTIES
1002
{
1000
PbThick
1002
}
  0
LINE
  5
298
330
1F
100
AcDbEntity
  8
THICK
100
AcDbLine
 10
-66.31038665771484
 20
-147.0909576416016
 30
0.0
 11
-66.4716796875
 21
-147.0202941894531
 31
0.0
1001
DBPROPERTIES
1002
{
1000
PbThick
1002
}
  0
LINE
  5
299
330
1F
100
AcDbEntity
  8
THICK
100
AcDbLine
 10
-66.4716796875
 20
-147.0202941894531
 30
0.0
 11
-66.61662292480469
 21
-146.9459686279297
 31
0.0
1001
DBPROPERTIES
1002
{
1000
PbThick
1002
}
  0
LINE
  5
29A
330
1F
100
AcDbEntity
  8
THICK
100
AcDbLine
 10
-66.61662292480469
 20
-146.9459686279297
 30
0.0
 11
-66.7451400756836
 21
-146.8685607910156
 31
0.0
1001
DBPROPERTIES
1002
{
1000
PbThick
1002
}
  0
LINE
  5
29B
330
1F
100
AcDbEntity
  8
THICK
100
AcDbLine
 10
-66.7451400756836
 20
-146.8685607910156
 30
0.0
 11
-66.86022186279297
 21
-146.7864990234375
 31
0.0
1001
DBPROPERTIES
1002
{
1000
PbThick
1002
}
  0
LINE
  5
29C
330
1F
100
AcDbEntity
  8
THICK
100
AcDbLine
 10
-66.86022186279297
 20
-146.7864990234375
 30
0.0
 11
-66.96199035644531
 21
-146.6994934082031
 31
0.0
1001
DBPROPERTIES
1002
{
1000
PbThick
1002
}
  0
LINE
  5
29D
330
1F
100
AcDbEntity
  8
THICK
100
AcDbLine
 10
-66.96199035644531
 20
-146.6994934082031
 30
0.0
 11
-67.04944610595703
 21
-146.6079254150391
 31
0.0
1001
DBPROPERTIES
1002
{
1000
PbThick
1002
}
  0
LINE
  5
29E
330
1F
100
AcDbEntity
  8
THICK
100
AcDbLine
 10
-67.04944610595703
 20
-146.6079254150391
 30
0.0
 11
-67.12164306640625
 21
-146.51220703125
 31
0.0
1001
DBPROPERTIES
1002
{
1000
PbThick
1002
}
  0
LINE
  5
29F
330
1F
100
AcDbEntity
  8
THICK
100
AcDbLine
 10
-67.12164306640625
 20
-146.51220703125
 30
0.0
 11
-67.17807006835938
 21
-146.4127960205078
 31
0.0
1001
DBPROPERTIES
1002
{
1000
PbThick
1002
}
  0
LINE
  5
2A0
330
1F
100
AcDbEntity
  8
THICK
100
AcDbLine
 10
-67.17807006835938
 20
-146.4127960205078
 30
0.0
 11
-67.21843719482422
 21
-146.3102416992188
 31
0.0
1001
DBPROPERTIES
1002
{
1000
PbThick
1002
}
  0
LINE
  5
2A1
330
1F
100
AcDbEntity
  8
THICK
100
AcDbLine
 10
-67.21843719482422
 20
-146.3102416992188
 30
0.0
 11
-67.24241638183594
 21
-146.2050628662109
 31
0.0
1001
DBPROPERTIES
1002
{
1000
PbThick
1002
}
  0
LINE
  5
2A2
330
1F
100
AcDbEntity
  8
THICK
100
AcDbLine
 10
-67.24241638183594
 20
-146.2050628662109
 30
0.0
 11
-67.24992370605469
 21
-146.0977478027344
 31
0.0
1001
DBPROPERTIES
1002
{
1000
PbThick
1002
}
  0
LINE
  5
2A3
330
1F
100
AcDbEntity
  8
THICK
100
AcDbLine
 10
-67.24992370605469
 20
-146.0977478027344
 30
0.0
 11
-67.24170684814453
 21
-145.9919586181641
 31
0.0
1001
DBPROPERTIES
1002
{
1000
PbThick
1002
}
  0
LINE
  5
2A4
330
1F
100
AcDbEntity
  8
THICK
100
AcDbLine
 10
-67.24170684814453
 20
-145.9919586181641
 30
0.0
 11
-67.21849060058594
 21
-145.8852844238281
 31
0.0
1001
DBPROPERTIES
1002
{
1000
PbThick
1002
}
  0
LINE
  5
2A5
330
1F
100
AcDbEntity
  8
THICK
100
AcDbLine
 10
-67.21849060058594
 20
-145.8852844238281
 30
0.0
 11
-67.18061065673828
 21
-145.7782592773438
 31
0.0
1001
DBPROPERTIES
1002
{
1000
PbThick
1002
}
  0
LINE
  5
2A6
330
1F
100
AcDbEntity
  8
THICK
100
AcDbLine
 10
-67.18061065673828
 20
-145.7782592773438
 30
0.0
 11
-67.12872314453125
 21
-145.6714782714844
 31
0.0
1001
DBPROPERTIES
1002
{
1000
PbThick
1002
}
  0
LINE
  5
2A7
330
1F
100
AcDbEntity
  8
THICK
100
AcDbLine
 10
-67.12872314453125
 20
-145.6714782714844
 30
0.0
 11
-67.06376647949219
 21
-145.5655670166016
 31
0.0
1001
DBPROPERTIES
1002
{
1000
PbThick
1002
}
  0
LINE
  5
2A8
330
1F
100
AcDbEntity
  8
THICK
100
AcDbLine
 10
-67.06376647949219
 20
-145.5655670166016
 30
0.0
 11
-66.98665618896484
 21
-145.4611206054688
 31
0.0
1001
DBPROPERTIES
1002
{
1000
PbThick
1002
}
  0
LINE
  5
2A9
330
1F
100
AcDbEntity
  8
THICK
100
AcDbLine
 10
-66.98665618896484
 20
-145.4611206054688
 30
0.0
 11
-66.89844512939453
 21
-145.3587646484375
 31
0.0
1001
DBPROPERTIES
1002
{
1000
PbThick
1002
}
  0
LINE
  5
2AA
330
1F
100
AcDbEntity
  8
THICK
100
AcDbLine
 10
-66.89844512939453
 20
-145.3587646484375
 30
0.0
 11
-66.79627227783203
 21
-145.2549591064453
 31
0.0
1001
DBPROPERTIES
1002
{
1000
PbThick
1002
}
  0
LINE
  5
2AB
330
1F
100
AcDbEntity
  8
THICK
100
AcDbLine
 10
-66.79627227783203
 20
-145.2549591064453
 30
0.0
 11
-66.68018341064453
 21
-145.1502685546875
 31
0.0
1001
DBPROPERTIES
1002
{
1000
PbThick
1002
}
  0
LINE
  5
2AC
330
1F
100
AcDbEntity
  8
THICK
100
AcDbLine
 10
-66.68018341064453
 20
-145.1502685546875
 30
0.0
 11
-66.55022430419922
 21
-145.0453186035156
 31
0.0
1001
DBPROPERTIES
1002
{
1000
PbThick
1002
}
  0
LINE
  5
2AD
330
1F
100
AcDbEntity
  8
THICK
100
AcDbLine
 10
-66.55022430419922
 20
-145.0453186035156
 30
0.0
 11
-66.40664672851562
 21
-144.9406585693359
 31
0.0
1001
DBPROPERTIES
1002
{
1000
PbThick
1002
}
  0
LINE
  5
2AE
330
1F
100
AcDbEntity
  8
THICK
100
AcDbLine
 10
-66.40664672851562
 20
-144.9406585693359
 30
0.0
 11
-66.25
 21
-144.8368377685547
 31
0.0
1001
DBPROPERTIES
1002
{
1000
PbThick
1002
}
  0
LINE
  5
2AF
330
1F
100
AcDbEntity
  8
HIDDEN
100
AcDbLine
 10
-66.25
 20
-144.8368377685547
 30
0.0
 11
-66.02841186523438
 21
-144.7043914794922
 31
0.0
1001
DBPROPERTIES
1002
{
1000
PbHidd
1002
}
  0
LINE
  5
2B0
330
1F
100
AcDbEntity
  8
HIDDEN
100
AcDbLine
 10
-66.02841186523438
 20
-144.7043914794922
 30
0.0
 11
-65.78713989257812
 21
-144.5754089355469
 31
0.0
1001
DBPROPERTIES
1002
{
1000
PbHidd
1002
}
  0
LINE
  5
2B1
330
1F
100
AcDbEntity
  8
HIDDEN
100
AcDbLine
 10
-65.78713989257812
 20
-144.5754089355469
 30
0.0
 11
-65.52809143066406
 21
-144.4508972167969
 31
0.0
1001
DBPROPERTIES
1002
{
1000
PbHidd
1002
}
  0
LINE
  5
2B2
330
1F
100
AcDbEntity
  8
HIDDEN
100
AcDbLine
 10
-65.52809143066406
 20
-144.4508972167969
 30
0.0
 11
-65.25350189208984
 21
-144.3318939208984
 31
0.0
1001
DBPROPERTIES
1002
{
1000
PbHidd
1002
}
  0
LINE
  5
2B3
330
1F
100
AcDbEntity
  8
HIDDEN
100
AcDbLine
 10
-65.25350189208984
 20
-144.3318939208984
 30
0.0
 11
-64.96576690673828
 21
-144.2193756103516
 31
0.0
1001
DBPROPERTIES
1002
{
1000
PbHidd
1002
}
  0
LINE
  5
2B4
330
1F
100
AcDbEntity
  8
HIDDEN
100
AcDbLine
 10
-64.96576690673828
 20
-144.2193756103516
 30
0.0
 11
-64.66790008544922
 21
-144.1141510009766
 31
0.0
1001
DBPROPERTIES
1002
{
1000
PbHidd
1002
}
  0
LINE
  5
2B5
330
1F
100
AcDbEntity
  8
HIDDEN
100
AcDbLine
 10
-64.66790008544922
 20
-144.1141510009766
 30
0.0
 11
-64.36231994628906
 21
-144.0167694091797
 31
0.0
1001
DBPROPERTIES
1002
{
1000
PbHidd
1002
}
  0
LINE
  5
2B6
330
1F
100
AcDbEntity
  8
HIDDEN
100
AcDbLine
 10
-64.36231994628906
 20
-144.0167694091797
 30
0.0
 11
-64.04096221923828
 21
-143.9248199462891
 31
0.0
1001
DBPROPERTIES
1002
{
1000
PbHidd
1002
}
  0
LINE
  5
2B7
330
1F
100
AcDbEntity
  8
HIDDEN
100
AcDbLine
 10
-64.04096221923828
 20
-143.9248199462891
 30
0.0
 11
-63.70299911499023
 21
-143.838623046875
 31
0.0
1001
DBPROPERTIES
1002
{
1000
PbHidd
1002
}
  0
LINE
  5
2B8
330
1F
100
AcDbEntity
  8
HIDDEN
100
AcDbLine
 10
-63.70299911499023
 20
-143.838623046875
 30
0.0
 11
-63.35147094726562
 21
-143.7597198486328
 31
0.0
1001
DBPROPERTIES
1002
{
1000
PbHidd
1002
}
  0
LINE
  5
2B9
330
1F
100
AcDbEntity
  8
HIDDEN
100
AcDbLine
 10
-63.35147094726562
 20
-143.7597198486328
 30
0.0
 11
-62.98976898193359
 21
-143.6893157958984
 31
0.0
1001
DBPROPERTIES
1002
{
1000
PbHidd
1002
}
  0
LINE
  5
2BA
330
1F
100
AcDbEntity
  8
HIDDEN
100
AcDbLine
 10
-62.98976898193359
 20
-143.6893157958984
 30
0.0
 11
-62.62149047851562
 21
-143.6283874511719
 31
0.0
1001
DBPROPERTIES
1002
{
1000
PbHidd
1002
}
  0
LINE
  5
2BB
330
1F
100
AcDbEntity
  8
HIDDEN
100
AcDbLine
 10
-62.62149047851562
 20
-143.6283874511719
 30
0.0
 11
-62.24999618530273
 21
-143.5777893066406
 31
0.0
1001
DBPROPERTIES
1002
{
1000
PbHidd
1002
}
  0
LINE
  5
2BC
330
1F
100
AcDbEntity
  8
HIDDEN
100
AcDbLine
 10
-62.24999618530273
 20
-143.5777893066406
 30
0.0
 11
-61.88884353637695
 21
-143.5388793945312
 31
0.0
1001
DBPROPERTIES
1002
{
1000
PbHidd
1002
}
  0
LINE
  5
2BD
330
1F
100
AcDbEntity
  8
HIDDEN
100
AcDbLine
 10
-61.88884353637695
 20
-143.5388793945312
 30
0.0
 11
-61.5316047668457
 21
-143.5105285644531
 31
0.0
1001
DBPROPERTIES
1002
{
1000
PbHidd
1002
}
  0
LINE
  5
2BE
330
1F
100
AcDbEntity
  8
HIDDEN
100
AcDbLine
 10
-61.5316047668457
 20
-143.5105285644531
 30
0.0
 11
-61.1817512512207
 21
-143.4927673339844
 31
0.0
1001
DBPROPERTIES
1002
{
1000
PbHidd
1002
}
  0
LINE
  5
2BF
330
1F
100
AcDbEntity
  8
HIDDEN
100
AcDbLine
 10
-61.1817512512207
 20
-143.4927673339844
 30
0.0
 11
-60.84270095825195
 21
-143.4853210449219
 31
0.0
1001
DBPROPERTIES
1002
{
1000
PbHidd
1002
}
  0
LINE
  5
2C0
330
1F
100
AcDbEntity
  8
HIDDEN
100
AcDbLine
 10
-60.84270095825195
 20
-143.4853210449219
 30
0.0
 11
-60.51338958740234
 21
-143.4878845214844
 31
0.0
1001
DBPROPERTIES
1002
{
1000
PbHidd
1002
}
  0
LINE
  5
2C1
330
1F
100
AcDbEntity
  8
HIDDEN
100
AcDbLine
 10
-60.51338958740234
 20
-143.4878845214844
 30
0.0
 11
-60.18682098388672
 21
-143.5005950927734
 31
0.0
1001
DBPROPERTIES
1002
{
1000
PbHidd
1002
}
  0
LINE
  5
2C2
330
1F
100
AcDbEntity
  8
HIDDEN
100
AcDbLine
 10
-60.18682098388672
 20
-143.5005950927734
 30
0.0
 11
-59.86641311645508
 21
-143.5237731933594
 31
0.0
1001
DBPROPERTIES
1002
{
1000
PbHidd
1002
}
  0
LINE
  5
2C3
330
1F
100
AcDbEntity
  8
HIDDEN
100
AcDbLine
 10
-59.86641311645508
 20
-143.5237731933594
 30
0.0
 11
-59.55586624145508
 21
-143.5576019287109
 31
0.0
1001
DBPROPERTIES
1002
{
1000
PbHidd
1002
}
  0
LINE
  5
2C4
330
1F
100
AcDbEntity
  8
HIDDEN
100
AcDbLine
 10
-59.55586624145508
 20
-143.5576019287109
 30
0.0
 11
-59.25832366943359
 21
-143.6017913818359
 31
0.0
1001
DBPROPERTIES
1002
{
1000
PbHidd
1002
}
  0
LINE
  5
2C5
330
1F
100
AcDbEntity
  8
HIDDEN
100
AcDbLine
 10
-59.25832366943359
 20
-143.6017913818359
 30
0.0
 11
-58.97678756713867
 21
-143.6559906005859
 31
0.0
1001
DBPROPERTIES
1002
{
1000
PbHidd
1002
}
  0
LINE
  5
2C6
330
1F
100
AcDbEntity
  8
HIDDEN
100
AcDbLine
 10
-58.97678756713867
 20
-143.6559906005859
 30
0.0
 11
-58.71358489990234
 21
-143.7196350097656
 31
0.0
1001
DBPROPERTIES
1002
{
1000
PbHidd
1002
}
  0
LINE
  5
2C7
330
1F
100
AcDbEntity
  8
HIDDEN
100
AcDbLine
 10
-58.71358489990234
 20
-143.7196350097656
 30
0.0
 11
-58.47068405151367
 21
-143.7918701171875
 31
0.0
1001
DBPROPERTIES
1002
{
1000
PbHidd
1002
}
  0
LINE
  5
2C8
330
1F
100
AcDbEntity
  8
HIDDEN
100
AcDbLine
 10
-58.47068405151367
 20
-143.7918701171875
 30
0.0
 11
-58.25001907348633
 21
-143.8716888427734
 31
0.0
1001
DBPROPERTIES
1002
{
1000
PbHidd
1002
}
  0
LINE
  5
2C9
330
1F
100
AcDbEntity
  8
THICK
100
AcDbLine
 10
-58.25001907348633
 20
-143.8716888427734
 30
0.0
 11
-58.04354095458984
 21
-143.9622955322266
 31
0.0
1001
DBPROPERTIES
1002
{
1000
PbThick
1002
}
  0
LINE
  5
2CA
330
1F
100
AcDbEntity
  8
THICK
100
AcDbLine
 10
-58.04354095458984
 20
-143.9622955322266
 30
0.0
 11
-57.86354827880859
 21
-144.0582733154297
 31
0.0
1001
DBPROPERTIES
1002
{
1000
PbThick
1002
}
  0
LINE
  5
2CB
330
1F
100
AcDbEntity
  8
THICK
100
AcDbLine
 10
-57.86354827880859
 20
-144.0582733154297
 30
0.0
 11
-57.7056770324707
 21
-144.1613006591797
 31
0.0
1001
DBPROPERTIES
1002
{
1000
PbThick
1002
}
  0
LINE
  5
2CC
330
1F
100
AcDbEntity
  8
THICK
100
AcDbLine
 10
-57.7056770324707
 20
-144.1613006591797
 30
0.0
 11
-57.56858825683594
 21
-144.2723693847656
 31
0.0
1001
DBPROPERTIES
1002
{
1000
PbThick
1002
}
  0
LINE
  5
2CD
330
1F
100
AcDbEntity
  8
THICK
100
AcDbLine
 10
-57.56858825683594
 20
-144.2723693847656
 30
0.0
 11
-57.45443725585938
 21
-144.3906555175781
 31
0.0
1001
DBPROPERTIES
1002
{
1000
PbThick
1002
}
  0
LINE
  5
2CE
330
1F
100
AcDbEntity
  8
THICK
100
AcDbLine
 10
-57.45443725585938
 20
-144.3906555175781
 30
0.0
 11
-57.36481094360352
 21
-144.5152130126953
 31
0.0
1001
DBPROPERTIES
1002
{
1000
PbThick
1002
}
  0
LINE
  5
2CF
330
1F
100
AcDbEntity
  8
THICK
100
AcDbLine
 10
-57.36481094360352
 20
-144.5152130126953
 30
0.0
 11
-57.30052185058594
 21
-144.6449737548828
 31
0.0
1001
DBPROPERTIES
1002
{
1000
PbThick
1002
}
  0
LINE
  5
2D0
330
1F
100
AcDbEntity
  8
THICK
100
AcDbLine
 10
-57.30052185058594
 20
-144.6449737548828
 30
0.0
 11
-57.26227951049805
 21
-144.77880859375
 31
0.0
1001
DBPROPERTIES
1002
{
1000
PbThick
1002
}
  0
LINE
  5
2D1
330
1F
100
AcDbEntity
  8
THICK
100
AcDbLine
 10
-57.26227951049805
 20
-144.77880859375
 30
0.0
 11
-57.25008392333984
 21
-144.9156036376953
 31
0.0
1001
DBPROPERTIES
1002
{
1000
PbThick
1002
}
  0
LINE
  5
2D2
330
1F
100
AcDbEntity
  8
THICK
100
AcDbLine
 10
-57.25008392333984
 20
-144.9156036376953
 30
0.0
 11
-57.26037979125977
 21
-145.0368041992188
 31
0.0
1001
DBPROPERTIES
1002
{
1000
PbThick
1002
}
  0
LINE
  5
2D3
330
1F
100
AcDbEntity
  8
THICK
100
AcDbLine
 10
-57.26037979125977
 20
-145.0368041992188
 30
0.0
 11
-57.28985214233398
 21
-145.1584625244141
 31
0.0
1001
DBPROPERTIES
1002
{
1000
PbThick
1002
}
  0
LINE
  5
2D4
330
1F
100
AcDbEntity
  8
THICK
100
AcDbLine
 10
-57.28985214233398
 20
-145.1584625244141
 30
0.0
 11
-57.33757400512695
 21
-145.2796783447266
 31
0.0
1001
DBPROPERTIES
1002
{
1000
PbThick
1002
}
  0
LINE
  5
2D5
330
1F
100
AcDbEntity
  8
THICK
100
AcDbLine
 10
-57.33757400512695
 20
-145.2796783447266
 30
0.0
 11
-57.40226745605469
 21
-145.3995361328125
 31
0.0
1001
DBPROPERTIES
1002
{
1000
PbThick
1002
}
  0
LINE
  5
2D6
330
1F
100
AcDbEntity
  8
THICK
100
AcDbLine
 10
-57.40226745605469
 20
-145.3995361328125
 30
0.0
 11
-57.48308181762695
 21
-145.5177612304688
 31
0.0
1001
DBPROPERTIES
1002
{
1000
PbThick
1002
}
  0
LINE
  5
2D7
330
1F
100
AcDbEntity
  8
THICK
100
AcDbLine
 10
-57.48308181762695
 20
-145.5177612304688
 30
0.0
 11
-57.58215713500977
 21
-145.6374969482422
 31
0.0
1001
DBPROPERTIES
1002
{
1000
PbThick
1002
}
  0
LINE
  5
2D8
330
1F
100
AcDbEntity
  8
THICK
100
AcDbLine
 10
-57.58215713500977
 20
-145.6374969482422
 30
0.0
 11
-57.70000076293945
 21
-145.7586059570312
 31
0.0
1001
DBPROPERTIES
1002
{
1000
PbThick
1002
}
  0
LINE
  5
2D9
330
1F
100
AcDbEntity
  8
THICK
100
AcDbLine
 10
-57.70000076293945
 20
-145.7586059570312
 30
0.0
 11
-57.83665466308594
 21
-145.8801727294922
 31
0.0
1001
DBPROPERTIES
1002
{
1000
PbThick
1002
}
  0
LINE
  5
2DA
330
1F
100
AcDbEntity
  8
THICK
100
AcDbLine
 10
-57.83665466308594
 20
-145.8801727294922
 30
0.0
 11
-57.99186325073242
 21
-146.0013275146484
 31
0.0
1001
DBPROPERTIES
1002
{
1000
PbThick
1002
}
  0
LINE
  5
2DB
330
1F
100
AcDbEntity
  8
THICK
100
AcDbLine
 10
-57.99186325073242
 20
-146.0013275146484
 30
0.0
 11
-58.16486740112305
 21
-146.1212768554688
 31
0.0
1001
DBPROPERTIES
1002
{
1000
PbThick
1002
}
  0
LINE
  5
2DC
330
1F
100
AcDbEntity
  8
THICK
100
AcDbLine
 10
-58.16486740112305
 20
-146.1212768554688
 30
0.0
 11
-58.35486602783203
 21
-146.2391510009766
 31
0.0
1001
DBPROPERTIES
1002
{
1000
PbThick
1002
}
  0
LINE
  5
2DD
330
1F
100
AcDbEntity
  8
THICK
100
AcDbLine
 10
-58.35486602783203
 20
-146.2391510009766
 30
0.0
 11
-58.56100463867188
 21
-146.354248046875
 31
0.0
1001
DBPROPERTIES
1002
{
1000
PbThick
1002
}
  0
LINE
  5
2DE
330
1F
100
AcDbEntity
  8
THICK
100
AcDbLine
 10
-58.56100463867188
 20
-146.354248046875
 30
0.0
 11
-58.78195190429688
 21
-146.4658660888672
 31
0.0
1001
DBPROPERTIES
1002
{
1000
PbThick
1002
}
  0
LINE
  5
2DF
330
1F
100
AcDbEntity
  8
THICK
100
AcDbLine
 10
-58.78195190429688
 20
-146.4658660888672
 30
0.0
 11
-59.01620864868164
 21
-146.5733032226562
 31
0.0
1001
DBPROPERTIES
1002
{
1000
PbThick
1002
}
  0
LINE
  5
2E0
330
1F
100
AcDbEntity
  8
THICK
100
AcDbLine
 10
-59.01620864868164
 20
-146.5733032226562
 30
0.0
 11
-59.26220321655273
 21
-146.6758728027344
 31
0.0
1001
DBPROPERTIES
1002
{
1000
PbThick
1002
}
  0
LINE
  5
2E1
330
1F
100
AcDbEntity
  8
THICK
100
AcDbLine
 10
-59.26220321655273
 20
-146.6758728027344
 30
0.0
 11
-59.51794815063477
 21
-146.7730102539062
 31
0.0
1001
DBPROPERTIES
1002
{
1000
PbThick
1002
}
  0
LINE
  5
2E2
330
1F
100
AcDbEntity
  8
THICK
100
AcDbLine
 10
-59.51794815063477
 20
-146.7730102539062
 30
0.0
 11
-59.78128051757812
 21
-146.8641967773438
 31
0.0
1001
DBPROPERTIES
1002
{
1000
PbThick
1002
}
  0
LINE
  5
2E3
330
1F
100
AcDbEntity
  8
THICK
100
AcDbLine
 10
-59.78128051757812
 20
-146.8641967773438
 30
0.0
 11
-60.05251312255859
 21
-146.9496917724609
 31
0.0
1001
DBPROPERTIES
1002
{
1000
PbThick
1002
}
  0
LINE
  5
2E4
330
1F
100
AcDbEntity
  8
THICK
100
AcDbLine
 10
-60.05251312255859
 20
-146.9496917724609
 30
0.0
 11
-60.33802795410156
 21
-147.0313568115234
 31
0.0
1001
DBPROPERTIES
1002
{
1000
PbThick
1002
}
  0
LINE
  5
2E5
330
1F
100
AcDbEntity
  8
THICK
100
AcDbLine
 10
-60.33802795410156
 20
-147.0313568115234
 30
0.0
 11
-60.63656616210938
 21
-147.1084289550781
 31
0.0
1001
DBPROPERTIES
1002
{
1000
PbThick
1002
}
  0
LINE
  5
2E6
330
1F
100
AcDbEntity
  8
THICK
100
AcDbLine
 10
-60.63656616210938
 20
-147.1084289550781
 30
0.0
 11
-60.94617080688477
 21
-147.1799468994141
 31
0.0
1001
DBPROPERTIES
1002
{
1000
PbThick
1002
}
  0
LINE
  5
2E7
330
1F
100
AcDbEntity
  8
THICK
100
AcDbLine
 10
-60.94617080688477
 20
-147.1799468994141
 30
0.0
 11
-61.26465225219727
 21
-147.2451019287109
 31
0.0
1001
DBPROPERTIES
1002
{
1000
PbThick
1002
}
  0
LINE
  5
2E8
330
1F
100
AcDbEntity
  8
THICK
100
AcDbLine
 10
-61.26465225219727
 20
-147.2451019287109
 30
0.0
 11
-61.58964157104492
 21
-147.3032684326172
 31
0.0
1001
DBPROPERTIES
1002
{
1000
PbThick
1002
}
  0
LINE
  5
2E9
330
1F
100
AcDbEntity
  8
THICK
100
AcDbLine
 10
-61.58964157104492
 20
-147.3032684326172
 30
0.0
 11
-61.9188117980957
 21
-147.3538665771484
 31
0.0
1001
DBPROPERTIES
1002
{
1000
PbThick
1002
}
  0
LINE
  5
2EA
330
1F
100
AcDbEntity
  8
THICK
100
AcDbLine
 10
-61.9188117980957
 20
-147.3538665771484
 30
0.0
 11
-62.25000381469727
 21
-147.396484375
 31
0.0
1001
DBPROPERTIES
1002
{
1000
PbThick
1002
}
  0
LINE
  5
2EB
330
1F
100
AcDbEntity
  8
THICK
100
AcDbLine
 10
-216.2
 20
-173.525
 30
0.0
 11
-0.0000000000000498
 21
-173.525
 31
0.0
1001
DBPROPERTIES
1002
{
1000
PbThick
1002
}
  0
LINE
  5
2EC
330
1F
100
AcDbEntity
  8
THICK
100
AcDbLine
 10
-192.7
 20
-164.125
 30
0.0
 11
-66.24999997187798
 21
-164.125
 31
0.0
1001
DBPROPERTIES
1002
{
1000
PbThick
1002
}
  0
LINE
  5
2ED
330
1F
100
AcDbEntity
  8
HIDDEN
100
AcDbLine
 10
-66.24999997187798
 20
-164.125
 30
0.0
 11
-58.24999995993914
 21
-164.125
 31
0.0
1001
DBPROPERTIES
1002
{
1000
PbHidd
1002
}
  0
LINE
  5
2EE
330
1F
100
AcDbEntity
  8
THICK
100
AcDbLine
 10
-58.24999995993914
 20
-164.125
 30
0.0
 11
-0.0000000000000454
 21
-164.125
 31
0.0
1001
DBPROPERTIES
1002
{
1000
PbThick
1002
}
  0
LINE
  5
2EF
330
1F
100
AcDbEntity
  8
THICK
100
AcDbLine
 10
-62.25000381469727
 20
-172.646484375
 30
0.0
 11
-62.54967880249023
 21
-172.6780090332031
 31
0.0
1001
DBPROPERTIES
1002
{
1000
PbThick
1002
}
  0
LINE
  5
2F0
330
1F
100
AcDbEntity
  8
THICK
100
AcDbLine
 10
-62.54967880249023
 20
-172.6780090332031
 30
0.0
 11
-62.84706878662109
 21
-172.7026062011719
 31
0.0
1001
DBPROPERTIES
1002
{
1000
PbThick
1002
}
  0
LINE
  5
2F1
330
1F
100
AcDbEntity
  8
THICK
100
AcDbLine
 10
-62.84706878662109
 20
-172.7026062011719
 30
0.0
 11
-63.14030075073242
 21
-172.72021484375
 31
0.0
1001
DBPROPERTIES
1002
{
1000
PbThick
1002
}
  0
LINE
  5
2F2
330
1F
100
AcDbEntity
  8
THICK
100
AcDbLine
 10
-63.14030075073242
 20
-172.72021484375
 30
0.0
 11
-63.42754364013672
 21
-172.73095703125
 31
0.0
1001
DBPROPERTIES
1002
{
1000
PbThick
1002
}
  0
LINE
  5
2F3
330
1F
100
AcDbEntity
  8
THICK
100
AcDbLine
 10
-63.42754364013672
 20
-172.73095703125
 30
0.0
 11
-63.70696640014648
 21
-172.7349853515625
 31
0.0
1001
DBPROPERTIES
1002
{
1000
PbThick
1002
}
  0
LINE
  5
2F4
330
1F
100
AcDbEntity
  8
THICK
100
AcDbLine
 10
-63.70696640014648
 20
-172.7349853515625
 30
0.0
 11
-63.98056030273438
 21
-172.732421875
 31
0.0
1001
DBPROPERTIES
1002
{
1000
PbThick
1002
}
  0
LINE
  5
2F5
330
1F
100
AcDbEntity
  8
THICK
100
AcDbLine
 10
-63.98056030273438
 20
-172.732421875
 30
0.0
 11
-64.25215911865234
 21
-172.7232055664062
 31
0.0
1001
DBPROPERTIES
1002
{
1000
PbThick
1002
}
  0
LINE
  5
2F6
330
1F
100
AcDbEntity
  8
THICK
100
AcDbLine
 10
-64.25215911865234
 20
-172.7232055664062
 30
0.0
 11
-64.51976776123047
 21
-172.7071533203125
 31
0.0
1001
DBPROPERTIES
1002
{
1000
PbThick
1002
}
  0
LINE
  5
2F7
330
1F
100
AcDbEntity
  8
THICK
100
AcDbLine
 10
-64.51976776123047
 20
-172.7071533203125
 30
0.0
 11
-64.78131866455078
 21
-172.6841125488281
 31
0.0
1001
DBPROPERTIES
1002
{
1000
PbThick
1002
}
  0
LINE
  5
2F8
330
1F
100
AcDbEntity
  8
THICK
100
AcDbLine
 10
-64.78131866455078
 20
-172.6841125488281
 30
0.0
 11
-65.03500366210938
 21
-172.6541290283203
 31
0.0
1001
DBPROPERTIES
1002
{
1000
PbThick
1002
}
  0
LINE
  5
2F9
330
1F
100
AcDbEntity
  8
THICK
100
AcDbLine
 10
-65.03500366210938
 20
-172.6541290283203
 30
0.0
 11
-65.27919006347656
 21
-172.6173553466797
 31
0.0
1001
DBPROPERTIES
1002
{
1000
PbThick
1002
}
  0
LINE
  5
2FA
330
1F
100
AcDbEntity
  8
THICK
100
AcDbLine
 10
-65.27919006347656
 20
-172.6173553466797
 30
0.0
 11
-65.51229858398438
 21
-172.573974609375
 31
0.0
1001
DBPROPERTIES
1002
{
1000
PbThick
1002
}
  0
LINE
  5
2FB
330
1F
100
AcDbEntity
  8
THICK
100
AcDbLine
 10
-65.51229858398438
 20
-172.573974609375
 30
0.0
 11
-65.73298645019531
 21
-172.5242156982422
 31
0.0
1001
DBPROPERTIES
1002
{
1000
PbThick
1002
}
  0
LINE
  5
2FC
330
1F
100
AcDbEntity
  8
THICK
100
AcDbLine
 10
-65.73298645019531
 20
-172.5242156982422
 30
0.0
 11
-65.94025421142578
 21
-172.4684753417969
 31
0.0
1001
DBPROPERTIES
1002
{
1000
PbThick
1002
}
  0
LINE
  5
2FD
330
1F
100
AcDbEntity
  8
THICK
100
AcDbLine
 10
-65.94025421142578
 20
-172.4684753417969
 30
0.0
 11
-66.13304901123047
 21
-172.4072418212891
 31
0.0
1001
DBPROPERTIES
1002
{
1000
PbThick
1002
}
  0
LINE
  5
2FE
330
1F
100
AcDbEntity
  8
THICK
100
AcDbLine
 10
-66.13304901123047
 20
-172.4072418212891
 30
0.0
 11
-66.31038665771484
 21
-172.3409576416016
 31
0.0
1001
DBPROPERTIES
1002
{
1000
PbThick
1002
}
  0
LINE
  5
2FF
330
1F
100
AcDbEntity
  8
THICK
100
AcDbLine
 10
-66.31038665771484
 20
-172.3409576416016
 30
0.0
 11
-66.4716796875
 21
-172.2702941894531
 31
0.0
1001
DBPROPERTIES
1002
{
1000
PbThick
1002
}
  0
LINE
  5
300
330
1F
100
AcDbEntity
  8
THICK
100
AcDbLine
 10
-66.4716796875
 20
-172.2702941894531
 30
0.0
 11
-66.61662292480469
 21
-172.1959686279297
 31
0.0
1001
DBPROPERTIES
1002
{
1000
PbThick
1002
}
  0
LINE
  5
301
330
1F
100
AcDbEntity
  8
THICK
100
AcDbLine
 10
-66.61662292480469
 20
-172.1959686279297
 30
0.0
 11
-66.7451400756836
 21
-172.1185607910156
 31
0.0
1001
DBPROPERTIES
1002
{
1000
PbThick
1002
}
  0
LINE
  5
302
330
1F
100
AcDbEntity
  8
THICK
100
AcDbLine
 10
-66.7451400756836
 20
-172.1185607910156
 30
0.0
 11
-66.86022186279297
 21
-172.0364990234375
 31
0.0
1001
DBPROPERTIES
1002
{
1000
PbThick
1002
}
  0
LINE
  5
303
330
1F
100
AcDbEntity
  8
THICK
100
AcDbLine
 10
-66.86022186279297
 20
-172.0364990234375
 30
0.0
 11
-66.96199035644531
 21
-171.9494934082031
 31
0.0
1001
DBPROPERTIES
1002
{
1000
PbThick
1002
}
  0
LINE
  5
304
330
1F
100
AcDbEntity
  8
THICK
100
AcDbLine
 10
-66.96199035644531
 20
-171.9494934082031
 30
0.0
 11
-67.04944610595703
 21
-171.8579254150391
 31
0.0
1001
DBPROPERTIES
1002
{
1000
PbThick
1002
}
  0
LINE
  5
305
330
1F
100
AcDbEntity
  8
THICK
100
AcDbLine
 10
-67.04944610595703
 20
-171.8579254150391
 30
0.0
 11
-67.12164306640625
 21
-171.76220703125
 31
0.0
1001
DBPROPERTIES
1002
{
1000
PbThick
1002
}
  0
LINE
  5
306
330
1F
100
AcDbEntity
  8
THICK
100
AcDbLine
 10
-67.12164306640625
 20
-171.76220703125
 30
0.0
 11
-67.17807006835938
 21
-171.6627960205078
 31
0.0
1001
DBPROPERTIES
1002
{
1000
PbThick
1002
}
  0
LINE
  5
307
330
1F
100
AcDbEntity
  8
THICK
100
AcDbLine
 10
-67.17807006835938
 20
-171.6627960205078
 30
0.0
 11
-67.21843719482422
 21
-171.5602416992188
 31
0.0
1001
DBPROPERTIES
1002
{
1000
PbThick
1002
}
  0
LINE
  5
308
330
1F
100
AcDbEntity
  8
THICK
100
AcDbLine
 10
-67.21843719482422
 20
-171.5602416992188
 30
0.0
 11
-67.24241638183594
 21
-171.4550628662109
 31
0.0
1001
DBPROPERTIES
1002
{
1000
PbThick
1002
}
  0
LINE
  5
309
330
1F
100
AcDbEntity
  8
THICK
100
AcDbLine
 10
-67.24241638183594
 20
-171.4550628662109
 30
0.0
 11
-67.24992370605469
 21
-171.3477478027344
 31
0.0
1001
DBPROPERTIES
1002
{
1000
PbThick
1002
}
  0
LINE
  5
30A
330
1F
100
AcDbEntity
  8
THICK
100
AcDbLine
 10
-67.24992370605469
 20
-171.3477478027344
 30
0.0
 11
-67.24170684814453
 21
-171.2419586181641
 31
0.0
1001
DBPROPERTIES
1002
{
1000
PbThick
1002
}
  0
LINE
  5
30B
330
1F
100
AcDbEntity
  8
THICK
100
AcDbLine
 10
-67.24170684814453
 20
-171.2419586181641
 30
0.0
 11
-67.21849060058594
 21
-171.1352844238281
 31
0.0
1001
DBPROPERTIES
1002
{
1000
PbThick
1002
}
  0
LINE
  5
30C
330
1F
100
AcDbEntity
  8
THICK
100
AcDbLine
 10
-67.21849060058594
 20
-171.1352844238281
 30
0.0
 11
-67.18061065673828
 21
-171.0282592773438
 31
0.0
1001
DBPROPERTIES
1002
{
1000
PbThick
1002
}
  0
LINE
  5
30D
330
1F
100
AcDbEntity
  8
THICK
100
AcDbLine
 10
-67.18061065673828
 20
-171.0282592773438
 30
0.0
 11
-67.12872314453125
 21
-170.9214782714844
 31
0.0
1001
DBPROPERTIES
1002
{
1000
PbThick
1002
}
  0
LINE
  5
30E
330
1F
100
AcDbEntity
  8
THICK
100
AcDbLine
 10
-67.12872314453125
 20
-170.9214782714844
 30
0.0
 11
-67.06376647949219
 21
-170.8155670166016
 31
0.0
1001
DBPROPERTIES
1002
{
1000
PbThick
1002
}
  0
LINE
  5
30F
330
1F
100
AcDbEntity
  8
THICK
100
AcDbLine
 10
-67.06376647949219
 20
-170.8155670166016
 30
0.0
 11
-66.98665618896484
 21
-170.7111206054688
 31
0.0
1001
DBPROPERTIES
1002
{
1000
PbThick
1002
}
  0
LINE
  5
310
330
1F
100
AcDbEntity
  8
THICK
100
AcDbLine
 10
-66.98665618896484
 20
-170.7111206054688
 30
0.0
 11
-66.89844512939453
 21
-170.6087646484375
 31
0.0
1001
DBPROPERTIES
1002
{
1000
PbThick
1002
}
  0
LINE
  5
311
330
1F
100
AcDbEntity
  8
THICK
100
AcDbLine
 10
-66.89844512939453
 20
-170.6087646484375
 30
0.0
 11
-66.79627227783203
 21
-170.5049591064453
 31
0.0
1001
DBPROPERTIES
1002
{
1000
PbThick
1002
}
  0
LINE
  5
312
330
1F
100
AcDbEntity
  8
THICK
100
AcDbLine
 10
-66.79627227783203
 20
-170.5049591064453
 30
0.0
 11
-66.68018341064453
 21
-170.4002685546875
 31
0.0
1001
DBPROPERTIES
1002
{
1000
PbThick
1002
}
  0
LINE
  5
313
330
1F
100
AcDbEntity
  8
THICK
100
AcDbLine
 10
-66.68018341064453
 20
-170.4002685546875
 30
0.0
 11
-66.55022430419922
 21
-170.2953186035156
 31
0.0
1001
DBPROPERTIES
1002
{
1000
PbThick
1002
}
  0
LINE
  5
314
330
1F
100
AcDbEntity
  8
THICK
100
AcDbLine
 10
-66.55022430419922
 20
-170.2953186035156
 30
0.0
 11
-66.40664672851562
 21
-170.1906585693359
 31
0.0
1001
DBPROPERTIES
1002
{
1000
PbThick
1002
}
  0
LINE
  5
315
330
1F
100
AcDbEntity
  8
THICK
100
AcDbLine
 10
-66.40664672851562
 20
-170.1906585693359
 30
0.0
 11
-66.25
 21
-170.0868377685547
 31
0.0
1001
DBPROPERTIES
1002
{
1000
PbThick
1002
}
  0
LINE
  5
316
330
1F
100
AcDbEntity
  8
HIDDEN
100
AcDbLine
 10
-66.25
 20
-170.0868377685547
 30
0.0
 11
-66.02841186523438
 21
-169.9543914794922
 31
0.0
1001
DBPROPERTIES
1002
{
1000
PbHidd
1002
}
  0
LINE
  5
317
330
1F
100
AcDbEntity
  8
HIDDEN
100
AcDbLine
 10
-66.02841186523438
 20
-169.9543914794922
 30
0.0
 11
-65.78713989257812
 21
-169.8254089355469
 31
0.0
1001
DBPROPERTIES
1002
{
1000
PbHidd
1002
}
  0
LINE
  5
318
330
1F
100
AcDbEntity
  8
HIDDEN
100
AcDbLine
 10
-65.78713989257812
 20
-169.8254089355469
 30
0.0
 11
-65.52809143066406
 21
-169.7008972167969
 31
0.0
1001
DBPROPERTIES
1002
{
1000
PbHidd
1002
}
  0
LINE
  5
319
330
1F
100
AcDbEntity
  8
HIDDEN
100
AcDbLine
 10
-65.52809143066406
 20
-169.7008972167969
 30
0.0
 11
-65.25350189208984
 21
-169.5818939208984
 31
0.0
1001
DBPROPERTIES
1002
{
1000
PbHidd
1002
}
  0
LINE
  5
31A
330
1F
100
AcDbEntity
  8
HIDDEN
100
AcDbLine
 10
-65.25350189208984
 20
-169.5818939208984
 30
0.0
 11
-64.96576690673828
 21
-169.4693756103516
 31
0.0
1001
DBPROPERTIES
1002
{
1000
PbHidd
1002
}
  0
LINE
  5
31B
330
1F
100
AcDbEntity
  8
HIDDEN
100
AcDbLine
 10
-64.96576690673828
 20
-169.4693756103516
 30
0.0
 11
-64.66790008544922
 21
-169.3641510009766
 31
0.0
1001
DBPROPERTIES
1002
{
1000
PbHidd
1002
}
  0
LINE
  5
31C
330
1F
100
AcDbEntity
  8
HIDDEN
100
AcDbLine
 10
-64.66790008544922
 20
-169.3641510009766
 30
0.0
 11
-64.36231994628906
 21
-169.2667694091797
 31
0.0
1001
DBPROPERTIES
1002
{
1000
PbHidd
1002
}
  0
LINE
  5
31D
330
1F
100
AcDbEntity
  8
HIDDEN
100
AcDbLine
 10
-64.36231994628906
 20
-169.2667694091797
 30
0.0
 11
-64.04096221923828
 21
-169.1748199462891
 31
0.0
1001
DBPROPERTIES
1002
{
1000
PbHidd
1002
}
  0
LINE
  5
31E
330
1F
100
AcDbEntity
  8
HIDDEN
100
AcDbLine
 10
-64.04096221923828
 20
-169.1748199462891
 30
0.0
 11
-63.70299911499023
 21
-169.088623046875
 31
0.0
1001
DBPROPERTIES
1002
{
1000
PbHidd
1002
}
  0
LINE
  5
31F
330
1F
100
AcDbEntity
  8
HIDDEN
100
AcDbLine
 10
-63.70299911499023
 20
-169.088623046875
 30
0.0
 11
-63.35147094726562
 21
-169.0097198486328
 31
0.0
1001
DBPROPERTIES
1002
{
1000
PbHidd
1002
}
  0
LINE
  5
320
330
1F
100
AcDbEntity
  8
HIDDEN
100
AcDbLine
 10
-63.35147094726562
 20
-169.0097198486328
 30
0.0
 11
-62.98976898193359
 21
-168.9393157958984
 31
0.0
1001
DBPROPERTIES
1002
{
1000
PbHidd
1002
}
  0
LINE
  5
321
330
1F
100
AcDbEntity
  8
HIDDEN
100
AcDbLine
 10
-62.98976898193359
 20
-168.9393157958984
 30
0.0
 11
-62.62149047851562
 21
-168.8783874511719
 31
0.0
1001
DBPROPERTIES
1002
{
1000
PbHidd
1002
}
  0
LINE
  5
322
330
1F
100
AcDbEntity
  8
HIDDEN
100
AcDbLine
 10
-62.62149047851562
 20
-168.8783874511719
 30
0.0
 11
-62.24999618530273
 21
-168.8277893066406
 31
0.0
1001
DBPROPERTIES
1002
{
1000
PbHidd
1002
}
  0
LINE
  5
323
330
1F
100
AcDbEntity
  8
HIDDEN
100
AcDbLine
 10
-62.24999618530273
 20
-168.8277893066406
 30
0.0
 11
-61.88884353637695
 21
-168.7888793945312
 31
0.0
1001
DBPROPERTIES
1002
{
1000
PbHidd
1002
}
  0
LINE
  5
324
330
1F
100
AcDbEntity
  8
HIDDEN
100
AcDbLine
 10
-61.88884353637695
 20
-168.7888793945312
 30
0.0
 11
-61.5316047668457
 21
-168.7605285644531
 31
0.0
1001
DBPROPERTIES
1002
{
1000
PbHidd
1002
}
  0
LINE
  5
325
330
1F
100
AcDbEntity
  8
HIDDEN
100
AcDbLine
 10
-61.5316047668457
 20
-168.7605285644531
 30
0.0
 11
-61.1817512512207
 21
-168.7427673339844
 31
0.0
1001
DBPROPERTIES
1002
{
1000
PbHidd
1002
}
  0
LINE
  5
326
330
1F
100
AcDbEntity
  8
HIDDEN
100
AcDbLine
 10
-61.1817512512207
 20
-168.7427673339844
 30
0.0
 11
-60.84270095825195
 21
-168.7353210449219
 31
0.0
1001
DBPROPERTIES
1002
{
1000
PbHidd
1002
}
  0
LINE
  5
327
330
1F
100
AcDbEntity
  8
HIDDEN
100
AcDbLine
 10
-60.84270095825195
 20
-168.7353210449219
 30
0.0
 11
-60.51338958740234
 21
-168.7378845214844
 31
0.0
1001
DBPROPERTIES
1002
{
1000
PbHidd
1002
}
  0
LINE
  5
328
330
1F
100
AcDbEntity
  8
HIDDEN
100
AcDbLine
 10
-60.51338958740234
 20
-168.7378845214844
 30
0.0
 11
-60.18682098388672
 21
-168.7505950927734
 31
0.0
1001
DBPROPERTIES
1002
{
1000
PbHidd
1002
}
  0
LINE
  5
329
330
1F
100
AcDbEntity
  8
HIDDEN
100
AcDbLine
 10
-60.18682098388672
 20
-168.7505950927734
 30
0.0
 11
-59.86641311645508
 21
-168.7737731933594
 31
0.0
1001
DBPROPERTIES
1002
{
1000
PbHidd
1002
}
  0
LINE
  5
32A
330
1F
100
AcDbEntity
  8
HIDDEN
100
AcDbLine
 10
-59.86641311645508
 20
-168.7737731933594
 30
0.0
 11
-59.55586624145508
 21
-168.8076019287109
 31
0.0
1001
DBPROPERTIES
1002
{
1000
PbHidd
1002
}
  0
LINE
  5
32B
330
1F
100
AcDbEntity
  8
HIDDEN
100
AcDbLine
 10
-59.55586624145508
 20
-168.8076019287109
 30
0.0
 11
-59.25832366943359
 21
-168.8517913818359
 31
0.0
1001
DBPROPERTIES
1002
{
1000
PbHidd
1002
}
  0
LINE
  5
32C
330
1F
100
AcDbEntity
  8
HIDDEN
100
AcDbLine
 10
-59.25832366943359
 20
-168.8517913818359
 30
0.0
 11
-58.97678756713867
 21
-168.9059906005859
 31
0.0
1001
DBPROPERTIES
1002
{
1000
PbHidd
1002
}
  0
LINE
  5
32D
330
1F
100
AcDbEntity
  8
HIDDEN
100
AcDbLine
 10
-58.97678756713867
 20
-168.9059906005859
 30
0.0
 11
-58.71358489990234
 21
-168.9696350097656
 31
0.0
1001
DBPROPERTIES
1002
{
1000
PbHidd
1002
}
  0
LINE
  5
32E
330
1F
100
AcDbEntity
  8
HIDDEN
100
AcDbLine
 10
-58.71358489990234
 20
-168.9696350097656
 30
0.0
 11
-58.47068405151367
 21
-169.0418701171875
 31
0.0
1001
DBPROPERTIES
1002
{
1000
PbHidd
1002
}
  0
LINE
  5
32F
330
1F
100
AcDbEntity
  8
HIDDEN
100
AcDbLine
 10
-58.47068405151367
 20
-169.0418701171875
 30
0.0
 11
-58.25001907348633
 21
-169.1216888427734
 31
0.0
1001
DBPROPERTIES
1002
{
1000
PbHidd
1002
}
  0
LINE
  5
330
330
1F
100
AcDbEntity
  8
THICK
100
AcDbLine
 10
-58.25001907348633
 20
-169.1216888427734
 30
0.0
 11
-58.04354095458984
 21
-169.2122955322266
 31
0.0
1001
DBPROPERTIES
1002
{
1000
PbThick
1002
}
  0
LINE
  5
331
330
1F
100
AcDbEntity
  8
THICK
100
AcDbLine
 10
-58.04354095458984
 20
-169.2122955322266
 30
0.0
 11
-57.86354827880859
 21
-169.3082733154297
 31
0.0
1001
DBPROPERTIES
1002
{
1000
PbThick
1002
}
  0
LINE
  5
332
330
1F
100
AcDbEntity
  8
THICK
100
AcDbLine
 10
-57.86354827880859
 20
-169.3082733154297
 30
0.0
 11
-57.7056770324707
 21
-169.4113006591797
 31
0.0
1001
DBPROPERTIES
1002
{
1000
PbThick
1002
}
  0
LINE
  5
333
330
1F
100
AcDbEntity
  8
THICK
100
AcDbLine
 10
-57.7056770324707
 20
-169.4113006591797
 30
0.0
 11
-57.56858825683594
 21
-169.5223693847656
 31
0.0
1001
DBPROPERTIES
1002
{
1000
PbThick
1002
}
  0
LINE
  5
334
330
1F
100
AcDbEntity
  8
THICK
100
AcDbLine
 10
-57.56858825683594
 20
-169.5223693847656
 30
0.0
 11
-57.45443725585938
 21
-169.6406555175781
 31
0.0
1001
DBPROPERTIES
1002
{
1000
PbThick
1002
}
  0
LINE
  5
335
330
1F
100
AcDbEntity
  8
THICK
100
AcDbLine
 10
-57.45443725585938
 20
-169.6406555175781
 30
0.0
 11
-57.36481094360352
 21
-169.7652130126953
 31
0.0
1001
DBPROPERTIES
1002
{
1000
PbThick
1002
}
  0
LINE
  5
336
330
1F
100
AcDbEntity
  8
THICK
100
AcDbLine
 10
-57.36481094360352
 20
-169.7652130126953
 30
0.0
 11
-57.30052185058594
 21
-169.8949737548828
 31
0.0
1001
DBPROPERTIES
1002
{
1000
PbThick
1002
}
  0
LINE
  5
337
330
1F
100
AcDbEntity
  8
THICK
100
AcDbLine
 10
-57.30052185058594
 20
-169.8949737548828
 30
0.0
 11
-57.26227951049805
 21
-170.02880859375
 31
0.0
1001
DBPROPERTIES
1002
{
1000
PbThick
1002
}
  0
LINE
  5
338
330
1F
100
AcDbEntity
  8
THICK
100
AcDbLine
 10
-57.26227951049805
 20
-170.02880859375
 30
0.0
 11
-57.25008392333984
 21
-170.1656036376953
 31
0.0
1001
DBPROPERTIES
1002
{
1000
PbThick
1002
}
  0
LINE
  5
339
330
1F
100
AcDbEntity
  8
THICK
100
AcDbLine
 10
-57.25008392333984
 20
-170.1656036376953
 30
0.0
 11
-57.26037979125977
 21
-170.2868041992188
 31
0.0
1001
DBPROPERTIES
1002
{
1000
PbThick
1002
}
  0
LINE
  5
33A
330
1F
100
AcDbEntity
  8
THICK
100
AcDbLine
 10
-57.26037979125977
 20
-170.2868041992188
 30
0.0
 11
-57.28985214233398
 21
-170.4084625244141
 31
0.0
1001
DBPROPERTIES
1002
{
1000
PbThick
1002
}
  0
LINE
  5
33B
330
1F
100
AcDbEntity
  8
THICK
100
AcDbLine
 10
-57.28985214233398
 20
-170.4084625244141
 30
0.0
 11
-57.33757400512695
 21
-170.5296783447266
 31
0.0
1001
DBPROPERTIES
1002
{
1000
PbThick
1002
}
  0
LINE
  5
33C
330
1F
100
AcDbEntity
  8
THICK
100
AcDbLine
 10
-57.33757400512695
 20
-170.5296783447266
 30
0.0
 11
-57.40226745605469
 21
-170.6495361328125
 31
0.0
1001
DBPROPERTIES
1002
{
1000
PbThick
1002
}
  0
LINE
  5
33D
330
1F
100
AcDbEntity
  8
THICK
100
AcDbLine
 10
-57.40226745605469
 20
-170.6495361328125
 30
0.0
 11
-57.48308181762695
 21
-170.7677612304688
 31
0.0
1001
DBPROPERTIES
1002
{
1000
PbThick
1002
}
  0
LINE
  5
33E
330
1F
100
AcDbEntity
  8
THICK
100
AcDbLine
 10
-57.48308181762695
 20
-170.7677612304688
 30
0.0
 11
-57.58215713500977
 21
-170.8874969482422
 31
0.0
1001
DBPROPERTIES
1002
{
1000
PbThick
1002
}
  0
LINE
  5
33F
330
1F
100
AcDbEntity
  8
THICK
100
AcDbLine
 10
-57.58215713500977
 20
-170.8874969482422
 30
0.0
 11
-57.70000076293945
 21
-171.0086059570312
 31
0.0
1001
DBPROPERTIES
1002
{
1000
PbThick
1002
}
  0
LINE
  5
340
330
1F
100
AcDbEntity
  8
THICK
100
AcDbLine
 10
-57.70000076293945
 20
-171.0086059570312
 30
0.0
 11
-57.83665466308594
 21
-171.1301727294922
 31
0.0
1001
DBPROPERTIES
1002
{
1000
PbThick
1002
}
  0
LINE
  5
341
330
1F
100
AcDbEntity
  8
THICK
100
AcDbLine
 10
-57.83665466308594
 20
-171.1301727294922
 30
0.0
 11
-57.99186325073242
 21
-171.2513275146484
 31
0.0
1001
DBPROPERTIES
1002
{
1000
PbThick
1002
}
  0
LINE
  5
342
330
1F
100
AcDbEntity
  8
THICK
100
AcDbLine
 10
-57.99186325073242
 20
-171.2513275146484
 30
0.0
 11
-58.16486740112305
 21
-171.3712768554688
 31
0.0
1001
DBPROPERTIES
1002
{
1000
PbThick
1002
}
  0
LINE
  5
343
330
1F
100
AcDbEntity
  8
THICK
100
AcDbLine
 10
-58.16486740112305
 20
-171.3712768554688
 30
0.0
 11
-58.35486602783203
 21
-171.4891510009766
 31
0.0
1001
DBPROPERTIES
1002
{
1000
PbThick
1002
}
  0
LINE
  5
344
330
1F
100
AcDbEntity
  8
THICK
100
AcDbLine
 10
-58.35486602783203
 20
-171.4891510009766
 30
0.0
 11
-58.56100463867188
 21
-171.604248046875
 31
0.0
1001
DBPROPERTIES
1002
{
1000
PbThick
1002
}
  0
LINE
  5
345
330
1F
100
AcDbEntity
  8
THICK
100
AcDbLine
 10
-58.56100463867188
 20
-171.604248046875
 30
0.0
 11
-58.78195190429688
 21
-171.7158660888672
 31
0.0
1001
DBPROPERTIES
1002
{
1000
PbThick
1002
}
  0
LINE
  5
346
330
1F
100
AcDbEntity
  8
THICK
100
AcDbLine
 10
-58.78195190429688
 20
-171.7158660888672
 30
0.0
 11
-59.01620864868164
 21
-171.8233032226562
 31
0.0
1001
DBPROPERTIES
1002
{
1000
PbThick
1002
}
  0
LINE
  5
347
330
1F
100
AcDbEntity
  8
THICK
100
AcDbLine
 10
-59.01620864868164
 20
-171.8233032226562
 30
0.0
 11
-59.26220321655273
 21
-171.9258728027344
 31
0.0
1001
DBPROPERTIES
1002
{
1000
PbThick
1002
}
  0
LINE
  5
348
330
1F
100
AcDbEntity
  8
THICK
100
AcDbLine
 10
-59.26220321655273
 20
-171.9258728027344
 30
0.0
 11
-59.51794815063477
 21
-172.0230102539062
 31
0.0
1001
DBPROPERTIES
1002
{
1000
PbThick
1002
}
  0
LINE
  5
349
330
1F
100
AcDbEntity
  8
THICK
100
AcDbLine
 10
-59.51794815063477
 20
-172.0230102539062
 30
0.0
 11
-59.78128051757812
 21
-172.1141967773438
 31
0.0
1001
DBPROPERTIES
1002
{
1000
PbThick
1002
}
  0
LINE
  5
34A
330
1F
100
AcDbEntity
  8
THICK
100
AcDbLine
 10
-59.78128051757812
 20
-172.1141967773438
 30
0.0
 11
-60.05251312255859
 21
-172.1996917724609
 31
0.0
1001
DBPROPERTIES
1002
{
1000
PbThick
1002
}
  0
LINE
  5
34B
330
1F
100
AcDbEntity
  8
THICK
100
AcDbLine
 10
-60.05251312255859
 20
-172.1996917724609
 30
0.0
 11
-60.33802795410156
 21
-172.2813568115234
 31
0.0
1001
DBPROPERTIES
1002
{
1000
PbThick
1002
}
  0
LINE
  5
34C
330
1F
100
AcDbEntity
  8
THICK
100
AcDbLine
 10
-60.33802795410156
 20
-172.2813568115234
 30
0.0
 11
-60.63656616210938
 21
-172.3584289550781
 31
0.0
1001
DBPROPERTIES
1002
{
1000
PbThick
1002
}
  0
LINE
  5
34D
330
1F
100
AcDbEntity
  8
THICK
100
AcDbLine
 10
-60.63656616210938
 20
-172.3584289550781
 30
0.0
 11
-60.94617080688477
 21
-172.4299468994141
 31
0.0
1001
DBPROPERTIES
1002
{
1000
PbThick
1002
}
  0
LINE
  5
34E
330
1F
100
AcDbEntity
  8
THICK
100
AcDbLine
 10
-60.94617080688477
 20
-172.4299468994141
 30
0.0
 11
-61.26465225219727
 21
-172.4951019287109
 31
0.0
1001
DBPROPERTIES
1002
{
1000
PbThick
1002
}
  0
LINE
  5
34F
330
1F
100
AcDbEntity
  8
THICK
100
AcDbLine
 10
-61.26465225219727
 20
-172.4951019287109
 30
0.0
 11
-61.58964157104492
 21
-172.5532684326172
 31
0.0
1001
DBPROPERTIES
1002
{
1000
PbThick
1002
}
  0
LINE
  5
350
330
1F
100
AcDbEntity
  8
THICK
100
AcDbLine
 10
-61.58964157104492
 20
-172.5532684326172
 30
0.0
 11
-61.9188117980957
 21
-172.6038665771484
 31
0.0
1001
DBPROPERTIES
1002
{
1000
PbThick
1002
}
  0
LINE
  5
351
330
1F
100
AcDbEntity
  8
THICK
100
AcDbLine
 10
-61.9188117980957
 20
-172.6038665771484
 30
0.0
 11
-62.25000381469727
 21
-172.646484375
 31
0.0
1001
DBPROPERTIES
1002
{
1000
PbThick
1002
}
  0
LINE
  5
352
330
1F
100
AcDbEntity
  8
THICK
100
AcDbLine
 10
35.25000000000001
 20
-202.0
 30
0.0
 11
197.4
 21
-202.0
 31
0.0
1001
DBPROPERTIES
1002
{
1000
PbThick
1002
}
  0
LINE
  5
353
330
1F
100
AcDbEntity
  8
HIDDEN
100
AcDbLine
 10
-0.0000000000000474
 20
-186.8
 30
0.0
 11
197.4
 21
-186.8
 31
0.0
1001
DBPROPERTIES
1002
{
1000
PbHidd
1002
}
  0
LINE
  5
354
330
1F
100
AcDbEntity
  8
THICK
100
AcDbLine
 10
-47.0
 20
0.0
 30
0.0
 11
-0.0000000000000086
 21
0.0
 31
0.0
1001
DBPROPERTIES
1002
{
1000
PbThick
1002
}
  0
LINE
  5
355
330
1F
100
AcDbEntity
  8
HIDDEN
100
AcDbLine
 10
-23.47039985656738
 20
-26.24057006835938
 30
0.0
 11
-23.49712944030762
 21
-26.0637264251709
 31
0.0
1001
DBPROPERTIES
1002
{
1000
PbHidd
1002
}
  0
LINE
  5
356
330
1F
100
AcDbEntity
  8
HIDDEN
100
AcDbLine
 10
-23.49712944030762
 20
-26.0637264251709
 30
0.0
 11
-23.51443672180176
 21
-25.88426208496094
 31
0.0
1001
DBPROPERTIES
1002
{
1000
PbHidd
1002
}
  0
LINE
  5
357
330
1F
100
AcDbEntity
  8
HIDDEN
100
AcDbLine
 10
-23.51443672180176
 20
-25.88426208496094
 30
0.0
 11
-23.52252006530762
 21
-25.70295333862305
 31
0.0
1001
DBPROPERTIES
1002
{
1000
PbHidd
1002
}
  0
LINE
  5
358
330
1F
100
AcDbEntity
  8
HIDDEN
100
AcDbLine
 10
-23.52252006530762
 20
-25.70295333862305
 30
0.0
 11
-23.52158546447754
 21
-25.52057838439941
 31
0.0
1001
DBPROPERTIES
1002
{
1000
PbHidd
1002
}
  0
LINE
  5
359
330
1F
100
AcDbEntity
  8
HIDDEN
100
AcDbLine
 10
-23.52158546447754
 20
-25.52057838439941
 30
0.0
 11
-23.51188659667969
 21
-25.33792304992676
 31
0.0
1001
DBPROPERTIES
1002
{
1000
PbHidd
1002
}
  0
LINE
  5
35A
330
1F
100
AcDbEntity
  8
HIDDEN
100
AcDbLine
 10
-23.51188659667969
 20
-25.33792304992676
 30
0.0
 11
-23.4937744140625
 21
-25.15579223632812
 31
0.0
1001
DBPROPERTIES
1002
{
1000
PbHidd
1002
}
  0
LINE
  5
35B
330
1F
100
AcDbEntity
  8
HIDDEN
100
AcDbLine
 10
-23.4937744140625
 20
-25.15579223632812
 30
0.0
 11
-23.46783447265625
 21
-24.97503471374512
 31
0.0
1001
DBPROPERTIES
1002
{
1000
PbHidd
1002
}
  0
LINE
  5
35C
330
1F
100
AcDbEntity
  8
HIDDEN
100
AcDbLine
 10
-23.46783447265625
 20
-24.97503471374512
 30
0.0
 11
-23.43454933166504
 21
-24.79647636413574
 31
0.0
1001
DBPROPERTIES
1002
{
1000
PbHidd
1002
}
  0
LINE
  5
35D
330
1F
100
AcDbEntity
  8
HIDDEN
100
AcDbLine
 10
-23.43454933166504
 20
-24.79647636413574
 30
0.0
 11
-23.3940601348877
 21
-24.61941146850586
 31
0.0
1001
DBPROPERTIES
1002
{
1000
PbHidd
1002
}
  0
LINE
  5
35E
330
1F
100
AcDbEntity
  8
HIDDEN
100
AcDbLine
 10
-23.3940601348877
 20
-24.61941146850586
 30
0.0
 11
-23.34553527832031
 21
-24.44000244140625
 31
0.0
1001
DBPROPERTIES
1002
{
1000
PbHidd
1002
}
  0
LINE
  5
35F
330
1F
100
AcDbEntity
  8
HIDDEN
100
AcDbLine
 10
-23.34553527832031
 20
-24.44000244140625
 30
0.0
 11
-23.26590919494629
 21
-24.1912899017334
 31
0.0
1001
DBPROPERTIES
1002
{
1000
PbHidd
1002
}
  0
LINE
  5
360
330
1F
100
AcDbEntity
  8
HIDDEN
100
AcDbLine
 10
-23.26590919494629
 20
-24.1912899017334
 30
0.0
 11
-23.17101097106934
 21
-23.94070434570312
 31
0.0
1001
DBPROPERTIES
1002
{
1000
PbHidd
1002
}
  0
LINE
  5
361
330
1F
100
AcDbEntity
  8
HIDDEN
100
AcDbLine
 10
-23.17101097106934
 20
-23.94070434570312
 30
0.0
 11
-23.06094932556152
 21
-23.69001007080078
 31
0.0
1001
DBPROPERTIES
1002
{
1000
PbHidd
1002
}
  0
LINE
  5
362
330
1F
100
AcDbEntity
  8
HIDDEN
100
AcDbLine
 10
-23.06094932556152
 20
-23.69001007080078
 30
0.0
 11
-22.9362621307373
 21
-23.44091987609863
 31
0.0
1001
DBPROPERTIES
1002
{
1000
PbHidd
1002
}
  0
LINE
  5
363
330
1F
100
AcDbEntity
  8
HIDDEN
100
AcDbLine
 10
-22.9362621307373
 20
-23.44091987609863
 30
0.0
 11
-22.79754638671875
 21
-23.19513511657715
 31
0.0
1001
DBPROPERTIES
1002
{
1000
PbHidd
1002
}
  0
LINE
  5
364
330
1F
100
AcDbEntity
  8
HIDDEN
100
AcDbLine
 10
-22.79754638671875
 20
-23.19513511657715
 30
0.0
 11
-22.64544868469238
 21
-22.9542407989502
 31
0.0
1001
DBPROPERTIES
1002
{
1000
PbHidd
1002
}
  0
LINE
  5
365
330
1F
100
AcDbEntity
  8
HIDDEN
100
AcDbLine
 10
-22.64544868469238
 20
-22.9542407989502
 30
0.0
 11
-22.48097610473633
 21
-22.71970367431641
 31
0.0
1001
DBPROPERTIES
1002
{
1000
PbHidd
1002
}
  0
LINE
  5
366
330
1F
100
AcDbEntity
  8
HIDDEN
100
AcDbLine
 10
-22.48097610473633
 20
-22.71970367431641
 30
0.0
 11
-22.30528831481934
 21
-22.49303817749023
 31
0.0
1001
DBPROPERTIES
1002
{
1000
PbHidd
1002
}
  0
LINE
  5
367
330
1F
100
AcDbEntity
  8
HIDDEN
100
AcDbLine
 10
-22.30528831481934
 20
-22.49303817749023
 30
0.0
 11
-22.11959648132324
 21
-22.27572441101074
 31
0.0
1001
DBPROPERTIES
1002
{
1000
PbHidd
1002
}
  0
LINE
  5
368
330
1F
100
AcDbEntity
  8
HIDDEN
100
AcDbLine
 10
-22.11959648132324
 20
-22.27572441101074
 30
0.0
 11
-21.92547798156738
 21
-22.06902122497559
 31
0.0
1001
DBPROPERTIES
1002
{
1000
PbHidd
1002
}
  0
LINE
  5
369
330
1F
100
AcDbEntity
  8
HIDDEN
100
AcDbLine
 10
-21.92547798156738
 20
-22.06902122497559
 30
0.0
 11
-21.72465515136719
 21
-21.87410354614258
 31
0.0
1001
DBPROPERTIES
1002
{
1000
PbHidd
1002
}
  0
LINE
  5
36A
330
1F
100
AcDbEntity
  8
HIDDEN
100
AcDbLine
 10
-21.72465515136719
 20
-21.87410354614258
 30
0.0
 11
-21.51556587219238
 21
-21.68930625915527
 31
0.0
1001
DBPROPERTIES
1002
{
1000
PbHidd
1002
}
  0
LINE
  5
36B
330
1F
100
AcDbEntity
  8
HIDDEN
100
AcDbLine
 10
-21.51556587219238
 20
-21.68930625915527
 30
0.0
 11
-21.2924747467041
 21
-21.51020240783691
 31
0.0
1001
DBPROPERTIES
1002
{
1000
PbHidd
1002
}
  0
LINE
  5
36C
330
1F
100
AcDbEntity
  8
HIDDEN
100
AcDbLine
 10
-21.2924747467041
 20
-21.51020240783691
 30
0.0
 11
-21.05650520324707
 21
-21.33906555175781
 31
0.0
1001
DBPROPERTIES
1002
{
1000
PbHidd
1002
}
  0
LINE
  5
36D
330
1F
100
AcDbEntity
  8
HIDDEN
100
AcDbLine
 10
-21.05650520324707
 20
-21.33906555175781
 30
0.0
 11
-20.80911636352539
 21
-21.17829704284668
 31
0.0
1001
DBPROPERTIES
1002
{
1000
PbHidd
1002
}
  0
LINE
  5
36E
330
1F
100
AcDbEntity
  8
HIDDEN
100
AcDbLine
 10
-20.80911636352539
 20
-21.17829704284668
 30
0.0
 11
-20.55209922790527
 21
-21.02985191345215
 31
0.0
1001
DBPROPERTIES
1002
{
1000
PbHidd
1002
}
  0
LINE
  5
36F
330
1F
100
AcDbEntity
  8
HIDDEN
100
AcDbLine
 10
-20.55209922790527
 20
-21.02985191345215
 30
0.0
 11
-20.28733062744141
 21
-20.89554977416992
 31
0.0
1001
DBPROPERTIES
1002
{
1000
PbHidd
1002
}
  0
LINE
  5
370
330
1F
100
AcDbEntity
  8
HIDDEN
100
AcDbLine
 10
-20.28733062744141
 20
-20.89554977416992
 30
0.0
 11
-20.01662445068359
 21
-20.77693367004395
 31
0.0
1001
DBPROPERTIES
1002
{
1000
PbHidd
1002
}
  0
LINE
  5
371
330
1F
100
AcDbEntity
  8
HIDDEN
100
AcDbLine
 10
-20.01662445068359
 20
-20.77693367004395
 30
0.0
 11
-19.74209976196289
 21
-20.67509460449219
 31
0.0
1001
DBPROPERTIES
1002
{
1000
PbHidd
1002
}
  0
LINE
  5
372
330
1F
100
AcDbEntity
  8
HIDDEN
100
AcDbLine
 10
-19.74209976196289
 20
-20.67509460449219
 30
0.0
 11
-19.46599388122559
 21
-20.59108734130859
 31
0.0
1001
DBPROPERTIES
1002
{
1000
PbHidd
1002
}
  0
LINE
  5
373
330
1F
100
AcDbEntity
  8
HIDDEN
100
AcDbLine
 10
-19.46599388122559
 20
-20.59108734130859
 30
0.0
 11
-19.19062232971191
 21
-20.52556610107422
 31
0.0
1001
DBPROPERTIES
1002
{
1000
PbHidd
1002
}
  0
LINE
  5
374
330
1F
100
AcDbEntity
  8
HIDDEN
100
AcDbLine
 10
-19.19062232971191
 20
-20.52556610107422
 30
0.0
 11
-18.91840934753418
 21
-20.47864723205566
 31
0.0
1001
DBPROPERTIES
1002
{
1000
PbHidd
1002
}
  0
LINE
  5
375
330
1F
100
AcDbEntity
  8
HIDDEN
100
AcDbLine
 10
-18.91840934753418
 20
-20.47864723205566
 30
0.0
 11
-18.64936828613281
 21
-20.45019721984863
 31
0.0
1001
DBPROPERTIES
1002
{
1000
PbHidd
1002
}
  0
LINE
  5
376
330
1F
100
AcDbEntity
  8
HIDDEN
100
AcDbLine
 10
-18.64936828613281
 20
-20.45019721984863
 30
0.0
 11
-18.37690925598145
 21
-20.4400691986084
 31
0.0
1001
DBPROPERTIES
1002
{
1000
PbHidd
1002
}
  0
LINE
  5
377
330
1F
100
AcDbEntity
  8
THICK
100
AcDbLine
 10
-18.37690925598145
 20
-20.4400691986084
 30
0.0
 11
-18.10516548156738
 21
-20.44951057434082
 31
0.0
1001
DBPROPERTIES
1002
{
1000
PbThick
1002
}
  0
LINE
  5
378
330
1F
100
AcDbEntity
  8
THICK
100
AcDbLine
 10
-18.10516548156738
 20
-20.44951057434082
 30
0.0
 11
-17.83583641052246
 21
-20.47963714599609
 31
0.0
1001
DBPROPERTIES
1002
{
1000
PbThick
1002
}
  0
LINE
  5
379
330
1F
100
AcDbEntity
  8
THICK
100
AcDbLine
 10
-17.83583641052246
 20
-20.47963714599609
 30
0.0
 11
-17.57204437255859
 21
-20.53069877624512
 31
0.0
1001
DBPROPERTIES
1002
{
1000
PbThick
1002
}
  0
LINE
  5
37A
330
1F
100
AcDbEntity
  8
THICK
100
AcDbLine
 10
-17.57204437255859
 20
-20.53069877624512
 30
0.0
 11
-17.31683158874512
 21
-20.60270118713379
 31
0.0
1001
DBPROPERTIES
1002
{
1000
PbThick
1002
}
  0
LINE
  5
37B
330
1F
100
AcDbEntity
  8
THICK
100
AcDbLine
 10
-17.31683158874512
 20
-20.60270118713379
 30
0.0
 11
-17.07272911071777
 21
-20.69522285461426
 31
0.0
1001
DBPROPERTIES
1002
{
1000
PbThick
1002
}
  0
LINE
  5
37C
330
1F
100
AcDbEntity
  8
THICK
100
AcDbLine
 10
-17.07272911071777
 20
-20.69522285461426
 30
0.0
 11
-16.84213829040527
 21
-20.80702209472656
 31
0.0
1001
DBPROPERTIES
1002
{
1000
PbThick
1002
}
  0
LINE
  5
37D
330
1F
100
AcDbEntity
  8
THICK
100
AcDbLine
 10
-16.84213829040527
 20
-20.80702209472656
 30
0.0
 11
-16.62746238708496
 21
-20.93668746948242
 31
0.0
1001
DBPROPERTIES
1002
{
1000
PbThick
1002
}
  0
LINE
  5
37E
330
1F
100
AcDbEntity
  8
THICK
100
AcDbLine
 10
-16.62746238708496
 20
-20.93668746948242
 30
0.0
 11
-16.43048667907715
 21
-21.08201789855957
 31
0.0
1001
DBPROPERTIES
1002
{
1000
PbThick
1002
}
  0
LINE
  5
37F
330
1F
100
AcDbEntity
  8
THICK
100
AcDbLine
 10
-16.43048667907715
 20
-21.08201789855957
 30
0.0
 11
-16.25261688232422
 21
-21.24036598205566
 31
0.0
1001
DBPROPERTIES
1002
{
1000
PbThick
1002
}
  0
LINE
  5
380
330
1F
100
AcDbEntity
  8
THICK
100
AcDbLine
 10
-16.25261688232422
 20
-21.24036598205566
 30
0.0
 11
-16.09136199951172
 21
-21.41307640075684
 31
0.0
1001
DBPROPERTIES
1002
{
1000
PbThick
1002
}
  0
LINE
  5
381
330
1F
100
AcDbEntity
  8
THICK
100
AcDbLine
 10
-16.09136199951172
 20
-21.41307640075684
 30
0.0
 11
-15.94531440734863
 21
-21.60145568847656
 31
0.0
1001
DBPROPERTIES
1002
{
1000
PbThick
1002
}
  0
LINE
  5
382
330
1F
100
AcDbEntity
  8
THICK
100
AcDbLine
 10
-15.94531440734863
 20
-21.60145568847656
 30
0.0
 11
-15.81614208221436
 21
-21.80408096313477
 31
0.0
1001
DBPROPERTIES
1002
{
1000
PbThick
1002
}
  0
LINE
  5
383
330
1F
100
AcDbEntity
  8
THICK
100
AcDbLine
 10
-15.81614208221436
 20
-21.80408096313477
 30
0.0
 11
-15.7052116394043
 21
-22.01935958862305
 31
0.0
1001
DBPROPERTIES
1002
{
1000
PbThick
1002
}
  0
LINE
  5
384
330
1F
100
AcDbEntity
  8
THICK
100
AcDbLine
 10
-15.7052116394043
 20
-22.01935958862305
 30
0.0
 11
-15.61319065093994
 21
-22.24531364440918
 31
0.0
1001
DBPROPERTIES
1002
{
1000
PbThick
1002
}
  0
LINE
  5
385
330
1F
100
AcDbEntity
  8
THICK
100
AcDbLine
 10
-15.61319065093994
 20
-22.24531364440918
 30
0.0
 11
-15.5406436920166
 21
-22.47992515563965
 31
0.0
1001
DBPROPERTIES
1002
{
1000
PbThick
1002
}
  0
LINE
  5
386
330
1F
100
AcDbEntity
  8
THICK
100
AcDbLine
 10
-15.5406436920166
 20
-22.47992515563965
 30
0.0
 11
-15.48773956298828
 21
-22.72125053405762
 31
0.0
1001
DBPROPERTIES
1002
{
1000
PbThick
1002
}
  0
LINE
  5
387
330
1F
100
AcDbEntity
  8
THICK
100
AcDbLine
 10
-15.48773956298828
 20
-22.72125053405762
 30
0.0
 11
-15.45407676696777
 21
-22.96706581115723
 31
0.0
1001
DBPROPERTIES
1002
{
1000
PbThick
1002
}
  0
LINE
  5
388
330
1F
100
AcDbEntity
  8
THICK
100
AcDbLine
 10
-15.45407676696777
 20
-22.96706581115723
 30
0.0
 11
-15.43920135498047
 21
-23.21504592895508
 31
0.0
1001
DBPROPERTIES
1002
{
1000
PbThick
1002
}
  0
LINE
  5
389
330
1F
100
AcDbEntity
  8
THICK
100
AcDbLine
 10
-15.43920135498047
 20
-23.21504592895508
 30
0.0
 11
-15.44225215911865
 21
-23.46282196044922
 31
0.0
1001
DBPROPERTIES
1002
{
1000
PbThick
1002
}
  0
LINE
  5
38A
330
1F
100
AcDbEntity
  8
THICK
100
AcDbLine
 10
-15.44225215911865
 20
-23.46282196044922
 30
0.0
 11
-15.46179580688477
 21
-23.70794296264648
 31
0.0
1001
DBPROPERTIES
1002
{
1000
PbThick
1002
}
  0
LINE
  5
38B
330
1F
100
AcDbEntity
  8
THICK
100
AcDbLine
 10
-15.46179580688477
 20
-23.70794296264648
 30
0.0
 11
-15.49654674530029
 21
-23.94916534423828
 31
0.0
1001
DBPROPERTIES
1002
{
1000
PbThick
1002
}
  0
LINE
  5
38C
330
1F
100
AcDbEntity
  8
THICK
100
AcDbLine
 10
-15.49654674530029
 20
-23.94916534423828
 30
0.0
 11
-15.5469331741333
 21
-24.19313049316406
 31
0.0
1001
DBPROPERTIES
1002
{
1000
PbThick
1002
}
  0
LINE
  5
38D
330
1F
100
AcDbEntity
  8
THICK
100
AcDbLine
 10
-15.5469331741333
 20
-24.19313049316406
 30
0.0
 11
-15.61311626434326
 21
-24.43999481201172
 31
0.0
1001
DBPROPERTIES
1002
{
1000
PbThick
1002
}
  0
LINE
  5
38E
330
1F
100
AcDbEntity
  8
THICK
100
AcDbLine
 10
-15.61311626434326
 20
-24.43999481201172
 30
0.0
 11
-15.67328453063965
 21
-24.62667465209961
 31
0.0
1001
DBPROPERTIES
1002
{
1000
PbThick
1002
}
  0
LINE
  5
38F
330
1F
100
AcDbEntity
  8
THICK
100
AcDbLine
 10
-15.67328453063965
 20
-24.62667465209961
 30
0.0
 11
-15.74230480194092
 21
-24.81346893310547
 31
0.0
1001
DBPROPERTIES
1002
{
1000
PbThick
1002
}
  0
LINE
  5
390
330
1F
100
AcDbEntity
  8
THICK
100
AcDbLine
 10
-15.74230480194092
 20
-24.81346893310547
 30
0.0
 11
-15.81994342803955
 21
-24.99975967407227
 31
0.0
1001
DBPROPERTIES
1002
{
1000
PbThick
1002
}
  0
LINE
  5
391
330
1F
100
AcDbEntity
  8
THICK
100
AcDbLine
 10
-15.81994342803955
 20
-24.99975967407227
 30
0.0
 11
-15.90592002868652
 21
-25.1849365234375
 31
0.0
1001
DBPROPERTIES
1002
{
1000
PbThick
1002
}
  0
LINE
  5
392
330
1F
100
AcDbEntity
  8
THICK
100
AcDbLine
 10
-15.90592002868652
 20
-25.1849365234375
 30
0.0
 11
-15.99995040893555
 21
-25.3683967590332
 31
0.0
1001
DBPROPERTIES
1002
{
1000
PbThick
1002
}
  0
LINE
  5
393
330
1F
100
AcDbEntity
  8
THICK
100
AcDbLine
 10
-15.99995040893555
 20
-25.3683967590332
 30
0.0
 11
-16.10177421569824
 21
-25.54953575134277
 31
0.0
1001
DBPROPERTIES
1002
{
1000
PbThick
1002
}
  0
LINE
  5
394
330
1F
100
AcDbEntity
  8
THICK
100
AcDbLine
 10
-16.10177421569824
 20
-25.54953575134277
 30
0.0
 11
-16.21101188659668
 21
-25.72785377502441
 31
0.0
1001
DBPROPERTIES
1002
{
1000
PbThick
1002
}
  0
LINE
  5
395
330
1F
100
AcDbEntity
  8
THICK
100
AcDbLine
 10
-16.21101188659668
 20
-25.72785377502441
 30
0.0
 11
-16.32719421386719
 21
-25.90282249450684
 31
0.0
1001
DBPROPERTIES
1002
{
1000
PbThick
1002
}
  0
LINE
  5
396
330
1F
100
AcDbEntity
  8
THICK
100
AcDbLine
 10
-16.32719421386719
 20
-25.90282249450684
 30
0.0
 11
-16.44984245300293
 21
-26.07390594482422
 31
0.0
1001
DBPROPERTIES
1002
{
1000
PbThick
1002
}
  0
LINE
  5
397
330
1F
100
AcDbEntity
  8
THICK
100
AcDbLine
 10
-16.44984245300293
 20
-26.07390594482422
 30
0.0
 11
-16.57847213745117
 21
-26.24056816101074
 31
0.0
1001
DBPROPERTIES
1002
{
1000
PbThick
1002
}
  0
LINE
  5
398
330
1F
100
AcDbEntity
  8
THICK
100
AcDbLine
 10
-66.25
 20
-202.2
 30
0.0
 11
-62.25
 21
-202.2
 31
0.0
1001
DBPROPERTIES
1002
{
1000
PbThick
1002
}
  0
LINE
  5
399
330
1F
100
AcDbEntity
  8
HIDDEN
100
AcDbLine
 10
-65.07842712474618
 20
-44.44
 30
0.0
 11
-66.25
 21
-44.44
 31
0.0
1001
DBPROPERTIES
1002
{
1000
PbHidd
1002
}
  0
LINE
  5
39A
330
1F
100
AcDbEntity
  8
THICK
100
AcDbLine
 10
-66.24999999999947
 20
-44.44
 30
0.0
 11
-62.24999999999999
 21
-44.44
 31
0.0
1001
DBPROPERTIES
1002
{
1000
PbThick
1002
}
  0
LINE
  5
39B
330
1F
100
AcDbEntity
  8
HIDDEN
100
AcDbLine
 10
-62.24999999999999
 20
-44.44
 30
0.0
 11
-65.07842712474618
 21
-44.44
 31
0.0
1001
DBPROPERTIES
1002
{
1000
PbHidd
1002
}
  0
LINE
  5
39C
330
1F
100
AcDbEntity
  8
HIDDEN
100
AcDbLine
 10
-66.25
 20
-202.2
 30
0.0
 11
-62.25
 21
-202.2
 31
0.0
1001
DBPROPERTIES
1002
{
1000
PbHidd
1002
}
  0
LINE
  5
39D
330
1F
100
AcDbEntity
  8
HIDDEN
100
AcDbLine
 10
-76.25
 20
-20.44000625610352
 30
0.0
 11
-76.25650787353516
 21
-20.44001388549805
 31
0.0
1001
DBPROPERTIES
1002
{
1000
PbHidd
1002
}
  0
LINE
  5
39E
330
1F
100
AcDbEntity
  8
HIDDEN
100
AcDbLine
 10
-76.25650787353516
 20
-20.44001388549805
 30
0.0
 11
-76.2632064819336
 21
-20.44002914428711
 31
0.0
1001
DBPROPERTIES
1002
{
1000
PbHidd
1002
}
  0
LINE
  5
39F
330
1F
100
AcDbEntity
  8
HIDDEN
100
AcDbLine
 10
-76.2632064819336
 20
-20.44002914428711
 30
0.0
 11
-76.26961517333984
 21
-20.44005393981934
 31
0.0
1001
DBPROPERTIES
1002
{
1000
PbHidd
1002
}
  0
LINE
  5
3A0
330
1F
100
AcDbEntity
  8
HIDDEN
100
AcDbLine
 10
-76.26961517333984
 20
-20.44005393981934
 30
0.0
 11
-76.27619934082031
 21
-20.44008827209473
 31
0.0
1001
DBPROPERTIES
1002
{
1000
PbHidd
1002
}
  0
LINE
  5
3A1
330
1F
100
AcDbEntity
  8
HIDDEN
100
AcDbLine
 10
-76.27619934082031
 20
-20.44008827209473
 30
0.0
 11
-76.2824478149414
 21
-20.44013214111328
 31
0.0
1001
DBPROPERTIES
1002
{
1000
PbHidd
1002
}
  0
LINE
  5
3A2
330
1F
100
AcDbEntity
  8
HIDDEN
100
AcDbLine
 10
-76.2824478149414
 20
-20.44013214111328
 30
0.0
 11
-76.28840637207031
 21
-20.440185546875
 31
0.0
1001
DBPROPERTIES
1002
{
1000
PbHidd
1002
}
  0
LINE
  5
3A3
330
1F
100
AcDbEntity
  8
THICK
100
AcDbLine
 10
-76.28840637207031
 20
-20.440185546875
 30
0.0
 11
-76.29399871826172
 21
-20.44024658203125
 31
0.0
1001
DBPROPERTIES
1002
{
1000
PbThick
1002
}
  0
LINE
  5
3A4
330
1F
100
AcDbEntity
  8
THICK
100
AcDbLine
 10
-76.29399871826172
 20
-20.44024658203125
 30
0.0
 11
-76.2996597290039
 21
-20.44031524658203
 31
0.0
1001
DBPROPERTIES
1002
{
1000
PbThick
1002
}
  0
LINE
  5
3A5
330
1F
100
AcDbEntity
  8
THICK
100
AcDbLine
 10
-76.2996597290039
 20
-20.44031524658203
 30
0.0
 11
-76.30532836914062
 21
-20.44039535522461
 31
0.0
1001
DBPROPERTIES
1002
{
1000
PbThick
1002
}
  0
LINE
  5
3A6
330
1F
100
AcDbEntity
  8
THICK
100
AcDbLine
 10
-76.30532836914062
 20
-20.44039535522461
 30
0.0
 11
-76.31095886230469
 21
-20.44048500061035
 31
0.0
1001
DBPROPERTIES
1002
{
1000
PbThick
1002
}
  0
LINE
  5
3A7
330
1F
100
AcDbEntity
  8
THICK
100
AcDbLine
 10
-76.31095886230469
 20
-20.44048500061035
 30
0.0
 11
-76.3165054321289
 21
-20.44058036804199
 31
0.0
1001
DBPROPERTIES
1002
{
1000
PbThick
1002
}
  0
LINE
  5
3A8
330
1F
100
AcDbEntity
  8
THICK
100
AcDbLine
 10
-76.3165054321289
 20
-20.44058036804199
 30
0.0
 11
-76.32190704345703
 21
-20.44068336486816
 31
0.0
1001
DBPROPERTIES
1002
{
1000
PbThick
1002
}
  0
LINE
  5
3A9
330
1F
100
AcDbEntity
  8
THICK
100
AcDbLine
 10
-76.32190704345703
 20
-20.44068336486816
 30
0.0
 11
-76.32711791992188
 21
-20.44079208374023
 31
0.0
1001
DBPROPERTIES
1002
{
1000
PbThick
1002
}
  0
LINE
  5
3AA
330
1F
100
AcDbEntity
  8
THICK
100
AcDbLine
 10
-76.32711791992188
 20
-20.44079208374023
 30
0.0
 11
-76.33214569091797
 21
-20.4409065246582
 31
0.0
1001
DBPROPERTIES
1002
{
1000
PbThick
1002
}
  0
LINE
  5
3AB
330
1F
100
AcDbEntity
  8
THICK
100
AcDbLine
 10
-76.33214569091797
 20
-20.4409065246582
 30
0.0
 11
-76.33719635009766
 21
-20.44103240966797
 31
0.0
1001
DBPROPERTIES
1002
{
1000
PbThick
1002
}
  0
LINE
  5
3AC
330
1F
100
AcDbEntity
  8
THICK
100
AcDbLine
 10
-76.33719635009766
 20
-20.44103240966797
 30
0.0
 11
-76.34227752685547
 21
-20.4411678314209
 31
0.0
1001
DBPROPERTIES
1002
{
1000
PbThick
1002
}
  0
LINE
  5
3AD
330
1F
100
AcDbEntity
  8
THICK
100
AcDbLine
 10
-76.34227752685547
 20
-20.4411678314209
 30
0.0
 11
-76.34739685058594
 21
-20.44131278991699
 31
0.0
1001
DBPROPERTIES
1002
{
1000
PbThick
1002
}
  0
LINE
  5
3AE
330
1F
100
AcDbEntity
  8
THICK
100
AcDbLine
 10
-76.34739685058594
 20
-20.44131278991699
 30
0.0
 11
-76.35254669189453
 21
-20.44146919250488
 31
0.0
1001
DBPROPERTIES
1002
{
1000
PbThick
1002
}
  0
LINE
  5
3AF
330
1F
100
AcDbEntity
  8
THICK
100
AcDbLine
 10
-76.35254669189453
 20
-20.44146919250488
 30
0.0
 11
-76.35771942138672
 21
-20.44163513183594
 31
0.0
1001
DBPROPERTIES
1002
{
1000
PbThick
1002
}
  0
LINE
  5
3B0
330
1F
100
AcDbEntity
  8
THICK
100
AcDbLine
 10
-76.35771942138672
 20
-20.44163513183594
 30
0.0
 11
-76.3629150390625
 21
-20.44181060791016
 31
0.0
1001
DBPROPERTIES
1002
{
1000
PbThick
1002
}
  0
LINE
  5
3B1
330
1F
100
AcDbEntity
  8
THICK
100
AcDbLine
 10
-76.3629150390625
 20
-20.44181060791016
 30
0.0
 11
-76.36812591552734
 21
-20.44199752807617
 31
0.0
1001
DBPROPERTIES
1002
{
1000
PbThick
1002
}
  0
LINE
  5
3B2
330
1F
100
AcDbEntity
  8
THICK
100
AcDbLine
 10
-76.36812591552734
 20
-20.44199752807617
 30
0.0
 11
-76.37335968017578
 21
-20.44219398498535
 31
0.0
1001
DBPROPERTIES
1002
{
1000
PbThick
1002
}
  0
LINE
  5
3B3
330
1F
100
AcDbEntity
  8
THICK
100
AcDbLine
 10
-76.37335968017578
 20
-20.44219398498535
 30
0.0
 11
-76.37859344482422
 21
-20.4423999786377
 31
0.0
1001
DBPROPERTIES
1002
{
1000
PbThick
1002
}
  0
LINE
  5
3B4
330
1F
100
AcDbEntity
  8
THICK
100
AcDbLine
 10
-76.37859344482422
 20
-20.4423999786377
 30
0.0
 11
-76.38383483886719
 21
-20.44261932373047
 31
0.0
1001
DBPROPERTIES
1002
{
1000
PbThick
1002
}
  0
LINE
  5
3B5
330
1F
100
AcDbEntity
  8
THICK
100
AcDbLine
 10
-76.38383483886719
 20
-20.44261932373047
 30
0.0
 11
-76.38908386230469
 21
-20.44284629821777
 31
0.0
1001
DBPROPERTIES
1002
{
1000
PbThick
1002
}
  0
LINE
  5
3B6
330
1F
100
AcDbEntity
  8
THICK
100
AcDbLine
 10
-76.38908386230469
 20
-20.44284629821777
 30
0.0
 11
-76.39432525634766
 21
-20.44308471679688
 31
0.0
1001
DBPROPERTIES
1002
{
1000
PbThick
1002
}
  0
LINE
  5
3B7
330
1F
100
AcDbEntity
  8
THICK
100
AcDbLine
 10
-76.25
 20
-20.44480514526367
 30
0.0
 11
-76.38961791992188
 21
-20.4565315246582
 31
0.0
1001
DBPROPERTIES
1002
{
1000
PbThick
1002
}
  0
LINE
  5
3B8
330
1F
100
AcDbEntity
  8
THICK
100
AcDbLine
 10
-76.38961791992188
 20
-20.4565315246582
 30
0.0
 11
-76.53193664550781
 21
-20.47854423522949
 31
0.0
1001
DBPROPERTIES
1002
{
1000
PbThick
1002
}
  0
LINE
  5
3B9
330
1F
100
AcDbEntity
  8
THICK
100
AcDbLine
 10
-76.53193664550781
 20
-20.47854423522949
 30
0.0
 11
-76.67547607421875
 21
-20.51120948791504
 31
0.0
1001
DBPROPERTIES
1002
{
1000
PbThick
1002
}
  0
LINE
  5
3BA
330
1F
100
AcDbEntity
  8
THICK
100
AcDbLine
 10
-76.67547607421875
 20
-20.51120948791504
 30
0.0
 11
-76.81876373291016
 21
-20.55445671081543
 31
0.0
1001
DBPROPERTIES
1002
{
1000
PbThick
1002
}
  0
LINE
  5
3BB
330
1F
100
AcDbEntity
  8
THICK
100
AcDbLine
 10
-76.81876373291016
 20
-20.55445671081543
 30
0.0
 11
-76.96038818359375
 21
-20.60805130004883
 31
0.0
1001
DBPROPERTIES
1002
{
1000
PbThick
1002
}
  0
LINE
  5
3BC
330
1F
100
AcDbEntity
  8
THICK
100
AcDbLine
 10
-76.96038818359375
 20
-20.60805130004883
 30
0.0
 11
-77.0990219116211
 21
-20.67125701904297
 31
0.0
1001
DBPROPERTIES
1002
{
1000
PbThick
1002
}
  0
LINE
  5
3BD
330
1F
100
AcDbEntity
  8
THICK
100
AcDbLine
 10
-77.0990219116211
 20
-20.67125701904297
 30
0.0
 11
-77.23332214355469
 21
-20.74317741394043
 31
0.0
1001
DBPROPERTIES
1002
{
1000
PbThick
1002
}
  0
LINE
  5
3BE
330
1F
100
AcDbEntity
  8
THICK
100
AcDbLine
 10
-77.23332214355469
 20
-20.74317741394043
 30
0.0
 11
-77.36205291748047
 21
-20.82247543334961
 31
0.0
1001
DBPROPERTIES
1002
{
1000
PbThick
1002
}
  0
LINE
  5
3BF
330
1F
100
AcDbEntity
  8
THICK
100
AcDbLine
 10
-77.36205291748047
 20
-20.82247543334961
 30
0.0
 11
-77.4848403930664
 21
-20.90816497802734
 31
0.0
1001
DBPROPERTIES
1002
{
1000
PbThick
1002
}
  0
LINE
  5
3C0
330
1F
100
AcDbEntity
  8
THICK
100
AcDbLine
 10
-77.4848403930664
 20
-20.90816497802734
 30
0.0
 11
-77.60724639892578
 21
-21.00408172607422
 31
0.0
1001
DBPROPERTIES
1002
{
1000
PbThick
1002
}
  0
LINE
  5
3C1
330
1F
100
AcDbEntity
  8
THICK
100
AcDbLine
 10
-77.60724639892578
 20
-21.00408172607422
 30
0.0
 11
-77.72931671142578
 21
-21.11092948913574
 31
0.0
1001
DBPROPERTIES
1002
{
1000
PbThick
1002
}
  0
LINE
  5
3C2
330
1F
100
AcDbEntity
  8
THICK
100
AcDbLine
 10
-77.72931671142578
 20
-21.11092948913574
 30
0.0
 11
-77.84952545166016
 21
-21.22819709777832
 31
0.0
1001
DBPROPERTIES
1002
{
1000
PbThick
1002
}
  0
LINE
  5
3C3
330
1F
100
AcDbEntity
  8
THICK
100
AcDbLine
 10
-77.84952545166016
 20
-21.22819709777832
 30
0.0
 11
-77.96654510498047
 21
-21.35494041442871
 31
0.0
1001
DBPROPERTIES
1002
{
1000
PbThick
1002
}
  0
LINE
  5
3C4
330
1F
100
AcDbEntity
  8
THICK
100
AcDbLine
 10
-77.96654510498047
 20
-21.35494041442871
 30
0.0
 11
-78.0791244506836
 21
-21.49011611938477
 31
0.0
1001
DBPROPERTIES
1002
{
1000
PbThick
1002
}
  0
LINE
  5
3C5
330
1F
100
AcDbEntity
  8
THICK
100
AcDbLine
 10
-78.0791244506836
 20
-21.49011611938477
 30
0.0
 11
-78.1862564086914
 21
-21.6323413848877
 31
0.0
1001
DBPROPERTIES
1002
{
1000
PbThick
1002
}
  0
LINE
  5
3C6
330
1F
100
AcDbEntity
  8
THICK
100
AcDbLine
 10
-78.1862564086914
 20
-21.6323413848877
 30
0.0
 11
-78.2869873046875
 21
-21.78000450134277
 31
0.0
1001
DBPROPERTIES
1002
{
1000
PbThick
1002
}
  0
LINE
  5
3C7
330
1F
100
AcDbEntity
  8
THICK
100
AcDbLine
 10
-78.2869873046875
 20
-21.78000450134277
 30
0.0
 11
-78.38054656982422
 21
-21.93125534057617
 31
0.0
1001
DBPROPERTIES
1002
{
1000
PbThick
1002
}
  0
LINE
  5
3C8
330
1F
100
AcDbEntity
  8
THICK
100
AcDbLine
 10
-78.38054656982422
 20
-21.93125534057617
 30
0.0
 11
-78.4664077758789
 21
-22.08404922485352
 31
0.0
1001
DBPROPERTIES
1002
{
1000
PbThick
1002
}
  0
LINE
  5
3C9
330
1F
100
AcDbEntity
  8
THICK
100
AcDbLine
 10
-78.4664077758789
 20
-22.08404922485352
 30
0.0
 11
-78.54779052734375
 21
-22.2437629699707
 31
0.0
1001
DBPROPERTIES
1002
{
1000
PbThick
1002
}
  0
LINE
  5
3CA
330
1F
100
AcDbEntity
  8
THICK
100
AcDbLine
 10
-78.54779052734375
 20
-22.2437629699707
 30
0.0
 11
-78.62596130371094
 21
-22.41367340087891
 31
0.0
1001
DBPROPERTIES
1002
{
1000
PbThick
1002
}
  0
LINE
  5
3CB
330
1F
100
AcDbEntity
  8
THICK
100
AcDbLine
 10
-78.62596130371094
 20
-22.41367340087891
 30
0.0
 11
-78.69953918457031
 21
-22.5921688079834
 31
0.0
1001
DBPROPERTIES
1002
{
1000
PbThick
1002
}
  0
LINE
  5
3CC
330
1F
100
AcDbEntity
  8
THICK
100
AcDbLine
 10
-78.69953918457031
 20
-22.5921688079834
 30
0.0
 11
-78.76744842529297
 21
-22.77736282348633
 31
0.0
1001
DBPROPERTIES
1002
{
1000
PbThick
1002
}
  0
LINE
  5
3CD
330
1F
100
AcDbEntity
  8
THICK
100
AcDbLine
 10
-78.76744842529297
 20
-22.77736282348633
 30
0.0
 11
-78.82880401611328
 21
-22.96727752685547
 31
0.0
1001
DBPROPERTIES
1002
{
1000
PbThick
1002
}
  0
LINE
  5
3CE
330
1F
100
AcDbEntity
  8
THICK
100
AcDbLine
 10
-78.82880401611328
 20
-22.96727752685547
 30
0.0
 11
-78.8830337524414
 21
-23.15976524353027
 31
0.0
1001
DBPROPERTIES
1002
{
1000
PbThick
1002
}
  0
LINE
  5
3CF
330
1F
100
AcDbEntity
  8
THICK
100
AcDbLine
 10
-78.8830337524414
 20
-23.15976524353027
 30
0.0
 11
-78.92977905273438
 21
-23.35248756408691
 31
0.0
1001
DBPROPERTIES
1002
{
1000
PbThick
1002
}
  0
LINE
  5
3D0
330
1F
100
AcDbEntity
  8
THICK
100
AcDbLine
 10
-78.92977905273438
 20
-23.35248756408691
 30
0.0
 11
-78.9689712524414
 21
-23.5429744720459
 31
0.0
1001
DBPROPERTIES
1002
{
1000
PbThick
1002
}
  0
LINE
  5
3D1
330
1F
100
AcDbEntity
  8
THICK
100
AcDbLine
 10
-78.9689712524414
 20
-23.5429744720459
 30
0.0
 11
-79.0014419555664
 21
-23.73279571533203
 31
0.0
1001
DBPROPERTIES
1002
{
1000
PbThick
1002
}
  0
LINE
  5
3D2
330
1F
100
AcDbEntity
  8
THICK
100
AcDbLine
 10
-79.0014419555664
 20
-23.73279571533203
 30
0.0
 11
-79.02937316894531
 21
-23.93651008605957
 31
0.0
1001
DBPROPERTIES
1002
{
1000
PbThick
1002
}
  0
LINE
  5
3D3
330
1F
100
AcDbEntity
  8
THICK
100
AcDbLine
 10
-79.02937316894531
 20
-23.93651008605957
 30
0.0
 11
-79.05072784423828
 21
-24.14033699035645
 31
0.0
1001
DBPROPERTIES
1002
{
1000
PbThick
1002
}
  0
LINE
  5
3D4
330
1F
100
AcDbEntity
  8
THICK
100
AcDbLine
 10
-79.05072784423828
 20
-24.14033699035645
 30
0.0
 11
-79.06670379638672
 21
-24.3400821685791
 31
0.0
1001
DBPROPERTIES
1002
{
1000
PbThick
1002
}
  0
LINE
  5
3D5
330
1F
100
AcDbEntity
  8
THICK
100
AcDbLine
 10
-79.06670379638672
 20
-24.3400821685791
 30
0.0
 11
-79.08671569824219
 21
-24.34733772277832
 31
0.0
1001
DBPROPERTIES
1002
{
1000
PbThick
1002
}
  0
LINE
  5
3D6
330
1F
100
AcDbEntity
  8
THICK
100
AcDbLine
 10
-79.08671569824219
 20
-24.34733772277832
 30
0.0
 11
-79.08605194091797
 21
-24.14719772338867
 31
0.0
1001
DBPROPERTIES
1002
{
1000
PbThick
1002
}
  0
LINE
  5
3D7
330
1F
100
AcDbEntity
  8
THICK
100
AcDbLine
 10
-79.08605194091797
 20
-24.14719772338867
 30
0.0
 11
-79.07563781738281
 21
-23.94356727600098
 31
0.0
1001
DBPROPERTIES
1002
{
1000
PbThick
1002
}
  0
LINE
  5
3D8
330
1F
100
AcDbEntity
  8
THICK
100
AcDbLine
 10
-79.07563781738281
 20
-23.94356727600098
 30
0.0
 11
-79.05670928955078
 21
-23.73940086364746
 31
0.0
1001
DBPROPERTIES
1002
{
1000
PbThick
1002
}
  0
LINE
  5
3D9
330
1F
100
AcDbEntity
  8
THICK
100
AcDbLine
 10
-79.05670928955078
 20
-23.73940086364746
 30
0.0
 11
-79.03160858154297
 21
-23.54912185668945
 31
0.0
1001
DBPROPERTIES
1002
{
1000
PbThick
1002
}
  0
LINE
  5
3DA
330
1F
100
AcDbEntity
  8
THICK
100
AcDbLine
 10
-79.03160858154297
 20
-23.54912185668945
 30
0.0
 11
-78.99923706054688
 21
-23.35867309570312
 31
0.0
1001
DBPROPERTIES
1002
{
1000
PbThick
1002
}
  0
LINE
  5
3DB
330
1F
100
AcDbEntity
  8
THICK
100
AcDbLine
 10
-78.99923706054688
 20
-23.35867309570312
 30
0.0
 11
-78.95890808105469
 21
-23.16590309143066
 31
0.0
1001
DBPROPERTIES
1002
{
1000
PbThick
1002
}
  0
LINE
  5
3DC
330
1F
100
AcDbEntity
  8
THICK
100
AcDbLine
 10
-78.95890808105469
 20
-23.16590309143066
 30
0.0
 11
-78.91071319580078
 21
-22.97327995300293
 31
0.0
1001
DBPROPERTIES
1002
{
1000
PbThick
1002
}
  0
LINE
  5
3DD
330
1F
100
AcDbEntity
  8
THICK
100
AcDbLine
 10
-78.91071319580078
 20
-22.97327995300293
 30
0.0
 11
-78.85499572753906
 21
-22.78315544128418
 31
0.0
1001
DBPROPERTIES
1002
{
1000
PbThick
1002
}
  0
LINE
  5
3DE
330
1F
100
AcDbEntity
  8
THICK
100
AcDbLine
 10
-78.85499572753906
 20
-22.78315544128418
 30
0.0
 11
-78.7923355102539
 21
-22.59767913818359
 31
0.0
1001
DBPROPERTIES
1002
{
1000
PbThick
1002
}
  0
LINE
  5
3DF
330
1F
100
AcDbEntity
  8
THICK
100
AcDbLine
 10
-78.7923355102539
 20
-22.59767913818359
 30
0.0
 11
-78.7236099243164
 21
-22.41883087158203
 31
0.0
1001
DBPROPERTIES
1002
{
1000
PbThick
1002
}
  0
LINE
  5
3E0
330
1F
100
AcDbEntity
  8
THICK
100
AcDbLine
 10
-78.7236099243164
 20
-22.41883087158203
 30
0.0
 11
-78.6498794555664
 21
-22.24851036071777
 31
0.0
1001
DBPROPERTIES
1002
{
1000
PbThick
1002
}
  0
LINE
  5
3E1
330
1F
100
AcDbEntity
  8
THICK
100
AcDbLine
 10
-78.6498794555664
 20
-22.24851036071777
 30
0.0
 11
-78.57252502441406
 21
-22.08833122253418
 31
0.0
1001
DBPROPERTIES
1002
{
1000
PbThick
1002
}
  0
LINE
  5
3E2
330
1F
100
AcDbEntity
  8
THICK
100
AcDbLine
 10
-78.57252502441406
 20
-22.08833122253418
 30
0.0
 11
-78.49059295654297
 21
-21.9354133605957
 31
0.0
1001
DBPROPERTIES
1002
{
1000
PbThick
1002
}
  0
LINE
  5
3E3
330
1F
100
AcDbEntity
  8
THICK
100
AcDbLine
 10
-78.49059295654297
 20
-21.9354133605957
 30
0.0
 11
-78.4008560180664
 21
-21.78401947021484
 31
0.0
1001
DBPROPERTIES
1002
{
1000
PbThick
1002
}
  0
LINE
  5
3E4
330
1F
100
AcDbEntity
  8
THICK
100
AcDbLine
 10
-78.4008560180664
 20
-21.78401947021484
 30
0.0
 11
-78.30377197265625
 21
-21.63613891601562
 31
0.0
1001
DBPROPERTIES
1002
{
1000
PbThick
1002
}
  0
LINE
  5
3E5
330
1F
100
AcDbEntity
  8
THICK
100
AcDbLine
 10
-78.30377197265625
 20
-21.63613891601562
 30
0.0
 11
-78.20008087158203
 21
-21.4936351776123
 31
0.0
1001
DBPROPERTIES
1002
{
1000
PbThick
1002
}
  0
LINE
  5
3E6
330
1F
100
AcDbEntity
  8
THICK
100
AcDbLine
 10
-78.20008087158203
 20
-21.4936351776123
 30
0.0
 11
-78.0906982421875
 21
-21.35812759399414
 31
0.0
1001
DBPROPERTIES
1002
{
1000
PbThick
1002
}
  0
LINE
  5
3E7
330
1F
100
AcDbEntity
  8
THICK
100
AcDbLine
 10
-78.0906982421875
 20
-21.35812759399414
 30
0.0
 11
-77.97660064697266
 21
-21.23101043701172
 31
0.0
1001
DBPROPERTIES
1002
{
1000
PbThick
1002
}
  0
LINE
  5
3E8
330
1F
100
AcDbEntity
  8
THICK
100
AcDbLine
 10
-77.97660064697266
 20
-21.23101043701172
 30
0.0
 11
-77.85903930664062
 21
-21.11333656311035
 31
0.0
1001
DBPROPERTIES
1002
{
1000
PbThick
1002
}
  0
LINE
  5
3E9
330
1F
100
AcDbEntity
  8
THICK
100
AcDbLine
 10
-77.85903930664062
 20
-21.11333656311035
 30
0.0
 11
-77.73930358886719
 21
-21.00605583190918
 31
0.0
1001
DBPROPERTIES
1002
{
1000
PbThick
1002
}
  0
LINE
  5
3EA
330
1F
100
AcDbEntity
  8
THICK
100
AcDbLine
 10
-77.73930358886719
 20
-21.00605583190918
 30
0.0
 11
-77.6189193725586
 21
-20.90969657897949
 31
0.0
1001
DBPROPERTIES
1002
{
1000
PbThick
1002
}
  0
LINE
  5
3EB
330
1F
100
AcDbEntity
  8
THICK
100
AcDbLine
 10
-77.6189193725586
 20
-20.90969657897949
 30
0.0
 11
-77.4980697631836
 21
-20.82368469238281
 31
0.0
1001
DBPROPERTIES
1002
{
1000
PbThick
1002
}
  0
LINE
  5
3EC
330
1F
100
AcDbEntity
  8
THICK
100
AcDbLine
 10
-77.4980697631836
 20
-20.82368469238281
 30
0.0
 11
-77.37123107910156
 21
-20.74411773681641
 31
0.0
1001
DBPROPERTIES
1002
{
1000
PbThick
1002
}
  0
LINE
  5
3ED
330
1F
100
AcDbEntity
  8
THICK
100
AcDbLine
 10
-77.37123107910156
 20
-20.74411773681641
 30
0.0
 11
-77.23861694335938
 21
-20.67187309265137
 31
0.0
1001
DBPROPERTIES
1002
{
1000
PbThick
1002
}
  0
LINE
  5
3EE
330
1F
100
AcDbEntity
  8
THICK
100
AcDbLine
 10
-77.23861694335938
 20
-20.67187309265137
 30
0.0
 11
-77.10142517089844
 21
-20.60830688476562
 31
0.0
1001
DBPROPERTIES
1002
{
1000
PbThick
1002
}
  0
LINE
  5
3EF
330
1F
100
AcDbEntity
  8
THICK
100
AcDbLine
 10
-77.10142517089844
 20
-20.60830688476562
 30
0.0
 11
-76.96099853515625
 21
-20.55432510375977
 31
0.0
1001
DBPROPERTIES
1002
{
1000
PbThick
1002
}
  0
LINE
  5
3F0
330
1F
100
AcDbEntity
  8
THICK
100
AcDbLine
 10
-76.96099853515625
 20
-20.55432510375977
 30
0.0
 11
-76.81864166259766
 21
-20.51067161560059
 31
0.0
1001
DBPROPERTIES
1002
{
1000
PbThick
1002
}
  0
LINE
  5
3F1
330
1F
100
AcDbEntity
  8
THICK
100
AcDbLine
 10
-76.81864166259766
 20
-20.51067161560059
 30
0.0
 11
-76.6757583618164
 21
-20.47760009765625
 31
0.0
1001
DBPROPERTIES
1002
{
1000
PbThick
1002
}
  0
LINE
  5
3F2
330
1F
100
AcDbEntity
  8
THICK
100
AcDbLine
 10
-76.6757583618164
 20
-20.47760009765625
 30
0.0
 11
-76.53382110595703
 21
-20.45518684387207
 31
0.0
1001
DBPROPERTIES
1002
{
1000
PbThick
1002
}
  0
LINE
  5
3F3
330
1F
100
AcDbEntity
  8
THICK
100
AcDbLine
 10
-76.53382110595703
 20
-20.45518684387207
 30
0.0
 11
-76.39432525634766
 21
-20.44308471679688
 31
0.0
1001
DBPROPERTIES
1002
{
1000
PbThick
1002
}
  0
ELLIPSE
  5
3F4
330
1F
100
AcDbEntity
  8
HIDDEN
100
AcDbEllipse
 10
-76.39213562373094
 20
-24.44
 30
0.0
 11
-2.449212707644755E-16
 21
-4.0
 31
0.0
210
0.0
220
0.0
230
1.0
 40
0.7071067811865475
 41
3.14007618381146
 42
3.141592653589793
1001
DBPROPERTIES
1002
{
1000
PbHidd
1002
}
  0
LINE
  5
3F5
330
1F
100
AcDbEntity
  8
THICK
100
AcDbLine
 10
-76.37158966064453
 20
-20.44001770019531
 30
0.0
 11
-76.39213562011719
 21
-20.44000053405762
 31
0.0
1001
DBPROPERTIES
1002
{
1000
PbThick
1002
}
  0
LINE
  5
3F6
330
1F
100
AcDbEntity
  8
THICK
100
AcDbLine
 10
-76.37158966064453
 20
-20.44001770019531
 30
0.0
 11
-76.37224578857422
 21
-20.44001579284668
 31
0.0
1001
DBPROPERTIES
1002
{
1000
PbThick
1002
}
  0
LINE
  5
3F7
330
1F
100
AcDbEntity
  8
THICK
100
AcDbLine
 10
-76.37224578857422
 20
-20.44001579284668
 30
0.0
 11
-76.3729248046875
 21
-20.44001388549805
 31
0.0
1001
DBPROPERTIES
1002
{
1000
PbThick
1002
}
  0
LINE
  5
3F8
330
1F
100
AcDbEntity
  8
THICK
100
AcDbLine
 10
-76.3729248046875
 20
-20.44001388549805
 30
0.0
 11
-76.3736343383789
 21
-20.44001197814941
 31
0.0
1001
DBPROPERTIES
1002
{
1000
PbThick
1002
}
  0
LINE
  5
3F9
330
1F
100
AcDbEntity
  8
THICK
100
AcDbLine
 10
-76.3736343383789
 20
-20.44001197814941
 30
0.0
 11
-76.37437438964844
 21
-20.44001197814941
 31
0.0
1001
DBPROPERTIES
1002
{
1000
PbThick
1002
}
  0
LINE
  5
3FA
330
1F
100
AcDbEntity
  8
THICK
100
AcDbLine
 10
-76.37437438964844
 20
-20.44001197814941
 30
0.0
 11
-76.37515258789062
 21
-20.44001007080078
 31
0.0
1001
DBPROPERTIES
1002
{
1000
PbThick
1002
}
  0
LINE
  5
3FB
330
1F
100
AcDbEntity
  8
THICK
100
AcDbLine
 10
-76.37515258789062
 20
-20.44001007080078
 30
0.0
 11
-76.3759536743164
 21
-20.44001007080078
 31
0.0
1001
DBPROPERTIES
1002
{
1000
PbThick
1002
}
  0
LINE
  5
3FC
330
1F
100
AcDbEntity
  8
HIDDEN
100
AcDbLine
 10
-73.42156982421875
 20
-24.44050598144531
 30
0.0
 11
-73.40960693359375
 21
-24.25827217102051
 31
0.0
1001
DBPROPERTIES
1002
{
1000
PbHidd
1002
}
  0
LINE
  5
3FD
330
1F
100
AcDbEntity
  8
HIDDEN
100
AcDbLine
 10
-73.40960693359375
 20
-24.25827217102051
 30
0.0
 11
-73.41136932373047
 21
-24.07821464538574
 31
0.0
1001
DBPROPERTIES
1002
{
1000
PbHidd
1002
}
  0
LINE
  5
3FE
330
1F
100
AcDbEntity
  8
HIDDEN
100
AcDbLine
 10
-73.41136932373047
 20
-24.07821464538574
 30
0.0
 11
-73.42074584960938
 21
-23.89013290405273
 31
0.0
1001
DBPROPERTIES
1002
{
1000
PbHidd
1002
}
  0
LINE
  5
3FF
330
1F
100
AcDbEntity
  8
HIDDEN
100
AcDbLine
 10
-73.42074584960938
 20
-23.89013290405273
 30
0.0
 11
-73.43688201904297
 21
-23.70554161071777
 31
0.0
1001
DBPROPERTIES
1002
{
1000
PbHidd
1002
}
  0
LINE
  5
400
330
1F
100
AcDbEntity
  8
HIDDEN
100
AcDbLine
 10
-73.43688201904297
 20
-23.70554161071777
 30
0.0
 11
-73.45809173583984
 21
-23.5329475402832
 31
0.0
1001
DBPROPERTIES
1002
{
1000
PbHidd
1002
}
  0
LINE
  5
401
330
1F
100
AcDbEntity
  8
HIDDEN
100
AcDbLine
 10
-73.45809173583984
 20
-23.5329475402832
 30
0.0
 11
-73.48555755615234
 21
-23.35872650146484
 31
0.0
1001
DBPROPERTIES
1002
{
1000
PbHidd
1002
}
  0
LINE
  5
402
330
1F
100
AcDbEntity
  8
HIDDEN
100
AcDbLine
 10
-73.48555755615234
 20
-23.35872650146484
 30
0.0
 11
-73.5196533203125
 21
-23.18256950378418
 31
0.0
1001
DBPROPERTIES
1002
{
1000
PbHidd
1002
}
  0
LINE
  5
403
330
1F
100
AcDbEntity
  8
HIDDEN
100
AcDbLine
 10
-73.5196533203125
 20
-23.18256950378418
 30
0.0
 11
-73.56034088134766
 21
-23.00637054443359
 31
0.0
1001
DBPROPERTIES
1002
{
1000
PbHidd
1002
}
  0
LINE
  5
404
330
1F
100
AcDbEntity
  8
HIDDEN
100
AcDbLine
 10
-73.56034088134766
 20
-23.00637054443359
 30
0.0
 11
-73.60740661621094
 21
-22.83193588256836
 31
0.0
1001
DBPROPERTIES
1002
{
1000
PbHidd
1002
}
  0
LINE
  5
405
330
1F
100
AcDbEntity
  8
HIDDEN
100
AcDbLine
 10
-73.60740661621094
 20
-22.83193588256836
 30
0.0
 11
-73.66047668457031
 21
-22.66095542907715
 31
0.0
1001
DBPROPERTIES
1002
{
1000
PbHidd
1002
}
  0
LINE
  5
406
330
1F
100
AcDbEntity
  8
HIDDEN
100
AcDbLine
 10
-73.66047668457031
 20
-22.66095542907715
 30
0.0
 11
-73.71894836425781
 21
-22.49495697021484
 31
0.0
1001
DBPROPERTIES
1002
{
1000
PbHidd
1002
}
  0
LINE
  5
407
330
1F
100
AcDbEntity
  8
HIDDEN
100
AcDbLine
 10
-73.71894836425781
 20
-22.49495697021484
 30
0.0
 11
-73.78211212158203
 21
-22.33543586730957
 31
0.0
1001
DBPROPERTIES
1002
{
1000
PbHidd
1002
}
  0
LINE
  5
408
330
1F
100
AcDbEntity
  8
HIDDEN
100
AcDbLine
 10
-73.78211212158203
 20
-22.33543586730957
 30
0.0
 11
-73.84902954101562
 21
-22.18372917175293
 31
0.0
1001
DBPROPERTIES
1002
{
1000
PbHidd
1002
}
  0
LINE
  5
409
330
1F
100
AcDbEntity
  8
HIDDEN
100
AcDbLine
 10
-73.84902954101562
 20
-22.18372917175293
 30
0.0
 11
-73.91870880126953
 21
-22.04083633422852
 31
0.0
1001
DBPROPERTIES
1002
{
1000
PbHidd
1002
}
  0
LINE
  5
40A
330
1F
100
AcDbEntity
  8
HIDDEN
100
AcDbLine
 10
-73.91870880126953
 20
-22.04083633422852
 30
0.0
 11
-73.99362182617188
 21
-21.90132713317871
 31
0.0
1001
DBPROPERTIES
1002
{
1000
PbHidd
1002
}
  0
LINE
  5
40B
330
1F
100
AcDbEntity
  8
HIDDEN
100
AcDbLine
 10
-73.99362182617188
 20
-21.90132713317871
 30
0.0
 11
-74.07503509521484
 21
-21.76339912414551
 31
0.0
1001
DBPROPERTIES
1002
{
1000
PbHidd
1002
}
  0
LINE
  5
40C
330
1F
100
AcDbEntity
  8
HIDDEN
100
AcDbLine
 10
-74.07503509521484
 20
-21.76339912414551
 30
0.0
 11
-74.16255950927734
 21
-21.628662109375
 31
0.0
1001
DBPROPERTIES
1002
{
1000
PbHidd
1002
}
  0
LINE
  5
40D
330
1F
100
AcDbEntity
  8
HIDDEN
100
AcDbLine
 10
-74.16255950927734
 20
-21.628662109375
 30
0.0
 11
-74.2556381225586
 21
-21.49850845336914
 31
0.0
1001
DBPROPERTIES
1002
{
1000
PbHidd
1002
}
  0
LINE
  5
40E
330
1F
100
AcDbEntity
  8
HIDDEN
100
AcDbLine
 10
-74.2556381225586
 20
-21.49850845336914
 30
0.0
 11
-74.35357666015625
 21
-21.37417030334473
 31
0.0
1001
DBPROPERTIES
1002
{
1000
PbHidd
1002
}
  0
LINE
  5
40F
330
1F
100
AcDbEntity
  8
HIDDEN
100
AcDbLine
 10
-74.35357666015625
 20
-21.37417030334473
 30
0.0
 11
-74.45565032958984
 21
-21.25674438476562
 31
0.0
1001
DBPROPERTIES
1002
{
1000
PbHidd
1002
}
  0
LINE
  5
410
330
1F
100
AcDbEntity
  8
HIDDEN
100
AcDbLine
 10
-74.45565032958984
 20
-21.25674438476562
 30
0.0
 11
-74.56095123291016
 21
-21.14704322814941
 31
0.0
1001
DBPROPERTIES
1002
{
1000
PbHidd
1002
}
  0
LINE
  5
411
330
1F
100
AcDbEntity
  8
HIDDEN
100
AcDbLine
 10
-74.56095123291016
 20
-21.14704322814941
 30
0.0
 11
-74.66850280761719
 21
-21.04583549499512
 31
0.0
1001
DBPROPERTIES
1002
{
1000
PbHidd
1002
}
  0
LINE
  5
412
330
1F
100
AcDbEntity
  8
HIDDEN
100
AcDbLine
 10
-74.66850280761719
 20
-21.04583549499512
 30
0.0
 11
-74.77720642089844
 21
-20.95363426208496
 31
0.0
1001
DBPROPERTIES
1002
{
1000
PbHidd
1002
}
  0
LINE
  5
413
330
1F
100
AcDbEntity
  8
HIDDEN
100
AcDbLine
 10
-74.77720642089844
 20
-20.95363426208496
 30
0.0
 11
-74.8858642578125
 21
-20.87073516845703
 31
0.0
1001
DBPROPERTIES
1002
{
1000
PbHidd
1002
}
  0
LINE
  5
414
330
1F
100
AcDbEntity
  8
HIDDEN
100
AcDbLine
 10
-74.8858642578125
 20
-20.87073516845703
 30
0.0
 11
-74.99722290039062
 21
-20.79477119445801
 31
0.0
1001
DBPROPERTIES
1002
{
1000
PbHidd
1002
}
  0
LINE
  5
415
330
1F
100
AcDbEntity
  8
HIDDEN
100
AcDbLine
 10
-74.99722290039062
 20
-20.79477119445801
 30
0.0
 11
-75.11408996582031
 21
-20.72411155700684
 31
0.0
1001
DBPROPERTIES
1002
{
1000
PbHidd
1002
}
  0
LINE
  5
416
330
1F
100
AcDbEntity
  8
HIDDEN
100
AcDbLine
 10
-75.11408996582031
 20
-20.72411155700684
 30
0.0
 11
-75.23558807373047
 21
-20.65994644165039
 31
0.0
1001
DBPROPERTIES
1002
{
1000
PbHidd
1002
}
  0
LINE
  5
417
330
1F
100
AcDbEntity
  8
HIDDEN
100
AcDbLine
 10
-75.23558807373047
 20
-20.65994644165039
 30
0.0
 11
-75.36079406738281
 21
-20.60321426391602
 31
0.0
1001
DBPROPERTIES
1002
{
1000
PbHidd
1002
}
  0
LINE
  5
418
330
1F
100
AcDbEntity
  8
HIDDEN
100
AcDbLine
 10
-75.36079406738281
 20
-20.60321426391602
 30
0.0
 11
-75.48869323730469
 21
-20.55457496643066
 31
0.0
1001
DBPROPERTIES
1002
{
1000
PbHidd
1002
}
  0
LINE
  5
419
330
1F
100
AcDbEntity
  8
HIDDEN
100
AcDbLine
 10
-75.48869323730469
 20
-20.55457496643066
 30
0.0
 11
-75.6182861328125
 21
-20.51459503173828
 31
0.0
1001
DBPROPERTIES
1002
{
1000
PbHidd
1002
}
  0
LINE
  5
41A
330
1F
100
AcDbEntity
  8
HIDDEN
100
AcDbLine
 10
-75.6182861328125
 20
-20.51459503173828
 30
0.0
 11
-75.7485122680664
 21
-20.48345565795898
 31
0.0
1001
DBPROPERTIES
1002
{
1000
PbHidd
1002
}
  0
LINE
  5
41B
330
1F
100
AcDbEntity
  8
HIDDEN
100
AcDbLine
 10
-75.7485122680664
 20
-20.48345565795898
 30
0.0
 11
-75.87824249267578
 21
-20.46122550964355
 31
0.0
1001
DBPROPERTIES
1002
{
1000
PbHidd
1002
}
  0
LINE
  5
41C
330
1F
100
AcDbEntity
  8
HIDDEN
100
AcDbLine
 10
-75.87824249267578
 20
-20.46122550964355
 30
0.0
 11
-76.00633239746094
 21
-20.44773864746094
 31
0.0
1001
DBPROPERTIES
1002
{
1000
PbHidd
1002
}
  0
LINE
  5
41D
330
1F
100
AcDbEntity
  8
HIDDEN
100
AcDbLine
 10
-76.00633239746094
 20
-20.44773864746094
 30
0.0
 11
-76.02437591552734
 21
-20.44650077819824
 31
0.0
1001
DBPROPERTIES
1002
{
1000
PbHidd
1002
}
  0
LINE
  5
41E
330
1F
100
AcDbEntity
  8
HIDDEN
100
AcDbLine
 10
-76.02437591552734
 20
-20.44650077819824
 30
0.0
 11
-76.0423583984375
 21
-20.44543075561523
 31
0.0
1001
DBPROPERTIES
1002
{
1000
PbHidd
1002
}
  0
LINE
  5
41F
330
1F
100
AcDbEntity
  8
HIDDEN
100
AcDbLine
 10
-76.0423583984375
 20
-20.44543075561523
 30
0.0
 11
-76.06027221679688
 21
-20.44452285766602
 31
0.0
1001
DBPROPERTIES
1002
{
1000
PbHidd
1002
}
  0
LINE
  5
420
330
1F
100
AcDbEntity
  8
HIDDEN
100
AcDbLine
 10
-76.06027221679688
 20
-20.44452285766602
 30
0.0
 11
-76.078125
 21
-20.44378089904785
 31
0.0
1001
DBPROPERTIES
1002
{
1000
PbHidd
1002
}
  0
LINE
  5
421
330
1F
100
AcDbEntity
  8
HIDDEN
100
AcDbLine
 10
-76.078125
 20
-20.44378089904785
 30
0.0
 11
-76.09590148925781
 21
-20.44319725036621
 31
0.0
1001
DBPROPERTIES
1002
{
1000
PbHidd
1002
}
  0
LINE
  5
422
330
1F
100
AcDbEntity
  8
HIDDEN
100
AcDbLine
 10
-76.09590148925781
 20
-20.44319725036621
 30
0.0
 11
-76.11360931396484
 21
-20.44277572631836
 31
0.0
1001
DBPROPERTIES
1002
{
1000
PbHidd
1002
}
  0
LINE
  5
423
330
1F
100
AcDbEntity
  8
THICK
100
AcDbLine
 10
-76.11360931396484
 20
-20.44277572631836
 30
0.0
 11
-76.12002563476562
 21
-20.44266128540039
 31
0.0
1001
DBPROPERTIES
1002
{
1000
PbThick
1002
}
  0
LINE
  5
424
330
1F
100
AcDbEntity
  8
THICK
100
AcDbLine
 10
-76.12002563476562
 20
-20.44266128540039
 30
0.0
 11
-76.12643432617188
 21
-20.44256782531738
 31
0.0
1001
DBPROPERTIES
1002
{
1000
PbThick
1002
}
  0
LINE
  5
425
330
1F
100
AcDbEntity
  8
THICK
100
AcDbLine
 10
-76.12643432617188
 20
-20.44256782531738
 30
0.0
 11
-76.1328353881836
 21
-20.44249725341797
 31
0.0
1001
DBPROPERTIES
1002
{
1000
PbThick
1002
}
  0
LINE
  5
426
330
1F
100
AcDbEntity
  8
THICK
100
AcDbLine
 10
-76.1328353881836
 20
-20.44249725341797
 30
0.0
 11
-76.13922119140625
 21
-20.44244384765625
 31
0.0
1001
DBPROPERTIES
1002
{
1000
PbThick
1002
}
  0
LINE
  5
427
330
1F
100
AcDbEntity
  8
THICK
100
AcDbLine
 10
-76.13922119140625
 20
-20.44244384765625
 30
0.0
 11
-76.14559936523438
 21
-20.44241333007812
 31
0.0
1001
DBPROPERTIES
1002
{
1000
PbThick
1002
}
  0
LINE
  5
428
330
1F
100
AcDbEntity
  8
THICK
100
AcDbLine
 10
-76.14559936523438
 20
-20.44241333007812
 30
0.0
 11
-76.15196228027344
 21
-20.44240379333496
 31
0.0
1001
DBPROPERTIES
1002
{
1000
PbThick
1002
}
  0
LINE
  5
429
330
1F
100
AcDbEntity
  8
THICK
100
AcDbLine
 10
-59.42157287525379
 20
-44.44
 30
0.0
 11
-58.25000000317597
 21
-44.44
 31
0.0
1001
DBPROPERTIES
1002
{
1000
PbThick
1002
}
  0
LINE
  5
42A
330
1F
100
AcDbEntity
  8
HIDDEN
100
AcDbLine
 10
-58.24999999999999
 20
-44.44
 30
0.0
 11
-59.4215728752538
 21
-44.44
 31
0.0
1001
DBPROPERTIES
1002
{
1000
PbHidd
1002
}
  0
LINE
  5
42B
330
1F
100
AcDbEntity
  8
HIDDEN
100
AcDbLine
 10
-59.4215728752538
 20
-44.44
 30
0.0
 11
-62.24999999999999
 21
-44.44
 31
0.0
1001
DBPROPERTIES
1002
{
1000
PbHidd
1002
}
  0
ELLIPSE
  5
42C
330
1F
100
AcDbEntity
  8
HIDDEN
100
AcDbEllipse
 10
-76.39213562373094
 20
-24.44
 30
0.0
 11
-2.449212707644755E-16
 21
-4.0
 31
0.0
210
0.0
220
0.0
230
1.0
 40
0.7071067811865475
 41
0.0
 42
0.0015164697773235
1001
DBPROPERTIES
1002
{
1000
PbHidd
1002
}
  0
LINE
  5
42D
330
1F
100
AcDbEntity
  8
HIDDEN
100
AcDbLine
 10
-76.38784790039062
 20
-28.43999481201172
 30
0.0
 11
-76.38482666015625
 21
-28.43999671936035
 31
0.0
1001
DBPROPERTIES
1002
{
1000
PbHidd
1002
}
  0
LINE
  5
42E
330
1F
100
AcDbEntity
  8
HIDDEN
100
AcDbLine
 10
-76.38482666015625
 20
-28.43999671936035
 30
0.0
 11
-76.381591796875
 21
-28.43999671936035
 31
0.0
1001
DBPROPERTIES
1002
{
1000
PbHidd
1002
}
  0
LINE
  5
42F
330
1F
100
AcDbEntity
  8
HIDDEN
100
AcDbLine
 10
-76.381591796875
 20
-28.43999671936035
 30
0.0
 11
-76.37812805175781
 21
-28.43999671936035
 31
0.0
1001
DBPROPERTIES
1002
{
1000
PbHidd
1002
}
  0
LINE
  5
430
330
1F
100
AcDbEntity
  8
HIDDEN
100
AcDbLine
 10
-76.37812805175781
 20
-28.43999671936035
 30
0.0
 11
-76.37445831298828
 21
-28.43999862670898
 31
0.0
1001
DBPROPERTIES
1002
{
1000
PbHidd
1002
}
  0
LINE
  5
431
330
1F
100
AcDbEntity
  8
HIDDEN
100
AcDbLine
 10
-76.37445831298828
 20
-28.43999862670898
 30
0.0
 11
-76.37064361572266
 21
-28.44000053405762
 31
0.0
1001
DBPROPERTIES
1002
{
1000
PbHidd
1002
}
  0
LINE
  5
432
330
1F
100
AcDbEntity
  8
HIDDEN
100
AcDbLine
 10
-76.37064361572266
 20
-28.44000053405762
 30
0.0
 11
-76.36672973632812
 21
-28.44000053405762
 31
0.0
1001
DBPROPERTIES
1002
{
1000
PbHidd
1002
}
  0
LINE
  5
433
330
1F
100
AcDbEntity
  8
HIDDEN
100
AcDbLine
 10
-76.36672973632812
 20
-28.44000053405762
 30
0.0
 11
-76.35287475585938
 21
-28.43999290466309
 31
0.0
1001
DBPROPERTIES
1002
{
1000
PbHidd
1002
}
  0
LINE
  5
434
330
1F
100
AcDbEntity
  8
HIDDEN
100
AcDbLine
 10
-76.35287475585938
 20
-28.43999290466309
 30
0.0
 11
-76.33844757080078
 21
-28.43996047973633
 31
0.0
1001
DBPROPERTIES
1002
{
1000
PbHidd
1002
}
  0
LINE
  5
435
330
1F
100
AcDbEntity
  8
HIDDEN
100
AcDbLine
 10
-76.33844757080078
 20
-28.43996047973633
 30
0.0
 11
-76.32394409179688
 21
-28.43989944458008
 31
0.0
1001
DBPROPERTIES
1002
{
1000
PbHidd
1002
}
  0
LINE
  5
436
330
1F
100
AcDbEntity
  8
HIDDEN
100
AcDbLine
 10
-76.32394409179688
 20
-28.43989944458008
 30
0.0
 11
-76.30972290039062
 21
-28.43980026245117
 31
0.0
1001
DBPROPERTIES
1002
{
1000
PbHidd
1002
}
  0
LINE
  5
437
330
1F
100
AcDbEntity
  8
HIDDEN
100
AcDbLine
 10
-76.30972290039062
 20
-28.43980026245117
 30
0.0
 11
-76.29509735107422
 21
-28.43965148925781
 31
0.0
1001
DBPROPERTIES
1002
{
1000
PbHidd
1002
}
  0
LINE
  5
438
330
1F
100
AcDbEntity
  8
HIDDEN
100
AcDbLine
 10
-76.29509735107422
 20
-28.43965148925781
 30
0.0
 11
-76.28011322021484
 21
-28.43945121765137
 31
0.0
1001
DBPROPERTIES
1002
{
1000
PbHidd
1002
}
  0
LINE
  5
439
330
1F
100
AcDbEntity
  8
HIDDEN
100
AcDbLine
 10
-76.28011322021484
 20
-28.43945121765137
 30
0.0
 11
-76.2649154663086
 21
-28.43919563293457
 31
0.0
1001
DBPROPERTIES
1002
{
1000
PbHidd
1002
}
  0
LINE
  5
43A
330
1F
100
AcDbEntity
  8
HIDDEN
100
AcDbLine
 10
-76.2649154663086
 20
-28.43919563293457
 30
0.0
 11
-76.24967193603516
 21
-28.43888092041016
 31
0.0
1001
DBPROPERTIES
1002
{
1000
PbHidd
1002
}
  0
LINE
  5
43B
330
1F
100
AcDbEntity
  8
HIDDEN
100
AcDbLine
 10
-76.24967193603516
 20
-28.43888092041016
 30
0.0
 11
-76.2345199584961
 21
-28.43850708007812
 31
0.0
1001
DBPROPERTIES
1002
{
1000
PbHidd
1002
}
  0
LINE
  5
43C
330
1F
100
AcDbEntity
  8
HIDDEN
100
AcDbLine
 10
-76.2345199584961
 20
-28.43850708007812
 30
0.0
 11
-76.21928405761719
 21
-28.43806457519531
 31
0.0
1001
DBPROPERTIES
1002
{
1000
PbHidd
1002
}
  0
LINE
  5
43D
330
1F
100
AcDbEntity
  8
HIDDEN
100
AcDbLine
 10
-76.21928405761719
 20
-28.43806457519531
 30
0.0
 11
-76.2034912109375
 21
-28.43753814697266
 31
0.0
1001
DBPROPERTIES
1002
{
1000
PbHidd
1002
}
  0
LINE
  5
43E
330
1F
100
AcDbEntity
  8
HIDDEN
100
AcDbLine
 10
-76.2034912109375
 20
-28.43753814697266
 30
0.0
 11
-76.1871337890625
 21
-28.43691825866699
 31
0.0
1001
DBPROPERTIES
1002
{
1000
PbHidd
1002
}
  0
LINE
  5
43F
330
1F
100
AcDbEntity
  8
HIDDEN
100
AcDbLine
 10
-76.1871337890625
 20
-28.43691825866699
 30
0.0
 11
-76.17021942138672
 21
-28.43618965148926
 31
0.0
1001
DBPROPERTIES
1002
{
1000
PbHidd
1002
}
  0
LINE
  5
440
330
1F
100
AcDbEntity
  8
HIDDEN
100
AcDbLine
 10
-76.17021942138672
 20
-28.43618965148926
 30
0.0
 11
-76.15276336669922
 21
-28.43534469604492
 31
0.0
1001
DBPROPERTIES
1002
{
1000
PbHidd
1002
}
  0
LINE
  5
441
330
1F
100
AcDbEntity
  8
HIDDEN
100
AcDbLine
 10
-76.15276336669922
 20
-28.43534469604492
 30
0.0
 11
-76.13477325439453
 21
-28.43437194824219
 31
0.0
1001
DBPROPERTIES
1002
{
1000
PbHidd
1002
}
  0
LINE
  5
442
330
1F
100
AcDbEntity
  8
HIDDEN
100
AcDbLine
 10
-76.13477325439453
 20
-28.43437194824219
 30
0.0
 11
-76.11626434326172
 21
-28.43325996398926
 31
0.0
1001
DBPROPERTIES
1002
{
1000
PbHidd
1002
}
  0
LINE
  5
443
330
1F
100
AcDbEntity
  8
HIDDEN
100
AcDbLine
 10
-76.11626434326172
 20
-28.43325996398926
 30
0.0
 11
-76.09722900390625
 21
-28.43199920654297
 31
0.0
1001
DBPROPERTIES
1002
{
1000
PbHidd
1002
}
  0
LINE
  5
444
330
1F
100
AcDbEntity
  8
HIDDEN
100
AcDbLine
 10
-76.09722900390625
 20
-28.43199920654297
 30
0.0
 11
-76.07769775390625
 21
-28.43057632446289
 31
0.0
1001
DBPROPERTIES
1002
{
1000
PbHidd
1002
}
  0
LINE
  5
445
330
1F
100
AcDbEntity
  8
HIDDEN
100
AcDbLine
 10
-76.07769775390625
 20
-28.43057632446289
 30
0.0
 11
-76.05766296386719
 21
-28.42898178100586
 31
0.0
1001
DBPROPERTIES
1002
{
1000
PbHidd
1002
}
  0
LINE
  5
446
330
1F
100
AcDbEntity
  8
HIDDEN
100
AcDbLine
 10
-76.05766296386719
 20
-28.42898178100586
 30
0.0
 11
-76.03713989257812
 21
-28.42720413208008
 31
0.0
1001
DBPROPERTIES
1002
{
1000
PbHidd
1002
}
  0
LINE
  5
447
330
1F
100
AcDbEntity
  8
HIDDEN
100
AcDbLine
 10
-76.03713989257812
 20
-28.42720413208008
 30
0.0
 11
-76.0161361694336
 21
-28.42523193359375
 31
0.0
1001
DBPROPERTIES
1002
{
1000
PbHidd
1002
}
  0
LINE
  5
448
330
1F
100
AcDbEntity
  8
HIDDEN
100
AcDbLine
 10
-76.0161361694336
 20
-28.42523193359375
 30
0.0
 11
-75.99465942382812
 21
-28.42305755615234
 31
0.0
1001
DBPROPERTIES
1002
{
1000
PbHidd
1002
}
  0
LINE
  5
449
330
1F
100
AcDbEntity
  8
HIDDEN
100
AcDbLine
 10
-75.99465942382812
 20
-28.42305755615234
 30
0.0
 11
-75.97272491455078
 21
-28.4206657409668
 31
0.0
1001
DBPROPERTIES
1002
{
1000
PbHidd
1002
}
  0
LINE
  5
44A
330
1F
100
AcDbEntity
  8
HIDDEN
100
AcDbLine
 10
-75.97272491455078
 20
-28.4206657409668
 30
0.0
 11
-75.9503402709961
 21
-28.41804695129395
 31
0.0
1001
DBPROPERTIES
1002
{
1000
PbHidd
1002
}
  0
LINE
  5
44B
330
1F
100
AcDbEntity
  8
HIDDEN
100
AcDbLine
 10
-75.9503402709961
 20
-28.41804695129395
 30
0.0
 11
-75.9275131225586
 21
-28.41517639160156
 31
0.0
1001
DBPROPERTIES
1002
{
1000
PbHidd
1002
}
  0
LINE
  5
44C
330
1F
100
AcDbEntity
  8
HIDDEN
100
AcDbLine
 10
-75.9275131225586
 20
-28.41517639160156
 30
0.0
 11
-75.69641876220703
 21
-28.36389541625977
 31
0.0
1001
DBPROPERTIES
1002
{
1000
PbHidd
1002
}
  0
LINE
  5
44D
330
1F
100
AcDbEntity
  8
HIDDEN
100
AcDbLine
 10
-75.69641876220703
 20
-28.36389541625977
 30
0.0
 11
-75.4692153930664
 21
-28.28554153442383
 31
0.0
1001
DBPROPERTIES
1002
{
1000
PbHidd
1002
}
  0
LINE
  5
44E
330
1F
100
AcDbEntity
  8
HIDDEN
100
AcDbLine
 10
-75.4692153930664
 20
-28.28554153442383
 30
0.0
 11
-75.25341033935547
 21
-28.18462181091309
 31
0.0
1001
DBPROPERTIES
1002
{
1000
PbHidd
1002
}
  0
LINE
  5
44F
330
1F
100
AcDbEntity
  8
HIDDEN
100
AcDbLine
 10
-75.25341033935547
 20
-28.18462181091309
 30
0.0
 11
-75.05130004882812
 21
-28.06408500671387
 31
0.0
1001
DBPROPERTIES
1002
{
1000
PbHidd
1002
}
  0
LINE
  5
450
330
1F
100
AcDbEntity
  8
HIDDEN
100
AcDbLine
 10
-75.05130004882812
 20
-28.06408500671387
 30
0.0
 11
-74.84821319580078
 21
-27.91513824462891
 31
0.0
1001
DBPROPERTIES
1002
{
1000
PbHidd
1002
}
  0
LINE
  5
451
330
1F
100
AcDbEntity
  8
HIDDEN
100
AcDbLine
 10
-74.84821319580078
 20
-27.91513824462891
 30
0.0
 11
-74.64962768554688
 21
-27.73933029174805
 31
0.0
1001
DBPROPERTIES
1002
{
1000
PbHidd
1002
}
  0
LINE
  5
452
330
1F
100
AcDbEntity
  8
HIDDEN
100
AcDbLine
 10
-74.64962768554688
 20
-27.73933029174805
 30
0.0
 11
-74.46296691894531
 21
-27.54131317138672
 31
0.0
1001
DBPROPERTIES
1002
{
1000
PbHidd
1002
}
  0
LINE
  5
453
330
1F
100
AcDbEntity
  8
HIDDEN
100
AcDbLine
 10
-74.46296691894531
 20
-27.54131317138672
 30
0.0
 11
-74.29366302490234
 21
-27.32997512817383
 31
0.0
1001
DBPROPERTIES
1002
{
1000
PbHidd
1002
}
  0
LINE
  5
454
330
1F
100
AcDbEntity
  8
HIDDEN
100
AcDbLine
 10
-74.29366302490234
 20
-27.32997512817383
 30
0.0
 11
-74.140869140625
 21
-27.10633659362793
 31
0.0
1001
DBPROPERTIES
1002
{
1000
PbHidd
1002
}
  0
LINE
  5
455
330
1F
100
AcDbEntity
  8
HIDDEN
100
AcDbLine
 10
-74.140869140625
 20
-27.10633659362793
 30
0.0
 11
-73.99485778808594
 21
-26.85508346557617
 31
0.0
1001
DBPROPERTIES
1002
{
1000
PbHidd
1002
}
  0
LINE
  5
456
330
1F
100
AcDbEntity
  8
HIDDEN
100
AcDbLine
 10
-73.99485778808594
 20
-26.85508346557617
 30
0.0
 11
-73.8611068725586
 21
-26.58261489868164
 31
0.0
1001
DBPROPERTIES
1002
{
1000
PbHidd
1002
}
  0
LINE
  5
457
330
1F
100
AcDbEntity
  8
HIDDEN
100
AcDbLine
 10
-73.8611068725586
 20
-26.58261489868164
 30
0.0
 11
-73.74486541748047
 21
-26.29754829406738
 31
0.0
1001
DBPROPERTIES
1002
{
1000
PbHidd
1002
}
  0
LINE
  5
458
330
1F
100
AcDbEntity
  8
HIDDEN
100
AcDbLine
 10
-73.74486541748047
 20
-26.29754829406738
 30
0.0
 11
-73.64859008789062
 21
-26.01119041442871
 31
0.0
1001
DBPROPERTIES
1002
{
1000
PbHidd
1002
}
  0
LINE
  5
459
330
1F
100
AcDbEntity
  8
HIDDEN
100
AcDbLine
 10
-73.64859008789062
 20
-26.01119041442871
 30
0.0
 11
-73.57001495361328
 21
-25.71915435791016
 31
0.0
1001
DBPROPERTIES
1002
{
1000
PbHidd
1002
}
  0
LINE
  5
45A
330
1F
100
AcDbEntity
  8
HIDDEN
100
AcDbLine
 10
-73.57001495361328
 20
-25.71915435791016
 30
0.0
 11
-73.50514221191406
 21
-25.40560722351074
 31
0.0
1001
DBPROPERTIES
1002
{
1000
PbHidd
1002
}
  0
LINE
  5
45B
330
1F
100
AcDbEntity
  8
HIDDEN
100
AcDbLine
 10
-73.50514221191406
 20
-25.40560722351074
 30
0.0
 11
-73.45802307128906
 21
-25.08050155639648
 31
0.0
1001
DBPROPERTIES
1002
{
1000
PbHidd
1002
}
  0
LINE
  5
45C
330
1F
100
AcDbEntity
  8
HIDDEN
100
AcDbLine
 10
-73.45802307128906
 20
-25.08050155639648
 30
0.0
 11
-73.43048095703125
 21
-24.75486373901367
 31
0.0
1001
DBPROPERTIES
1002
{
1000
PbHidd
1002
}
  0
LINE
  5
45D
330
1F
100
AcDbEntity
  8
HIDDEN
100
AcDbLine
 10
-73.43048095703125
 20
-24.75486373901367
 30
0.0
 11
-73.42156982421875
 21
-24.44050598144531
 31
0.0
1001
DBPROPERTIES
1002
{
1000
PbHidd
1002
}
  0
LINE
  5
45E
330
1F
100
AcDbEntity
  8
THICK
100
AcDbLine
 10
-79.29981231689453
 20
-24.44000053405762
 30
0.0
 11
-79.29417419433594
 21
-24.68632316589355
 31
0.0
1001
DBPROPERTIES
1002
{
1000
PbThick
1002
}
  0
LINE
  5
45F
330
1F
100
AcDbEntity
  8
THICK
100
AcDbLine
 10
-79.29417419433594
 20
-24.68632316589355
 30
0.0
 11
-79.27658081054688
 21
-24.94000625610352
 31
0.0
1001
DBPROPERTIES
1002
{
1000
PbThick
1002
}
  0
LINE
  5
460
330
1F
100
AcDbEntity
  8
THICK
100
AcDbLine
 10
-79.27658081054688
 20
-24.94000625610352
 30
0.0
 11
-79.24632263183594
 21
-25.1966495513916
 31
0.0
1001
DBPROPERTIES
1002
{
1000
PbThick
1002
}
  0
LINE
  5
461
330
1F
100
AcDbEntity
  8
THICK
100
AcDbLine
 10
-79.24632263183594
 20
-25.1966495513916
 30
0.0
 11
-79.20343780517578
 21
-25.45198440551758
 31
0.0
1001
DBPROPERTIES
1002
{
1000
PbThick
1002
}
  0
LINE
  5
462
330
1F
100
AcDbEntity
  8
THICK
100
AcDbLine
 10
-79.20343780517578
 20
-25.45198440551758
 30
0.0
 11
-79.14848327636719
 21
-25.70201110839844
 31
0.0
1001
DBPROPERTIES
1002
{
1000
PbThick
1002
}
  0
LINE
  5
463
330
1F
100
AcDbEntity
  8
THICK
100
AcDbLine
 10
-79.14848327636719
 20
-25.70201110839844
 30
0.0
 11
-79.08270263671875
 21
-25.94286346435547
 31
0.0
1001
DBPROPERTIES
1002
{
1000
PbThick
1002
}
  0
LINE
  5
464
330
1F
100
AcDbEntity
  8
THICK
100
AcDbLine
 10
-79.08270263671875
 20
-25.94286346435547
 30
0.0
 11
-79.00794982910156
 21
-26.17092132568359
 31
0.0
1001
DBPROPERTIES
1002
{
1000
PbThick
1002
}
  0
LINE
  5
465
330
1F
100
AcDbEntity
  8
THICK
100
AcDbLine
 10
-79.00794982910156
 20
-26.17092132568359
 30
0.0
 11
-78.92459106445312
 21
-26.38779067993164
 31
0.0
1001
DBPROPERTIES
1002
{
1000
PbThick
1002
}
  0
LINE
  5
466
330
1F
100
AcDbEntity
  8
THICK
100
AcDbLine
 10
-78.92459106445312
 20
-26.38779067993164
 30
0.0
 11
-78.82823944091797
 21
-26.6043701171875
 31
0.0
1001
DBPROPERTIES
1002
{
1000
PbThick
1002
}
  0
LINE
  5
467
330
1F
100
AcDbEntity
  8
THICK
100
AcDbLine
 10
-78.82823944091797
 20
-26.6043701171875
 30
0.0
 11
-78.71916961669922
 21
-26.81717681884766
 31
0.0
1001
DBPROPERTIES
1002
{
1000
PbThick
1002
}
  0
LINE
  5
468
330
1F
100
AcDbEntity
  8
THICK
100
AcDbLine
 10
-78.71916961669922
 20
-26.81717681884766
 30
0.0
 11
-78.59866333007812
 21
-27.02228736877441
 31
0.0
1001
DBPROPERTIES
1002
{
1000
PbThick
1002
}
  0
LINE
  5
469
330
1F
100
AcDbEntity
  8
THICK
100
AcDbLine
 10
-78.59866333007812
 20
-27.02228736877441
 30
0.0
 11
-78.4683837890625
 21
-27.21624565124512
 31
0.0
1001
DBPROPERTIES
1002
{
1000
PbThick
1002
}
  0
LINE
  5
46A
330
1F
100
AcDbEntity
  8
THICK
100
AcDbLine
 10
-78.4683837890625
 20
-27.21624565124512
 30
0.0
 11
-78.33055877685547
 21
-27.39626312255859
 31
0.0
1001
DBPROPERTIES
1002
{
1000
PbThick
1002
}
  0
LINE
  5
46B
330
1F
100
AcDbEntity
  8
THICK
100
AcDbLine
 10
-78.33055877685547
 20
-27.39626312255859
 30
0.0
 11
-78.18785095214844
 21
-27.55998229980469
 31
0.0
1001
DBPROPERTIES
1002
{
1000
PbThick
1002
}
  0
LINE
  5
46C
330
1F
100
AcDbEntity
  8
THICK
100
AcDbLine
 10
-78.18785095214844
 20
-27.55998229980469
 30
0.0
 11
-78.0423583984375
 21
-27.70680046081543
 31
0.0
1001
DBPROPERTIES
1002
{
1000
PbThick
1002
}
  0
LINE
  5
46D
330
1F
100
AcDbEntity
  8
THICK
100
AcDbLine
 10
-78.0423583984375
 20
-27.70680046081543
 30
0.0
 11
-77.88599395751953
 21
-27.84492492675781
 31
0.0
1001
DBPROPERTIES
1002
{
1000
PbThick
1002
}
  0
LINE
  5
46E
330
1F
100
AcDbEntity
  8
THICK
100
AcDbLine
 10
-77.88599395751953
 20
-27.84492492675781
 30
0.0
 11
-77.71820831298828
 21
-27.97314453125
 31
0.0
1001
DBPROPERTIES
1002
{
1000
PbThick
1002
}
  0
LINE
  5
46F
330
1F
100
AcDbEntity
  8
HIDDEN
100
AcDbLine
 10
-77.71820831298828
 20
-27.97314453125
 30
0.0
 11
-77.69438171386719
 21
-27.98980903625488
 31
0.0
1001
DBPROPERTIES
1002
{
1000
PbHidd
1002
}
  0
LINE
  5
470
330
1F
100
AcDbEntity
  8
HIDDEN
100
AcDbLine
 10
-77.69438171386719
 20
-27.98980903625488
 30
0.0
 11
-77.67039489746094
 21
-28.00621604919434
 31
0.0
1001
DBPROPERTIES
1002
{
1000
PbHidd
1002
}
  0
LINE
  5
471
330
1F
100
AcDbEntity
  8
HIDDEN
100
AcDbLine
 10
-77.67039489746094
 20
-28.00621604919434
 30
0.0
 11
-77.64625549316406
 21
-28.02235984802246
 31
0.0
1001
DBPROPERTIES
1002
{
1000
PbHidd
1002
}
  0
LINE
  5
472
330
1F
100
AcDbEntity
  8
HIDDEN
100
AcDbLine
 10
-77.64625549316406
 20
-28.02235984802246
 30
0.0
 11
-77.62197875976562
 21
-28.03823280334473
 31
0.0
1001
DBPROPERTIES
1002
{
1000
PbHidd
1002
}
  0
LINE
  5
473
330
1F
100
AcDbEntity
  8
HIDDEN
100
AcDbLine
 10
-77.62197875976562
 20
-28.03823280334473
 30
0.0
 11
-77.59756469726562
 21
-28.05382537841797
 31
0.0
1001
DBPROPERTIES
1002
{
1000
PbHidd
1002
}
  0
LINE
  5
474
330
1F
100
AcDbEntity
  8
HIDDEN
100
AcDbLine
 10
-77.59756469726562
 20
-28.05382537841797
 30
0.0
 11
-77.5730209350586
 21
-28.06913566589355
 31
0.0
1001
DBPROPERTIES
1002
{
1000
PbHidd
1002
}
  0
ELLIPSE
  5
475
330
1F
100
AcDbEntity
  8
HIDDEN
100
AcDbEllipse
 10
-79.42050807568876
 20
-24.44
 30
0.0
 11
2.449212707644755E-16
 21
3.999999999999999
 31
0.0
210
0.0
220
0.0
230
1.0
 40
0.8660254037844388
 41
1.570796326794896
 42
4.71238898038469
1001
DBPROPERTIES
1002
{
1000
PbHidd
1002
}
  0
ELLIPSE
  5
476
330
1F
100
AcDbEntity
  8
HIDDEN
100
AcDbEllipse
 10
-76.24213562373093
 20
-24.44
 30
0.0
 11
2.449212707644754E-16
 21
4.0
 31
0.0
210
0.0
220
0.0
230
1.0
 40
0.7071067811865476
 41
-3.030124898015303
 42
-1.570796326794897
1001
DBPROPERTIES
1002
{
1000
PbHidd
1002
}
  0
LINE
  5
477
330
1F
100
AcDbEntity
  8
HIDDEN
100
AcDbLine
 10
-77.5729751586914
 20
-28.06901550292969
 30
0.0
 11
-77.46503448486328
 21
-28.13608169555664
 31
0.0
1001
DBPROPERTIES
1002
{
1000
PbHidd
1002
}
  0
LINE
  5
478
330
1F
100
AcDbEntity
  8
HIDDEN
100
AcDbLine
 10
-77.46503448486328
 20
-28.13608169555664
 30
0.0
 11
-77.35507202148438
 21
-28.19651412963867
 31
0.0
1001
DBPROPERTIES
1002
{
1000
PbHidd
1002
}
  0
LINE
  5
479
330
1F
100
AcDbEntity
  8
HIDDEN
100
AcDbLine
 10
-77.35507202148438
 20
-28.19651412963867
 30
0.0
 11
-77.23995971679688
 21
-28.25196075439453
 31
0.0
1001
DBPROPERTIES
1002
{
1000
PbHidd
1002
}
  0
LINE
  5
47A
330
1F
100
AcDbEntity
  8
HIDDEN
100
AcDbLine
 10
-77.23995971679688
 20
-28.25196075439453
 30
0.0
 11
-77.12084197998047
 21
-28.30149078369141
 31
0.0
1001
DBPROPERTIES
1002
{
1000
PbHidd
1002
}
  0
LINE
  5
47B
330
1F
100
AcDbEntity
  8
HIDDEN
100
AcDbLine
 10
-77.12084197998047
 20
-28.30149078369141
 30
0.0
 11
-76.99884796142578
 21
-28.34421730041504
 31
0.0
1001
DBPROPERTIES
1002
{
1000
PbHidd
1002
}
  0
LINE
  5
47C
330
1F
100
AcDbEntity
  8
HIDDEN
100
AcDbLine
 10
-76.99884796142578
 20
-28.34421730041504
 30
0.0
 11
-76.8750991821289
 21
-28.37909698486328
 31
0.0
1001
DBPROPERTIES
1002
{
1000
PbHidd
1002
}
  0
LINE
  5
47D
330
1F
100
AcDbEntity
  8
HIDDEN
100
AcDbLine
 10
-76.8750991821289
 20
-28.37909698486328
 30
0.0
 11
-76.7508316040039
 21
-28.40591621398926
 31
0.0
1001
DBPROPERTIES
1002
{
1000
PbHidd
1002
}
  0
LINE
  5
47E
330
1F
100
AcDbEntity
  8
HIDDEN
100
AcDbLine
 10
-76.7508316040039
 20
-28.40591621398926
 30
0.0
 11
-76.62733459472656
 21
-28.42484474182129
 31
0.0
1001
DBPROPERTIES
1002
{
1000
PbHidd
1002
}
  0
LINE
  5
47F
330
1F
100
AcDbEntity
  8
HIDDEN
100
AcDbLine
 10
-76.62733459472656
 20
-28.42484474182129
 30
0.0
 11
-76.50590515136719
 21
-28.43612289428711
 31
0.0
1001
DBPROPERTIES
1002
{
1000
PbHidd
1002
}
  0
LINE
  5
480
330
1F
100
AcDbEntity
  8
HIDDEN
100
AcDbLine
 10
-76.50590515136719
 20
-28.43612289428711
 30
0.0
 11
-76.38784790039062
 21
-28.43999481201172
 31
0.0
1001
DBPROPERTIES
1002
{
1000
PbHidd
1002
}
  0
ARC
  5
481
330
1F
100
AcDbEntity
  8
THICK
100
AcDbCircle
 10
-42.25
 20
-202.2
 30
0.0
 40
24.0
100
AcDbArc
 50
180.0000198478428
 51
265.9709222128289
1001
DBPROPERTIES
1002
{
1000
PbThick
1002
}
  0
LINE
  5
482
330
1F
100
AcDbEntity
  8
THICK
100
AcDbLine
 10
-43.93629455566406
 20
-226.1406860351562
 30
0.0
 11
-43.93581008911133
 21
-226.13671875
 31
0.0
1001
DBPROPERTIES
1002
{
1000
PbThick
1002
}
  0
LINE
  5
483
330
1F
100
AcDbEntity
  8
THICK
100
AcDbLine
 10
-43.93581008911133
 20
-226.13671875
 30
0.0
 11
-43.93431091308594
 21
-226.1244506835938
 31
0.0
1001
DBPROPERTIES
1002
{
1000
PbThick
1002
}
  0
LINE
  5
484
330
1F
100
AcDbEntity
  8
THICK
100
AcDbLine
 10
-43.93431091308594
 20
-226.1244506835938
 30
0.0
 11
-43.93173980712891
 21
-226.1033782958984
 31
0.0
1001
DBPROPERTIES
1002
{
1000
PbThick
1002
}
  0
LINE
  5
485
330
1F
100
AcDbEntity
  8
THICK
100
AcDbLine
 10
-43.93173980712891
 20
-226.1033782958984
 30
0.0
 11
-43.92805862426758
 21
-226.0732574462891
 31
0.0
1001
DBPROPERTIES
1002
{
1000
PbThick
1002
}
  0
LINE
  5
486
330
1F
100
AcDbEntity
  8
THICK
100
AcDbLine
 10
-43.92805862426758
 20
-226.0732574462891
 30
0.0
 11
-43.92327117919922
 21
-226.0341796875
 31
0.0
1001
DBPROPERTIES
1002
{
1000
PbThick
1002
}
  0
LINE
  5
487
330
1F
100
AcDbEntity
  8
THICK
100
AcDbLine
 10
-43.92327117919922
 20
-226.0341796875
 30
0.0
 11
-43.91739654541016
 21
-225.9862823486328
 31
0.0
1001
DBPROPERTIES
1002
{
1000
PbThick
1002
}
  0
LINE
  5
488
330
1F
100
AcDbEntity
  8
THICK
100
AcDbLine
 10
-43.91739654541016
 20
-225.9862823486328
 30
0.0
 11
-43.91048812866211
 21
-225.9301452636719
 31
0.0
1001
DBPROPERTIES
1002
{
1000
PbThick
1002
}
  0
LINE
  5
489
330
1F
100
AcDbEntity
  8
THICK
100
AcDbLine
 10
-43.91048812866211
 20
-225.9301452636719
 30
0.0
 11
-43.90262985229492
 21
-225.8664245605469
 31
0.0
1001
DBPROPERTIES
1002
{
1000
PbThick
1002
}
  0
LINE
  5
48A
330
1F
100
AcDbEntity
  8
THICK
100
AcDbLine
 10
-43.90262985229492
 20
-225.8664245605469
 30
0.0
 11
-43.8939208984375
 21
-225.7960815429688
 31
0.0
1001
DBPROPERTIES
1002
{
1000
PbThick
1002
}
  0
LINE
  5
48B
330
1F
100
AcDbEntity
  8
THICK
100
AcDbLine
 10
-43.8939208984375
 20
-225.7960815429688
 30
0.0
 11
-43.88451385498047
 21
-225.7203521728516
 31
0.0
1001
DBPROPERTIES
1002
{
1000
PbThick
1002
}
  0
LINE
  5
48C
330
1F
100
AcDbEntity
  8
THICK
100
AcDbLine
 10
-43.88451385498047
 20
-225.7203521728516
 30
0.0
 11
-43.87418746948242
 21
-225.6375885009766
 31
0.0
1001
DBPROPERTIES
1002
{
1000
PbThick
1002
}
  0
LINE
  5
48D
330
1F
100
AcDbEntity
  8
THICK
100
AcDbLine
 10
-43.87418746948242
 20
-225.6375885009766
 30
0.0
 11
-43.86262893676758
 21
-225.54541015625
 31
0.0
1001
DBPROPERTIES
1002
{
1000
PbThick
1002
}
  0
LINE
  5
48E
330
1F
100
AcDbEntity
  8
THICK
100
AcDbLine
 10
-43.86262893676758
 20
-225.54541015625
 30
0.0
 11
-43.84985733032227
 21
-225.4441070556641
 31
0.0
1001
DBPROPERTIES
1002
{
1000
PbThick
1002
}
  0
LINE
  5
48F
330
1F
100
AcDbEntity
  8
THICK
100
AcDbLine
 10
-43.84985733032227
 20
-225.4441070556641
 30
0.0
 11
-43.83591461181641
 21
-225.3342132568359
 31
0.0
1001
DBPROPERTIES
1002
{
1000
PbThick
1002
}
  0
LINE
  5
490
330
1F
100
AcDbEntity
  8
THICK
100
AcDbLine
 10
-43.83591461181641
 20
-225.3342132568359
 30
0.0
 11
-43.82088088989258
 21
-225.216552734375
 31
0.0
1001
DBPROPERTIES
1002
{
1000
PbThick
1002
}
  0
LINE
  5
491
330
1F
100
AcDbEntity
  8
THICK
100
AcDbLine
 10
-43.82088088989258
 20
-225.216552734375
 30
0.0
 11
-43.80482482910156
 21
-225.0919494628906
 31
0.0
1001
DBPROPERTIES
1002
{
1000
PbThick
1002
}
  0
LINE
  5
492
330
1F
100
AcDbEntity
  8
THICK
100
AcDbLine
 10
-43.80482482910156
 20
-225.0919494628906
 30
0.0
 11
-43.78787612915039
 21
-224.9615783691406
 31
0.0
1001
DBPROPERTIES
1002
{
1000
PbThick
1002
}
  0
LINE
  5
493
330
1F
100
AcDbEntity
  8
THICK
100
AcDbLine
 10
-43.78787612915039
 20
-224.9615783691406
 30
0.0
 11
-43.77016067504883
 21
-224.8267059326172
 31
0.0
1001
DBPROPERTIES
1002
{
1000
PbThick
1002
}
  0
LINE
  5
494
330
1F
100
AcDbEntity
  8
THICK
100
AcDbLine
 10
-43.77016067504883
 20
-224.8267059326172
 30
0.0
 11
-43.75184631347656
 21
-224.6887969970703
 31
0.0
1001
DBPROPERTIES
1002
{
1000
PbThick
1002
}
  0
LINE
  5
495
330
1F
100
AcDbEntity
  8
THICK
100
AcDbLine
 10
-43.75184631347656
 20
-224.6887969970703
 30
0.0
 11
-43.73311996459961
 21
-224.5495452880859
 31
0.0
1001
DBPROPERTIES
1002
{
1000
PbThick
1002
}
  0
LINE
  5
496
330
1F
100
AcDbEntity
  8
THICK
100
AcDbLine
 10
-43.73311996459961
 20
-224.5495452880859
 30
0.0
 11
-43.71350860595703
 21
-224.4056854248047
 31
0.0
1001
DBPROPERTIES
1002
{
1000
PbThick
1002
}
  0
LINE
  5
497
330
1F
100
AcDbEntity
  8
THICK
100
AcDbLine
 10
-43.71350860595703
 20
-224.4056854248047
 30
0.0
 11
-43.69235610961914
 21
-224.2529296875
 31
0.0
1001
DBPROPERTIES
1002
{
1000
PbThick
1002
}
  0
LINE
  5
498
330
1F
100
AcDbEntity
  8
THICK
100
AcDbLine
 10
-43.69235610961914
 20
-224.2529296875
 30
0.0
 11
-43.66973876953125
 21
-224.0925445556641
 31
0.0
1001
DBPROPERTIES
1002
{
1000
PbThick
1002
}
  0
LINE
  5
499
330
1F
100
AcDbEntity
  8
THICK
100
AcDbLine
 10
-43.66973876953125
 20
-224.0925445556641
 30
0.0
 11
-43.64572906494141
 21
-223.9259185791016
 31
0.0
1001
DBPROPERTIES
1002
{
1000
PbThick
1002
}
  0
LINE
  5
49A
330
1F
100
AcDbEntity
  8
THICK
100
AcDbLine
 10
-43.64572906494141
 20
-223.9259185791016
 30
0.0
 11
-43.62042236328125
 21
-223.754638671875
 31
0.0
1001
DBPROPERTIES
1002
{
1000
PbThick
1002
}
  0
LINE
  5
49B
330
1F
100
AcDbEntity
  8
THICK
100
AcDbLine
 10
-43.62042236328125
 20
-223.754638671875
 30
0.0
 11
-43.59389495849609
 21
-223.5802764892578
 31
0.0
1001
DBPROPERTIES
1002
{
1000
PbThick
1002
}
  0
LINE
  5
49C
330
1F
100
AcDbEntity
  8
THICK
100
AcDbLine
 10
-43.59389495849609
 20
-223.5802764892578
 30
0.0
 11
-43.56621932983398
 21
-223.4046783447266
 31
0.0
1001
DBPROPERTIES
1002
{
1000
PbThick
1002
}
  0
LINE
  5
49D
330
1F
100
AcDbEntity
  8
THICK
100
AcDbLine
 10
-43.56621932983398
 20
-223.4046783447266
 30
0.0
 11
-43.53747177124023
 21
-223.2297058105469
 31
0.0
1001
DBPROPERTIES
1002
{
1000
PbThick
1002
}
  0
LINE
  5
49E
330
1F
100
AcDbEntity
  8
THICK
100
AcDbLine
 10
-43.53747177124023
 20
-223.2297058105469
 30
0.0
 11
-43.5076789855957
 21
-223.0573883056641
 31
0.0
1001
DBPROPERTIES
1002
{
1000
PbThick
1002
}
  0
LINE
  5
49F
330
1F
100
AcDbEntity
  8
THICK
100
AcDbLine
 10
-43.5076789855957
 20
-223.0573883056641
 30
0.0
 11
-43.47570037841797
 21
-222.8837738037109
 31
0.0
1001
DBPROPERTIES
1002
{
1000
PbThick
1002
}
  0
LINE
  5
4A0
330
1F
100
AcDbEntity
  8
THICK
100
AcDbLine
 10
-43.47570037841797
 20
-222.8837738037109
 30
0.0
 11
-43.43848419189453
 21
-222.6987762451172
 31
0.0
1001
DBPROPERTIES
1002
{
1000
PbThick
1002
}
  0
LINE
  5
4A1
330
1F
100
AcDbEntity
  8
THICK
100
AcDbLine
 10
-43.43848419189453
 20
-222.6987762451172
 30
0.0
 11
-43.39643478393555
 21
-222.5154571533203
 31
0.0
1001
DBPROPERTIES
1002
{
1000
PbThick
1002
}
  0
LINE
  5
4A2
330
1F
100
AcDbEntity
  8
THICK
100
AcDbLine
 10
-43.39643478393555
 20
-222.5154571533203
 30
0.0
 11
-43.34571838378906
 21
-222.3387908935547
 31
0.0
1001
DBPROPERTIES
1002
{
1000
PbThick
1002
}
  0
LINE
  5
4A3
330
1F
100
AcDbEntity
  8
THICK
100
AcDbLine
 10
-43.34571838378906
 20
-222.3387908935547
 30
0.0
 11
-43.25
 21
-222.1875
 31
0.0
1001
DBPROPERTIES
1002
{
1000
PbThick
1002
}
  0
ARC
  5
4A4
330
1F
100
AcDbEntity
  8
THICK
100
AcDbCircle
 10
-42.25
 20
-202.2
 30
0.0
 40
16.0
100
AcDbArc
 50
179.9999625520633
 51
266.4166833774407
1001
DBPROPERTIES
1002
{
1000
PbThick
1002
}
  0
LINE
  5
4A5
330
1F
100
AcDbEntity
  8
THICK
100
AcDbLine
 10
-58.25
 20
-202.2
 30
0.0
 11
-62.25
 21
-202.2
 31
0.0
1001
DBPROPERTIES
1002
{
1000
PbThick
1002
}
  0
ARC
  5
4A6
330
1F
100
AcDbEntity
  8
THICK
100
AcDbCircle
 10
0.0000000000000019
 20
-212.0
 30
0.0
 40
5.0
100
AcDbArc
 50
0.0
 51
89.99998127603165
1001
DBPROPERTIES
1002
{
1000
PbThick
1002
}
  0
ARC
  5
4A7
330
1F
100
AcDbEntity
  8
THICK
100
AcDbCircle
 10
0.0000000000000019
 20
-212.0
 30
0.0
 40
5.0
100
AcDbArc
 50
270.0000187239684
 51
0.0
1001
DBPROPERTIES
1002
{
1000
PbThick
1002
}
  0
ARC
  5
4A8
330
1F
100
AcDbEntity
  8
THICK
100
AcDbCircle
 10
0.0000000000000019
 20
-212.0
 30
0.0
 40
3.0
100
AcDbArc
 50
270.0000187239684
 51
0.0
1001
DBPROPERTIES
1002
{
1000
PbThick
1002
}
  0
ARC
  5
4A9
330
1F
100
AcDbEntity
  8
THICK
100
AcDbCircle
 10
0.0000000000000019
 20
-212.0
 30
0.0
 40
3.0
100
AcDbArc
 50
0.0
 51
89.99998127603165
1001
DBPROPERTIES
1002
{
1000
PbThick
1002
}
  0
LINE
  5
4AA
330
1F
100
AcDbEntity
  8
HIDDEN
100
AcDbLine
 10
-35.2999975510923
 20
-26.2405697346685
 30
0.0
 11
-28.60668499996238
 21
-26.2405697346685
 31
0.0
1001
DBPROPERTIES
1002
{
1000
PbHidd
1002
}
  0
LINE
  5
4AB
330
1F
100
AcDbEntity
  8
HIDDEN
100
AcDbLine
 10
-35.25
 20
-186.85
 30
0.0
 11
-35.25
 21
-186.85
 31
0.0
1001
DBPROPERTIES
1002
{
1000
PbHidd
1002
}
  0
LINE
  5
4AC
330
1F
100
AcDbEntity
  8
HIDDEN
100
AcDbLine
 10
-35.25
 20
-202.0
 30
0.0
 11
-35.25
 21
-202.0
 31
0.0
1001
DBPROPERTIES
1002
{
1000
PbHidd
1002
}
  0
LINE
  5
4AD
330
1F
100
AcDbEntity
  8
HIDDEN
100
AcDbLine
 10
-35.25
 20
-257.35
 30
0.0
 11
-35.25
 21
-257.35
 31
0.0
1001
DBPROPERTIES
1002
{
1000
PbHidd
1002
}
  0
LINE
  5
4AE
330
1F
100
AcDbEntity
  8
THICK
100
AcDbLine
 10
-35.25
 20
-257.35
 30
0.0
 11
-35.25
 21
-186.85
 31
0.0
1001
DBPROPERTIES
1002
{
1000
PbThick
1002
}
  0
LINE
  5
4AF
330
1F
100
AcDbEntity
  8
HIDDEN
100
AcDbLine
 10
35.25
 20
-202.0
 30
0.0
 11
10.0
 21
-202.0
 31
0.0
1001
DBPROPERTIES
1002
{
1000
PbHidd
1002
}
  0
LINE
  5
4B0
330
1F
100
AcDbEntity
  8
HIDDEN
100
AcDbLine
 10
-10.0
 20
-202.0
 30
0.0
 11
-35.25
 21
-202.0
 31
0.0
1001
DBPROPERTIES
1002
{
1000
PbHidd
1002
}
  0
ELLIPSE
  5
4B1
330
1F
100
AcDbEntity
  8
HIDDEN
100
AcDbEllipse
 10
-79.42050807568876
 20
-24.44
 30
0.0
 11
2.449212707644755E-16
 21
3.999999999999999
 31
0.0
210
0.0
220
0.0
230
1.0
 40
0.8660254037844388
 41
-1.570796326794897
 42
1.570796326794896
1001
DBPROPERTIES
1002
{
1000
PbHidd
1002
}
  0
LINE
  5
4B2
330
1F
100
AcDbEntity
  8
HIDDEN
100
AcDbLine
 10
10.0
 20
-222.0
 30
0.0
 11
10.0
 21
-222.0
 31
0.0
1001
DBPROPERTIES
1002
{
1000
PbHidd
1002
}
  0
LINE
  5
4B3
330
1F
100
AcDbEntity
  8
HIDDEN
100
AcDbLine
 10
10.0
 20
-202.0
 30
0.0
 11
10.0
 21
-202.0
 31
0.0
1001
DBPROPERTIES
1002
{
1000
PbHidd
1002
}
  0
LINE
  5
4B4
330
1F
100
AcDbEntity
  8
THICK
100
AcDbLine
 10
10.0
 20
-222.0
 30
0.0
 11
10.0
 21
-202.0
 31
0.0
1001
DBPROPERTIES
1002
{
1000
PbThick
1002
}
  0
LINE
  5
4B5
330
1F
100
AcDbEntity
  8
HIDDEN
100
AcDbLine
 10
-9.999999999999998
 20
-202.0
 30
0.0
 11
-9.999999999999998
 21
-202.0
 31
0.0
1001
DBPROPERTIES
1002
{
1000
PbHidd
1002
}
  0
LINE
  5
4B6
330
1F
100
AcDbEntity
  8
THICK
100
AcDbLine
 10
-9.999999999999998
 20
-202.0
 30
0.0
 11
10.0
 21
-202.0
 31
0.0
1001
DBPROPERTIES
1002
{
1000
PbThick
1002
}
  0
LINE
  5
4B7
330
1F
100
AcDbEntity
  8
THICK
100
AcDbLine
 10
9.000000000000002
 20
-221.0
 30
0.0
 11
-8.999999999999998
 21
-221.0
 31
0.0
1001
DBPROPERTIES
1002
{
1000
PbThick
1002
}
  0
LINE
  5
4B8
330
1F
100
AcDbEntity
  8
THICK
100
AcDbLine
 10
9.000000000000002
 20
-221.0
 30
0.0
 11
9.000000000000002
 21
-203.0
 31
0.0
1001
DBPROPERTIES
1002
{
1000
PbThick
1002
}
  0
LINE
  5
4B9
330
1F
100
AcDbEntity
  8
THICK
100
AcDbLine
 10
-8.999999999999998
 20
-203.0
 30
0.0
 11
9.000000000000002
 21
-203.0
 31
0.0
1001
DBPROPERTIES
1002
{
1000
PbThick
1002
}
  0
LINE
  5
4BA
330
1F
100
AcDbEntity
  8
THICK
100
AcDbLine
 10
-8.999999999999998
 20
-221.0
 30
0.0
 11
-8.999999999999998
 21
-203.0
 31
0.0
1001
DBPROPERTIES
1002
{
1000
PbThick
1002
}
  0
LINE
  5
4BB
330
1F
100
AcDbEntity
  8
HIDDEN
100
AcDbLine
 10
9.000000000000002
 20
-221.0
 30
0.0
 11
9.000000000000002
 21
-221.0
 31
0.0
1001
DBPROPERTIES
1002
{
1000
PbHidd
1002
}
  0
LINE
  5
4BC
330
1F
100
AcDbEntity
  8
HIDDEN
100
AcDbLine
 10
9.000000000000002
 20
-203.0
 30
0.0
 11
9.000000000000002
 21
-203.0
 31
0.0
1001
DBPROPERTIES
1002
{
1000
PbHidd
1002
}
  0
LINE
  5
4BD
330
1F
100
AcDbEntity
  8
HIDDEN
100
AcDbLine
 10
-8.999999999999998
 20
-203.0
 30
0.0
 11
-8.999999999999998
 21
-203.0
 31
0.0
1001
DBPROPERTIES
1002
{
1000
PbHidd
1002
}
  0
LINE
  5
4BE
330
1F
100
AcDbEntity
  8
HIDDEN
100
AcDbLine
 10
-8.999999999999998
 20
-221.0
 30
0.0
 11
-8.999999999999998
 21
-221.0
 31
0.0
1001
DBPROPERTIES
1002
{
1000
PbHidd
1002
}
  0
LINE
  5
4BF
330
1F
100
AcDbEntity
  8
HIDDEN
100
AcDbLine
 10
-9.999999999999998
 20
-222.0
 30
0.0
 11
-9.999999999999998
 21
-222.0
 31
0.0
1001
DBPROPERTIES
1002
{
1000
PbHidd
1002
}
  0
LINE
  5
4C0
330
1F
100
AcDbEntity
  8
THICK
100
AcDbLine
 10
10.0
 20
-222.0
 30
0.0
 11
-9.999999999999998
 21
-222.0
 31
0.0
1001
DBPROPERTIES
1002
{
1000
PbThick
1002
}
  0
LINE
  5
4C1
330
1F
100
AcDbEntity
  8
THICK
100
AcDbLine
 10
-9.999999999999998
 20
-222.0
 30
0.0
 11
-9.999999999999998
 21
-202.0
 31
0.0
1001
DBPROPERTIES
1002
{
1000
PbThick
1002
}
  0
ARC
  5
4C2
330
1F
100
AcDbEntity
  8
THICK
100
AcDbCircle
 10
0.0000000000000019
 20
-212.0
 30
0.0
 40
5.0
100
AcDbArc
 50
89.99998127603165
 51
270.0000187239684
1001
DBPROPERTIES
1002
{
1000
PbThick
1002
}
  0
ARC
  5
4C3
330
1F
100
AcDbEntity
  8
THICK
100
AcDbCircle
 10
0.0000000000000019
 20
-212.0
 30
0.0
 40
3.0
100
AcDbArc
 50
89.99998127603165
 51
270.0000187239684
1001
DBPROPERTIES
1002
{
1000
PbThick
1002
}
  0
LINE
  5
4C4
330
1F
100
AcDbEntity
  8
THICK
100
AcDbLine
 10
-35.25
 20
-214.2
 30
0.0
 11
-43.25
 21
-214.2
 31
0.0
1001
DBPROPERTIES
1002
{
1000
PbThick
1002
}
  0
LINE
  5
4C5
330
1F
100
AcDbEntity
  8
HIDDEN
100
AcDbLine
 10
-35.25
 20
-218.2
 30
0.0
 11
-43.25
 21
-218.2
 31
0.0
1001
DBPROPERTIES
1002
{
1000
PbHidd
1002
}
  0
LINE
  5
4C6
330
1F
100
AcDbEntity
  8
HIDDEN
100
AcDbLine
 10
-35.25
 20
-226.2
 30
0.0
 11
-43.25
 21
-226.2
 31
0.0
1001
DBPROPERTIES
1002
{
1000
PbHidd
1002
}
  0
LINE
  5
4C7
330
1F
100
AcDbEntity
  8
THICK
100
AcDbLine
 10
-35.25
 20
-230.2
 30
0.0
 11
-43.25
 21
-230.2
 31
0.0
1001
DBPROPERTIES
1002
{
1000
PbThick
1002
}
  0
LINE
  5
4C8
330
1F
100
AcDbEntity
  8
THICK
100
AcDbLine
 10
-43.25
 20
-226.2
 30
0.0
 11
-43.25
 21
-230.2
 31
0.0
1001
DBPROPERTIES
1002
{
1000
PbThick
1002
}
  0
LINE
  5
4C9
330
1F
100
AcDbEntity
  8
THICK
100
AcDbLine
 10
-43.25
 20
-218.2
 30
0.0
 11
-43.25
 21
-226.2
 31
0.0
1001
DBPROPERTIES
1002
{
1000
PbThick
1002
}
  0
LINE
  5
4CA
330
1F
100
AcDbEntity
  8
THICK
100
AcDbLine
 10
-43.25
 20
-214.2
 30
0.0
 11
-43.25
 21
-218.2
 31
0.0
1001
DBPROPERTIES
1002
{
1000
PbThick
1002
}
  0
LINE
  5
4CB
330
1F
100
AcDbEntity
  8
THICK
100
AcDbLine
 10
-35.25
 20
-218.2
 30
0.0
 11
-43.25
 21
-218.2
 31
0.0
1001
DBPROPERTIES
1002
{
1000
PbThick
1002
}
  0
LINE
  5
4CC
330
1F
100
AcDbEntity
  8
THICK
100
AcDbLine
 10
-35.25
 20
-226.2
 30
0.0
 11
-43.25
 21
-226.2
 31
0.0
1001
DBPROPERTIES
1002
{
1000
PbThick
1002
}
  0
LINE
  5
4CD
330
1F
100
AcDbEntity
  8
HIDDEN
100
AcDbLine
 10
-43.25
 20
-222.1875
 30
0.0
 11
-43.32469940185547
 21
-222.2827301025391
 31
0.0
1001
DBPROPERTIES
1002
{
1000
PbHidd
1002
}
  0
LINE
  5
4CE
330
1F
100
AcDbEntity
  8
HIDDEN
100
AcDbLine
 10
-43.32469940185547
 20
-222.2827301025391
 30
0.0
 11
-43.36639785766602
 21
-222.4043426513672
 31
0.0
1001
DBPROPERTIES
1002
{
1000
PbHidd
1002
}
  0
LINE
  5
4CF
330
1F
100
AcDbEntity
  8
HIDDEN
100
AcDbLine
 10
-43.36639785766602
 20
-222.4043426513672
 30
0.0
 11
-43.39821243286133
 21
-222.5225830078125
 31
0.0
1001
DBPROPERTIES
1002
{
1000
PbHidd
1002
}
  0
LINE
  5
4D0
330
1F
100
AcDbEntity
  8
HIDDEN
100
AcDbLine
 10
-43.39821243286133
 20
-222.5225830078125
 30
0.0
 11
-43.42719650268555
 21
-222.6466369628906
 31
0.0
1001
DBPROPERTIES
1002
{
1000
PbHidd
1002
}
  0
LINE
  5
4D1
330
1F
100
AcDbEntity
  8
HIDDEN
100
AcDbLine
 10
-43.42719650268555
 20
-222.6466369628906
 30
0.0
 11
-43.45397567749023
 21
-222.7733917236328
 31
0.0
1001
DBPROPERTIES
1002
{
1000
PbHidd
1002
}
  0
LINE
  5
4D2
330
1F
100
AcDbEntity
  8
HIDDEN
100
AcDbLine
 10
-43.45397567749023
 20
-222.7733917236328
 30
0.0
 11
-43.47845077514648
 21
-222.8982086181641
 31
0.0
1001
DBPROPERTIES
1002
{
1000
PbHidd
1002
}
  0
LINE
  5
4D3
330
1F
100
AcDbEntity
  8
HIDDEN
100
AcDbLine
 10
-43.47845077514648
 20
-222.8982086181641
 30
0.0
 11
-43.50037384033203
 21
-223.0166473388672
 31
0.0
1001
DBPROPERTIES
1002
{
1000
PbHidd
1002
}
  0
LINE
  5
4D4
330
1F
100
AcDbEntity
  8
HIDDEN
100
AcDbLine
 10
-43.50037384033203
 20
-223.0166473388672
 30
0.0
 11
-43.52091598510742
 21
-223.1327514648438
 31
0.0
1001
DBPROPERTIES
1002
{
1000
PbHidd
1002
}
  0
LINE
  5
4D5
330
1F
100
AcDbEntity
  8
HIDDEN
100
AcDbLine
 10
-43.52091598510742
 20
-223.1327514648438
 30
0.0
 11
-43.54097366333008
 21
-223.2506103515625
 31
0.0
1001
DBPROPERTIES
1002
{
1000
PbHidd
1002
}
  0
LINE
  5
4D6
330
1F
100
AcDbEntity
  8
HIDDEN
100
AcDbLine
 10
-43.54097366333008
 20
-223.2506103515625
 30
0.0
 11
-43.56055450439453
 21
-223.3695678710938
 31
0.0
1001
DBPROPERTIES
1002
{
1000
PbHidd
1002
}
  0
LINE
  5
4D7
330
1F
100
AcDbEntity
  8
HIDDEN
100
AcDbLine
 10
-43.56055450439453
 20
-223.3695678710938
 30
0.0
 11
-43.57963943481445
 21
-223.489013671875
 31
0.0
1001
DBPROPERTIES
1002
{
1000
PbHidd
1002
}
  0
LINE
  5
4D8
330
1F
100
AcDbEntity
  8
HIDDEN
100
AcDbLine
 10
-43.57963943481445
 20
-223.489013671875
 30
0.0
 11
-43.59821701049805
 21
-223.6083068847656
 31
0.0
1001
DBPROPERTIES
1002
{
1000
PbHidd
1002
}
  0
LINE
  5
4D9
330
1F
100
AcDbEntity
  8
HIDDEN
100
AcDbLine
 10
-43.59821701049805
 20
-223.6083068847656
 30
0.0
 11
-43.61625671386719
 21
-223.7268981933594
 31
0.0
1001
DBPROPERTIES
1002
{
1000
PbHidd
1002
}
  0
LINE
  5
4DA
330
1F
100
AcDbEntity
  8
HIDDEN
100
AcDbLine
 10
-43.61625671386719
 20
-223.7268981933594
 30
0.0
 11
-43.63373947143555
 21
-223.8441925048828
 31
0.0
1001
DBPROPERTIES
1002
{
1000
PbHidd
1002
}
  0
LINE
  5
4DB
330
1F
100
AcDbEntity
  8
HIDDEN
100
AcDbLine
 10
-43.63373947143555
 20
-223.8441925048828
 30
0.0
 11
-43.65063858032227
 21
-223.9596710205078
 31
0.0
1001
DBPROPERTIES
1002
{
1000
PbHidd
1002
}
  0
LINE
  5
4DC
330
1F
100
AcDbEntity
  8
HIDDEN
100
AcDbLine
 10
-43.65063858032227
 20
-223.9596710205078
 30
0.0
 11
-43.66692733764648
 21
-224.0728454589844
 31
0.0
1001
DBPROPERTIES
1002
{
1000
PbHidd
1002
}
  0
LINE
  5
4DD
330
1F
100
AcDbEntity
  8
HIDDEN
100
AcDbLine
 10
-43.66692733764648
 20
-224.0728454589844
 30
0.0
 11
-43.68258285522461
 21
-224.1832275390625
 31
0.0
1001
DBPROPERTIES
1002
{
1000
PbHidd
1002
}
  0
LINE
  5
4DE
330
1F
100
AcDbEntity
  8
HIDDEN
100
AcDbLine
 10
-43.68258285522461
 20
-224.1832275390625
 30
0.0
 11
-43.69757080078125
 21
-224.2903442382812
 31
0.0
1001
DBPROPERTIES
1002
{
1000
PbHidd
1002
}
  0
LINE
  5
4DF
330
1F
100
AcDbEntity
  8
HIDDEN
100
AcDbLine
 10
-43.69757080078125
 20
-224.2903442382812
 30
0.0
 11
-43.71187210083008
 21
-224.3937683105469
 31
0.0
1001
DBPROPERTIES
1002
{
1000
PbHidd
1002
}
  0
LINE
  5
4E0
330
1F
100
AcDbEntity
  8
HIDDEN
100
AcDbLine
 10
-43.71187210083008
 20
-224.3937683105469
 30
0.0
 11
-43.7254638671875
 21
-224.4931488037109
 31
0.0
1001
DBPROPERTIES
1002
{
1000
PbHidd
1002
}
  0
LINE
  5
4E1
330
1F
100
AcDbEntity
  8
HIDDEN
100
AcDbLine
 10
-43.7254638671875
 20
-224.4931488037109
 30
0.0
 11
-43.7383918762207
 21
-224.5885772705078
 31
0.0
1001
DBPROPERTIES
1002
{
1000
PbHidd
1002
}
  0
LINE
  5
4E2
330
1F
100
AcDbEntity
  8
HIDDEN
100
AcDbLine
 10
-43.7383918762207
 20
-224.5885772705078
 30
0.0
 11
-43.75110244750977
 21
-224.6832427978516
 31
0.0
1001
DBPROPERTIES
1002
{
1000
PbHidd
1002
}
  0
LINE
  5
4E3
330
1F
100
AcDbEntity
  8
HIDDEN
100
AcDbLine
 10
-43.75110244750977
 20
-224.6832427978516
 30
0.0
 11
-43.76362609863281
 21
-224.7773284912109
 31
0.0
1001
DBPROPERTIES
1002
{
1000
PbHidd
1002
}
  0
LINE
  5
4E4
330
1F
100
AcDbEntity
  8
HIDDEN
100
AcDbLine
 10
-43.76362609863281
 20
-224.7773284912109
 30
0.0
 11
-43.77590560913086
 21
-224.8702697753906
 31
0.0
1001
DBPROPERTIES
1002
{
1000
PbHidd
1002
}
  0
LINE
  5
4E5
330
1F
100
AcDbEntity
  8
HIDDEN
100
AcDbLine
 10
-43.77590560913086
 20
-224.8702697753906
 30
0.0
 11
-43.78787612915039
 21
-224.9615783691406
 31
0.0
1001
DBPROPERTIES
1002
{
1000
PbHidd
1002
}
  0
LINE
  5
4E6
330
1F
100
AcDbEntity
  8
HIDDEN
100
AcDbLine
 10
-43.78787612915039
 20
-224.9615783691406
 30
0.0
 11
-43.79949188232422
 21
-225.0507965087891
 31
0.0
1001
DBPROPERTIES
1002
{
1000
PbHidd
1002
}
  0
LINE
  5
4E7
330
1F
100
AcDbEntity
  8
HIDDEN
100
AcDbLine
 10
-43.79949188232422
 20
-225.0507965087891
 30
0.0
 11
-43.81071472167969
 21
-225.1375427246094
 31
0.0
1001
DBPROPERTIES
1002
{
1000
PbHidd
1002
}
  0
LINE
  5
4E8
330
1F
100
AcDbEntity
  8
HIDDEN
100
AcDbLine
 10
-43.81071472167969
 20
-225.1375427246094
 30
0.0
 11
-43.82150268554688
 21
-225.2213897705078
 31
0.0
1001
DBPROPERTIES
1002
{
1000
PbHidd
1002
}
  0
LINE
  5
4E9
330
1F
100
AcDbEntity
  8
HIDDEN
100
AcDbLine
 10
-43.82150268554688
 20
-225.2213897705078
 30
0.0
 11
-43.83181381225586
 21
-225.3020172119141
 31
0.0
1001
DBPROPERTIES
1002
{
1000
PbHidd
1002
}
  0
LINE
  5
4EA
330
1F
100
AcDbEntity
  8
HIDDEN
100
AcDbLine
 10
-43.83181381225586
 20
-225.3020172119141
 30
0.0
 11
-43.84162902832031
 21
-225.379150390625
 31
0.0
1001
DBPROPERTIES
1002
{
1000
PbHidd
1002
}
  0
LINE
  5
4EB
330
1F
100
AcDbEntity
  8
HIDDEN
100
AcDbLine
 10
-43.84162902832031
 20
-225.379150390625
 30
0.0
 11
-43.85092163085938
 21
-225.4525299072266
 31
0.0
1001
DBPROPERTIES
1002
{
1000
PbHidd
1002
}
  0
LINE
  5
4EC
330
1F
100
AcDbEntity
  8
HIDDEN
100
AcDbLine
 10
-43.85092163085938
 20
-225.4525299072266
 30
0.0
 11
-43.85967254638672
 21
-225.5219116210938
 31
0.0
1001
DBPROPERTIES
1002
{
1000
PbHidd
1002
}
  0
LINE
  5
4ED
330
1F
100
AcDbEntity
  8
HIDDEN
100
AcDbLine
 10
-43.85967254638672
 20
-225.5219116210938
 30
0.0
 11
-43.86786651611328
 21
-225.5871124267578
 31
0.0
1001
DBPROPERTIES
1002
{
1000
PbHidd
1002
}
  0
LINE
  5
4EE
330
1F
100
AcDbEntity
  8
HIDDEN
100
AcDbLine
 10
-43.86786651611328
 20
-225.5871124267578
 30
0.0
 11
-43.87549209594727
 21
-225.6480255126953
 31
0.0
1001
DBPROPERTIES
1002
{
1000
PbHidd
1002
}
  0
LINE
  5
4EF
330
1F
100
AcDbEntity
  8
HIDDEN
100
AcDbLine
 10
-43.87549209594727
 20
-225.6480255126953
 30
0.0
 11
-43.88254547119141
 21
-225.7045745849609
 31
0.0
1001
DBPROPERTIES
1002
{
1000
PbHidd
1002
}
  0
LINE
  5
4F0
330
1F
100
AcDbEntity
  8
HIDDEN
100
AcDbLine
 10
-43.88254547119141
 20
-225.7045745849609
 30
0.0
 11
-43.88910675048828
 21
-225.7573089599609
 31
0.0
1001
DBPROPERTIES
1002
{
1000
PbHidd
1002
}
  0
LINE
  5
4F1
330
1F
100
AcDbEntity
  8
HIDDEN
100
AcDbLine
 10
-43.88910675048828
 20
-225.7573089599609
 30
0.0
 11
-43.89536666870117
 21
-225.8077392578125
 31
0.0
1001
DBPROPERTIES
1002
{
1000
PbHidd
1002
}
  0
LINE
  5
4F2
330
1F
100
AcDbEntity
  8
HIDDEN
100
AcDbLine
 10
-43.89536666870117
 20
-225.8077392578125
 30
0.0
 11
-43.90128707885742
 21
-225.8555908203125
 31
0.0
1001
DBPROPERTIES
1002
{
1000
PbHidd
1002
}
  0
LINE
  5
4F3
330
1F
100
AcDbEntity
  8
HIDDEN
100
AcDbLine
 10
-43.90128707885742
 20
-225.8555908203125
 30
0.0
 11
-43.90682983398438
 21
-225.9004516601562
 31
0.0
1001
DBPROPERTIES
1002
{
1000
PbHidd
1002
}
  0
LINE
  5
4F4
330
1F
100
AcDbEntity
  8
HIDDEN
100
AcDbLine
 10
-43.90682983398438
 20
-225.9004516601562
 30
0.0
 11
-43.91194915771484
 21
-225.9420013427734
 31
0.0
1001
DBPROPERTIES
1002
{
1000
PbHidd
1002
}
  0
LINE
  5
4F5
330
1F
100
AcDbEntity
  8
HIDDEN
100
AcDbLine
 10
-43.91194915771484
 20
-225.9420013427734
 30
0.0
 11
-43.91661834716797
 21
-225.9799652099609
 31
0.0
1001
DBPROPERTIES
1002
{
1000
PbHidd
1002
}
  0
LINE
  5
4F6
330
1F
100
AcDbEntity
  8
HIDDEN
100
AcDbLine
 10
-43.91661834716797
 20
-225.9799652099609
 30
0.0
 11
-43.92081832885742
 21
-226.01416015625
 31
0.0
1001
DBPROPERTIES
1002
{
1000
PbHidd
1002
}
  0
LINE
  5
4F7
330
1F
100
AcDbEntity
  8
HIDDEN
100
AcDbLine
 10
-43.92081832885742
 20
-226.01416015625
 30
0.0
 11
-43.92452239990234
 21
-226.0443725585938
 31
0.0
1001
DBPROPERTIES
1002
{
1000
PbHidd
1002
}
  0
LINE
  5
4F8
330
1F
100
AcDbEntity
  8
HIDDEN
100
AcDbLine
 10
-43.92452239990234
 20
-226.0443725585938
 30
0.0
 11
-43.92771530151367
 21
-226.0704650878906
 31
0.0
1001
DBPROPERTIES
1002
{
1000
PbHidd
1002
}
  0
LINE
  5
4F9
330
1F
100
AcDbEntity
  8
HIDDEN
100
AcDbLine
 10
-43.92771530151367
 20
-226.0704650878906
 30
0.0
 11
-43.93040084838867
 21
-226.0924072265625
 31
0.0
1001
DBPROPERTIES
1002
{
1000
PbHidd
1002
}
  0
LINE
  5
4FA
330
1F
100
AcDbEntity
  8
HIDDEN
100
AcDbLine
 10
-43.93040084838867
 20
-226.0924072265625
 30
0.0
 11
-43.93257141113281
 21
-226.1101837158203
 31
0.0
1001
DBPROPERTIES
1002
{
1000
PbHidd
1002
}
  0
LINE
  5
4FB
330
1F
100
AcDbEntity
  8
HIDDEN
100
AcDbLine
 10
-43.93257141113281
 20
-226.1101837158203
 30
0.0
 11
-43.93423080444336
 21
-226.123779296875
 31
0.0
1001
DBPROPERTIES
1002
{
1000
PbHidd
1002
}
  0
LINE
  5
4FC
330
1F
100
AcDbEntity
  8
HIDDEN
100
AcDbLine
 10
-43.93423080444336
 20
-226.123779296875
 30
0.0
 11
-43.93539047241211
 21
-226.1332855224609
 31
0.0
1001
DBPROPERTIES
1002
{
1000
PbHidd
1002
}
  0
LINE
  5
4FD
330
1F
100
AcDbEntity
  8
HIDDEN
100
AcDbLine
 10
-43.93539047241211
 20
-226.1332855224609
 30
0.0
 11
-43.93607330322266
 21
-226.1388549804688
 31
0.0
1001
DBPROPERTIES
1002
{
1000
PbHidd
1002
}
  0
LINE
  5
4FE
330
1F
100
AcDbEntity
  8
HIDDEN
100
AcDbLine
 10
-43.93607330322266
 20
-226.1388549804688
 30
0.0
 11
-43.93629455566406
 21
-226.1406860351562
 31
0.0
1001
DBPROPERTIES
1002
{
1000
PbHidd
1002
}
  0
LINE
  5
4FF
330
1F
100
AcDbEntity
  8
HIDDEN
100
AcDbLine
 10
-62.25
 20
-202.2
 30
0.0
 11
-58.25
 21
-202.2
 31
0.0
1001
DBPROPERTIES
1002
{
1000
PbHidd
1002
}
  0
ELLIPSE
  5
500
330
1F
100
AcDbEntity
  8
HIDDEN
100
AcDbEllipse
 10
-76.24213562373093
 20
-24.44
 30
0.0
 11
2.449212707644754E-16
 21
4.0
 31
0.0
210
0.0
220
0.0
230
1.0
 40
0.7071067811865476
 41
0.0010622086103928
 42
0.0013902388952066
1001
DBPROPERTIES
1002
{
1000
PbHidd
1002
}
  0
ELLIPSE
  5
501
330
1F
100
AcDbEntity
  8
THICK
100
AcDbEllipse
 10
-76.24213562373093
 20
-24.44
 30
0.0
 11
2.449212707644754E-16
 21
4.0
 31
0.0
210
0.0
220
0.0
230
1.0
 40
0.7071067811865476
 41
-0.0000087984844416
 42
0.0010622086103928
1001
DBPROPERTIES
1002
{
1000
PbThick
1002
}
  0
ELLIPSE
  5
502
330
1F
100
AcDbEntity
  8
THICK
100
AcDbEllipse
 10
-76.24213562373093
 20
-24.44
 30
0.0
 11
2.449212707644754E-16
 21
4.0
 31
0.0
210
0.0
220
0.0
230
1.0
 40
0.7071067811865476
 41
-0.0046284920420372
 42
-0.0000087984844416
1001
DBPROPERTIES
1002
{
1000
PbThick
1002
}
  0
ELLIPSE
  5
503
330
1F
100
AcDbEntity
  8
HIDDEN
100
AcDbEllipse
 10
-76.24213562373093
 20
-24.44
 30
0.0
 11
2.449212707644754E-16
 21
4.0
 31
0.0
210
0.0
220
0.0
230
1.0
 40
0.7071067811865476
 41
-1.570796326794897
 42
-0.0046284920420372
1001
DBPROPERTIES
1002
{
1000
PbHidd
1002
}
  0
ELLIPSE
  5
504
330
1F
100
AcDbEntity
  8
HIDDEN
100
AcDbEllipse
 10
-76.24999999999999
 20
-24.44
 30
0.0
 11
-2.449212707644755E-16
 21
-4.0
 31
0.0
210
0.0
220
0.0
230
1.0
 40
0.7071067811865476
 41
1.570670060947933
 42
3.140202414694506
1001
DBPROPERTIES
1002
{
1000
PbHidd
1002
}
  0
LINE
  5
505
330
1F
100
AcDbEntity
  8
HIDDEN
100
AcDbLine
 10
-77.5730209350586
 20
-20.81086349487305
 30
0.0
 11
-77.59756469726562
 21
-20.82617378234863
 31
0.0
1001
DBPROPERTIES
1002
{
1000
PbHidd
1002
}
  0
LINE
  5
506
330
1F
100
AcDbEntity
  8
HIDDEN
100
AcDbLine
 10
-77.59756469726562
 20
-20.82617378234863
 30
0.0
 11
-77.62197875976562
 21
-20.84176826477051
 31
0.0
1001
DBPROPERTIES
1002
{
1000
PbHidd
1002
}
  0
LINE
  5
507
330
1F
100
AcDbEntity
  8
HIDDEN
100
AcDbLine
 10
-77.62197875976562
 20
-20.84176826477051
 30
0.0
 11
-77.64625549316406
 21
-20.85763931274414
 31
0.0
1001
DBPROPERTIES
1002
{
1000
PbHidd
1002
}
  0
LINE
  5
508
330
1F
100
AcDbEntity
  8
HIDDEN
100
AcDbLine
 10
-77.64625549316406
 20
-20.85763931274414
 30
0.0
 11
-77.67039489746094
 21
-20.87378311157227
 31
0.0
1001
DBPROPERTIES
1002
{
1000
PbHidd
1002
}
  0
LINE
  5
509
330
1F
100
AcDbEntity
  8
HIDDEN
100
AcDbLine
 10
-77.67039489746094
 20
-20.87378311157227
 30
0.0
 11
-77.69438171386719
 21
-20.89019203186035
 31
0.0
1001
DBPROPERTIES
1002
{
1000
PbHidd
1002
}
  0
LINE
  5
50A
330
1F
100
AcDbEntity
  8
HIDDEN
100
AcDbLine
 10
-77.69438171386719
 20
-20.89019203186035
 30
0.0
 11
-77.71820831298828
 21
-20.90685653686523
 31
0.0
1001
DBPROPERTIES
1002
{
1000
PbHidd
1002
}
  0
LINE
  5
50B
330
1F
100
AcDbEntity
  8
THICK
100
AcDbLine
 10
-77.71820831298828
 20
-20.90685653686523
 30
0.0
 11
-77.88599395751953
 21
-21.03507614135742
 31
0.0
1001
DBPROPERTIES
1002
{
1000
PbThick
1002
}
  0
LINE
  5
50C
330
1F
100
AcDbEntity
  8
THICK
100
AcDbLine
 10
-77.88599395751953
 20
-21.03507614135742
 30
0.0
 11
-78.0423583984375
 21
-21.17319869995117
 31
0.0
1001
DBPROPERTIES
1002
{
1000
PbThick
1002
}
  0
LINE
  5
50D
330
1F
100
AcDbEntity
  8
THICK
100
AcDbLine
 10
-78.0423583984375
 20
-21.17319869995117
 30
0.0
 11
-78.18785095214844
 21
-21.32001686096191
 31
0.0
1001
DBPROPERTIES
1002
{
1000
PbThick
1002
}
  0
LINE
  5
50E
330
1F
100
AcDbEntity
  8
THICK
100
AcDbLine
 10
-78.18785095214844
 20
-21.32001686096191
 30
0.0
 11
-78.33055877685547
 21
-21.48373603820801
 31
0.0
1001
DBPROPERTIES
1002
{
1000
PbThick
1002
}
  0
LINE
  5
50F
330
1F
100
AcDbEntity
  8
THICK
100
AcDbLine
 10
-78.33055877685547
 20
-21.48373603820801
 30
0.0
 11
-78.4683837890625
 21
-21.66375541687012
 31
0.0
1001
DBPROPERTIES
1002
{
1000
PbThick
1002
}
  0
LINE
  5
510
330
1F
100
AcDbEntity
  8
THICK
100
AcDbLine
 10
-78.4683837890625
 20
-21.66375541687012
 30
0.0
 11
-78.59866333007812
 21
-21.85771179199219
 31
0.0
1001
DBPROPERTIES
1002
{
1000
PbThick
1002
}
  0
LINE
  5
511
330
1F
100
AcDbEntity
  8
THICK
100
AcDbLine
 10
-78.59866333007812
 20
-21.85771179199219
 30
0.0
 11
-78.71916961669922
 21
-22.06282234191895
 31
0.0
1001
DBPROPERTIES
1002
{
1000
PbThick
1002
}
  0
LINE
  5
512
330
1F
100
AcDbEntity
  8
THICK
100
AcDbLine
 10
-78.71916961669922
 20
-22.06282234191895
 30
0.0
 11
-78.82823944091797
 21
-22.27563095092773
 31
0.0
1001
DBPROPERTIES
1002
{
1000
PbThick
1002
}
  0
LINE
  5
513
330
1F
100
AcDbEntity
  8
THICK
100
AcDbLine
 10
-78.82823944091797
 20
-22.27563095092773
 30
0.0
 11
-78.92459106445312
 21
-22.49220848083496
 31
0.0
1001
DBPROPERTIES
1002
{
1000
PbThick
1002
}
  0
LINE
  5
514
330
1F
100
AcDbEntity
  8
THICK
100
AcDbLine
 10
-78.92459106445312
 20
-22.49220848083496
 30
0.0
 11
-79.00794982910156
 21
-22.70907783508301
 31
0.0
1001
DBPROPERTIES
1002
{
1000
PbThick
1002
}
  0
LINE
  5
515
330
1F
100
AcDbEntity
  8
THICK
100
AcDbLine
 10
-79.00794982910156
 20
-22.70907783508301
 30
0.0
 11
-79.08270263671875
 21
-22.93713760375977
 31
0.0
1001
DBPROPERTIES
1002
{
1000
PbThick
1002
}
  0
LINE
  5
516
330
1F
100
AcDbEntity
  8
THICK
100
AcDbLine
 10
-79.08270263671875
 20
-22.93713760375977
 30
0.0
 11
-79.14848327636719
 21
-23.17798805236816
 31
0.0
1001
DBPROPERTIES
1002
{
1000
PbThick
1002
}
  0
LINE
  5
517
330
1F
100
AcDbEntity
  8
THICK
100
AcDbLine
 10
-79.14848327636719
 20
-23.17798805236816
 30
0.0
 11
-79.20343780517578
 21
-23.42801475524902
 31
0.0
1001
DBPROPERTIES
1002
{
1000
PbThick
1002
}
  0
LINE
  5
518
330
1F
100
AcDbEntity
  8
THICK
100
AcDbLine
 10
-79.20343780517578
 20
-23.42801475524902
 30
0.0
 11
-79.24632263183594
 21
-23.68335151672363
 31
0.0
1001
DBPROPERTIES
1002
{
1000
PbThick
1002
}
  0
LINE
  5
519
330
1F
100
AcDbEntity
  8
THICK
100
AcDbLine
 10
-79.24632263183594
 20
-23.68335151672363
 30
0.0
 11
-79.27658081054688
 21
-23.93999481201172
 31
0.0
1001
DBPROPERTIES
1002
{
1000
PbThick
1002
}
  0
LINE
  5
51A
330
1F
100
AcDbEntity
  8
THICK
100
AcDbLine
 10
-79.27658081054688
 20
-23.93999481201172
 30
0.0
 11
-79.29417419433594
 21
-24.19367599487305
 31
0.0
1001
DBPROPERTIES
1002
{
1000
PbThick
1002
}
  0
LINE
  5
51B
330
1F
100
AcDbEntity
  8
THICK
100
AcDbLine
 10
-79.29417419433594
 20
-24.19367599487305
 30
0.0
 11
-79.29981231689453
 21
-24.44000053405762
 31
0.0
1001
DBPROPERTIES
1002
{
1000
PbThick
1002
}
  0
LINE
  5
51C
330
1F
100
AcDbEntity
  8
HIDDEN
100
AcDbLine
 10
-76.38784790039062
 20
-20.44000434875488
 30
0.0
 11
-76.50590515136719
 21
-20.44388580322266
 31
0.0
1001
DBPROPERTIES
1002
{
1000
PbHidd
1002
}
  0
LINE
  5
51D
330
1F
100
AcDbEntity
  8
HIDDEN
100
AcDbLine
 10
-76.50590515136719
 20
-20.44388580322266
 30
0.0
 11
-76.62733459472656
 21
-20.45516586303711
 31
0.0
1001
DBPROPERTIES
1002
{
1000
PbHidd
1002
}
  0
LINE
  5
51E
330
1F
100
AcDbEntity
  8
HIDDEN
100
AcDbLine
 10
-76.62733459472656
 20
-20.45516586303711
 30
0.0
 11
-76.7508316040039
 21
-20.47408866882324
 31
0.0
1001
DBPROPERTIES
1002
{
1000
PbHidd
1002
}
  0
LINE
  5
51F
330
1F
100
AcDbEntity
  8
HIDDEN
100
AcDbLine
 10
-76.7508316040039
 20
-20.47408866882324
 30
0.0
 11
-76.8750991821289
 21
-20.50090408325195
 31
0.0
1001
DBPROPERTIES
1002
{
1000
PbHidd
1002
}
  0
LINE
  5
520
330
1F
100
AcDbEntity
  8
HIDDEN
100
AcDbLine
 10
-76.8750991821289
 20
-20.50090408325195
 30
0.0
 11
-76.99884796142578
 21
-20.5357837677002
 31
0.0
1001
DBPROPERTIES
1002
{
1000
PbHidd
1002
}
  0
LINE
  5
521
330
1F
100
AcDbEntity
  8
HIDDEN
100
AcDbLine
 10
-76.99884796142578
 20
-20.5357837677002
 30
0.0
 11
-77.12084197998047
 21
-20.57851028442383
 31
0.0
1001
DBPROPERTIES
1002
{
1000
PbHidd
1002
}
  0
LINE
  5
522
330
1F
100
AcDbEntity
  8
HIDDEN
100
AcDbLine
 10
-77.12084197998047
 20
-20.57851028442383
 30
0.0
 11
-77.23995971679688
 21
-20.62803840637207
 31
0.0
1001
DBPROPERTIES
1002
{
1000
PbHidd
1002
}
  0
LINE
  5
523
330
1F
100
AcDbEntity
  8
HIDDEN
100
AcDbLine
 10
-77.23995971679688
 20
-20.62803840637207
 30
0.0
 11
-77.35507202148438
 21
-20.68348503112793
 31
0.0
1001
DBPROPERTIES
1002
{
1000
PbHidd
1002
}
  0
LINE
  5
524
330
1F
100
AcDbEntity
  8
HIDDEN
100
AcDbLine
 10
-77.35507202148438
 20
-20.68348503112793
 30
0.0
 11
-77.46503448486328
 21
-20.74391746520996
 31
0.0
1001
DBPROPERTIES
1002
{
1000
PbHidd
1002
}
  0
LINE
  5
525
330
1F
100
AcDbEntity
  8
HIDDEN
100
AcDbLine
 10
-77.46503448486328
 20
-20.74391746520996
 30
0.0
 11
-77.5730209350586
 21
-20.81086349487305
 31
0.0
1001
DBPROPERTIES
1002
{
1000
PbHidd
1002
}
  0
LINE
  5
526
330
1F
100
AcDbEntity
  8
THICK
100
AcDbLine
 10
-76.39432525634766
 20
-20.44308471679688
 30
0.0
 11
-76.38894653320312
 21
-20.44255065917969
 31
0.0
1001
DBPROPERTIES
1002
{
1000
PbThick
1002
}
  0
LINE
  5
527
330
1F
100
AcDbEntity
  8
THICK
100
AcDbLine
 10
-76.38894653320312
 20
-20.44255065917969
 30
0.0
 11
-76.38399505615234
 21
-20.44207954406738
 31
0.0
1001
DBPROPERTIES
1002
{
1000
PbThick
1002
}
  0
LINE
  5
528
330
1F
100
AcDbEntity
  8
THICK
100
AcDbLine
 10
-76.38399505615234
 20
-20.44207954406738
 30
0.0
 11
-76.37950897216797
 21
-20.44167137145996
 31
0.0
1001
DBPROPERTIES
1002
{
1000
PbThick
1002
}
  0
LINE
  5
529
330
1F
100
AcDbEntity
  8
THICK
100
AcDbLine
 10
-76.37950897216797
 20
-20.44167137145996
 30
0.0
 11
-76.3755111694336
 21
-20.44132232666016
 31
0.0
1001
DBPROPERTIES
1002
{
1000
PbThick
1002
}
  0
LINE
  5
52A
330
1F
100
AcDbEntity
  8
THICK
100
AcDbLine
 10
-76.3755111694336
 20
-20.44132232666016
 30
0.0
 11
-76.37203216552734
 21
-20.44102478027344
 31
0.0
1001
DBPROPERTIES
1002
{
1000
PbThick
1002
}
  0
LINE
  5
52B
330
1F
100
AcDbEntity
  8
THICK
100
AcDbLine
 10
-76.37203216552734
 20
-20.44102478027344
 30
0.0
 11
-76.36910247802734
 21
-20.4407787322998
 31
0.0
1001
DBPROPERTIES
1002
{
1000
PbThick
1002
}
  0
LINE
  5
52C
330
1F
100
AcDbEntity
  8
THICK
100
AcDbLine
 10
-76.36910247802734
 20
-20.4407787322998
 30
0.0
 11
-76.36676025390625
 21
-20.44057273864746
 31
0.0
1001
DBPROPERTIES
1002
{
1000
PbThick
1002
}
  0
LINE
  5
52D
330
1F
100
AcDbEntity
  8
THICK
100
AcDbLine
 10
-76.36676025390625
 20
-20.44057273864746
 30
0.0
 11
-76.36502838134766
 21
-20.44041442871094
 31
0.0
1001
DBPROPERTIES
1002
{
1000
PbThick
1002
}
  0
LINE
  5
52E
330
1F
100
AcDbEntity
  8
THICK
100
AcDbLine
 10
-76.36502838134766
 20
-20.44041442871094
 30
0.0
 11
-76.36393737792969
 21
-20.4402904510498
 31
0.0
1001
DBPROPERTIES
1002
{
1000
PbThick
1002
}
  0
LINE
  5
52F
330
1F
100
AcDbEntity
  8
THICK
100
AcDbLine
 10
-76.36393737792969
 20
-20.4402904510498
 30
0.0
 11
-76.363525390625
 21
-20.44019508361816
 31
0.0
1001
DBPROPERTIES
1002
{
1000
PbThick
1002
}
  0
LINE
  5
530
330
1F
100
AcDbEntity
  8
THICK
100
AcDbLine
 10
-76.363525390625
 20
-20.44019508361816
 30
0.0
 11
-76.3639144897461
 21
-20.44012260437012
 31
0.0
1001
DBPROPERTIES
1002
{
1000
PbThick
1002
}
  0
LINE
  5
531
330
1F
100
AcDbEntity
  8
THICK
100
AcDbLine
 10
-76.3639144897461
 20
-20.44012260437012
 30
0.0
 11
-76.36527252197266
 21
-20.44007110595703
 31
0.0
1001
DBPROPERTIES
1002
{
1000
PbThick
1002
}
  0
LINE
  5
532
330
1F
100
AcDbEntity
  8
THICK
100
AcDbLine
 10
-76.36527252197266
 20
-20.44007110595703
 30
0.0
 11
-76.3677749633789
 21
-20.44003677368164
 31
0.0
1001
DBPROPERTIES
1002
{
1000
PbThick
1002
}
  0
LINE
  5
533
330
1F
100
AcDbEntity
  8
THICK
100
AcDbLine
 10
-76.3677749633789
 20
-20.44003677368164
 30
0.0
 11
-76.37158966064453
 21
-20.44001770019531
 31
0.0
1001
DBPROPERTIES
1002
{
1000
PbThick
1002
}
  0
LINE
  5
534
330
1F
100
AcDbEntity
  8
HIDDEN
100
AcDbLine
 10
-76.2460708618164
 20
-20.44000434875488
 30
0.0
 11
-76.24639892578125
 21
-20.44000434875488
 31
0.0
1001
DBPROPERTIES
1002
{
1000
PbHidd
1002
}
  0
LINE
  5
535
330
1F
100
AcDbEntity
  8
HIDDEN
100
AcDbLine
 10
-76.24639892578125
 20
-20.44000434875488
 30
0.0
 11
-76.24674987792969
 21
-20.44000434875488
 31
0.0
1001
DBPROPERTIES
1002
{
1000
PbHidd
1002
}
  0
LINE
  5
536
330
1F
100
AcDbEntity
  8
HIDDEN
100
AcDbLine
 10
-76.24674987792969
 20
-20.44000434875488
 30
0.0
 11
-76.24711608886719
 21
-20.44000434875488
 31
0.0
1001
DBPROPERTIES
1002
{
1000
PbHidd
1002
}
  0
LINE
  5
537
330
1F
100
AcDbEntity
  8
HIDDEN
100
AcDbLine
 10
-76.24711608886719
 20
-20.44000434875488
 30
0.0
 11
-76.24750518798828
 21
-20.44000434875488
 31
0.0
1001
DBPROPERTIES
1002
{
1000
PbHidd
1002
}
  0
LINE
  5
538
330
1F
100
AcDbEntity
  8
HIDDEN
100
AcDbLine
 10
-76.24750518798828
 20
-20.44000434875488
 30
0.0
 11
-76.24789428710938
 21
-20.44000434875488
 31
0.0
1001
DBPROPERTIES
1002
{
1000
PbHidd
1002
}
  0
LINE
  5
539
330
1F
100
AcDbEntity
  8
HIDDEN
100
AcDbLine
 10
-76.24789428710938
 20
-20.44000434875488
 30
0.0
 11
-76.24832153320312
 21
-20.44000434875488
 31
0.0
1001
DBPROPERTIES
1002
{
1000
PbHidd
1002
}
  0
LINE
  5
53A
330
1F
100
AcDbEntity
  8
HIDDEN
100
AcDbLine
 10
-76.24832153320312
 20
-20.44000434875488
 30
0.0
 11
-76.24873352050781
 21
-20.44000434875488
 31
0.0
1001
DBPROPERTIES
1002
{
1000
PbHidd
1002
}
  0
LINE
  5
53B
330
1F
100
AcDbEntity
  8
HIDDEN
100
AcDbLine
 10
-76.24873352050781
 20
-20.44000434875488
 30
0.0
 11
-76.24916076660156
 21
-20.44000434875488
 31
0.0
1001
DBPROPERTIES
1002
{
1000
PbHidd
1002
}
  0
LINE
  5
53C
330
1F
100
AcDbEntity
  8
HIDDEN
100
AcDbLine
 10
-76.24916076660156
 20
-20.44000434875488
 30
0.0
 11
-76.24958038330078
 21
-20.44000434875488
 31
0.0
1001
DBPROPERTIES
1002
{
1000
PbHidd
1002
}
  0
LINE
  5
53D
330
1F
100
AcDbEntity
  8
HIDDEN
100
AcDbLine
 10
-76.24958038330078
 20
-20.44000434875488
 30
0.0
 11
-76.25
 21
-20.44000625610352
 31
0.0
1001
DBPROPERTIES
1002
{
1000
PbHidd
1002
}
  0
LINE
  5
53E
330
1F
100
AcDbEntity
  8
THICK
100
AcDbLine
 10
-62.24999999999999
 20
-44.44
 30
0.0
 11
-59.42157287525379
 21
-44.44
 31
0.0
1001
DBPROPERTIES
1002
{
1000
PbThick
1002
}
  0
LINE
  5
53F
330
1F
100
AcDbEntity
  8
THICK
100
AcDbLine
 10
-76.15196228027344
 20
-20.44240379333496
 30
0.0
 11
-76.16812133789062
 21
-20.44247055053711
 31
0.0
1001
DBPROPERTIES
1002
{
1000
PbThick
1002
}
  0
LINE
  5
540
330
1F
100
AcDbEntity
  8
THICK
100
AcDbLine
 10
-76.16812133789062
 20
-20.44247055053711
 30
0.0
 11
-76.18436431884766
 21
-20.44266891479492
 31
0.0
1001
DBPROPERTIES
1002
{
1000
PbThick
1002
}
  0
LINE
  5
541
330
1F
100
AcDbEntity
  8
THICK
100
AcDbLine
 10
-76.18436431884766
 20
-20.44266891479492
 30
0.0
 11
-76.20066833496094
 21
-20.44299697875977
 31
0.0
1001
DBPROPERTIES
1002
{
1000
PbThick
1002
}
  0
LINE
  5
542
330
1F
100
AcDbEntity
  8
THICK
100
AcDbLine
 10
-76.20066833496094
 20
-20.44299697875977
 30
0.0
 11
-76.21704864501953
 21
-20.44347190856934
 31
0.0
1001
DBPROPERTIES
1002
{
1000
PbThick
1002
}
  0
LINE
  5
543
330
1F
100
AcDbEntity
  8
THICK
100
AcDbLine
 10
-76.21704864501953
 20
-20.44347190856934
 30
0.0
 11
-76.23348999023438
 21
-20.44407844543457
 31
0.0
1001
DBPROPERTIES
1002
{
1000
PbThick
1002
}
  0
LINE
  5
544
330
1F
100
AcDbEntity
  8
THICK
100
AcDbLine
 10
-76.23348999023438
 20
-20.44407844543457
 30
0.0
 11
-76.25
 21
-20.44480514526367
 31
0.0
1001
DBPROPERTIES
1002
{
1000
PbThick
1002
}
  0
ELLIPSE
  5
545
330
1F
100
AcDbEntity
  8
THICK
100
AcDbEllipse
 10
-76.39213562373094
 20
-24.44
 30
0.0
 11
-2.449212707644755E-16
 21
-4.0
 31
0.0
210
0.0
220
0.0
230
1.0
 40
0.7071067811865475
 41
-3.141592653589793
 42
0.0
1001
DBPROPERTIES
1002
{
1000
PbThick
1002
}
  0
ELLIPSE
  5
546
330
1F
100
AcDbEntity
  8
HIDDEN
100
AcDbEllipse
 10
-76.39213562373094
 20
-24.44
 30
0.0
 11
-2.446118233605692E-16
 21
-3.994946173471331
 31
0.0
210
0.0
220
0.0
230
1.0
 40
0.7071067811865475
 41
-2.710313803336694
 42
-0.4312788502550644
1001
DBPROPERTIES
1002
{
1000
PbHidd
1002
}
  0
LINE
  5
547
330
1F
100
AcDbEntity
  8
THICK
100
AcDbLine
 10
30.25
 20
-191.85
 30
0.0
 11
-30.25
 21
-191.85
 31
0.0
1001
DBPROPERTIES
1002
{
1000
PbThick
1002
}
  0
LINE
  5
548
330
1F
100
AcDbEntity
  8
THICK
100
AcDbLine
 10
35.25
 20
-186.85
 30
0.0
 11
30.25
 21
-191.85
 31
0.0
1001
DBPROPERTIES
1002
{
1000
PbThick
1002
}
  0
LINE
  5
549
330
1F
100
AcDbEntity
  8
THICK
100
AcDbLine
 10
35.25
 20
-186.85
 30
0.0
 11
-35.25
 21
-186.85
 31
0.0
1001
DBPROPERTIES
1002
{
1000
PbThick
1002
}
  0
LINE
  5
54A
330
1F
100
AcDbEntity
  8
THICK
100
AcDbLine
 10
-35.25
 20
-186.85
 30
0.0
 11
-25.25
 21
-196.85
 31
0.0
1001
DBPROPERTIES
1002
{
1000
PbThick
1002
}
  0
LINE
  5
54B
330
1F
100
AcDbEntity
  8
THICK
100
AcDbLine
 10
35.25
 20
-257.35
 30
0.0
 11
35.25
 21
-186.85
 31
0.0
1001
DBPROPERTIES
1002
{
1000
PbThick
1002
}
  0
LINE
  5
54C
330
1F
100
AcDbEntity
  8
THICK
100
AcDbLine
 10
30.25
 20
-252.35
 30
0.0
 11
30.25
 21
-191.85
 31
0.0
1001
DBPROPERTIES
1002
{
1000
PbThick
1002
}
  0
LINE
  5
54D
330
1F
100
AcDbEntity
  8
THICK
100
AcDbLine
 10
30.25
 20
-252.35
 30
0.0
 11
35.25
 21
-257.35
 31
0.0
1001
DBPROPERTIES
1002
{
1000
PbThick
1002
}
  0
LINE
  5
54E
330
1F
100
AcDbEntity
  8
THICK
100
AcDbLine
 10
-30.25
 20
-252.35
 30
0.0
 11
-30.25
 21
-191.85
 31
0.0
1001
DBPROPERTIES
1002
{
1000
PbThick
1002
}
  0
LINE
  5
54F
330
1F
100
AcDbEntity
  8
THICK
100
AcDbLine
 10
30.25
 20
-252.35
 30
0.0
 11
-30.25
 21
-252.35
 31
0.0
1001
DBPROPERTIES
1002
{
1000
PbThick
1002
}
  0
LINE
  5
550
330
1F
100
AcDbEntity
  8
THICK
100
AcDbLine
 10
-35.25000000000001
 20
-257.35
 30
0.0
 11
-30.25
 21
-252.35
 31
0.0
1001
DBPROPERTIES
1002
{
1000
PbThick
1002
}
  0
LINE
  5
551
330
1F
100
AcDbEntity
  8
THICK
100
AcDbLine
 10
35.25
 20
-257.35
 30
0.0
 11
-35.25
 21
-257.35
 31
0.0
1001
DBPROPERTIES
1002
{
1000
PbThick
1002
}
  0
LINE
  5
552
330
1F
100
AcDbEntity
  8
HIDDEN
100
AcDbLine
 10
35.25
 20
-257.35
 30
0.0
 11
35.25
 21
-257.35
 31
0.0
1001
DBPROPERTIES
1002
{
1000
PbHidd
1002
}
  0
LINE
  5
553
330
1F
100
AcDbEntity
  8
HIDDEN
100
AcDbLine
 10
35.25
 20
-186.85
 30
0.0
 11
35.25
 21
-186.85
 31
0.0
1001
DBPROPERTIES
1002
{
1000
PbHidd
1002
}
  0
LINE
  5
554
330
1F
100
AcDbEntity
  8
HIDDEN
100
AcDbLine
 10
35.25
 20
-202.0
 30
0.0
 11
35.25
 21
-202.0
 31
0.0
1001
DBPROPERTIES
1002
{
1000
PbHidd
1002
}
  0
LINE
  5
555
330
1F
100
AcDbEntity
  8
THICK
100
AcDbLine
 10
0.0000000000000029
 20
0.0
 30
0.0
 11
47.0
 21
0.0
 31
0.0
1001
DBPROPERTIES
1002
{
1000
PbThick
1002
}
  0
LINE
  5
556
330
1F
100
AcDbEntity
  8
HIDDEN
100
AcDbLine
 10
-197.4
 20
-186.8
 30
0.0
 11
-0.0000000000000474
 21
-186.8
 31
0.0
1001
DBPROPERTIES
1002
{
1000
PbHidd
1002
}
  0
LINE
  5
557
330
1F
100
AcDbEntity
  8
THICK
100
AcDbLine
 10
-35.24999999999999
 20
-202.0
 30
0.0
 11
-58.24999995457364
 21
-202.0
 31
0.0
1001
DBPROPERTIES
1002
{
1000
PbThick
1002
}
  0
LINE
  5
558
330
1F
100
AcDbEntity
  8
HIDDEN
100
AcDbLine
 10
-58.24999995457364
 20
-202.0
 30
0.0
 11
-66.24999992502416
 21
-202.0
 31
0.0
1001
DBPROPERTIES
1002
{
1000
PbHidd
1002
}
  0
LINE
  5
559
330
1F
100
AcDbEntity
  8
THICK
100
AcDbLine
 10
-197.4
 20
-202.0
 30
0.0
 11
-66.24999992502416
 21
-202.0
 31
0.0
1001
DBPROPERTIES
1002
{
1000
PbThick
1002
}
  0
LINE
  5
55A
330
1F
100
AcDbEntity
  8
THICK
100
AcDbLine
 10
192.7
 20
-164.125
 30
0.0
 11
0.0000000000000017
 21
-164.125
 31
0.0
1001
DBPROPERTIES
1002
{
1000
PbThick
1002
}
  0
LINE
  5
55B
330
1F
100
AcDbEntity
  8
THICK
100
AcDbLine
 10
216.2
 20
-173.525
 30
0.0
 11
0.0000000000000032
 21
-173.525
 31
0.0
1001
DBPROPERTIES
1002
{
1000
PbThick
1002
}
  0
LINE
  5
55C
330
1F
100
AcDbEntity
  8
THICK
100
AcDbLine
 10
192.7
 20
-138.875
 30
0.0
 11
0.0000000000000033
 21
-138.875
 31
0.0
1001
DBPROPERTIES
1002
{
1000
PbThick
1002
}
  0
LINE
  5
55D
330
1F
100
AcDbEntity
  8
THICK
100
AcDbLine
 10
216.2
 20
-148.275
 30
0.0
 11
0.0000000000000047
 21
-148.275
 31
0.0
1001
DBPROPERTIES
1002
{
1000
PbThick
1002
}
  0
LINE
  5
55E
330
1F
100
AcDbEntity
  8
THICK
100
AcDbLine
 10
192.7
 20
-113.625
 30
0.0
 11
0.0000000000000048
 21
-113.625
 31
0.0
1001
DBPROPERTIES
1002
{
1000
PbThick
1002
}
  0
LINE
  5
55F
330
1F
100
AcDbEntity
  8
THICK
100
AcDbLine
 10
216.2
 20
-123.025
 30
0.0
 11
0.0000000000000063
 21
-123.025
 31
0.0
1001
DBPROPERTIES
1002
{
1000
PbThick
1002
}
  0
LINE
  5
560
330
1F
100
AcDbEntity
  8
THICK
100
AcDbLine
 10
192.7
 20
-88.375
 30
0.0
 11
0.0000000000000064
 21
-88.375
 31
0.0
1001
DBPROPERTIES
1002
{
1000
PbThick
1002
}
  0
LINE
  5
561
330
1F
100
AcDbEntity
  8
THICK
100
AcDbLine
 10
216.2
 20
-97.775
 30
0.0
 11
0.0000000000000078
 21
-97.775
 31
0.0
1001
DBPROPERTIES
1002
{
1000
PbThick
1002
}
  0
LINE
  5
562
330
1F
100
AcDbEntity
  8
THICK
100
AcDbLine
 10
192.7
 20
-63.125
 30
0.0
 11
0.0000000000000079
 21
-63.125
 31
0.0
1001
DBPROPERTIES
1002
{
1000
PbThick
1002
}
  0
LINE
  5
563
330
1F
100
AcDbEntity
  8
THICK
100
AcDbLine
 10
216.2
 20
-72.525
 30
0.0
 11
0.0000000000000094
 21
-72.525
 31
0.0
1001
DBPROPERTIES
1002
{
1000
PbThick
1002
}
  0
LINE
  5
564
330
1F
100
AcDbEntity
  8
THICK
100
AcDbLine
 10
0.0000000000000144
 20
-50.5
 30
0.0
 11
235.0
 21
-50.5
 31
0.0
1001
DBPROPERTIES
1002
{
1000
PbThick
1002
}
  0
LINE
  5
565
330
1F
100
AcDbEntity
  8
THICK
100
AcDbLine
 10
0.0000000000000052
 20
-28.26056973466848
 30
0.0
 11
85.64999999999998
 21
-28.26056973466848
 31
0.0
1001
DBPROPERTIES
1002
{
1000
PbThick
1002
}
  0
LINE
  5
566
330
1F
100
AcDbEntity
  8
HIDDEN
100
AcDbLine
 10
85.64999999999998
 20
-28.26056973466848
 30
0.0
 11
0.0000000000000052
 21
-28.26056973466848
 31
0.0
1001
DBPROPERTIES
1002
{
1000
PbHidd
1002
}
  0
LINE
  5
567
330
1F
100
AcDbEntity
  8
THICK
100
AcDbLine
 10
0.0000000000000052
 20
-26.2405697346685
 30
0.0
 11
85.64999999999999
 21
-26.2405697346685
 31
0.0
1001
DBPROPERTIES
1002
{
1000
PbThick
1002
}
  0
LINE
  5
568
330
1F
100
AcDbEntity
  8
THICK
100
AcDbLine
 10
-157.0
 20
-262.2
 30
0.0
 11
-0.0000000000000064
 21
-262.2
 31
0.0
1001
DBPROPERTIES
1002
{
1000
PbThick
1002
}
  0
LINE
  5
569
330
1F
100
AcDbEntity
  8
THICK
100
AcDbLine
 10
-157.0
 20
-276.6
 30
0.0
 11
-0.0000000000000073
 21
-276.6
 31
0.0
1001
DBPROPERTIES
1002
{
1000
PbThick
1002
}
  0
LINE
  5
56A
330
1F
100
AcDbEntity
  8
THICK
100
AcDbLine
 10
-152.7
 20
-280.9
 30
0.0
 11
152.7
 21
-280.9
 31
0.0
1001
DBPROPERTIES
1002
{
1000
PbThick
1002
}
  0
LINE
  5
56B
330
1F
100
AcDbEntity
  8
THICK
100
AcDbLine
 10
-0.0000000000000078
 20
-285.2
 30
0.0
 11
-157.0
 21
-285.1999999999999
 31
0.0
1001
DBPROPERTIES
1002
{
1000
PbThick
1002
}
  0
LINE
  5
56C
330
1F
100
AcDbEntity
  8
THICK
100
AcDbLine
 10
-157.0
 20
-270.8
 30
0.0
 11
-0.000000000000007
 21
-270.8
 31
0.0
1001
DBPROPERTIES
1002
{
1000
PbThick
1002
}
  0
LINE
  5
56D
330
1F
100
AcDbEntity
  8
THICK
100
AcDbLine
 10
152.7
 20
-266.5
 30
0.0
 11
-152.7
 21
-266.5
 31
0.0
1001
DBPROPERTIES
1002
{
1000
PbThick
1002
}
  0
LINE
  5
56E
330
1F
100
AcDbEntity
  8
THICK
100
AcDbLine
 10
157.0
 20
-288.0
 30
0.0
 11
157.0
 21
-285.2000122070312
 31
0.0
1001
DBPROPERTIES
1002
{
1000
PbThick
1002
}
  0
LINE
  5
56F
330
1F
100
AcDbEntity
  8
THICK
100
AcDbLine
 10
157.0
 20
-276.6000061035156
 30
0.0
 11
157.0
 21
-270.7999877929688
 31
0.0
1001
DBPROPERTIES
1002
{
1000
PbThick
1002
}
  0
LINE
  5
570
330
1F
100
AcDbEntity
  8
THICK
100
AcDbLine
 10
157.0
 20
-262.2000122070312
 30
0.0
 11
157.0
 21
-202.0
 31
0.0
1001
DBPROPERTIES
1002
{
1000
PbThick
1002
}
  0
LINE
  5
571
330
1F
100
AcDbEntity
  8
THICK
100
AcDbLine
 10
188.0
 20
-63.125
 30
0.0
 11
188.0
 21
-50.5
 31
0.0
1001
DBPROPERTIES
1002
{
1000
PbThick
1002
}
  0
LINE
  5
572
330
1F
100
AcDbEntity
  8
HIDDEN
100
AcDbLine
 10
-85.64999999999998
 20
-26.24057006835938
 30
0.0
 11
-85.64999999999998
 21
-26.28322982788086
 31
0.0
1001
DBPROPERTIES
1002
{
1000
PbHidd
1002
}
  0
LINE
  5
573
330
1F
100
AcDbEntity
  8
THICK
100
AcDbLine
 10
-85.64999999999998
 20
-26.28322982788086
 30
0.0
 11
-85.64999999999998
 21
-28.26057052612305
 31
0.0
1001
DBPROPERTIES
1002
{
1000
PbThick
1002
}
  0
LINE
  5
574
330
1F
100
AcDbEntity
  8
THICK
100
AcDbLine
 10
-85.65000160807605
 20
-28.2605699741241
 30
0.0
 11
-235.0
 21
-50.49999999999999
 31
0.0
1001
DBPROPERTIES
1002
{
1000
PbThick
1002
}
  0
LINE
  5
575
330
1F
100
AcDbEntity
  8
THICK
100
AcDbLine
 10
188.0
 20
-88.375
 30
0.0
 11
188.0
 21
-72.5250015258789
 31
0.0
1001
DBPROPERTIES
1002
{
1000
PbThick
1002
}
  0
LINE
  5
576
330
1F
100
AcDbEntity
  8
THICK
100
AcDbLine
 10
-192.6999973691743
 20
-63.1249989476697
 30
0.0
 11
-216.1999978953394
 21
-72.52499915813576
 31
0.0
1001
DBPROPERTIES
1002
{
1000
PbThick
1002
}
  0
LINE
  5
577
330
1F
100
AcDbEntity
  8
THICK
100
AcDbLine
 10
188.0
 20
-113.625
 30
0.0
 11
188.0
 21
-97.7750015258789
 31
0.0
1001
DBPROPERTIES
1002
{
1000
PbThick
1002
}
  0
LINE
  5
578
330
1F
100
AcDbEntity
  8
THICK
100
AcDbLine
 10
-192.6999973691743
 20
-88.37499894766972
 30
0.0
 11
-216.1999978953394
 21
-97.77499915813577
 31
0.0
1001
DBPROPERTIES
1002
{
1000
PbThick
1002
}
  0
LINE
  5
579
330
1F
100
AcDbEntity
  8
THICK
100
AcDbLine
 10
188.0
 20
-138.875
 30
0.0
 11
188.0
 21
-123.0250015258789
 31
0.0
1001
DBPROPERTIES
1002
{
1000
PbThick
1002
}
  0
LINE
  5
57A
330
1F
100
AcDbEntity
  8
THICK
100
AcDbLine
 10
-192.6999973691743
 20
-113.6249989476697
 30
0.0
 11
-216.1999978953394
 21
-123.0249991581358
 31
0.0
1001
DBPROPERTIES
1002
{
1000
PbThick
1002
}
  0
LINE
  5
57B
330
1F
100
AcDbEntity
  8
THICK
100
AcDbLine
 10
188.0
 20
-164.125
 30
0.0
 11
188.0
 21
-148.2749938964844
 31
0.0
1001
DBPROPERTIES
1002
{
1000
PbThick
1002
}
  0
LINE
  5
57C
330
1F
100
AcDbEntity
  8
THICK
100
AcDbLine
 10
-192.6999973691743
 20
-138.8749989476697
 30
0.0
 11
-216.1999952645137
 21
-148.2749981058055
 31
0.0
1001
DBPROPERTIES
1002
{
1000
PbThick
1002
}
  0
LINE
  5
57D
330
1F
100
AcDbEntity
  8
THICK
100
AcDbLine
 10
-192.6999973691743
 20
-164.1249989476697
 30
0.0
 11
-216.1999952645137
 21
-173.5249981058055
 31
0.0
1001
DBPROPERTIES
1002
{
1000
PbThick
1002
}
  0
LINE
  5
57E
330
1F
100
AcDbEntity
  8
THICK
100
AcDbLine
 10
188.0
 20
-181.8000030517578
 30
0.0
 11
188.0
 21
-173.5249938964844
 31
0.0
1001
DBPROPERTIES
1002
{
1000
PbThick
1002
}
  0
LINE
  5
57F
330
1F
100
AcDbEntity
  8
HIDDEN
100
AcDbLine
 10
-67.25
 20
-171.3516845703125
 30
0.0
 11
-67.25
 21
-173.5249938964844
 31
0.0
1001
DBPROPERTIES
1002
{
1000
PbHidd
1002
}
  0
LINE
  5
580
330
1F
100
AcDbEntity
  8
HIDDEN
100
AcDbLine
 10
-67.25
 20
-146.1016845703125
 30
0.0
 11
-67.25
 21
-148.2749938964844
 31
0.0
1001
DBPROPERTIES
1002
{
1000
PbHidd
1002
}
  0
LINE
  5
581
330
1F
100
AcDbEntity
  8
HIDDEN
100
AcDbLine
 10
-67.25
 20
-120.851692199707
 30
0.0
 11
-67.25
 21
-123.0250015258789
 31
0.0
1001
DBPROPERTIES
1002
{
1000
PbHidd
1002
}
  0
LINE
  5
582
330
1F
100
AcDbEntity
  8
HIDDEN
100
AcDbLine
 10
-67.25
 20
-95.60169219970703
 30
0.0
 11
-67.25
 21
-97.7750015258789
 31
0.0
1001
DBPROPERTIES
1002
{
1000
PbHidd
1002
}
  0
LINE
  5
583
330
1F
100
AcDbEntity
  8
HIDDEN
100
AcDbLine
 10
-67.25
 20
-70.35169219970703
 30
0.0
 11
-67.25
 21
-72.5250015258789
 31
0.0
1001
DBPROPERTIES
1002
{
1000
PbHidd
1002
}
  0
LINE
  5
584
330
1F
100
AcDbEntity
  8
HIDDEN
100
AcDbLine
 10
-67.25
 20
-46.89147186279297
 30
0.0
 11
-67.25
 21
-50.5
 31
0.0
1001
DBPROPERTIES
1002
{
1000
PbHidd
1002
}
  0
LINE
  5
585
330
1F
100
AcDbEntity
  8
THICK
100
AcDbLine
 10
197.4
 20
-202.0
 30
0.0
 11
197.4
 21
-186.8000030517578
 31
0.0
1001
DBPROPERTIES
1002
{
1000
PbThick
1002
}
  0
LINE
  5
586
330
1F
100
AcDbEntity
  8
THICK
100
AcDbLine
 10
-47.0
 20
0.0
 30
0.0
 11
-58.8010400202842
 21
-20.44000089728591
 31
0.0
1001
DBPROPERTIES
1002
{
1000
PbThick
1002
}
  0
LINE
  5
587
330
1F
100
AcDbEntity
  8
HIDDEN
100
AcDbLine
 10
-58.8010400202842
 20
-20.44000089728591
 30
0.0
 11
-62.15000052596211
 21
-26.24057064566161
 31
0.0
1001
DBPROPERTIES
1002
{
1000
PbHidd
1002
}
  0
LINE
  5
588
330
1F
100
AcDbEntity
  8
THICK
100
AcDbLine
 10
-66.25
 20
-44.43999862670898
 30
0.0
 11
-66.25
 21
-47.26860046386719
 31
0.0
1001
DBPROPERTIES
1002
{
1000
PbThick
1002
}
  0
LINE
  5
589
330
1F
100
AcDbEntity
  8
HIDDEN
100
AcDbLine
 10
-66.25
 20
-47.26860046386719
 30
0.0
 11
-66.25
 21
-50.5
 31
0.0
1001
DBPROPERTIES
1002
{
1000
PbHidd
1002
}
  0
LINE
  5
58A
330
1F
100
AcDbEntity
  8
THICK
100
AcDbLine
 10
-66.25
 20
-50.5
 30
0.0
 11
-66.25
 21
-71.36475372314453
 31
0.0
1001
DBPROPERTIES
1002
{
1000
PbThick
1002
}
  0
LINE
  5
58B
330
1F
100
AcDbEntity
  8
HIDDEN
100
AcDbLine
 10
-66.25
 20
-71.36475372314453
 30
0.0
 11
-66.25
 21
-72.5250015258789
 31
0.0
1001
DBPROPERTIES
1002
{
1000
PbHidd
1002
}
  0
LINE
  5
58C
330
1F
100
AcDbEntity
  8
THICK
100
AcDbLine
 10
-66.25
 20
-72.5250015258789
 30
0.0
 11
-66.25
 21
-96.61475372314453
 31
0.0
1001
DBPROPERTIES
1002
{
1000
PbThick
1002
}
  0
LINE
  5
58D
330
1F
100
AcDbEntity
  8
HIDDEN
100
AcDbLine
 10
-66.25
 20
-96.61475372314453
 30
0.0
 11
-66.25
 21
-97.7750015258789
 31
0.0
1001
DBPROPERTIES
1002
{
1000
PbHidd
1002
}
  0
LINE
  5
58E
330
1F
100
AcDbEntity
  8
THICK
100
AcDbLine
 10
-66.25
 20
-97.7750015258789
 30
0.0
 11
-66.25
 21
-121.8647537231445
 31
0.0
1001
DBPROPERTIES
1002
{
1000
PbThick
1002
}
  0
LINE
  5
58F
330
1F
100
AcDbEntity
  8
HIDDEN
100
AcDbLine
 10
-66.25
 20
-121.8647537231445
 30
0.0
 11
-66.25
 21
-123.0250015258789
 31
0.0
1001
DBPROPERTIES
1002
{
1000
PbHidd
1002
}
  0
LINE
  5
590
330
1F
100
AcDbEntity
  8
THICK
100
AcDbLine
 10
-66.25
 20
-123.0250015258789
 30
0.0
 11
-66.25
 21
-147.11474609375
 31
0.0
1001
DBPROPERTIES
1002
{
1000
PbThick
1002
}
  0
LINE
  5
591
330
1F
100
AcDbEntity
  8
HIDDEN
100
AcDbLine
 10
-66.25
 20
-147.11474609375
 30
0.0
 11
-66.25
 21
-148.2749938964844
 31
0.0
1001
DBPROPERTIES
1002
{
1000
PbHidd
1002
}
  0
LINE
  5
592
330
1F
100
AcDbEntity
  8
THICK
100
AcDbLine
 10
-66.25
 20
-148.2749938964844
 30
0.0
 11
-66.25
 21
-172.36474609375
 31
0.0
1001
DBPROPERTIES
1002
{
1000
PbThick
1002
}
  0
LINE
  5
593
330
1F
100
AcDbEntity
  8
HIDDEN
100
AcDbLine
 10
-66.25
 20
-172.36474609375
 30
0.0
 11
-66.25
 21
-173.5249938964844
 31
0.0
1001
DBPROPERTIES
1002
{
1000
PbHidd
1002
}
  0
LINE
  5
594
330
1F
100
AcDbEntity
  8
THICK
100
AcDbLine
 10
-66.25
 20
-173.5249938964844
 30
0.0
 11
-66.25
 21
-202.1999969482422
 31
0.0
1001
DBPROPERTIES
1002
{
1000
PbThick
1002
}
  0
ARC
  5
595
330
1F
100
AcDbEntity
  8
THICK
100
AcDbCircle
 10
-76.24999999999999
 20
-24.44
 30
0.0
 40
4.0
100
AcDbArc
 50
89.99998127603165
 51
90.54904673110552
1001
DBPROPERTIES
1002
{
1000
PbThick
1002
}
  0
LINE
  5
596
330
1F
100
AcDbEntity
  8
HIDDEN
100
AcDbLine
 10
-76.39213562011719
 20
-20.44000053405762
 30
0.0
 11
-76.38739776611328
 21
-20.44000053405762
 31
0.0
1001
DBPROPERTIES
1002
{
1000
PbHidd
1002
}
  0
LINE
  5
597
330
1F
100
AcDbEntity
  8
HIDDEN
100
AcDbLine
 10
-76.38739776611328
 20
-20.44000053405762
 30
0.0
 11
-76.38414764404297
 21
-20.44000244140625
 31
0.0
1001
DBPROPERTIES
1002
{
1000
PbHidd
1002
}
  0
LINE
  5
598
330
1F
100
AcDbEntity
  8
HIDDEN
100
AcDbLine
 10
-76.38414764404297
 20
-20.44000244140625
 30
0.0
 11
-76.38314056396484
 21
-20.44000244140625
 31
0.0
1001
DBPROPERTIES
1002
{
1000
PbHidd
1002
}
  0
LINE
  5
599
330
1F
100
AcDbEntity
  8
HIDDEN
100
AcDbLine
 10
-76.38314056396484
 20
-20.44000244140625
 30
0.0
 11
-76.38212585449219
 21
-20.44000434875488
 31
0.0
1001
DBPROPERTIES
1002
{
1000
PbHidd
1002
}
  0
LINE
  5
59A
330
1F
100
AcDbEntity
  8
HIDDEN
100
AcDbLine
 10
-76.38212585449219
 20
-20.44000434875488
 30
0.0
 11
-76.37956237792969
 21
-20.44000625610352
 31
0.0
1001
DBPROPERTIES
1002
{
1000
PbHidd
1002
}
  0
LINE
  5
59B
330
1F
100
AcDbEntity
  8
HIDDEN
100
AcDbLine
 10
-76.37956237792969
 20
-20.44000625610352
 30
0.0
 11
-76.3759536743164
 21
-20.44001007080078
 31
0.0
1001
DBPROPERTIES
1002
{
1000
PbHidd
1002
}
  0
LINE
  5
59C
330
1F
100
AcDbEntity
  8
THICK
100
AcDbLine
 10
-76.1123275756836
 20
-20.44279670715332
 30
0.0
 11
-74.89442443847656
 21
-20.52025985717773
 31
0.0
1001
DBPROPERTIES
1002
{
1000
PbThick
1002
}
  0
LINE
  5
59D
330
1F
100
AcDbEntity
  8
THICK
100
AcDbLine
 10
-74.89442443847656
 20
-20.52025985717773
 30
0.0
 11
-73.67741394042969
 21
-20.70481300354004
 31
0.0
1001
DBPROPERTIES
1002
{
1000
PbThick
1002
}
  0
LINE
  5
59E
330
1F
100
AcDbEntity
  8
THICK
100
AcDbLine
 10
-73.67741394042969
 20
-20.70481300354004
 30
0.0
 11
-72.28590393066406
 21
-21.05071640014648
 31
0.0
1001
DBPROPERTIES
1002
{
1000
PbThick
1002
}
  0
LINE
  5
59F
330
1F
100
AcDbEntity
  8
THICK
100
AcDbLine
 10
-72.28590393066406
 20
-21.05071640014648
 30
0.0
 11
-70.90338134765625
 21
-21.54374504089355
 31
0.0
1001
DBPROPERTIES
1002
{
1000
PbThick
1002
}
  0
LINE
  5
5A0
330
1F
100
AcDbEntity
  8
THICK
100
AcDbLine
 10
-70.90338134765625
 20
-21.54374504089355
 30
0.0
 11
-70.16753387451172
 21
-21.87038230895996
 31
0.0
1001
DBPROPERTIES
1002
{
1000
PbThick
1002
}
  0
LINE
  5
5A1
330
1F
100
AcDbEntity
  8
THICK
100
AcDbLine
 10
-70.16753387451172
 20
-21.87038230895996
 30
0.0
 11
-69.4369125366211
 21
-22.2414722442627
 31
0.0
1001
DBPROPERTIES
1002
{
1000
PbThick
1002
}
  0
LINE
  5
5A2
330
1F
100
AcDbEntity
  8
THICK
100
AcDbLine
 10
-69.4369125366211
 20
-22.2414722442627
 30
0.0
 11
-68.71226501464844
 21
-22.65806770324707
 31
0.0
1001
DBPROPERTIES
1002
{
1000
PbThick
1002
}
  0
LINE
  5
5A3
330
1F
100
AcDbEntity
  8
THICK
100
AcDbLine
 10
-68.71226501464844
 20
-22.65806770324707
 30
0.0
 11
-67.99525451660156
 21
-23.12082099914551
 31
0.0
1001
DBPROPERTIES
1002
{
1000
PbThick
1002
}
  0
LINE
  5
5A4
330
1F
100
AcDbEntity
  8
THICK
100
AcDbLine
 10
-67.99525451660156
 20
-23.12082099914551
 30
0.0
 11
-66.79120635986328
 21
-24.02113914489746
 31
0.0
1001
DBPROPERTIES
1002
{
1000
PbThick
1002
}
  0
LINE
  5
5A5
330
1F
100
AcDbEntity
  8
THICK
100
AcDbLine
 10
-66.79120635986328
 20
-24.02113914489746
 30
0.0
 11
-65.80599975585938
 21
-24.8862247467041
 31
0.0
1001
DBPROPERTIES
1002
{
1000
PbThick
1002
}
  0
LINE
  5
5A6
330
1F
100
AcDbEntity
  8
THICK
100
AcDbLine
 10
-65.80599975585938
 20
-24.8862247467041
 30
0.0
 11
-64.85224151611328
 21
-25.8505916595459
 31
0.0
1001
DBPROPERTIES
1002
{
1000
PbThick
1002
}
  0
LINE
  5
5A7
330
1F
100
AcDbEntity
  8
THICK
100
AcDbLine
 10
-64.85224151611328
 20
-25.8505916595459
 30
0.0
 11
-63.88250350952148
 21
-26.98126029968262
 31
0.0
1001
DBPROPERTIES
1002
{
1000
PbThick
1002
}
  0
LINE
  5
5A8
330
1F
100
AcDbEntity
  8
THICK
100
AcDbLine
 10
-63.88250350952148
 20
-26.98126029968262
 30
0.0
 11
-62.9638557434082
 21
-28.22108268737793
 31
0.0
1001
DBPROPERTIES
1002
{
1000
PbThick
1002
}
  0
LINE
  5
5A9
330
1F
100
AcDbEntity
  8
THICK
100
AcDbLine
 10
-62.9638557434082
 20
-28.22108268737793
 30
0.0
 11
-62.10512924194336
 21
-29.56585884094238
 31
0.0
1001
DBPROPERTIES
1002
{
1000
PbThick
1002
}
  0
LINE
  5
5AA
330
1F
100
AcDbEntity
  8
THICK
100
AcDbLine
 10
-62.10512924194336
 20
-29.56585884094238
 30
0.0
 11
-61.31474685668945
 21
-31.00997543334961
 31
0.0
1001
DBPROPERTIES
1002
{
1000
PbThick
1002
}
  0
LINE
  5
5AB
330
1F
100
AcDbEntity
  8
THICK
100
AcDbLine
 10
-61.31474685668945
 20
-31.00997543334961
 30
0.0
 11
-60.86242294311523
 21
-31.95246696472168
 31
0.0
1001
DBPROPERTIES
1002
{
1000
PbThick
1002
}
  0
LINE
  5
5AC
330
1F
100
AcDbEntity
  8
THICK
100
AcDbLine
 10
-60.86242294311523
 20
-31.95246696472168
 30
0.0
 11
-60.44138336181641
 21
-32.92819595336914
 31
0.0
1001
DBPROPERTIES
1002
{
1000
PbThick
1002
}
  0
LINE
  5
5AD
330
1F
100
AcDbEntity
  8
THICK
100
AcDbLine
 10
-60.44138336181641
 20
-32.92819595336914
 30
0.0
 11
-59.94163131713867
 21
-34.24812698364258
 31
0.0
1001
DBPROPERTIES
1002
{
1000
PbThick
1002
}
  0
LINE
  5
5AE
330
1F
100
AcDbEntity
  8
THICK
100
AcDbLine
 10
-59.94163131713867
 20
-34.24812698364258
 30
0.0
 11
-59.50166320800781
 21
-35.61471939086914
 31
0.0
1001
DBPROPERTIES
1002
{
1000
PbThick
1002
}
  0
LINE
  5
5AF
330
1F
100
AcDbEntity
  8
THICK
100
AcDbLine
 10
-59.50166320800781
 20
-35.61471939086914
 30
0.0
 11
-59.12438201904297
 21
-37.02207946777344
 31
0.0
1001
DBPROPERTIES
1002
{
1000
PbThick
1002
}
  0
LINE
  5
5B0
330
1F
100
AcDbEntity
  8
THICK
100
AcDbLine
 10
-59.12438201904297
 20
-37.02207946777344
 30
0.0
 11
-58.81229782104492
 21
-38.46386337280273
 31
0.0
1001
DBPROPERTIES
1002
{
1000
PbThick
1002
}
  0
LINE
  5
5B1
330
1F
100
AcDbEntity
  8
THICK
100
AcDbLine
 10
-58.81229782104492
 20
-38.46386337280273
 30
0.0
 11
-58.56747817993164
 21
-39.93333435058594
 31
0.0
1001
DBPROPERTIES
1002
{
1000
PbThick
1002
}
  0
LINE
  5
5B2
330
1F
100
AcDbEntity
  8
THICK
100
AcDbLine
 10
-58.56747817993164
 20
-39.93333435058594
 30
0.0
 11
-58.39147567749023
 21
-41.4238166809082
 31
0.0
1001
DBPROPERTIES
1002
{
1000
PbThick
1002
}
  0
LINE
  5
5B3
330
1F
100
AcDbEntity
  8
THICK
100
AcDbLine
 10
-58.39147567749023
 20
-41.4238166809082
 30
0.0
 11
-58.28542709350586
 21
-42.92837142944336
 31
0.0
1001
DBPROPERTIES
1002
{
1000
PbThick
1002
}
  0
LINE
  5
5B4
330
1F
100
AcDbEntity
  8
THICK
100
AcDbLine
 10
-58.28542709350586
 20
-42.92837142944336
 30
0.0
 11
-58.25
 21
-44.43999862670898
 31
0.0
1001
DBPROPERTIES
1002
{
1000
PbThick
1002
}
  0
LINE
  5
5B5
330
1F
100
AcDbEntity
  8
HIDDEN
100
AcDbLine
 10
-82.1
 20
-28.44
 30
0.0
 11
-81.92890669539847
 21
-28.44
 31
0.0
1001
DBPROPERTIES
1002
{
1000
PbHidd
1002
}
  0
LINE
  5
5B6
330
1F
100
AcDbEntity
  8
HIDDEN
100
AcDbLine
 10
-82.0999984741211
 20
-28.44000053405762
 30
0.0
 11
-81.82701110839844
 21
-28.4306755065918
 31
0.0
1001
DBPROPERTIES
1002
{
1000
PbHidd
1002
}
  0
LINE
  5
5B7
330
1F
100
AcDbEntity
  8
HIDDEN
100
AcDbLine
 10
-81.82701110839844
 20
-28.4306755065918
 30
0.0
 11
-81.55532836914062
 21
-28.40274429321289
 31
0.0
1001
DBPROPERTIES
1002
{
1000
PbHidd
1002
}
  0
LINE
  5
5B8
330
1F
100
AcDbEntity
  8
HIDDEN
100
AcDbLine
 10
-81.55532836914062
 20
-28.40274429321289
 30
0.0
 11
-81.28617858886719
 21
-28.35633659362793
 31
0.0
1001
DBPROPERTIES
1002
{
1000
PbHidd
1002
}
  0
LINE
  5
5B9
330
1F
100
AcDbEntity
  8
HIDDEN
100
AcDbLine
 10
-81.28617858886719
 20
-28.35633659362793
 30
0.0
 11
-81.02081298828125
 21
-28.29166984558105
 31
0.0
1001
DBPROPERTIES
1002
{
1000
PbHidd
1002
}
  0
LINE
  5
5BA
330
1F
100
AcDbEntity
  8
HIDDEN
100
AcDbLine
 10
-81.02081298828125
 20
-28.29166984558105
 30
0.0
 11
-80.76048278808594
 21
-28.20904350280762
 31
0.0
1001
DBPROPERTIES
1002
{
1000
PbHidd
1002
}
  0
LINE
  5
5BB
330
1F
100
AcDbEntity
  8
HIDDEN
100
AcDbLine
 10
-80.76048278808594
 20
-28.20904350280762
 30
0.0
 11
-80.50639343261719
 21
-28.10884475708008
 31
0.0
1001
DBPROPERTIES
1002
{
1000
PbHidd
1002
}
  0
LINE
  5
5BC
330
1F
100
AcDbEntity
  8
HIDDEN
100
AcDbLine
 10
-80.50639343261719
 20
-28.10884475708008
 30
0.0
 11
-80.2597427368164
 21
-27.99154090881348
 31
0.0
1001
DBPROPERTIES
1002
{
1000
PbHidd
1002
}
  0
LINE
  5
5BD
330
1F
100
AcDbEntity
  8
HIDDEN
100
AcDbLine
 10
-80.2597427368164
 20
-27.99154090881348
 30
0.0
 11
-80.02166748046875
 21
-27.8576774597168
 31
0.0
1001
DBPROPERTIES
1002
{
1000
PbHidd
1002
}
  0
LINE
  5
5BE
330
1F
100
AcDbEntity
  8
HIDDEN
100
AcDbLine
 10
-80.02166748046875
 20
-27.8576774597168
 30
0.0
 11
-79.79328155517578
 21
-27.7078800201416
 31
0.0
1001
DBPROPERTIES
1002
{
1000
PbHidd
1002
}
  0
LINE
  5
5BF
330
1F
100
AcDbEntity
  8
HIDDEN
100
AcDbLine
 10
-79.79328155517578
 20
-27.7078800201416
 30
0.0
 11
-79.57564544677734
 21
-27.54284477233887
 31
0.0
1001
DBPROPERTIES
1002
{
1000
PbHidd
1002
}
  0
LINE
  5
5C0
330
1F
100
AcDbEntity
  8
HIDDEN
100
AcDbLine
 10
-79.57564544677734
 20
-27.54284477233887
 30
0.0
 11
-79.36978912353516
 21
-27.36334419250488
 31
0.0
1001
DBPROPERTIES
1002
{
1000
PbHidd
1002
}
  0
LINE
  5
5C1
330
1F
100
AcDbEntity
  8
HIDDEN
100
AcDbLine
 10
-79.36978912353516
 20
-27.36334419250488
 30
0.0
 11
-79.1766586303711
 21
-27.17021179199219
 31
0.0
1001
DBPROPERTIES
1002
{
1000
PbHidd
1002
}
  0
LINE
  5
5C2
330
1F
100
AcDbEntity
  8
HIDDEN
100
AcDbLine
 10
-79.1766586303711
 20
-27.17021179199219
 30
0.0
 11
-78.99715423583984
 21
-26.96435165405273
 31
0.0
1001
DBPROPERTIES
1002
{
1000
PbHidd
1002
}
  0
LINE
  5
5C3
330
1F
100
AcDbEntity
  8
HIDDEN
100
AcDbLine
 10
-78.99715423583984
 20
-26.96435165405273
 30
0.0
 11
-78.83212280273438
 21
-26.7467212677002
 31
0.0
1001
DBPROPERTIES
1002
{
1000
PbHidd
1002
}
  0
LINE
  5
5C4
330
1F
100
AcDbEntity
  8
HIDDEN
100
AcDbLine
 10
-78.83212280273438
 20
-26.7467212677002
 30
0.0
 11
-78.68231964111328
 21
-26.51833534240723
 31
0.0
1001
DBPROPERTIES
1002
{
1000
PbHidd
1002
}
  0
LINE
  5
5C5
330
1F
100
AcDbEntity
  8
HIDDEN
100
AcDbLine
 10
-78.68231964111328
 20
-26.51833534240723
 30
0.0
 11
-78.5484619140625
 21
-26.28026008605957
 31
0.0
1001
DBPROPERTIES
1002
{
1000
PbHidd
1002
}
  0
LINE
  5
5C6
330
1F
100
AcDbEntity
  8
HIDDEN
100
AcDbLine
 10
-78.5484619140625
 20
-26.28026008605957
 30
0.0
 11
-78.43115234375
 21
-26.03360366821289
 31
0.0
1001
DBPROPERTIES
1002
{
1000
PbHidd
1002
}
  0
LINE
  5
5C7
330
1F
100
AcDbEntity
  8
HIDDEN
100
AcDbLine
 10
-78.43115234375
 20
-26.03360366821289
 30
0.0
 11
-78.3309555053711
 21
-25.77951812744141
 31
0.0
1001
DBPROPERTIES
1002
{
1000
PbHidd
1002
}
  0
LINE
  5
5C8
330
1F
100
AcDbEntity
  8
HIDDEN
100
AcDbLine
 10
-78.3309555053711
 20
-25.77951812744141
 30
0.0
 11
-78.24832916259766
 21
-25.51918792724609
 31
0.0
1001
DBPROPERTIES
1002
{
1000
PbHidd
1002
}
  0
LINE
  5
5C9
330
1F
100
AcDbEntity
  8
HIDDEN
100
AcDbLine
 10
-78.24832916259766
 20
-25.51918792724609
 30
0.0
 11
-78.18366241455078
 21
-25.25382423400879
 31
0.0
1001
DBPROPERTIES
1002
{
1000
PbHidd
1002
}
  0
LINE
  5
5CA
330
1F
100
AcDbEntity
  8
HIDDEN
100
AcDbLine
 10
-78.18366241455078
 20
-25.25382423400879
 30
0.0
 11
-78.13725280761719
 21
-24.98466682434082
 31
0.0
1001
DBPROPERTIES
1002
{
1000
PbHidd
1002
}
  0
LINE
  5
5CB
330
1F
100
AcDbEntity
  8
HIDDEN
100
AcDbLine
 10
-78.13725280761719
 20
-24.98466682434082
 30
0.0
 11
-78.10932159423828
 21
-24.71296882629395
 31
0.0
1001
DBPROPERTIES
1002
{
1000
PbHidd
1002
}
  0
LINE
  5
5CC
330
1F
100
AcDbEntity
  8
HIDDEN
100
AcDbLine
 10
-78.10932159423828
 20
-24.71296882629395
 30
0.0
 11
-78.0999984741211
 21
-24.44000053405762
 31
0.0
1001
DBPROPERTIES
1002
{
1000
PbHidd
1002
}
  0
LINE
  5
5CD
330
1F
100
AcDbEntity
  8
THICK
100
AcDbLine
 10
-86.0999984741211
 20
-24.44000053405762
 30
0.0
 11
-86.0906753540039
 21
-24.71296882629395
 31
0.0
1001
DBPROPERTIES
1002
{
1000
PbThick
1002
}
  0
LINE
  5
5CE
330
1F
100
AcDbEntity
  8
THICK
100
AcDbLine
 10
-86.0906753540039
 20
-24.71296882629395
 30
0.0
 11
-86.062744140625
 21
-24.98466682434082
 31
0.0
1001
DBPROPERTIES
1002
{
1000
PbThick
1002
}
  0
LINE
  5
5CF
330
1F
100
AcDbEntity
  8
THICK
100
AcDbLine
 10
-86.062744140625
 20
-24.98466682434082
 30
0.0
 11
-86.0163345336914
 21
-25.25382423400879
 31
0.0
1001
DBPROPERTIES
1002
{
1000
PbThick
1002
}
  0
LINE
  5
5D0
330
1F
100
AcDbEntity
  8
THICK
100
AcDbLine
 10
-86.0163345336914
 20
-25.25382423400879
 30
0.0
 11
-85.95166778564453
 21
-25.51918792724609
 31
0.0
1001
DBPROPERTIES
1002
{
1000
PbThick
1002
}
  0
LINE
  5
5D1
330
1F
100
AcDbEntity
  8
THICK
100
AcDbLine
 10
-85.95166778564453
 20
-25.51918792724609
 30
0.0
 11
-85.8690414428711
 21
-25.77951812744141
 31
0.0
1001
DBPROPERTIES
1002
{
1000
PbThick
1002
}
  0
LINE
  5
5D2
330
1F
100
AcDbEntity
  8
THICK
100
AcDbLine
 10
-85.8690414428711
 20
-25.77951812744141
 30
0.0
 11
-85.76884460449219
 21
-26.03360366821289
 31
0.0
1001
DBPROPERTIES
1002
{
1000
PbThick
1002
}
  0
LINE
  5
5D3
330
1F
100
AcDbEntity
  8
THICK
100
AcDbLine
 10
-85.76884460449219
 20
-26.03360366821289
 30
0.0
 11
-85.65154266357422
 21
-26.28026008605957
 31
0.0
1001
DBPROPERTIES
1002
{
1000
PbThick
1002
}
  0
LINE
  5
5D4
330
1F
100
AcDbEntity
  8
THICK
100
AcDbLine
 10
-85.65154266357422
 20
-26.28026008605957
 30
0.0
 11
-85.5176773071289
 21
-26.51833534240723
 31
0.0
1001
DBPROPERTIES
1002
{
1000
PbThick
1002
}
  0
LINE
  5
5D5
330
1F
100
AcDbEntity
  8
THICK
100
AcDbLine
 10
-85.5176773071289
 20
-26.51833534240723
 30
0.0
 11
-85.36788177490234
 21
-26.7467212677002
 31
0.0
1001
DBPROPERTIES
1002
{
1000
PbThick
1002
}
  0
LINE
  5
5D6
330
1F
100
AcDbEntity
  8
THICK
100
AcDbLine
 10
-85.36788177490234
 20
-26.7467212677002
 30
0.0
 11
-85.20284271240234
 21
-26.96435165405273
 31
0.0
1001
DBPROPERTIES
1002
{
1000
PbThick
1002
}
  0
LINE
  5
5D7
330
1F
100
AcDbEntity
  8
THICK
100
AcDbLine
 10
-85.20284271240234
 20
-26.96435165405273
 30
0.0
 11
-85.02334594726562
 21
-27.17021179199219
 31
0.0
1001
DBPROPERTIES
1002
{
1000
PbThick
1002
}
  0
LINE
  5
5D8
330
1F
100
AcDbEntity
  8
THICK
100
AcDbLine
 10
-85.02334594726562
 20
-27.17021179199219
 30
0.0
 11
-84.83021545410156
 21
-27.36334419250488
 31
0.0
1001
DBPROPERTIES
1002
{
1000
PbThick
1002
}
  0
LINE
  5
5D9
330
1F
100
AcDbEntity
  8
THICK
100
AcDbLine
 10
-84.83021545410156
 20
-27.36334419250488
 30
0.0
 11
-84.62435150146484
 21
-27.54284477233887
 31
0.0
1001
DBPROPERTIES
1002
{
1000
PbThick
1002
}
  0
LINE
  5
5DA
330
1F
100
AcDbEntity
  8
THICK
100
AcDbLine
 10
-84.62435150146484
 20
-27.54284477233887
 30
0.0
 11
-84.40672302246094
 21
-27.7078800201416
 31
0.0
1001
DBPROPERTIES
1002
{
1000
PbThick
1002
}
  0
LINE
  5
5DB
330
1F
100
AcDbEntity
  8
THICK
100
AcDbLine
 10
-84.40672302246094
 20
-27.7078800201416
 30
0.0
 11
-84.17833709716797
 21
-27.8576774597168
 31
0.0
1001
DBPROPERTIES
1002
{
1000
PbThick
1002
}
  0
LINE
  5
5DC
330
1F
100
AcDbEntity
  8
THICK
100
AcDbLine
 10
-84.17833709716797
 20
-27.8576774597168
 30
0.0
 11
-83.94026184082031
 21
-27.99154090881348
 31
0.0
1001
DBPROPERTIES
1002
{
1000
PbThick
1002
}
  0
LINE
  5
5DD
330
1F
100
AcDbEntity
  8
THICK
100
AcDbLine
 10
-83.94026184082031
 20
-27.99154090881348
 30
0.0
 11
-83.693603515625
 21
-28.10884475708008
 31
0.0
1001
DBPROPERTIES
1002
{
1000
PbThick
1002
}
  0
LINE
  5
5DE
330
1F
100
AcDbEntity
  8
THICK
100
AcDbLine
 10
-83.693603515625
 20
-28.10884475708008
 30
0.0
 11
-83.43952178955078
 21
-28.20904350280762
 31
0.0
1001
DBPROPERTIES
1002
{
1000
PbThick
1002
}
  0
LINE
  5
5DF
330
1F
100
AcDbEntity
  8
THICK
100
AcDbLine
 10
-83.43952178955078
 20
-28.20904350280762
 30
0.0
 11
-83.17918395996094
 21
-28.29166984558105
 31
0.0
1001
DBPROPERTIES
1002
{
1000
PbThick
1002
}
  0
LINE
  5
5E0
330
1F
100
AcDbEntity
  8
THICK
100
AcDbLine
 10
-83.17918395996094
 20
-28.29166984558105
 30
0.0
 11
-82.91382598876953
 21
-28.35633659362793
 31
0.0
1001
DBPROPERTIES
1002
{
1000
PbThick
1002
}
  0
LINE
  5
5E1
330
1F
100
AcDbEntity
  8
THICK
100
AcDbLine
 10
-82.91382598876953
 20
-28.35633659362793
 30
0.0
 11
-82.64466094970703
 21
-28.40274429321289
 31
0.0
1001
DBPROPERTIES
1002
{
1000
PbThick
1002
}
  0
LINE
  5
5E2
330
1F
100
AcDbEntity
  8
THICK
100
AcDbLine
 10
-82.64466094970703
 20
-28.40274429321289
 30
0.0
 11
-82.3729476928711
 21
-28.4306755065918
 31
0.0
1001
DBPROPERTIES
1002
{
1000
PbThick
1002
}
  0
LINE
  5
5E3
330
1F
100
AcDbEntity
  8
THICK
100
AcDbLine
 10
-82.3729476928711
 20
-28.4306755065918
 30
0.0
 11
-82.0999984741211
 21
-28.44000053405762
 31
0.0
1001
DBPROPERTIES
1002
{
1000
PbThick
1002
}
  0
LINE
  5
5E4
330
1F
100
AcDbEntity
  8
THICK
100
AcDbLine
 10
-76.36798569861482
 20
-28.44
 30
0.0
 11
-76.36690817260467
 21
-28.44
 31
0.0
1001
DBPROPERTIES
1002
{
1000
PbThick
1002
}
  0
LINE
  5
5E5
330
1F
100
AcDbEntity
  8
HIDDEN
100
AcDbLine
 10
-76.39211891180759
 20
-28.44
 30
0.0
 11
-76.38783096178894
 21
-28.44
 31
0.0
1001
DBPROPERTIES
1002
{
1000
PbHidd
1002
}
  0
LINE
  5
5E6
330
1F
100
AcDbEntity
  8
THICK
100
AcDbLine
 10
-82.09999999999906
 20
-28.44
 30
0.0
 11
-76.39211891180759
 21
-28.44
 31
0.0
1001
DBPROPERTIES
1002
{
1000
PbThick
1002
}
  0
LINE
  5
5E7
330
1F
100
AcDbEntity
  8
THICK
100
AcDbLine
 10
-32.60015106201172
 20
-28.44000053405762
 30
0.0
 11
-62.81507873535156
 21
-28.44000053405762
 31
0.0
1001
DBPROPERTIES
1002
{
1000
PbThick
1002
}
  0
LINE
  5
5E8
330
1F
100
AcDbEntity
  8
HIDDEN
100
AcDbLine
 10
-62.81507873535156
 20
-28.44000053405762
 30
0.0
 11
-76.36672973632812
 21
-28.44000053405762
 31
0.0
1001
DBPROPERTIES
1002
{
1000
PbHidd
1002
}
  0
LINE
  5
5E9
330
1F
100
AcDbEntity
  8
THICK
100
AcDbLine
 10
-18.37023837748886
 20
-20.44
 30
0.0
 11
-76.24210839044872
 21
-20.43999999999999
 31
0.0
1001
DBPROPERTIES
1002
{
1000
PbThick
1002
}
  0
ARC
  5
5EA
330
1F
100
AcDbEntity
  8
THICK
100
AcDbCircle
 10
-43.25
 20
-222.2
 30
0.0
 40
4.0
100
AcDbArc
 50
260.1206793498661
 51
270.0000187239684
1001
DBPROPERTIES
1002
{
1000
PbThick
1002
}
  0
LINE
  5
5EB
330
1F
100
AcDbEntity
  8
THICK
100
AcDbLine
 10
-81.92890669539847
 20
-20.44
 30
0.0
 11
-82.1
 21
-20.44
 31
0.0
1001
DBPROPERTIES
1002
{
1000
PbThick
1002
}
  0
LINE
  5
5EC
330
1F
100
AcDbEntity
  8
THICK
100
AcDbLine
 10
-82.0999984741211
 20
-20.44000053405762
 30
0.0
 11
-82.3729476928711
 21
-20.44932556152344
 31
0.0
1001
DBPROPERTIES
1002
{
1000
PbThick
1002
}
  0
LINE
  5
5ED
330
1F
100
AcDbEntity
  8
THICK
100
AcDbLine
 10
-82.3729476928711
 20
-20.44932556152344
 30
0.0
 11
-82.64466094970703
 21
-20.47725677490234
 31
0.0
1001
DBPROPERTIES
1002
{
1000
PbThick
1002
}
  0
LINE
  5
5EE
330
1F
100
AcDbEntity
  8
THICK
100
AcDbLine
 10
-82.64466094970703
 20
-20.47725677490234
 30
0.0
 11
-82.91382598876953
 21
-20.5236644744873
 31
0.0
1001
DBPROPERTIES
1002
{
1000
PbThick
1002
}
  0
LINE
  5
5EF
330
1F
100
AcDbEntity
  8
THICK
100
AcDbLine
 10
-82.91382598876953
 20
-20.5236644744873
 30
0.0
 11
-83.17918395996094
 21
-20.58833122253418
 31
0.0
1001
DBPROPERTIES
1002
{
1000
PbThick
1002
}
  0
LINE
  5
5F0
330
1F
100
AcDbEntity
  8
THICK
100
AcDbLine
 10
-83.17918395996094
 20
-20.58833122253418
 30
0.0
 11
-83.43952178955078
 21
-20.67095565795898
 31
0.0
1001
DBPROPERTIES
1002
{
1000
PbThick
1002
}
  0
LINE
  5
5F1
330
1F
100
AcDbEntity
  8
THICK
100
AcDbLine
 10
-83.43952178955078
 20
-20.67095565795898
 30
0.0
 11
-83.693603515625
 21
-20.77115440368652
 31
0.0
1001
DBPROPERTIES
1002
{
1000
PbThick
1002
}
  0
LINE
  5
5F2
330
1F
100
AcDbEntity
  8
THICK
100
AcDbLine
 10
-83.693603515625
 20
-20.77115440368652
 30
0.0
 11
-83.94026184082031
 21
-20.88845825195312
 31
0.0
1001
DBPROPERTIES
1002
{
1000
PbThick
1002
}
  0
LINE
  5
5F3
330
1F
100
AcDbEntity
  8
THICK
100
AcDbLine
 10
-83.94026184082031
 20
-20.88845825195312
 30
0.0
 11
-84.17833709716797
 21
-21.0223217010498
 31
0.0
1001
DBPROPERTIES
1002
{
1000
PbThick
1002
}
  0
LINE
  5
5F4
330
1F
100
AcDbEntity
  8
THICK
100
AcDbLine
 10
-84.17833709716797
 20
-21.0223217010498
 30
0.0
 11
-84.40672302246094
 21
-21.17212104797363
 31
0.0
1001
DBPROPERTIES
1002
{
1000
PbThick
1002
}
  0
LINE
  5
5F5
330
1F
100
AcDbEntity
  8
THICK
100
AcDbLine
 10
-84.40672302246094
 20
-21.17212104797363
 30
0.0
 11
-84.62435150146484
 21
-21.33715438842773
 31
0.0
1001
DBPROPERTIES
1002
{
1000
PbThick
1002
}
  0
LINE
  5
5F6
330
1F
100
AcDbEntity
  8
THICK
100
AcDbLine
 10
-84.62435150146484
 20
-21.33715438842773
 30
0.0
 11
-84.83021545410156
 21
-21.51665687561035
 31
0.0
1001
DBPROPERTIES
1002
{
1000
PbThick
1002
}
  0
LINE
  5
5F7
330
1F
100
AcDbEntity
  8
THICK
100
AcDbLine
 10
-84.83021545410156
 20
-21.51665687561035
 30
0.0
 11
-85.02334594726562
 21
-21.70978736877441
 31
0.0
1001
DBPROPERTIES
1002
{
1000
PbThick
1002
}
  0
LINE
  5
5F8
330
1F
100
AcDbEntity
  8
THICK
100
AcDbLine
 10
-85.02334594726562
 20
-21.70978736877441
 30
0.0
 11
-85.20284271240234
 21
-21.91564750671387
 31
0.0
1001
DBPROPERTIES
1002
{
1000
PbThick
1002
}
  0
LINE
  5
5F9
330
1F
100
AcDbEntity
  8
THICK
100
AcDbLine
 10
-85.20284271240234
 20
-21.91564750671387
 30
0.0
 11
-85.36788177490234
 21
-22.13327789306641
 31
0.0
1001
DBPROPERTIES
1002
{
1000
PbThick
1002
}
  0
LINE
  5
5FA
330
1F
100
AcDbEntity
  8
THICK
100
AcDbLine
 10
-85.36788177490234
 20
-22.13327789306641
 30
0.0
 11
-85.5176773071289
 21
-22.36166381835938
 31
0.0
1001
DBPROPERTIES
1002
{
1000
PbThick
1002
}
  0
LINE
  5
5FB
330
1F
100
AcDbEntity
  8
THICK
100
AcDbLine
 10
-85.5176773071289
 20
-22.36166381835938
 30
0.0
 11
-85.65154266357422
 21
-22.59973907470703
 31
0.0
1001
DBPROPERTIES
1002
{
1000
PbThick
1002
}
  0
LINE
  5
5FC
330
1F
100
AcDbEntity
  8
THICK
100
AcDbLine
 10
-85.65154266357422
 20
-22.59973907470703
 30
0.0
 11
-85.76884460449219
 21
-22.84639549255371
 31
0.0
1001
DBPROPERTIES
1002
{
1000
PbThick
1002
}
  0
LINE
  5
5FD
330
1F
100
AcDbEntity
  8
THICK
100
AcDbLine
 10
-85.76884460449219
 20
-22.84639549255371
 30
0.0
 11
-85.8690414428711
 21
-23.1004810333252
 31
0.0
1001
DBPROPERTIES
1002
{
1000
PbThick
1002
}
  0
LINE
  5
5FE
330
1F
100
AcDbEntity
  8
THICK
100
AcDbLine
 10
-85.8690414428711
 20
-23.1004810333252
 30
0.0
 11
-85.95166778564453
 21
-23.36081314086914
 31
0.0
1001
DBPROPERTIES
1002
{
1000
PbThick
1002
}
  0
LINE
  5
5FF
330
1F
100
AcDbEntity
  8
THICK
100
AcDbLine
 10
-85.95166778564453
 20
-23.36081314086914
 30
0.0
 11
-86.0163345336914
 21
-23.62617683410645
 31
0.0
1001
DBPROPERTIES
1002
{
1000
PbThick
1002
}
  0
LINE
  5
600
330
1F
100
AcDbEntity
  8
THICK
100
AcDbLine
 10
-86.0163345336914
 20
-23.62617683410645
 30
0.0
 11
-86.062744140625
 21
-23.89533424377441
 31
0.0
1001
DBPROPERTIES
1002
{
1000
PbThick
1002
}
  0
LINE
  5
601
330
1F
100
AcDbEntity
  8
THICK
100
AcDbLine
 10
-86.062744140625
 20
-23.89533424377441
 30
0.0
 11
-86.0906753540039
 21
-24.16703033447266
 31
0.0
1001
DBPROPERTIES
1002
{
1000
PbThick
1002
}
  0
LINE
  5
602
330
1F
100
AcDbEntity
  8
THICK
100
AcDbLine
 10
-86.0906753540039
 20
-24.16703033447266
 30
0.0
 11
-86.0999984741211
 21
-24.44000053405762
 31
0.0
1001
DBPROPERTIES
1002
{
1000
PbThick
1002
}
  0
LINE
  5
603
330
1F
100
AcDbEntity
  8
HIDDEN
100
AcDbLine
 10
-78.0999984741211
 20
-24.44000053405762
 30
0.0
 11
-78.10932159423828
 21
-24.16703033447266
 31
0.0
1001
DBPROPERTIES
1002
{
1000
PbHidd
1002
}
  0
LINE
  5
604
330
1F
100
AcDbEntity
  8
HIDDEN
100
AcDbLine
 10
-78.10932159423828
 20
-24.16703033447266
 30
0.0
 11
-78.13725280761719
 21
-23.89533424377441
 31
0.0
1001
DBPROPERTIES
1002
{
1000
PbHidd
1002
}
  0
LINE
  5
605
330
1F
100
AcDbEntity
  8
HIDDEN
100
AcDbLine
 10
-78.13725280761719
 20
-23.89533424377441
 30
0.0
 11
-78.18366241455078
 21
-23.62617683410645
 31
0.0
1001
DBPROPERTIES
1002
{
1000
PbHidd
1002
}
  0
LINE
  5
606
330
1F
100
AcDbEntity
  8
HIDDEN
100
AcDbLine
 10
-78.18366241455078
 20
-23.62617683410645
 30
0.0
 11
-78.24832916259766
 21
-23.36081314086914
 31
0.0
1001
DBPROPERTIES
1002
{
1000
PbHidd
1002
}
  0
LINE
  5
607
330
1F
100
AcDbEntity
  8
HIDDEN
100
AcDbLine
 10
-78.24832916259766
 20
-23.36081314086914
 30
0.0
 11
-78.3309555053711
 21
-23.1004810333252
 31
0.0
1001
DBPROPERTIES
1002
{
1000
PbHidd
1002
}
  0
LINE
  5
608
330
1F
100
AcDbEntity
  8
HIDDEN
100
AcDbLine
 10
-78.3309555053711
 20
-23.1004810333252
 30
0.0
 11
-78.43115234375
 21
-22.84639549255371
 31
0.0
1001
DBPROPERTIES
1002
{
1000
PbHidd
1002
}
  0
LINE
  5
609
330
1F
100
AcDbEntity
  8
HIDDEN
100
AcDbLine
 10
-78.43115234375
 20
-22.84639549255371
 30
0.0
 11
-78.5484619140625
 21
-22.59973907470703
 31
0.0
1001
DBPROPERTIES
1002
{
1000
PbHidd
1002
}
  0
LINE
  5
60A
330
1F
100
AcDbEntity
  8
HIDDEN
100
AcDbLine
 10
-78.5484619140625
 20
-22.59973907470703
 30
0.0
 11
-78.68231964111328
 21
-22.36166381835938
 31
0.0
1001
DBPROPERTIES
1002
{
1000
PbHidd
1002
}
  0
LINE
  5
60B
330
1F
100
AcDbEntity
  8
HIDDEN
100
AcDbLine
 10
-78.68231964111328
 20
-22.36166381835938
 30
0.0
 11
-78.83212280273438
 21
-22.13327789306641
 31
0.0
1001
DBPROPERTIES
1002
{
1000
PbHidd
1002
}
  0
LINE
  5
60C
330
1F
100
AcDbEntity
  8
HIDDEN
100
AcDbLine
 10
-78.83212280273438
 20
-22.13327789306641
 30
0.0
 11
-78.99715423583984
 21
-21.91564750671387
 31
0.0
1001
DBPROPERTIES
1002
{
1000
PbHidd
1002
}
  0
LINE
  5
60D
330
1F
100
AcDbEntity
  8
HIDDEN
100
AcDbLine
 10
-78.99715423583984
 20
-21.91564750671387
 30
0.0
 11
-79.1766586303711
 21
-21.70978736877441
 31
0.0
1001
DBPROPERTIES
1002
{
1000
PbHidd
1002
}
  0
LINE
  5
60E
330
1F
100
AcDbEntity
  8
HIDDEN
100
AcDbLine
 10
-79.1766586303711
 20
-21.70978736877441
 30
0.0
 11
-79.36978912353516
 21
-21.51665687561035
 31
0.0
1001
DBPROPERTIES
1002
{
1000
PbHidd
1002
}
  0
LINE
  5
60F
330
1F
100
AcDbEntity
  8
HIDDEN
100
AcDbLine
 10
-79.36978912353516
 20
-21.51665687561035
 30
0.0
 11
-79.57564544677734
 21
-21.33715438842773
 31
0.0
1001
DBPROPERTIES
1002
{
1000
PbHidd
1002
}
  0
LINE
  5
610
330
1F
100
AcDbEntity
  8
HIDDEN
100
AcDbLine
 10
-79.57564544677734
 20
-21.33715438842773
 30
0.0
 11
-79.79328155517578
 21
-21.17212104797363
 31
0.0
1001
DBPROPERTIES
1002
{
1000
PbHidd
1002
}
  0
LINE
  5
611
330
1F
100
AcDbEntity
  8
HIDDEN
100
AcDbLine
 10
-79.79328155517578
 20
-21.17212104797363
 30
0.0
 11
-80.02166748046875
 21
-21.0223217010498
 31
0.0
1001
DBPROPERTIES
1002
{
1000
PbHidd
1002
}
  0
LINE
  5
612
330
1F
100
AcDbEntity
  8
HIDDEN
100
AcDbLine
 10
-80.02166748046875
 20
-21.0223217010498
 30
0.0
 11
-80.2597427368164
 21
-20.88845825195312
 31
0.0
1001
DBPROPERTIES
1002
{
1000
PbHidd
1002
}
  0
LINE
  5
613
330
1F
100
AcDbEntity
  8
HIDDEN
100
AcDbLine
 10
-80.2597427368164
 20
-20.88845825195312
 30
0.0
 11
-80.50639343261719
 21
-20.77115440368652
 31
0.0
1001
DBPROPERTIES
1002
{
1000
PbHidd
1002
}
  0
LINE
  5
614
330
1F
100
AcDbEntity
  8
HIDDEN
100
AcDbLine
 10
-80.50639343261719
 20
-20.77115440368652
 30
0.0
 11
-80.76048278808594
 21
-20.67095565795898
 31
0.0
1001
DBPROPERTIES
1002
{
1000
PbHidd
1002
}
  0
LINE
  5
615
330
1F
100
AcDbEntity
  8
HIDDEN
100
AcDbLine
 10
-80.76048278808594
 20
-20.67095565795898
 30
0.0
 11
-81.02081298828125
 21
-20.58833122253418
 31
0.0
1001
DBPROPERTIES
1002
{
1000
PbHidd
1002
}
  0
LINE
  5
616
330
1F
100
AcDbEntity
  8
HIDDEN
100
AcDbLine
 10
-81.02081298828125
 20
-20.58833122253418
 30
0.0
 11
-81.28617858886719
 21
-20.5236644744873
 31
0.0
1001
DBPROPERTIES
1002
{
1000
PbHidd
1002
}
  0
LINE
  5
617
330
1F
100
AcDbEntity
  8
HIDDEN
100
AcDbLine
 10
-81.28617858886719
 20
-20.5236644744873
 30
0.0
 11
-81.55532836914062
 21
-20.47725677490234
 31
0.0
1001
DBPROPERTIES
1002
{
1000
PbHidd
1002
}
  0
LINE
  5
618
330
1F
100
AcDbEntity
  8
HIDDEN
100
AcDbLine
 10
-81.55532836914062
 20
-20.47725677490234
 30
0.0
 11
-81.82701110839844
 21
-20.44932556152344
 31
0.0
1001
DBPROPERTIES
1002
{
1000
PbHidd
1002
}
  0
LINE
  5
619
330
1F
100
AcDbEntity
  8
HIDDEN
100
AcDbLine
 10
-81.82701110839844
 20
-20.44932556152344
 30
0.0
 11
-82.0999984741211
 21
-20.44000053405762
 31
0.0
1001
DBPROPERTIES
1002
{
1000
PbHidd
1002
}
  0
LINE
  5
61A
330
1F
100
AcDbEntity
  8
THICK
100
AcDbLine
 10
-76.24213562373095
 20
-20.44
 30
0.0
 11
-76.24609091713779
 21
-20.44
 31
0.0
1001
DBPROPERTIES
1002
{
1000
PbThick
1002
}
  0
LINE
  5
61B
330
1F
100
AcDbEntity
  8
THICK
100
AcDbLine
 10
-76.26995555076276
 20
-20.44
 30
0.0
 11
-76.37167170934445
 21
-20.44
 31
0.0
1001
DBPROPERTIES
1002
{
1000
PbThick
1002
}
  0
LINE
  5
61C
330
1F
100
AcDbEntity
  8
THICK
100
AcDbLine
 10
-76.3922287883512
 20
-20.44
 30
0.0
 11
-82.09999999999906
 21
-20.44
 31
0.0
1001
DBPROPERTIES
1002
{
1000
PbThick
1002
}
  0
LINE
  5
61D
330
1F
100
AcDbEntity
  8
THICK
100
AcDbLine
 10
-76.39213562011719
 20
-28.44000053405762
 30
0.0
 11
-75.80865478515625
 21
-28.46838188171387
 31
0.0
1001
DBPROPERTIES
1002
{
1000
PbThick
1002
}
  0
LINE
  5
61E
330
1F
100
AcDbEntity
  8
THICK
100
AcDbLine
 10
-75.80865478515625
 20
-28.46838188171387
 30
0.0
 11
-75.21817779541016
 21
-28.55503845214844
 31
0.0
1001
DBPROPERTIES
1002
{
1000
PbThick
1002
}
  0
LINE
  5
61F
330
1F
100
AcDbEntity
  8
THICK
100
AcDbLine
 10
-75.21817779541016
 20
-28.55503845214844
 30
0.0
 11
-74.5967788696289
 21
-28.70969009399414
 31
0.0
1001
DBPROPERTIES
1002
{
1000
PbThick
1002
}
  0
LINE
  5
620
330
1F
100
AcDbEntity
  8
THICK
100
AcDbLine
 10
-74.5967788696289
 20
-28.70969009399414
 30
0.0
 11
-73.95581817626953
 21
-28.93851470947266
 31
0.0
1001
DBPROPERTIES
1002
{
1000
PbThick
1002
}
  0
LINE
  5
621
330
1F
100
AcDbEntity
  8
THICK
100
AcDbLine
 10
-73.95581817626953
 20
-28.93851470947266
 30
0.0
 11
-73.60285186767578
 21
-29.09524154663086
 31
0.0
1001
DBPROPERTIES
1002
{
1000
PbThick
1002
}
  0
LINE
  5
622
330
1F
100
AcDbEntity
  8
THICK
100
AcDbLine
 10
-73.60285186767578
 20
-29.09524154663086
 30
0.0
 11
-73.24313354492188
 21
-29.27799797058105
 31
0.0
1001
DBPROPERTIES
1002
{
1000
PbThick
1002
}
  0
LINE
  5
623
330
1F
100
AcDbEntity
  8
THICK
100
AcDbLine
 10
-73.24313354492188
 20
-29.27799797058105
 30
0.0
 11
-72.87623596191406
 21
-29.48898315429688
 31
0.0
1001
DBPROPERTIES
1002
{
1000
PbThick
1002
}
  0
LINE
  5
624
330
1F
100
AcDbEntity
  8
THICK
100
AcDbLine
 10
-72.87623596191406
 20
-29.48898315429688
 30
0.0
 11
-72.50276947021484
 21
-29.73007965087891
 31
0.0
1001
DBPROPERTIES
1002
{
1000
PbThick
1002
}
  0
LINE
  5
625
330
1F
100
AcDbEntity
  8
THICK
100
AcDbLine
 10
-72.50276947021484
 20
-29.73007965087891
 30
0.0
 11
-71.8509292602539
 21
-30.21784591674805
 31
0.0
1001
DBPROPERTIES
1002
{
1000
PbThick
1002
}
  0
LINE
  5
626
330
1F
100
AcDbEntity
  8
THICK
100
AcDbLine
 10
-71.8509292602539
 20
-30.21784591674805
 30
0.0
 11
-71.29283905029297
 21
-30.70812606811523
 31
0.0
1001
DBPROPERTIES
1002
{
1000
PbThick
1002
}
  0
LINE
  5
627
330
1F
100
AcDbEntity
  8
THICK
100
AcDbLine
 10
-71.29283905029297
 20
-30.70812606811523
 30
0.0
 11
-70.73085021972656
 21
-31.27663040161133
 31
0.0
1001
DBPROPERTIES
1002
{
1000
PbThick
1002
}
  0
LINE
  5
628
330
1F
100
AcDbEntity
  8
THICK
100
AcDbLine
 10
-70.73085021972656
 20
-31.27663040161133
 30
0.0
 11
-70.13709259033203
 21
-31.96926116943359
 31
0.0
1001
DBPROPERTIES
1002
{
1000
PbThick
1002
}
  0
LINE
  5
629
330
1F
100
AcDbEntity
  8
THICK
100
AcDbLine
 10
-70.13709259033203
 20
-31.96926116943359
 30
0.0
 11
-69.55355072021484
 21
-32.75715637207031
 31
0.0
1001
DBPROPERTIES
1002
{
1000
PbThick
1002
}
  0
LINE
  5
62A
330
1F
100
AcDbEntity
  8
THICK
100
AcDbLine
 10
-69.55355072021484
 20
-32.75715637207031
 30
0.0
 11
-68.98970794677734
 21
-33.64048004150391
 31
0.0
1001
DBPROPERTIES
1002
{
1000
PbThick
1002
}
  0
LINE
  5
62B
330
1F
100
AcDbEntity
  8
THICK
100
AcDbLine
 10
-68.98970794677734
 20
-33.64048004150391
 30
0.0
 11
-68.45521545410156
 21
-34.61743545532227
 31
0.0
1001
DBPROPERTIES
1002
{
1000
PbThick
1002
}
  0
LINE
  5
62C
330
1F
100
AcDbEntity
  8
THICK
100
AcDbLine
 10
-68.45521545410156
 20
-34.61743545532227
 30
0.0
 11
-68.1429214477539
 21
-35.26823043823242
 31
0.0
1001
DBPROPERTIES
1002
{
1000
PbThick
1002
}
  0
LINE
  5
62D
330
1F
100
AcDbEntity
  8
THICK
100
AcDbLine
 10
-68.1429214477539
 20
-35.26823043823242
 30
0.0
 11
-67.84799194335938
 21
-35.95180511474609
 31
0.0
1001
DBPROPERTIES
1002
{
1000
PbThick
1002
}
  0
LINE
  5
62E
330
1F
100
AcDbEntity
  8
THICK
100
AcDbLine
 10
-67.84799194335938
 20
-35.95180511474609
 30
0.0
 11
-67.49266815185547
 21
-36.89045715332031
 31
0.0
1001
DBPROPERTIES
1002
{
1000
PbThick
1002
}
  0
LINE
  5
62F
330
1F
100
AcDbEntity
  8
THICK
100
AcDbLine
 10
-67.49266815185547
 20
-36.89045715332031
 30
0.0
 11
-67.17532348632812
 21
-37.87633895874023
 31
0.0
1001
DBPROPERTIES
1002
{
1000
PbThick
1002
}
  0
LINE
  5
630
330
1F
100
AcDbEntity
  8
THICK
100
AcDbLine
 10
-67.17532348632812
 20
-37.87633895874023
 30
0.0
 11
-66.89987182617188
 21
-38.9040412902832
 31
0.0
1001
DBPROPERTIES
1002
{
1000
PbThick
1002
}
  0
LINE
  5
631
330
1F
100
AcDbEntity
  8
THICK
100
AcDbLine
 10
-66.89987182617188
 20
-38.9040412902832
 30
0.0
 11
-66.66973876953125
 21
-39.9674072265625
 31
0.0
1001
DBPROPERTIES
1002
{
1000
PbThick
1002
}
  0
LINE
  5
632
330
1F
100
AcDbEntity
  8
THICK
100
AcDbLine
 10
-66.66973876953125
 20
-39.9674072265625
 30
0.0
 11
-66.48778533935547
 21
-41.05971908569336
 31
0.0
1001
DBPROPERTIES
1002
{
1000
PbThick
1002
}
  0
LINE
  5
633
330
1F
100
AcDbEntity
  8
THICK
100
AcDbLine
 10
-66.48778533935547
 20
-41.05971908569336
 30
0.0
 11
-66.35621643066406
 21
-42.17409515380859
 31
0.0
1001
DBPROPERTIES
1002
{
1000
PbThick
1002
}
  0
LINE
  5
634
330
1F
100
AcDbEntity
  8
THICK
100
AcDbLine
 10
-66.35621643066406
 20
-42.17409515380859
 30
0.0
 11
-66.2766342163086
 21
-43.30331039428711
 31
0.0
1001
DBPROPERTIES
1002
{
1000
PbThick
1002
}
  0
LINE
  5
635
330
1F
100
AcDbEntity
  8
THICK
100
AcDbLine
 10
-66.2766342163086
 20
-43.30331039428711
 30
0.0
 11
-66.25
 21
-44.43999862670898
 31
0.0
1001
DBPROPERTIES
1002
{
1000
PbThick
1002
}
  0
ARC
  5
636
330
1F
100
AcDbEntity
  8
THICK
100
AcDbCircle
 10
-76.24999999999999
 20
-24.44
 30
0.0
 40
4.0
100
AcDbArc
 50
87.66036541539445
 51
89.99998127603165
1001
DBPROPERTIES
1002
{
1000
PbThick
1002
}
  0
LINE
  5
637
330
1F
100
AcDbEntity
  8
HIDDEN
100
AcDbLine
 10
-76.08670806884766
 20
-20.44333457946777
 30
0.0
 11
-76.04167175292969
 21
-20.4454288482666
 31
0.0
1001
DBPROPERTIES
1002
{
1000
PbHidd
1002
}
  0
LINE
  5
638
330
1F
100
AcDbEntity
  8
THICK
100
AcDbLine
 10
-58.25
 20
-44.43999862670898
 30
0.0
 11
-58.25
 21
-46.91901016235352
 31
0.0
1001
DBPROPERTIES
1002
{
1000
PbThick
1002
}
  0
LINE
  5
639
330
1F
100
AcDbEntity
  8
HIDDEN
100
AcDbLine
 10
-58.25
 20
-46.91901016235352
 30
0.0
 11
-58.25
 21
-50.5
 31
0.0
1001
DBPROPERTIES
1002
{
1000
PbHidd
1002
}
  0
LINE
  5
63A
330
1F
100
AcDbEntity
  8
THICK
100
AcDbLine
 10
-58.25
 20
-50.5
 30
0.0
 11
-58.25
 21
-70.42567443847656
 31
0.0
1001
DBPROPERTIES
1002
{
1000
PbThick
1002
}
  0
LINE
  5
63B
330
1F
100
AcDbEntity
  8
HIDDEN
100
AcDbLine
 10
-58.25
 20
-70.42567443847656
 30
0.0
 11
-58.25
 21
-72.5250015258789
 31
0.0
1001
DBPROPERTIES
1002
{
1000
PbHidd
1002
}
  0
LINE
  5
63C
330
1F
100
AcDbEntity
  8
THICK
100
AcDbLine
 10
-58.25
 20
-72.5250015258789
 30
0.0
 11
-58.25
 21
-95.67567443847656
 31
0.0
1001
DBPROPERTIES
1002
{
1000
PbThick
1002
}
  0
LINE
  5
63D
330
1F
100
AcDbEntity
  8
HIDDEN
100
AcDbLine
 10
-58.25
 20
-95.67567443847656
 30
0.0
 11
-58.25
 21
-97.7750015258789
 31
0.0
1001
DBPROPERTIES
1002
{
1000
PbHidd
1002
}
  0
LINE
  5
63E
330
1F
100
AcDbEntity
  8
THICK
100
AcDbLine
 10
-58.25
 20
-97.7750015258789
 30
0.0
 11
-58.25
 21
-120.9256744384766
 31
0.0
1001
DBPROPERTIES
1002
{
1000
PbThick
1002
}
  0
LINE
  5
63F
330
1F
100
AcDbEntity
  8
HIDDEN
100
AcDbLine
 10
-58.25
 20
-120.9256744384766
 30
0.0
 11
-58.25
 21
-123.0250015258789
 31
0.0
1001
DBPROPERTIES
1002
{
1000
PbHidd
1002
}
  0
LINE
  5
640
330
1F
100
AcDbEntity
  8
THICK
100
AcDbLine
 10
-58.25
 20
-123.0250015258789
 30
0.0
 11
-58.25
 21
-146.1756744384766
 31
0.0
1001
DBPROPERTIES
1002
{
1000
PbThick
1002
}
  0
LINE
  5
641
330
1F
100
AcDbEntity
  8
HIDDEN
100
AcDbLine
 10
-58.25
 20
-146.1756744384766
 30
0.0
 11
-58.25
 21
-148.2749938964844
 31
0.0
1001
DBPROPERTIES
1002
{
1000
PbHidd
1002
}
  0
LINE
  5
642
330
1F
100
AcDbEntity
  8
THICK
100
AcDbLine
 10
-58.25
 20
-148.2749938964844
 30
0.0
 11
-58.25
 21
-171.4256744384766
 31
0.0
1001
DBPROPERTIES
1002
{
1000
PbThick
1002
}
  0
LINE
  5
643
330
1F
100
AcDbEntity
  8
HIDDEN
100
AcDbLine
 10
-58.25
 20
-171.4256744384766
 30
0.0
 11
-58.25
 21
-173.5249938964844
 31
0.0
1001
DBPROPERTIES
1002
{
1000
PbHidd
1002
}
  0
LINE
  5
644
330
1F
100
AcDbEntity
  8
THICK
100
AcDbLine
 10
-58.25
 20
-173.5249938964844
 30
0.0
 11
-58.25
 21
-202.1999969482422
 31
0.0
1001
DBPROPERTIES
1002
{
1000
PbThick
1002
}
  0
LINE
  5
645
330
1F
100
AcDbEntity
  8
THICK
100
AcDbLine
 10
62.15000052596211
 20
-26.24057064566161
 30
0.0
 11
47.0
 21
0.0
 31
0.0
1001
DBPROPERTIES
1002
{
1000
PbThick
1002
}
  0
LINE
  5
646
330
1F
100
AcDbEntity
  8
THICK
100
AcDbLine
 10
-197.3999938964844
 20
-202.0
 30
0.0
 11
-197.3999938964844
 21
-186.8000030517578
 31
0.0
1001
DBPROPERTIES
1002
{
1000
PbThick
1002
}
  0
LINE
  5
647
330
1F
100
AcDbEntity
  8
HIDDEN
100
AcDbLine
 10
-57.25
 20
-46.44854736328125
 30
0.0
 11
-57.25
 21
-50.5
 31
0.0
1001
DBPROPERTIES
1002
{
1000
PbHidd
1002
}
  0
LINE
  5
648
330
1F
100
AcDbEntity
  8
HIDDEN
100
AcDbLine
 10
-57.25
 20
-69.16188049316406
 30
0.0
 11
-57.25
 21
-72.5250015258789
 31
0.0
1001
DBPROPERTIES
1002
{
1000
PbHidd
1002
}
  0
LINE
  5
649
330
1F
100
AcDbEntity
  8
HIDDEN
100
AcDbLine
 10
-57.25
 20
-94.41188049316406
 30
0.0
 11
-57.25
 21
-97.7750015258789
 31
0.0
1001
DBPROPERTIES
1002
{
1000
PbHidd
1002
}
  0
LINE
  5
64A
330
1F
100
AcDbEntity
  8
HIDDEN
100
AcDbLine
 10
-57.25
 20
-119.6618804931641
 30
0.0
 11
-57.25
 21
-123.0250015258789
 31
0.0
1001
DBPROPERTIES
1002
{
1000
PbHidd
1002
}
  0
LINE
  5
64B
330
1F
100
AcDbEntity
  8
HIDDEN
100
AcDbLine
 10
-57.25
 20
-144.9118804931641
 30
0.0
 11
-57.25
 21
-148.2749938964844
 31
0.0
1001
DBPROPERTIES
1002
{
1000
PbHidd
1002
}
  0
LINE
  5
64C
330
1F
100
AcDbEntity
  8
HIDDEN
100
AcDbLine
 10
-57.25
 20
-170.1618804931641
 30
0.0
 11
-57.25
 21
-173.5249938964844
 31
0.0
1001
DBPROPERTIES
1002
{
1000
PbHidd
1002
}
  0
LINE
  5
64D
330
1F
100
AcDbEntity
  8
THICK
100
AcDbLine
 10
-188.0
 20
-181.8000030517578
 30
0.0
 11
-188.0
 21
-173.5249938964844
 31
0.0
1001
DBPROPERTIES
1002
{
1000
PbThick
1002
}
  0
LINE
  5
64E
330
1F
100
AcDbEntity
  8
THICK
100
AcDbLine
 10
216.1999952645137
 20
-173.5249981058055
 30
0.0
 11
192.6999973691743
 21
-164.1249989476697
 31
0.0
1001
DBPROPERTIES
1002
{
1000
PbThick
1002
}
  0
LINE
  5
64F
330
1F
100
AcDbEntity
  8
THICK
100
AcDbLine
 10
216.1999952645137
 20
-148.2749981058055
 30
0.0
 11
192.6999973691743
 21
-138.8749989476697
 31
0.0
1001
DBPROPERTIES
1002
{
1000
PbThick
1002
}
  0
LINE
  5
650
330
1F
100
AcDbEntity
  8
THICK
100
AcDbLine
 10
-188.0
 20
-164.125
 30
0.0
 11
-188.0
 21
-148.2749938964844
 31
0.0
1001
DBPROPERTIES
1002
{
1000
PbThick
1002
}
  0
LINE
  5
651
330
1F
100
AcDbEntity
  8
THICK
100
AcDbLine
 10
216.1999978953394
 20
-123.0249991581358
 30
0.0
 11
192.6999973691743
 21
-113.6249989476697
 31
0.0
1001
DBPROPERTIES
1002
{
1000
PbThick
1002
}
  0
LINE
  5
652
330
1F
100
AcDbEntity
  8
THICK
100
AcDbLine
 10
-188.0
 20
-138.875
 30
0.0
 11
-188.0
 21
-123.0250015258789
 31
0.0
1001
DBPROPERTIES
1002
{
1000
PbThick
1002
}
  0
LINE
  5
653
330
1F
100
AcDbEntity
  8
THICK
100
AcDbLine
 10
216.1999978953394
 20
-97.77499915813577
 30
0.0
 11
192.6999973691743
 21
-88.37499894766972
 31
0.0
1001
DBPROPERTIES
1002
{
1000
PbThick
1002
}
  0
LINE
  5
654
330
1F
100
AcDbEntity
  8
THICK
100
AcDbLine
 10
-188.0
 20
-113.625
 30
0.0
 11
-188.0
 21
-97.7750015258789
 31
0.0
1001
DBPROPERTIES
1002
{
1000
PbThick
1002
}
  0
LINE
  5
655
330
1F
100
AcDbEntity
  8
THICK
100
AcDbLine
 10
216.1999978953394
 20
-72.52499915813576
 30
0.0
 11
192.6999973691743
 21
-63.1249989476697
 31
0.0
1001
DBPROPERTIES
1002
{
1000
PbThick
1002
}
  0
LINE
  5
656
330
1F
100
AcDbEntity
  8
THICK
100
AcDbLine
 10
-188.0
 20
-88.375
 30
0.0
 11
-188.0
 21
-72.5250015258789
 31
0.0
1001
DBPROPERTIES
1002
{
1000
PbThick
1002
}
  0
LINE
  5
657
330
1F
100
AcDbEntity
  8
THICK
100
AcDbLine
 10
235.0
 20
-50.49999999999999
 30
0.0
 11
85.65000160807605
 21
-28.2605699741241
 31
0.0
1001
DBPROPERTIES
1002
{
1000
PbThick
1002
}
  0
LINE
  5
658
330
1F
100
AcDbEntity
  8
THICK
100
AcDbLine
 10
85.6500015258789
 20
-26.24057006835938
 30
0.0
 11
85.6500015258789
 21
-28.26057052612305
 31
0.0
1001
DBPROPERTIES
1002
{
1000
PbThick
1002
}
  0
LINE
  5
659
330
1F
100
AcDbEntity
  8
THICK
100
AcDbLine
 10
-188.0
 20
-63.125
 30
0.0
 11
-188.0
 21
-50.5
 31
0.0
1001
DBPROPERTIES
1002
{
1000
PbThick
1002
}
  0
LINE
  5
65A
330
1F
100
AcDbEntity
  8
THICK
100
AcDbLine
 10
-157.0
 20
-262.2000122070312
 30
0.0
 11
-157.0
 21
-202.0
 31
0.0
1001
DBPROPERTIES
1002
{
1000
PbThick
1002
}
  0
LINE
  5
65B
330
1F
100
AcDbEntity
  8
THICK
100
AcDbLine
 10
-157.0
 20
-276.6000061035156
 30
0.0
 11
-157.0
 21
-270.7999877929688
 31
0.0
1001
DBPROPERTIES
1002
{
1000
PbThick
1002
}
  0
LINE
  5
65C
330
1F
100
AcDbEntity
  8
THICK
100
AcDbLine
 10
-157.0
 20
-288.0
 30
0.0
 11
-157.0
 21
-285.2000122070312
 31
0.0
1001
DBPROPERTIES
1002
{
1000
PbThick
1002
}
  0
ENDSEC
  0
SECTION
  2
OBJECTS
  0
DICTIONARY
  5
C
330
0
100
AcDbDictionary
  3
ACAD_GROUP
350
D
  3
ACAD_LAYOUT
350
1A
  3
ACAD_MATERIAL
350
43
  3
ACAD_MLEADERSTYLE
350
6B
  3
ACAD_MLINESTYLE
350
17
  3
ACAD_PLOTSETTINGS
350
19
  3
ACAD_SCALELIST
350
47
  3
ACAD_VISUALSTYLE
350
2A
  3
ACDBVARIABLEDICTIONARY
350
65D
1001
ACAD
1000
TREAT_AS_HARD
1070
     0
  0
DICTIONARY
  5
D
102
{ACAD_REACTORS
330
C
102
}
330
C
100
AcDbDictionary
1001
ACAD
1000
TREAT_AS_HARD
1070
     0
  0
DICTIONARY
  5
1A
102
{ACAD_REACTORS
330
C
102
}
330
C
100
AcDbDictionary
1001
ACAD
1000
TREAT_AS_HARD
1070
     0
  0
DICTIONARY
  5
43
102
{ACAD_REACTORS
330
C
102
}
330
C
100
AcDbDictionary
  3
BYBLOCK
350
45
  3
BYLAYER
350
44
  3
GLOBAL
350
46
1001
ACAD
1000
TREAT_AS_HARD
1070
     0
  0
DICTIONARY
  5
6B
102
{ACAD_REACTORS
330
C
102
}
330
C
100
AcDbDictionary
  3
STANDARD
350
6C
1001
ACAD
1000
TREAT_AS_HARD
1070
     0
  0
DICTIONARY
  5
17
102
{ACAD_REACTORS
330
C
102
}
330
C
100
AcDbDictionary
  3
STANDARD
350
18
1001
ACAD
1000
TREAT_AS_HARD
1070
     0
  0
DICTIONARY
  5
19
102
{ACAD_REACTORS
330
C
102
}
330
C
100
AcDbDictionary
1001
ACAD
1000
TREAT_AS_HARD
1070
     0
  0
DICTIONARY
  5
47
102
{ACAD_REACTORS
330
C
102
}
330
C
100
AcDbDictionary
  3
A0
350
48
  3
A1
350
49
  3
A2
350
4A
  3
A3
350
4B
  3
A4
350
4C
  3
A5
350
4D
  3
A6
350
4E
  3
A7
350
4F
  3
A8
350
50
  3
A9
350
51
  3
B0
350
52
  3
B1
350
53
  3
B2
350
54
  3
B3
350
55
  3
B4
350
56
  3
B5
350
57
  3
B6
350
58
  3
B7
350
59
  3
B8
350
5A
  3
B9
350
5B
  3
C0
350
5C
  3
C1
350
5D
  3
C2
350
5E
  3
C3
350
5F
  3
C4
350
60
  3
C5
350
61
  3
C6
350
62
  3
C7
350
63
  3
C8
350
64
  3
C9
350
65
  3
D0
350
66
  3
D1
350
67
  3
D2
350
68
1001
ACAD
1000
TREAT_AS_HARD
1070
     0
  0
DICTIONARY
  5
2A
102
{ACAD_REACTORS
330
C
102
}
330
C
100
AcDbDictionary
  3
2DWIREFRAME
350
2F
  3
BASIC
350
32
  3
BRIGHTEN
350
36
  3
COLORCHANGE
350
3A
  3
CONCEPTUAL
350
34
  3
DIM
350
35
  3
EDGECOLOROFF
350
3D
  3
FACEPATTERN
350
39
  3
FLAT
350
2B
  3
FLATWITHEDGES
350
2C
  3
GOURAUD
350
2D
  3
GOURAUDWITHEDGES
350
2E
  3
HIDDEN
350
31
  3
JITTEROFF
350
3B
  3
LINEPATTERN
350
38
  3
OVERHANGOFF
350
3C
  3
REALISTIC
350
33
  3
SHADED
350
42
  3
SHADED_WITH_EDGES
350
41
  3
SHADES_OF_GRAY
350
3E
  3
SKETCHY
350
3F
  3
THICKEN
350
37
  3
WIREFRAME
350
30
  3
X-RAY
350
40
1001
ACAD
1000
TREAT_AS_HARD
1070
     0
  0
DICTIONARY
  5
65D
102
{ACAD_REACTORS
330
C
102
}
330
C
100
AcDbDictionary
  3
CANNOSCALE
350
668
  3
CENTEREXE
350
664
  3
CENTERLTYPEFILE
350
665
  3
CMLEADERSTYLE
350
65F
  3
CTABLESTYLE
350
65E
  3
DIMASSOC
350
666
  3
HIDETEXT
350
667
  3
MSLTSCALE
350
669
  3
PSOLHEIGHT
350
661
  3
PSOLWIDTH
350
660
1001
ACAD
1000
TREAT_AS_HARD
1070
     0
  0
MATERIAL
  5
45
102
{ACAD_REACTORS
330
43
102
}
102
{ACAD_XDICTIONARY
360
66C
102
}
330
43
100
AcDbMaterial
  1
BYBLOCK
  0
MATERIAL
  5
44
102
{ACAD_REACTORS
330
43
102
}
102
{ACAD_XDICTIONARY
360
66A
102
}
330
43
100
AcDbMaterial
  1
BYLAYER
  0
MATERIAL
  5
46
102
{ACAD_REACTORS
330
43
102
}
102
{ACAD_XDICTIONARY
360
66E
102
}
330
43
100
AcDbMaterial
  1
GLOBAL
  0
ACAD_PROXY_OBJECT
  5
6C
102
{ACAD_REACTORS
330
6B
102
}
330
6B
100
AcDbZombieObject
 90
      499
 91
      505
 93
      610
310
40901902A4063FBFFFFFE0000000000000020400000000000020404214DD185B99185C990000000000000104090141901A00000000000004100000000000000041025764000000000000039000
340
14
340
0
340
11
340
0
 94
        0
1001
ACAD_MLEADERVER
1070
     2
  0
MLINESTYLE
  5
18
102
{ACAD_REACTORS
330
17
102
}
330
17
100
AcDbMlineStyle
  2
Standard
 70
     0
  3

 62
   256
 51
90.0
 52
90.0
 71
     2
 49
0.5
 62
   256
  6
BYLAYER
 49
-0.5
 62
   256
  6
BYLAYER
  0
ACAD_PROXY_OBJECT
  5
48
102
{ACAD_REACTORS
330
47
102
}
330
47
100
AcDbZombieObject
 90
      499
 91
      503
 93
       41
310
903313A31580
  0
ACAD_PROXY_OBJECT
  5
49
102
{ACAD_REACTORS
330
47
102
}
330
47
100
AcDbZombieObject
 90
      499
 91
      503
 93
      105
310
903313A324000000000000004000
  0
ACAD_PROXY_OBJECT
  5
4A
102
{ACAD_REACTORS
330
47
102
}
330
47
100
AcDbZombieObject
 90
      499
 91
      503
 93
      105
310
903313A344000000000000104000
  0
ACAD_PROXY_OBJECT
  5
4B
102
{ACAD_REACTORS
330
47
102
}
330
47
100
AcDbZombieObject
 90
      499
 91
      503
 93
      105
310
903313A354000000000000144000
  0
ACAD_PROXY_OBJECT
  5
4C
102
{ACAD_REACTORS
330
47
102
}
330
47
100
AcDbZombieObject
 90
      499
 91
      503
 93
      105
310
903313A384000000000000204000
  0
ACAD_PROXY_OBJECT
  5
4D
102
{ACAD_REACTORS
330
47
102
}
330
47
100
AcDbZombieObject
 90
      499
 91
      503
 93
      113
310
904313A31304000000000000244000
  0
ACAD_PROXY_OBJECT
  5
4E
102
{ACAD_REACTORS
330
47
102
}
330
47
100
AcDbZombieObject
 90
      499
 91
      503
 93
      113
310
904313A31364000000000000304000
  0
ACAD_PROXY_OBJECT
  5
4F
102
{ACAD_REACTORS
330
47
102
}
330
47
100
AcDbZombieObject
 90
      499
 91
      503
 93
      113
310
904313A32304000000000000344000
  0
ACAD_PROXY_OBJECT
  5
50
102
{ACAD_REACTORS
330
47
102
}
330
47
100
AcDbZombieObject
 90
      499
 91
      503
 93
      113
310
904313A333040000000000003E4000
  0
ACAD_PROXY_OBJECT
  5
51
102
{ACAD_REACTORS
330
47
102
}
330
47
100
AcDbZombieObject
 90
      499
 91
      503
 93
      113
310
904313A34304000000000000444000
  0
ACAD_PROXY_OBJECT
  5
52
102
{ACAD_REACTORS
330
47
102
}
330
47
100
AcDbZombieObject
 90
      499
 91
      503
 93
      113
310
904313A35304000000000000494000
  0
ACAD_PROXY_OBJECT
  5
53
102
{ACAD_REACTORS
330
47
102
}
330
47
100
AcDbZombieObject
 90
      499
 91
      503
 93
      121
310
905313A3130304000000000000594000
  0
ACAD_PROXY_OBJECT
  5
54
102
{ACAD_REACTORS
330
47
102
}
330
47
100
AcDbZombieObject
 90
      499
 91
      503
 93
      105
310
903323A310000000000000010100
  0
ACAD_PROXY_OBJECT
  5
55
102
{ACAD_REACTORS
330
47
102
}
330
47
100
AcDbZombieObject
 90
      499
 91
      503
 93
      105
310
903343A310000000000000410100
  0
ACAD_PROXY_OBJECT
  5
56
102
{ACAD_REACTORS
330
47
102
}
330
47
100
AcDbZombieObject
 90
      499
 91
      503
 93
      105
310
903383A310000000000000810100
  0
ACAD_PROXY_OBJECT
  5
57
102
{ACAD_REACTORS
330
47
102
}
330
47
100
AcDbZombieObject
 90
      499
 91
      503
 93
      113
310
90431303A310000000000000910100
  0
ACAD_PROXY_OBJECT
  5
58
102
{ACAD_REACTORS
330
47
102
}
330
47
100
AcDbZombieObject
 90
      499
 91
      503
 93
      121
310
9053130303A310000000000001650100
  0
ACAD_PROXY_OBJECT
  5
59
102
{ACAD_REACTORS
330
47
102
}
330
47
100
AcDbZombieObject
 90
      499
 91
      503
 93
      257
310
90E312F31323822203D2031272D3022000000000000200FC000000000000284000
  0
ACAD_PROXY_OBJECT
  5
5A
102
{ACAD_REACTORS
330
47
102
}
330
47
100
AcDbZombieObject
 90
      499
 91
      503
 93
      249
310
90D312F363422203D2031272D3022000000000000240FC000000000000284000
  0
ACAD_PROXY_OBJECT
  5
5B
102
{ACAD_REACTORS
330
47
102
}
330
47
100
AcDbZombieObject
 90
      499
 91
      503
 93
      249
310
90D312F333222203D2031272D3022000000000000280FC000000000000284000
  0
ACAD_PROXY_OBJECT
  5
5C
102
{ACAD_REACTORS
330
47
102
}
330
47
100
AcDbZombieObject
 90
      499
 91
      503
 93
      249
310
90D312F313622203D2031272D30220000000000002C0FC000000000000284000
  0
ACAD_PROXY_OBJECT
  5
5D
102
{ACAD_REACTORS
330
47
102
}
330
47
100
AcDbZombieObject
 90
      499
 91
      503
 93
      249
310
90D332F333222203D2031272D30220000000000002E0FC000000000000284000
  0
ACAD_PROXY_OBJECT
  5
5E
102
{ACAD_REACTORS
330
47
102
}
330
47
100
AcDbZombieObject
 90
      499
 91
      503
 93
      241
310
90C312F3822203D2031272D3022000000000000300FC000000000000284000
  0
ACAD_PROXY_OBJECT
  5
5F
102
{ACAD_REACTORS
330
47
102
}
330
47
100
AcDbZombieObject
 90
      499
 91
      503
 93
      249
310
90D332F313622203D2031272D3022000000000000320FC000000000000284000
  0
ACAD_PROXY_OBJECT
  5
60
102
{ACAD_REACTORS
330
47
102
}
330
47
100
AcDbZombieObject
 90
      499
 91
      503
 93
      241
310
90C312F3422203D2031272D3022000000000000340FC000000000000284000
  0
ACAD_PROXY_OBJECT
  5
61
102
{ACAD_REACTORS
330
47
102
}
330
47
100
AcDbZombieObject
 90
      499
 91
      503
 93
      241
310
90C332F3822203D2031272D3022000000000000360FC000000000000284000
  0
ACAD_PROXY_OBJECT
  5
62
102
{ACAD_REACTORS
330
47
102
}
330
47
100
AcDbZombieObject
 90
      499
 91
      503
 93
      241
310
90C312F3222203D2031272D3022000000000000380FC000000000000284000
  0
ACAD_PROXY_OBJECT
  5
63
102
{ACAD_REACTORS
330
47
102
}
330
47
100
AcDbZombieObject
 90
      499
 91
      503
 93
      241
310
90C332F3422203D2031272D30220000000000003A0FC000000000000284000
  0
ACAD_PROXY_OBJECT
  5
64
102
{ACAD_REACTORS
330
47
102
}
330
47
100
AcDbZombieObject
 90
      499
 91
      503
 93
      161
310
90A3122203D2031272D30224000000000000284000
  0
ACAD_PROXY_OBJECT
  5
65
102
{ACAD_REACTORS
330
47
102
}
330
47
100
AcDbZombieObject
 90
      499
 91
      503
 93
      257
310
90E312D312F3222203D2031272D30220000000000003E0FC000000000000284000
  0
ACAD_PROXY_OBJECT
  5
66
102
{ACAD_REACTORS
330
47
102
}
330
47
100
AcDbZombieObject
 90
      499
 91
      503
 93
      225
310
90A3322203D2031272D302200000000000002100000000000000284000
  0
ACAD_PROXY_OBJECT
  5
67
102
{ACAD_REACTORS
330
47
102
}
330
47
100
AcDbZombieObject
 90
      499
 91
      503
 93
      225
310
90A3622203D2031272D302200000000000006100000000000000284000
  0
ACAD_PROXY_OBJECT
  5
68
102
{ACAD_REACTORS
330
47
102
}
330
47
100
AcDbZombieObject
 90
      499
 91
      503
 93
      249
310
90D31272D3022203D2031272D30220000000000000A100000000000000284000
  0
ACAD_PROXY_OBJECT
  5
2F
102
{ACAD_REACTORS
330
2A
102
}
330
2A
100
AcDbZombieObject
 90
      499
 91
      501
 93
      436
310
42CC9915DA5C99599C985B595049028333333333333E33F0000000000000F90107901411070040501600405405064090741402480A0340
1001
ACAD
1000
AcDbSavedByObjectVersion
1070
     0
  0
ACAD_PROXY_OBJECT
  5
32
102
{ACAD_REACTORS
330
2A
102
}
330
2A
100
AcDbZombieObject
 90
      499
 91
      501
 93
      388
310
4150985CDA58D07406404333333333333E33F0000000000000F90107A41107004050150841D405064090741402480A0350
1001
ACAD
1000
AcDbSavedByObjectVersion
1070
     0
  0
ACAD_PROXY_OBJECT
  5
36
102
{ACAD_REACTORS
330
2A
102
}
330
2A
100
AcDbZombieObject
 90
      499
 91
      501
 93
      428
310
42109C9A59DA1D195B90C409028333333333333E33F0000000000000F9010790141107004050150841D405064090741402480A029950
1001
ACAD
1000
AcDbSavedByObjectVersion
1070
     0
  0
ACAD_PROXY_OBJECT
  5
3A
102
{ACAD_REACTORS
330
2A
102
}
330
2A
100
AcDbZombieObject
 90
      499
 91
      501
 93
      452
310
42D0DBDB1BDC90DA185B99D95104090240C333333333333E33F0000000000000F90108901411070040501508421405064090741402480A0350
1001
ACAD
1000
AcDbSavedByObjectVersion
1070
     0
  0
ACAD_PROXY_OBJECT
  5
34
102
{ACAD_REACTORS
330
2A
102
}
330
2A
100
AcDbZombieObject
 90
      499
 91
      501
 93
      500
310
4290DBDB98D95C1D1D585B10940D028333333333333E33F0000000000000F90107902409070040501000000000018199010841D405064090740C02480A0340
1001
ACAD
1000
AcDbSavedByObjectVersion
1070
     0
  0
ACAD_PROXY_OBJECT
  5
35
102
{ACAD_REACTORS
330
2A
102
}
330
2A
100
AcDbZombieObject
 90
      499
 91
      501
 93
      412
310
40D11A5B50B409028333333333333E33F0000000000000F9010790141107004050150841D405064090741402480A02677FFFFFD0
1001
ACAD
1000
AcDbSavedByObjectVersion
1070
     0
  0
ACAD_PROXY_OBJECT
  5
3D
102
{ACAD_REACTORS
330
2A
102
}
330
2A
100
AcDbZombieObject
 90
      499
 91
      501
 93
      452
310
43115919D950DBDB1BDC93D999916409028333333333333E33F0000000000000F9010790141107004050150841D405064090741402480A0350
1001
ACAD
1000
AcDbSavedByObjectVersion
1070
     0
  0
ACAD_PROXY_OBJECT
  5
39
102
{ACAD_REACTORS
330
2A
102
}
330
2A
100
AcDbZombieObject
 90
      499
 91
      501
 93
      444
310
42D19858D95C185D1D195C9B90F409028333333333333E33F0000000000000F9010790141107004050150841D405064090741402480A0350
1001
ACAD
1000
AcDbSavedByObjectVersion
1070
     0
  0
ACAD_PROXY_OBJECT
  5
2B
102
{ACAD_REACTORS
330
2A
102
}
330
2A
100
AcDbZombieObject
 90
      499
 91
      501
 93
      380
310
41119B185D240901404333333333333E33F0000000000000F9010740A907004050150841D405064090741402480A1B50
1001
ACAD
1000
AcDbSavedByObjectVersion
1070
     0
  0
ACAD_PROXY_OBJECT
  5
2C
102
{ACAD_REACTORS
330
2A
102
}
330
2A
100
AcDbZombieObject
 90
      499
 91
      501
 93
      468
310
43519B185D15DA5D1A115919D95CD0140901404333333333333E33F0000000000000F90107409019070040501600405405064090741402480A1B50
1001
ACAD
1000
AcDbSavedByObjectVersion
1070
     0
  0
ACAD_PROXY_OBJECT
  5
2D
102
{ACAD_REACTORS
330
2A
102
}
330
2A
100
AcDbZombieObject
 90
      499
 91
      501
 93
      404
310
41D1DBDD5C985D5910240902404333333333333E33F0000000000000F9010740A9070040501641D405064090741402480A1B50
1001
ACAD
1000
AcDbSavedByObjectVersion
1070
     0
  0
ACAD_PROXY_OBJECT
  5
2E
102
{ACAD_REACTORS
330
2A
102
}
330
2A
100
AcDbZombieObject
 90
      499
 91
      501
 93
      492
310
4411DBDD5C985D5915DA5D1A115919D95CD0340902404333333333333E33F0000000000000F90107409019070040501600405405064090741402480A1B50
1001
ACAD
1000
AcDbSavedByObjectVersion
1070
     0
  0
ACAD_PROXY_OBJECT
  5
31
102
{ACAD_REACTORS
330
2A
102
}
330
2A
100
AcDbZombieObject
 90
      499
 91
      501
 93
      476
310
41921A5919195B90640502408333333333333E33F0000000000000F901079024090700405020000000000001110200405405064090740C02480A0340
1001
ACAD
1000
AcDbSavedByObjectVersion
1070
     0
  0
ACAD_PROXY_OBJECT
  5
3B
102
{ACAD_REACTORS
330
2A
102
}
330
2A
100
AcDbZombieObject
 90
      499
 91
      501
 93
      428
310
42529A5D1D195C93D999914409028333333333333E33F0000000000000F9010790141107004050150A41D405064090741402480A0350
1001
ACAD
1000
AcDbSavedByObjectVersion
1070
     0
  0
ACAD_PROXY_OBJECT
  5
38
102
{ACAD_REACTORS
330
2A
102
}
330
2A
100
AcDbZombieObject
 90
      499
 91
      501
 93
      444
310
42D31A5B995C185D1D195C9B90E409028333333333333E33F0000000000000F9010790141107004050750841D405064090741402483A0350
1001
ACAD
1000
AcDbSavedByObjectVersion
1070
     0
  0
ACAD_PROXY_OBJECT
  5
3C
102
{ACAD_REACTORS
330
2A
102
}
330
2A
100
AcDbZombieObject
 90
      499
 91
      501
 93
      444
310
42D3DD995C9A185B99D3D999915409028333333333333E33F0000000000000F9010790141107004050150941D405064090741402480A0350
1001
ACAD
1000
AcDbSavedByObjectVersion
1070
     0
  0
ACAD_PROXY_OBJECT
  5
33
102
{ACAD_REACTORS
330
2A
102
}
330
2A
100
AcDbZombieObject
 90
      499
 91
      501
 93
      428
310
425499585B1A5CDD1A58D08409038333333333333E33F0000000000000F9010740A907004050150800405405064090740C02480A1B40
1001
ACAD
1000
AcDbSavedByObjectVersion
1070
     0
  0
ACAD_PROXY_OBJECT
  5
42
102
{ACAD_REACTORS
330
2A
102
}
330
2A
100
AcDbZombieObject
 90
      499
 91
      501
 93
      420
310
4194DA1859195911B40902404333333333333E33F0000000000000F9010740A41107004050150800405405064090840C02480A0B40
1001
ACAD
1000
AcDbSavedByObjectVersion
1070
     0
  0
ACAD_PROXY_OBJECT
  5
41
102
{ACAD_REACTORS
330
2A
102
}
330
2A
100
AcDbZombieObject
 90
      499
 91
      501
 93
      516
310
4454DA18591959081DDA5D1A08195919D95CD1A40902404333333333333E33F0000000000000F901074090142907004050250800405405064090740C02480A0B40
1001
ACAD
1000
AcDbSavedByObjectVersion
1070
     0
  0
ACAD_PROXY_OBJECT
  5
3E
102
{ACAD_REACTORS
330
2A
102
}
330
2A
100
AcDbZombieObject
 90
      499
 91
      501
 93
      532
310
4394DA1859195CC81BD98811DC985E5174090240C333333333333E33F0000000000000F901079024090741D01000000000000111010841D405064090740C02480A0340
1001
ACAD
1000
AcDbSavedByObjectVersion
1070
     0
  0
ACAD_PROXY_OBJECT
  5
3F
102
{ACAD_REACTORS
330
2A
102
}
330
2A
100
AcDbZombieObject
 90
      499
 91
      501
 93
      476
310
41D4DAD95D18DA1E51840502408333333333333E33F0000000000000F901079024090741D01000000000000111010B41D405064090741802480A0340
1001
ACAD
1000
AcDbSavedByObjectVersion
1070
     0
  0
ACAD_PROXY_OBJECT
  5
37
102
{ACAD_REACTORS
330
2A
102
}
330
2A
100
AcDbZombieObject
 90
      499
 91
      501
 93
      412
310
41D51A1A58DAD95B90D409028333333333333E33F0000000000000F9010790141107004050150C41D405064090741402480A0350
1001
ACAD
1000
AcDbSavedByObjectVersion
1070
     0
  0
ACAD_PROXY_OBJECT
  5
30
102
{ACAD_REACTORS
330
2A
102
}
330
2A
100
AcDbZombieObject
 90
      499
 91
      501
 93
      420
310
4255DA5C99599C985B595059028333333333333E33F0000000000000F90107901411070040501600405405064090740C02480A0340
1001
ACAD
1000
AcDbSavedByObjectVersion
1070
     0
  0
ACAD_PROXY_OBJECT
  5
40
102
{ACAD_REACTORS
330
2A
102
}
330
2A
100
AcDbZombieObject
 90
      499
 91
      501
 93
      404
310
41560B54985E51940902404000000000000E03F0000000000000F9010740501907004050150841D405064090740C02480A1B40
1001
ACAD
1000
AcDbSavedByObjectVersion
1070
     0
  0
DICTIONARYVAR
  5
668
102
{ACAD_REACTORS
330
65D
102
}
330
65D
100
DictionaryVariables
280
     0
  1
1:1
  0
DICTIONARYVAR
  5
664
102
{ACAD_REACTORS
330
65D
102
}
330
65D
100
DictionaryVariables
280
     0
  1
3.500000
  0
DICTIONARYVAR
  5
665
102
{ACAD_REACTORS
330
65D
102
}
330
65D
100
DictionaryVariables
280
     0
  1
acadiso.lin
  0
DICTIONARYVAR
  5
65F
102
{ACAD_REACTORS
330
65D
102
}
330
65D
100
DictionaryVariables
280
     0
  1
Standard
  0
DICTIONARYVAR
  5
65E
102
{ACAD_REACTORS
330
65D
102
}
330
65D
100
DictionaryVariables
280
     0
  1
Standard
  0
DICTIONARYVAR
  5
666
102
{ACAD_REACTORS
330
65D
102
}
330
65D
100
DictionaryVariables
280
     0
  1
2
  0
DICTIONARYVAR
  5
667
102
{ACAD_REACTORS
330
65D
102
}
330
65D
100
DictionaryVariables
280
     0
  1
1
  0
DICTIONARYVAR
  5
669
102
{ACAD_REACTORS
330
65D
102
}
330
65D
100
DictionaryVariables
280
     0
  1
1
  0
DICTIONARYVAR
  5
661
102
{ACAD_REACTORS
330
65D
102
}
330
65D
100
DictionaryVariables
280
     0
  1
80.000000
  0
DICTIONARYVAR
  5
660
102
{ACAD_REACTORS
330
65D
102
}
330
65D
100
DictionaryVariables
280
     0
  1
5.000000
  0
DICTIONARY
  5
66C
330
45
100
AcDbDictionary
  3
ACAD_XREC_ROUNDTRIP
360
66D
1001
ACAD
1000
TREAT_AS_HARD
1070
     1
  0
DICTIONARY
  5
66A
330
44
100
AcDbDictionary
  3
ACAD_XREC_ROUNDTRIP
360
66B
1001
ACAD
1000
TREAT_AS_HARD
1070
     1
  0
DICTIONARY
  5
66E
330
46
100
AcDbDictionary
  3
ACAD_XREC_ROUNDTRIP
360
66F
1001
ACAD
1000
TREAT_AS_HARD
1070
     1
  0
XRECORD
  5
66D
102
{ACAD_REACTORS
330
66C
102
}
330
66C
100
AcDbXrecord
102
MATERIAL
148
0.0
149
0.0
149
0.0
 93
        0
 94
      127
282
     0
 72
     1
 77
     1
171
     1
175
     1
179
     1
273
     0
  0
XRECORD
  5
66B
102
{ACAD_REACTORS
330
66A
102
}
330
66A
100
AcDbXrecord
102
MATERIAL
148
0.0
149
0.0
149
0.0
 93
        0
 94
      127
282
     0
 72
     1
 77
     1
171
     1
175
     1
179
     1
273
     0
  0
XRECORD
  5
66F
102
{ACAD_REACTORS
330
66E
102
}
330
66E
100
AcDbXrecord
102
MATERIAL
148
0.0
149
0.0
149
0.0
 93
        0
 94
      127
282
     0
 72
     1
 77
     1
171
     1
175
     1
179
     1
273
     0
  0
ENDSEC
  0
EOF
