  0
SECTION
  2
HEADER
  9
$ACADVER
  1
AC1012
  9
$DWGCODEPAGE
  3
ansi_1252
  9
$INSBASE
 10
0.0
 20
0.0
 30
0.0
  9
$EXTMIN
 10
1.000000000000000E+20
 20
1.000000000000000E+20
 30
1.000000000000000E+20
  9
$EXTMAX
 10
-1.000000000000000E+20
 20
-1.000000000000000E+20
 30
-1.000000000000000E+20
  9
$LIMMIN
 10
0.0
 20
0.0
  9
$LIMMAX
 10
420.0
 20
297.0
  9
$ORTHOMODE
 70
     0
  9
$REGENMODE
 70
     1
  9
$FILLMODE
 70
     1
  9
$QTEXTMODE
 70
     0
  9
$MIRRTEXT
 70
     1
  9
$DRAGMODE
 70
     2
  9
$LTSCALE
 40
1.0
  9
$OSMODE
 70
    37
  9
$ATTMODE
 70
     1
  9
$TEXTSIZE
 40
2.5
  9
$TRACEWID
 40
1.0
  9
$TEXTSTYLE
  7
STANDARD
  9
$CLAYER
  8
0
  9
$CELTYPE
  6
BYLAYER
  9
$CECOLOR
 62
   256
  9
$CELTSCALE
 40
1.0
  9
$DELOBJ
 70
     1
  9
$DISPSILH
 70
     0
  9
$DIMSCALE
 40
1.0
  9
$DIMASZ
 40
2.5
  9
$DIMEXO
 40
0.625
  9
$DIMDLI
 40
3.75
  9
$DIMRND
 40
0.0
  9
$DIMDLE
 40
0.0
  9
$DIMEXE
 40
1.25
  9
$DIMTP
 40
0.0
  9
$DIMTM
 40
0.0
  9
$DIMTXT
 40
2.5
  9
$DIMCEN
 40
2.5
  9
$DIMTSZ
 40
0.0
  9
$DIMTOL
 70
     0
  9
$DIMLIM
 70
     0
  9
$DIMTIH
 70
     0
  9
$DIMTOH
 70
     0
  9
$DIMSE1
 70
     0
  9
$DIMSE2
 70
     0
  9
$DIMTAD
 70
     1
  9
$DIMZIN
 70
     8
  9
$DIMBLK
  1

  9
$DIMASO
 70
     1
  9
$DIMSHO
 70
     1
  9
$DIMPOST
  1

  9
$DIMAPOST
  1

  9
$DIMALT
 70
     0
  9
$DIMALTD
 70
     3
  9
$DIMALTF
 40
0.03937007874016
  9
$DIMLFAC
 40
1.0
  9
$DIMTOFL
 70
     1
  9
$DIMTVP
 40
0.0
  9
$DIMTIX
 70
     0
  9
$DIMSOXD
 70
     0
  9
$DIMSAH
 70
     0
  9
$DIMBLK1
  1

  9
$DIMBLK2
  1

  9
$DIMSTYLE
  2
ISO-25
  9
$DIMCLRD
 70
     0
  9
$DIMCLRE
 70
     0
  9
$DIMCLRT
 70
     0
  9
$DIMTFAC
 40
1.0
  9
$DIMGAP
 40
0.625
  9
$DIMJUST
 70
     0
  9
$DIMSD1
 70
     0
  9
$DIMSD2
 70
     0
  9
$DIMTOLJ
 70
     0
  9
$DIMTZIN
 70
     8
  9
$DIMALTZ
 70
     0
  9
$DIMALTTZ
 70
     0
  9
$DIMFIT
 70
     3
  9
$DIMUPT
 70
     0
  9
$DIMUNIT
 70
     2
  9
$DIMDEC
 70
     2
  9
$DIMTDEC
 70
     2
  9
$DIMALTU
 70
     2
  9
$DIMALTTD
 70
     3
  9
$DIMTXSTY
  7
STANDARD
  9
$DIMAUNIT
 70
     0
  9
$LUNITS
 70
     2
  9
$LUPREC
 70
     4
  9
$SKETCHINC
 40
1.0
  9
$FILLETRAD
 40
10.0
  9
$AUNITS
 70
     0
  9
$AUPREC
 70
     0
  9
$MENU
  1
.
  9
$ELEVATION
 40
0.0
  9
$PELEVATION
 40
0.0
  9
$THICKNESS
 40
0.0
  9
$LIMCHECK
 70
     0
  9
$CHAMFERA
 40
0.0
  9
$CHAMFERB
 40
0.0
  9
$CHAMFERC
 40
0.0
  9
$CHAMFERD
 40
0.0
  9
$SKPOLY
 70
     0
  9
$TDCREATE
 40
2457988.443610035
  9
$TDUPDATE
 40
2457988.443613646
  9
$TDINDWG
 40
0.0000000116
  9
$TDUSRTIMER
 40
0.0000000116
  9
$USRTIMER
 70
     1
  9
$ANGBASE
 50
0.0
  9
$ANGDIR
 70
     0
  9
$PDMODE
 70
     0
  9
$PDSIZE
 40
0.0
  9
$PLINEWID
 40
0.0
  9
$COORDS
 70
     1
  9
$SPLFRAME
 70
     0
  9
$SPLINETYPE
 70
     6
  9
$SPLINESEGS
 70
     8
  9
$ATTDIA
 70
     0
  9
$ATTREQ
 70
     1
  9
$HANDLING
 70
     1
  9
$HANDSEED
  5
64F
  9
$SURFTAB1
 70
     6
  9
$SURFTAB2
 70
     6
  9
$SURFTYPE
 70
     6
  9
$SURFU
 70
     6
  9
$SURFV
 70
     6
  9
$UCSNAME
  2

  9
$UCSORG
 10
0.0
 20
0.0
 30
0.0
  9
$UCSXDIR
 10
1.0
 20
0.0
 30
0.0
  9
$UCSYDIR
 10
0.0
 20
1.0
 30
0.0
  9
$PUCSNAME
  2

  9
$PUCSORG
 10
0.0
 20
0.0
 30
0.0
  9
$PUCSXDIR
 10
1.0
 20
0.0
 30
0.0
  9
$PUCSYDIR
 10
0.0
 20
1.0
 30
0.0
  9
$USERI1
 70
     0
  9
$USERI2
 70
     0
  9
$USERI3
 70
     0
  9
$USERI4
 70
     0
  9
$USERI5
 70
     0
  9
$USERR1
 40
0.0
  9
$USERR2
 40
0.0
  9
$USERR3
 40
0.0
  9
$USERR4
 40
0.0
  9
$USERR5
 40
0.0
  9
$WORLDVIEW
 70
     1
  9
$SHADEDGE
 70
     3
  9
$SHADEDIF
 70
    70
  9
$TILEMODE
 70
     1
  9
$MAXACTVP
 70
    64
  9
$PINSBASE
 10
0.0
 20
0.0
 30
0.0
  9
$PLIMCHECK
 70
     0
  9
$PEXTMIN
 10
1.000000000000000E+20
 20
1.000000000000000E+20
 30
1.000000000000000E+20
  9
$PEXTMAX
 10
-1.000000000000000E+20
 20
-1.000000000000000E+20
 30
-1.000000000000000E+20
  9
$PLIMMIN
 10
0.0
 20
0.0
  9
$PLIMMAX
 10
420.0
 20
297.0
  9
$UNITMODE
 70
     0
  9
$VISRETAIN
 70
     1
  9
$PLINEGEN
 70
     0
  9
$PSLTSCALE
 70
     1
  9
$TREEDEPTH
 70
  3020
  9
$PICKSTYLE
 70
     1
  9
$CMLSTYLE
  2
STANDARD
  9
$CMLJUST
 70
     0
  9
$CMLSCALE
 40
20.0
  9
$SAVEIMAGES
 70
     1
  0
ENDSEC
  0
SECTION
  2
CLASSES
  0
CLASS
  1
ACDBDICTIONARYWDFLT
  2
AcDbDictionaryWithDefault
  3
ObjectDBX Classes
 90
    32768
280
     0
281
     0
  0
CLASS
  1
VISUALSTYLE
  2
AcDbVisualStyle
  3
ObjectDBX Classes
 90
     4095
280
     0
281
     0
  0
CLASS
  1
MATERIAL
  2
AcDbMaterial
  3
ObjectDBX Classes
 90
     1153
280
     0
281
     0
  0
CLASS
  1
SCALE
  2
AcDbScale
  3
ObjectDBX Classes
 90
     1153
280
     0
281
     0
  0
CLASS
  1
TABLESTYLE
  2
AcDbTableStyle
  3
ObjectDBX Classes
 90
     4095
280
     0
281
     0
  0
CLASS
  1
MLEADERSTYLE
  2
AcDbMLeaderStyle
  3
ACDB_MLEADERSTYLE_CLASS
 90
     4095
280
     0
281
     0
  0
CLASS
  1
SUN
  2
AcDbSun
  3
SCENEOE
 90
     1153
280
     0
281
     0
  0
CLASS
  1
DICTIONARYVAR
  2
AcDbDictionaryVar
  3
ObjectDBX Classes
 90
        0
280
     0
281
     0
  0
CLASS
  1
XRECORD
  2
AcDbXrecord
  3
ObjectDBX Classes
 90
    32768
280
     0
281
     0
  0
CLASS
  1
LWPOLYLINE
  2
AcDbPolyline
  3
ObjectDBX Classes
 90
    32768
280
     0
281
     1
  0
CLASS
  1
HATCH
  2
AcDbHatch
  3
ObjectDBX Classes
 90
    32768
280
     0
281
     1
  0
CLASS
  1
ACDBPLACEHOLDER
  2
AcDbPlaceHolder
  3
ObjectDBX Classes
 90
        0
280
     0
281
     0
  0
CLASS
  1
LAYOUT
  2
AcDbLayout
  3
ObjectDBX Classes
 90
        0
280
     0
281
     0
  0
ENDSEC
  0
SECTION
  2
TABLES
  0
TABLE
  2
VPORT
  5
8
330
0
100
AcDbSymbolTable
 70
     1
  0
VPORT
  5
29
330
8
100
AcDbSymbolTableRecord
100
AcDbViewportTableRecord
  2
*ACTIVE
 70
     0
 10
0.0
 20
0.0
 11
1.0
 21
1.0
 12
0.0000000000000568
 22
-133.0
 13
0.0
 23
0.0
 14
10.0
 24
10.0
 15
10.0
 25
10.0
 16
0.0
 26
0.0
 36
1.0
 17
0.0
 27
0.0
 37
0.0
 40
271.32
 41
1.766917293233083
 42
50.0
 43
0.0
 44
0.0
 50
0.0
 51
0.0
 71
     0
 72
   100
 73
     1
 74
     3
 75
     0
 76
     0
 77
     0
 78
     0
  0
ENDTAB
  0
TABLE
  2
LTYPE
  5
5
330
0
100
AcDbSymbolTable
 70
     1
  0
LTYPE
  5
14
330
5
100
AcDbSymbolTableRecord
100
AcDbLinetypeTableRecord
  2
BYBLOCK
 70
     0
  3

 72
    65
 73
     0
 40
0.0
  0
LTYPE
  5
15
330
5
100
AcDbSymbolTableRecord
100
AcDbLinetypeTableRecord
  2
BYLAYER
 70
     0
  3

 72
    65
 73
     0
 40
0.0
  0
LTYPE
  5
16
330
5
100
AcDbSymbolTableRecord
100
AcDbLinetypeTableRecord
  2
CONTINUOUS
 70
     0
  3
Solid line
 72
    65
 73
     0
 40
0.0
  0
ENDTAB
  0
TABLE
  2
LAYER
  5
2
330
0
100
AcDbSymbolTable
 70
     4
  0
LAYER
  5
10
330
2
100
AcDbSymbolTableRecord
100
AcDbLayerTableRecord
  2
0
 70
     0
 62
     7
  6
CONTINUOUS
  0
LAYER
  5
6E
330
2
100
AcDbSymbolTableRecord
100
AcDbLayerTableRecord
  2
THICK
 70
     0
 62
     7
  6
CONTINUOUS
  0
LAYER
  5
6F
330
2
100
AcDbSymbolTableRecord
100
AcDbLayerTableRecord
  2
HIDDEN
 70
     0
 62
     7
  6
CONTINUOUS
  0
LAYER
  5
70
330
2
100
AcDbSymbolTableRecord
100
AcDbLayerTableRecord
  2
HASHLINES
 70
     0
 62
     7
  6
CONTINUOUS
  0
ENDTAB
  0
TABLE
  2
STYLE
  5
3
330
0
100
AcDbSymbolTable
 70
     1
  0
STYLE
  5
11
330
3
100
AcDbSymbolTableRecord
100
AcDbTextStyleTableRecord
  2
STANDARD
 70
     0
 40
0.0
 41
1.0
 50
0.0
 71
     0
 42
2.5
  3
txt
  4

  0
ENDTAB
  0
TABLE
  2
VIEW
  5
6
330
0
100
AcDbSymbolTable
 70
     0
  0
ENDTAB
  0
TABLE
  2
UCS
  5
7
330
0
100
AcDbSymbolTable
 70
     0
  0
ENDTAB
  0
TABLE
  2
APPID
  5
9
330
0
100
AcDbSymbolTable
 70
     3
  0
APPID
  5
12
330
9
100
AcDbSymbolTableRecord
100
AcDbRegAppTableRecord
  2
ACAD
 70
     0
  0
APPID
  5
71
330
9
100
AcDbSymbolTableRecord
100
AcDbRegAppTableRecord
  2
DBPROPERTIES
 70
     0
  0
APPID
  5
64E
330
9
100
AcDbSymbolTableRecord
100
AcDbRegAppTableRecord
  2
ACAD_MLEADERVER
 70
     0
  0
ENDTAB
  0
TABLE
  2
DIMSTYLE
  5
A
330
0
100
AcDbSymbolTable
 70
     1
  0
DIMSTYLE
105
27
330
A
100
AcDbSymbolTableRecord
100
AcDbDimStyleTableRecord
  2
ISO-25
 70
     0
  3

  4

  5

  6

  7

 40
1.0
 41
2.5
 42
0.625
 43
3.75
 44
1.25
 45
0.0
 46
0.0
 47
0.0
 48
0.0
140
2.5
141
2.5
142
0.0
143
0.03937007874016
144
1.0
145
0.0
146
1.0
147
0.625
 71
     0
 72
     0
 73
     0
 74
     0
 75
     0
 76
     0
 77
     1
 78
     8
170
     0
171
     3
172
     1
173
     0
174
     0
175
     0
176
     0
177
     0
178
     0
270
     2
271
     2
272
     2
273
     2
274
     3
340
11
275
     0
280
     0
281
     0
282
     0
283
     0
284
     8
285
     0
286
     0
287
     3
288
     0
  0
ENDTAB
  0
TABLE
  2
BLOCK_RECORD
  5
1
330
0
100
AcDbSymbolTable
 70
     0
  0
BLOCK_RECORD
  5
1F
330
1
100
AcDbSymbolTableRecord
100
AcDbBlockTableRecord
  2
*MODEL_SPACE
  0
BLOCK_RECORD
  5
1B
330
1
100
AcDbSymbolTableRecord
100
AcDbBlockTableRecord
  2
*PAPER_SPACE
  0
ENDTAB
  0
ENDSEC
  0
SECTION
  2
BLOCKS
  0
BLOCK
  5
20
330
1F
100
AcDbEntity
  8
0
100
AcDbBlockBegin
  2
*MODEL_SPACE
 70
     0
 10
0.0
 20
0.0
 30
0.0
  3
*MODEL_SPACE
  1

  0
ENDBLK
  5
21
330
1F
100
AcDbEntity
  8
0
100
AcDbBlockEnd
  0
BLOCK
  5
1C
330
1B
100
AcDbEntity
 67
     1
  8
0
100
AcDbBlockBegin
  2
*PAPER_SPACE
 70
     0
 10
0.0
 20
0.0
 30
0.0
  3
*PAPER_SPACE
  1

  0
ENDBLK
  5
1D
330
1B
100
AcDbEntity
 67
     1
  8
0
100
AcDbBlockEnd
  0
ENDSEC
  0
SECTION
  2
ENTITIES
  0
LINE
  5
72
330
1F
100
AcDbEntity
  8
THICK
100
AcDbLine
 10
0.0000000000000218
 20
-266.0
 30
0.0
 11
124.5
 21
-266.0
 31
0.0
1001
DBPROPERTIES
1002
{
1000
PbThick
1002
}
  0
LINE
  5
73
330
1F
100
AcDbEntity
  8
THICK
100
AcDbLine
 10
-124.5
 20
-266.0
 30
0.0
 11
-0.0000000000000087
 21
-266.0
 31
0.0
1001
DBPROPERTIES
1002
{
1000
PbThick
1002
}
  0
LINE
  5
74
330
1F
100
AcDbEntity
  8
THICK
100
AcDbLine
 10
124.5
 20
-261.9
 30
0.0
 11
-0.0000000000000084
 21
-261.9
 31
0.0
1001
DBPROPERTIES
1002
{
1000
PbThick
1002
}
  0
LINE
  5
75
330
1F
100
AcDbEntity
  8
HIDDEN
100
AcDbLine
 10
-0.0000000000000389
 20
-261.9
 30
0.0
 11
124.5
 21
-261.9
 31
0.0
1001
DBPROPERTIES
1002
{
1000
PbHidd
1002
}
  0
LINE
  5
76
330
1F
100
AcDbEntity
  8
HIDDEN
100
AcDbLine
 10
-120.15
 20
-244.25
 30
0.0
 11
120.15
 21
-244.25
 31
0.0
1001
DBPROPERTIES
1002
{
1000
PbHidd
1002
}
  0
LINE
  5
77
330
1F
100
AcDbEntity
  8
THICK
100
AcDbLine
 10
-124.5000030517578
 20
-239.8999969482422
 30
0.0
 11
-120.1500007629395
 21
-244.2499992370605
 31
0.0
1001
DBPROPERTIES
1002
{
1000
PbThick
1002
}
  0
LINE
  5
78
330
1F
100
AcDbEntity
  8
HIDDEN
100
AcDbLine
 10
-0.0000000000000071
 20
-239.9
 30
0.0
 11
-124.5
 21
-239.9
 31
0.0
1001
DBPROPERTIES
1002
{
1000
PbHidd
1002
}
  0
LINE
  5
79
330
1F
100
AcDbEntity
  8
HIDDEN
100
AcDbLine
 10
124.5
 20
-239.9
 30
0.0
 11
-0.0000000000000071
 21
-239.9
 31
0.0
1001
DBPROPERTIES
1002
{
1000
PbHidd
1002
}
  0
LINE
  5
7A
330
1F
100
AcDbEntity
  8
THICK
100
AcDbLine
 10
120.1500007629394
 20
-244.2499992370605
 30
0.0
 11
124.5000030517578
 21
-239.8999969482422
 31
0.0
1001
DBPROPERTIES
1002
{
1000
PbThick
1002
}
  0
LINE
  5
7B
330
1F
100
AcDbEntity
  8
THICK
100
AcDbLine
 10
-120.15
 20
-244.25
 30
0.0
 11
-120.15
 21
-248.6000061035156
 31
0.0
1001
DBPROPERTIES
1002
{
1000
PbThick
1002
}
  0
LINE
  5
7C
330
1F
100
AcDbEntity
  8
THICK
100
AcDbLine
 10
120.15
 20
-248.6000061035156
 30
0.0
 11
120.15
 21
-244.25
 31
0.0
1001
DBPROPERTIES
1002
{
1000
PbThick
1002
}
  0
LINE
  5
7D
330
1F
100
AcDbEntity
  8
THICK
100
AcDbLine
 10
124.5
 20
-248.6
 30
0.0
 11
-0.0000000000000076
 21
-248.6
 31
0.0
1001
DBPROPERTIES
1002
{
1000
PbThick
1002
}
  0
LINE
  5
7E
330
1F
100
AcDbEntity
  8
THICK
100
AcDbLine
 10
124.5
 20
-253.2
 30
0.0
 11
-0.0000000000000079
 21
-253.2
 31
0.0
1001
DBPROPERTIES
1002
{
1000
PbThick
1002
}
  0
LINE
  5
7F
330
1F
100
AcDbEntity
  8
HIDDEN
100
AcDbLine
 10
120.15
 20
-257.55
 30
0.0
 11
-120.15
 21
-257.55
 31
0.0
1001
DBPROPERTIES
1002
{
1000
PbHidd
1002
}
  0
LINE
  5
80
330
1F
100
AcDbEntity
  8
THICK
100
AcDbLine
 10
124.4999969482422
 20
-261.8999969482422
 30
0.0
 11
120.1499946594238
 21
-257.5499946594238
 31
0.0
1001
DBPROPERTIES
1002
{
1000
PbThick
1002
}
  0
LINE
  5
81
330
1F
100
AcDbEntity
  8
HIDDEN
100
AcDbLine
 10
-124.5
 20
-261.9
 30
0.0
 11
-0.0000000000000389
 21
-261.9
 31
0.0
1001
DBPROPERTIES
1002
{
1000
PbHidd
1002
}
  0
LINE
  5
82
330
1F
100
AcDbEntity
  8
THICK
100
AcDbLine
 10
-120.1499946594238
 20
-257.5499946594238
 30
0.0
 11
-124.4999969482422
 21
-261.8999969482422
 31
0.0
1001
DBPROPERTIES
1002
{
1000
PbThick
1002
}
  0
LINE
  5
83
330
1F
100
AcDbEntity
  8
THICK
100
AcDbLine
 10
120.15
 20
-257.5499877929688
 30
0.0
 11
120.15
 21
-253.1999969482422
 31
0.0
1001
DBPROPERTIES
1002
{
1000
PbThick
1002
}
  0
LINE
  5
84
330
1F
100
AcDbEntity
  8
THICK
100
AcDbLine
 10
-120.15
 20
-253.1999969482422
 30
0.0
 11
-120.15
 21
-257.5499877929688
 31
0.0
1001
DBPROPERTIES
1002
{
1000
PbThick
1002
}
  0
LINE
  5
85
330
1F
100
AcDbEntity
  8
THICK
100
AcDbLine
 10
-0.0000000000000071
 20
-239.9
 30
0.0
 11
124.5
 21
-239.9
 31
0.0
1001
DBPROPERTIES
1002
{
1000
PbThick
1002
}
  0
LINE
  5
86
330
1F
100
AcDbEntity
  8
THICK
100
AcDbLine
 10
35.25000000000001
 20
-179.0
 30
0.0
 11
197.4
 21
-179.0
 31
0.0
1001
DBPROPERTIES
1002
{
1000
PbThick
1002
}
  0
LINE
  5
87
330
1F
100
AcDbEntity
  8
HIDDEN
100
AcDbLine
 10
-0.0000000000000461
 20
-166.1
 30
0.0
 11
197.4
 21
-166.1
 31
0.0
1001
DBPROPERTIES
1002
{
1000
PbHidd
1002
}
  0
LINE
  5
88
330
1F
100
AcDbEntity
  8
THICK
100
AcDbLine
 10
197.4
 20
-166.1
 30
0.0
 11
35.25000000000001
 21
-166.1
 31
0.0
1001
DBPROPERTIES
1002
{
1000
PbThick
1002
}
  0
LINE
  5
89
330
1F
100
AcDbEntity
  8
HIDDEN
100
AcDbLine
 10
0.0000000000000051
 20
-25.0427820916122
 30
0.0
 11
-83.92500000000001
 21
-25.0427820916122
 31
0.0
1001
DBPROPERTIES
1002
{
1000
PbHidd
1002
}
  0
LINE
  5
8A
330
1F
100
AcDbEntity
  8
THICK
100
AcDbLine
 10
-83.92500000000001
 20
-25.0427820916122
 30
0.0
 11
-71.99652263692593
 21
-25.0427820916122
 31
0.0
1001
DBPROPERTIES
1002
{
1000
PbThick
1002
}
  0
LINE
  5
8B
330
1F
100
AcDbEntity
  8
HIDDEN
100
AcDbLine
 10
-71.99652263692593
 20
-25.0427820916122
 30
0.0
 11
-61.79902855830112
 21
-25.0427820916122
 31
0.0
1001
DBPROPERTIES
1002
{
1000
PbHidd
1002
}
  0
LINE
  5
8C
330
1F
100
AcDbEntity
  8
THICK
100
AcDbLine
 10
-61.79902855830112
 20
-25.0427820916122
 30
0.0
 11
-0.0000000000000154
 21
-25.0427820916122
 31
0.0
1001
DBPROPERTIES
1002
{
1000
PbThick
1002
}
  0
LINE
  5
8D
330
1F
100
AcDbEntity
  8
THICK
100
AcDbLine
 10
-30.17822961393125
 20
-23.25278209161218
 30
0.0
 11
0.0000000000000051
 21
-23.25278209161218
 31
0.0
1001
DBPROPERTIES
1002
{
1000
PbThick
1002
}
  0
LINE
  5
8E
330
1F
100
AcDbEntity
  8
THICK
100
AcDbLine
 10
-30.17823028564453
 20
-23.25278282165527
 30
0.0
 11
-30.33611297607422
 21
-23.29218292236328
 31
0.0
1001
DBPROPERTIES
1002
{
1000
PbThick
1002
}
  0
LINE
  5
8F
330
1F
100
AcDbEntity
  8
THICK
100
AcDbLine
 10
-30.33611297607422
 20
-23.29218292236328
 30
0.0
 11
-30.49438667297363
 21
-23.3242015838623
 31
0.0
1001
DBPROPERTIES
1002
{
1000
PbThick
1002
}
  0
LINE
  5
90
330
1F
100
AcDbEntity
  8
THICK
100
AcDbLine
 10
-30.49438667297363
 20
-23.3242015838623
 30
0.0
 11
-30.65251731872559
 21
-23.34884262084961
 31
0.0
1001
DBPROPERTIES
1002
{
1000
PbThick
1002
}
  0
LINE
  5
91
330
1F
100
AcDbEntity
  8
THICK
100
AcDbLine
 10
-30.65251731872559
 20
-23.34884262084961
 30
0.0
 11
-30.80993843078613
 21
-23.36625289916992
 31
0.0
1001
DBPROPERTIES
1002
{
1000
PbThick
1002
}
  0
LINE
  5
92
330
1F
100
AcDbEntity
  8
THICK
100
AcDbLine
 10
-30.80993843078613
 20
-23.36625289916992
 30
0.0
 11
-30.96608924865723
 21
-23.37658882141113
 31
0.0
1001
DBPROPERTIES
1002
{
1000
PbThick
1002
}
  0
LINE
  5
93
330
1F
100
AcDbEntity
  8
THICK
100
AcDbLine
 10
-30.96608924865723
 20
-23.37658882141113
 30
0.0
 11
-31.12040710449219
 21
-23.3799991607666
 31
0.0
1001
DBPROPERTIES
1002
{
1000
PbThick
1002
}
  0
LINE
  5
94
330
1F
100
AcDbEntity
  8
HIDDEN
100
AcDbLine
 10
-31.12040710449219
 20
-23.3799991607666
 30
0.0
 11
-31.27433776855469
 21
-23.37660026550293
 31
0.0
1001
DBPROPERTIES
1002
{
1000
PbHidd
1002
}
  0
LINE
  5
95
330
1F
100
AcDbEntity
  8
HIDDEN
100
AcDbLine
 10
-31.27433776855469
 20
-23.37660026550293
 30
0.0
 11
-31.42986297607422
 21
-23.36628532409668
 31
0.0
1001
DBPROPERTIES
1002
{
1000
PbHidd
1002
}
  0
LINE
  5
96
330
1F
100
AcDbEntity
  8
HIDDEN
100
AcDbLine
 10
-31.42986297607422
 20
-23.36628532409668
 30
0.0
 11
-31.5864086151123
 21
-23.34889602661133
 31
0.0
1001
DBPROPERTIES
1002
{
1000
PbHidd
1002
}
  0
LINE
  5
97
330
1F
100
AcDbEntity
  8
HIDDEN
100
AcDbLine
 10
-31.5864086151123
 20
-23.34889602661133
 30
0.0
 11
-31.74340057373047
 21
-23.32426452636719
 31
0.0
1001
DBPROPERTIES
1002
{
1000
PbHidd
1002
}
  0
LINE
  5
98
330
1F
100
AcDbEntity
  8
HIDDEN
100
AcDbLine
 10
-31.74340057373047
 20
-23.32426452636719
 30
0.0
 11
-31.90026664733887
 21
-23.29222869873047
 31
0.0
1001
DBPROPERTIES
1002
{
1000
PbHidd
1002
}
  0
LINE
  5
99
330
1F
100
AcDbEntity
  8
HIDDEN
100
AcDbLine
 10
-31.90026664733887
 20
-23.29222869873047
 30
0.0
 11
-32.05646514892578
 21
-23.25278282165527
 31
0.0
1001
DBPROPERTIES
1002
{
1000
PbHidd
1002
}
  0
LINE
  5
9A
330
1F
100
AcDbEntity
  8
THICK
100
AcDbLine
 10
-83.92499999631592
 20
-23.25278209161218
 30
0.0
 11
-83.10081947081434
 21
-23.25278209161218
 31
0.0
1001
DBPROPERTIES
1002
{
1000
PbThick
1002
}
  0
LINE
  5
9B
330
1F
100
AcDbEntity
  8
HIDDEN
100
AcDbLine
 10
-83.10081947081434
 20
-23.25278209161218
 30
0.0
 11
-32.05646628587404
 21
-23.25278209161218
 31
0.0
1001
DBPROPERTIES
1002
{
1000
PbHidd
1002
}
  0
LINE
  5
9C
330
1F
100
AcDbEntity
  8
THICK
100
AcDbLine
 10
-235.0
 20
-44.75
 30
0.0
 11
-0.0000000000000432
 21
-44.75
 31
0.0
1001
DBPROPERTIES
1002
{
1000
PbThick
1002
}
  0
LINE
  5
9D
330
1F
100
AcDbEntity
  8
THICK
100
AcDbLine
 10
-62.25
 20
-42.0111083984375
 30
0.0
 11
-62.54539108276367
 21
-42.02125549316406
 31
0.0
1001
DBPROPERTIES
1002
{
1000
PbThick
1002
}
  0
LINE
  5
9E
330
1F
100
AcDbEntity
  8
THICK
100
AcDbLine
 10
-62.54539108276367
 20
-42.02125549316406
 30
0.0
 11
-62.83804321289062
 21
-42.02919769287109
 31
0.0
1001
DBPROPERTIES
1002
{
1000
PbThick
1002
}
  0
LINE
  5
9F
330
1F
100
AcDbEntity
  8
THICK
100
AcDbLine
 10
-62.83804321289062
 20
-42.02919769287109
 30
0.0
 11
-63.12619018554688
 21
-42.0349235534668
 31
0.0
1001
DBPROPERTIES
1002
{
1000
PbThick
1002
}
  0
LINE
  5
A0
330
1F
100
AcDbEntity
  8
THICK
100
AcDbLine
 10
-63.12619018554688
 20
-42.0349235534668
 30
0.0
 11
-63.40813446044922
 21
-42.03848266601562
 31
0.0
1001
DBPROPERTIES
1002
{
1000
PbThick
1002
}
  0
LINE
  5
A1
330
1F
100
AcDbEntity
  8
THICK
100
AcDbLine
 10
-63.40813446044922
 20
-42.03848266601562
 30
0.0
 11
-63.68217468261719
 21
-42.03993606567383
 31
0.0
1001
DBPROPERTIES
1002
{
1000
PbThick
1002
}
  0
LINE
  5
A2
330
1F
100
AcDbEntity
  8
THICK
100
AcDbLine
 10
-63.68217468261719
 20
-42.03993606567383
 30
0.0
 11
-63.94986724853516
 21
-42.03933334350586
 31
0.0
1001
DBPROPERTIES
1002
{
1000
PbThick
1002
}
  0
LINE
  5
A3
330
1F
100
AcDbEntity
  8
THICK
100
AcDbLine
 10
-63.94986724853516
 20
-42.03933334350586
 30
0.0
 11
-64.21622467041016
 21
-42.03665161132812
 31
0.0
1001
DBPROPERTIES
1002
{
1000
PbThick
1002
}
  0
LINE
  5
A4
330
1F
100
AcDbEntity
  8
THICK
100
AcDbLine
 10
-64.21622467041016
 20
-42.03665161132812
 30
0.0
 11
-64.4794921875
 21
-42.03182983398438
 31
0.0
1001
DBPROPERTIES
1002
{
1000
PbThick
1002
}
  0
LINE
  5
A5
330
1F
100
AcDbEntity
  8
THICK
100
AcDbLine
 10
-64.4794921875
 20
-42.03182983398438
 30
0.0
 11
-64.73770141601562
 21
-42.02480697631836
 31
0.0
1001
DBPROPERTIES
1002
{
1000
PbThick
1002
}
  0
LINE
  5
A6
330
1F
100
AcDbEntity
  8
THICK
100
AcDbLine
 10
-64.73770141601562
 20
-42.02480697631836
 30
0.0
 11
-64.9890365600586
 21
-42.01556396484375
 31
0.0
1001
DBPROPERTIES
1002
{
1000
PbThick
1002
}
  0
LINE
  5
A7
330
1F
100
AcDbEntity
  8
THICK
100
AcDbLine
 10
-64.9890365600586
 20
-42.01556396484375
 30
0.0
 11
-65.2319107055664
 21
-42.0041389465332
 31
0.0
1001
DBPROPERTIES
1002
{
1000
PbThick
1002
}
  0
LINE
  5
A8
330
1F
100
AcDbEntity
  8
THICK
100
AcDbLine
 10
-65.2319107055664
 20
-42.0041389465332
 30
0.0
 11
-65.46475219726562
 21
-41.99057769775391
 31
0.0
1001
DBPROPERTIES
1002
{
1000
PbThick
1002
}
  0
LINE
  5
A9
330
1F
100
AcDbEntity
  8
THICK
100
AcDbLine
 10
-65.46475219726562
 20
-41.99057769775391
 30
0.0
 11
-65.68614959716797
 21
-41.97492599487305
 31
0.0
1001
DBPROPERTIES
1002
{
1000
PbThick
1002
}
  0
LINE
  5
AA
330
1F
100
AcDbEntity
  8
THICK
100
AcDbLine
 10
-65.68614959716797
 20
-41.97492599487305
 30
0.0
 11
-65.89505004882812
 21
-41.95729064941406
 31
0.0
1001
DBPROPERTIES
1002
{
1000
PbThick
1002
}
  0
LINE
  5
AB
330
1F
100
AcDbEntity
  8
THICK
100
AcDbLine
 10
-65.89505004882812
 20
-41.95729064941406
 30
0.0
 11
-66.09036254882812
 21
-41.93779373168945
 31
0.0
1001
DBPROPERTIES
1002
{
1000
PbThick
1002
}
  0
LINE
  5
AC
330
1F
100
AcDbEntity
  8
THICK
100
AcDbLine
 10
-66.09036254882812
 20
-41.93779373168945
 30
0.0
 11
-66.2710189819336
 21
-41.91657257080078
 31
0.0
1001
DBPROPERTIES
1002
{
1000
PbThick
1002
}
  0
LINE
  5
AD
330
1F
100
AcDbEntity
  8
THICK
100
AcDbLine
 10
-66.2710189819336
 20
-41.91657257080078
 30
0.0
 11
-66.43626403808594
 21
-41.89380264282227
 31
0.0
1001
DBPROPERTIES
1002
{
1000
PbThick
1002
}
  0
LINE
  5
AE
330
1F
100
AcDbEntity
  8
THICK
100
AcDbLine
 10
-66.43626403808594
 20
-41.89380264282227
 30
0.0
 11
-66.58566284179688
 21
-41.86969375610352
 31
0.0
1001
DBPROPERTIES
1002
{
1000
PbThick
1002
}
  0
LINE
  5
AF
330
1F
100
AcDbEntity
  8
THICK
100
AcDbLine
 10
-66.58566284179688
 20
-41.86969375610352
 30
0.0
 11
-66.71881866455078
 21
-41.84446334838867
 31
0.0
1001
DBPROPERTIES
1002
{
1000
PbThick
1002
}
  0
LINE
  5
B0
330
1F
100
AcDbEntity
  8
THICK
100
AcDbLine
 10
-66.71881866455078
 20
-41.84446334838867
 30
0.0
 11
-66.83808898925781
 21
-41.81769943237305
 31
0.0
1001
DBPROPERTIES
1002
{
1000
PbThick
1002
}
  0
LINE
  5
B1
330
1F
100
AcDbEntity
  8
THICK
100
AcDbLine
 10
-66.83808898925781
 20
-41.81769943237305
 30
0.0
 11
-66.94427490234375
 21
-41.78915023803711
 31
0.0
1001
DBPROPERTIES
1002
{
1000
PbThick
1002
}
  0
LINE
  5
B2
330
1F
100
AcDbEntity
  8
THICK
100
AcDbLine
 10
-66.94427490234375
 20
-41.78915023803711
 30
0.0
 11
-67.03611755371094
 21
-41.75894165039062
 31
0.0
1001
DBPROPERTIES
1002
{
1000
PbThick
1002
}
  0
LINE
  5
B3
330
1F
100
AcDbEntity
  8
THICK
100
AcDbLine
 10
-67.03611755371094
 20
-41.75894165039062
 30
0.0
 11
-67.11241149902344
 21
-41.72720336914062
 31
0.0
1001
DBPROPERTIES
1002
{
1000
PbThick
1002
}
  0
LINE
  5
B4
330
1F
100
AcDbEntity
  8
THICK
100
AcDbLine
 10
-67.11241149902344
 20
-41.72720336914062
 30
0.0
 11
-67.1723861694336
 21
-41.69409561157227
 31
0.0
1001
DBPROPERTIES
1002
{
1000
PbThick
1002
}
  0
LINE
  5
B5
330
1F
100
AcDbEntity
  8
THICK
100
AcDbLine
 10
-67.1723861694336
 20
-41.69409561157227
 30
0.0
 11
-67.215576171875
 21
-41.65980911254883
 31
0.0
1001
DBPROPERTIES
1002
{
1000
PbThick
1002
}
  0
LINE
  5
B6
330
1F
100
AcDbEntity
  8
THICK
100
AcDbLine
 10
-67.215576171875
 20
-41.65980911254883
 30
0.0
 11
-67.24150085449219
 21
-41.6245231628418
 31
0.0
1001
DBPROPERTIES
1002
{
1000
PbThick
1002
}
  0
LINE
  5
B7
330
1F
100
AcDbEntity
  8
THICK
100
AcDbLine
 10
-67.24150085449219
 20
-41.6245231628418
 30
0.0
 11
-67.24993133544922
 21
-41.58841705322266
 31
0.0
1001
DBPROPERTIES
1002
{
1000
PbThick
1002
}
  0
LINE
  5
B8
330
1F
100
AcDbEntity
  8
THICK
100
AcDbLine
 10
-67.24993133544922
 20
-41.58841705322266
 30
0.0
 11
-67.2420883178711
 21
-41.55392456054688
 31
0.0
1001
DBPROPERTIES
1002
{
1000
PbThick
1002
}
  0
LINE
  5
B9
330
1F
100
AcDbEntity
  8
THICK
100
AcDbLine
 10
-67.2420883178711
 20
-41.55392456054688
 30
0.0
 11
-67.21919250488281
 21
-41.51907730102539
 31
0.0
1001
DBPROPERTIES
1002
{
1000
PbThick
1002
}
  0
LINE
  5
BA
330
1F
100
AcDbEntity
  8
THICK
100
AcDbLine
 10
-67.21919250488281
 20
-41.51907730102539
 30
0.0
 11
-67.18148040771484
 21
-41.48405456542969
 31
0.0
1001
DBPROPERTIES
1002
{
1000
PbThick
1002
}
  0
LINE
  5
BB
330
1F
100
AcDbEntity
  8
THICK
100
AcDbLine
 10
-67.18148040771484
 20
-41.48405456542969
 30
0.0
 11
-67.12957000732422
 21
-41.44905853271484
 31
0.0
1001
DBPROPERTIES
1002
{
1000
PbThick
1002
}
  0
LINE
  5
BC
330
1F
100
AcDbEntity
  8
THICK
100
AcDbLine
 10
-67.12957000732422
 20
-41.44905853271484
 30
0.0
 11
-67.06433868408203
 21
-41.41429138183594
 31
0.0
1001
DBPROPERTIES
1002
{
1000
PbThick
1002
}
  0
LINE
  5
BD
330
1F
100
AcDbEntity
  8
THICK
100
AcDbLine
 10
-67.06433868408203
 20
-41.41429138183594
 30
0.0
 11
-66.98665618896484
 21
-41.37995147705078
 31
0.0
1001
DBPROPERTIES
1002
{
1000
PbThick
1002
}
  0
LINE
  5
BE
330
1F
100
AcDbEntity
  8
THICK
100
AcDbLine
 10
-66.98665618896484
 20
-41.37995147705078
 30
0.0
 11
-66.89814758300781
 21
-41.34646987915039
 31
0.0
1001
DBPROPERTIES
1002
{
1000
PbThick
1002
}
  0
LINE
  5
BF
330
1F
100
AcDbEntity
  8
THICK
100
AcDbLine
 10
-66.89814758300781
 20
-41.34646987915039
 30
0.0
 11
-66.79572296142578
 21
-41.31254577636719
 31
0.0
1001
DBPROPERTIES
1002
{
1000
PbThick
1002
}
  0
LINE
  5
C0
330
1F
100
AcDbEntity
  8
THICK
100
AcDbLine
 10
-66.79572296142578
 20
-41.31254577636719
 30
0.0
 11
-66.67945861816406
 21
-41.27837753295898
 31
0.0
1001
DBPROPERTIES
1002
{
1000
PbThick
1002
}
  0
LINE
  5
C1
330
1F
100
AcDbEntity
  8
THICK
100
AcDbLine
 10
-66.67945861816406
 20
-41.27837753295898
 30
0.0
 11
-66.54948425292969
 21
-41.24416732788086
 31
0.0
1001
DBPROPERTIES
1002
{
1000
PbThick
1002
}
  0
LINE
  5
C2
330
1F
100
AcDbEntity
  8
THICK
100
AcDbLine
 10
-66.54948425292969
 20
-41.24416732788086
 30
0.0
 11
-66.40611267089844
 21
-41.21010208129883
 31
0.0
1001
DBPROPERTIES
1002
{
1000
PbThick
1002
}
  0
LINE
  5
C3
330
1F
100
AcDbEntity
  8
THICK
100
AcDbLine
 10
-66.40611267089844
 20
-41.21010208129883
 30
0.0
 11
-66.25
 21
-41.17636108398438
 31
0.0
1001
DBPROPERTIES
1002
{
1000
PbThick
1002
}
  0
LINE
  5
C4
330
1F
100
AcDbEntity
  8
HIDDEN
100
AcDbLine
 10
-66.25
 20
-41.17636108398438
 30
0.0
 11
-66.02311706542969
 21
-41.13219833374023
 31
0.0
1001
DBPROPERTIES
1002
{
1000
PbHidd
1002
}
  0
LINE
  5
C5
330
1F
100
AcDbEntity
  8
HIDDEN
100
AcDbLine
 10
-66.02311706542969
 20
-41.13219833374023
 30
0.0
 11
-65.7763900756836
 21
-41.08933639526367
 31
0.0
1001
DBPROPERTIES
1002
{
1000
PbHidd
1002
}
  0
LINE
  5
C6
330
1F
100
AcDbEntity
  8
HIDDEN
100
AcDbLine
 10
-65.7763900756836
 20
-41.08933639526367
 30
0.0
 11
-65.51216888427734
 21
-41.04813766479492
 31
0.0
1001
DBPROPERTIES
1002
{
1000
PbHidd
1002
}
  0
LINE
  5
C7
330
1F
100
AcDbEntity
  8
HIDDEN
100
AcDbLine
 10
-65.51216888427734
 20
-41.04813766479492
 30
0.0
 11
-65.23311614990234
 21
-41.00896453857422
 31
0.0
1001
DBPROPERTIES
1002
{
1000
PbHidd
1002
}
  0
LINE
  5
C8
330
1F
100
AcDbEntity
  8
HIDDEN
100
AcDbLine
 10
-65.23311614990234
 20
-41.00896453857422
 30
0.0
 11
-64.94218444824219
 21
-40.97215270996094
 31
0.0
1001
DBPROPERTIES
1002
{
1000
PbHidd
1002
}
  0
LINE
  5
C9
330
1F
100
AcDbEntity
  8
HIDDEN
100
AcDbLine
 10
-64.94218444824219
 20
-40.97215270996094
 30
0.0
 11
-64.64292907714844
 21
-40.93795776367188
 31
0.0
1001
DBPROPERTIES
1002
{
1000
PbHidd
1002
}
  0
LINE
  5
CA
330
1F
100
AcDbEntity
  8
HIDDEN
100
AcDbLine
 10
-64.64292907714844
 20
-40.93795776367188
 30
0.0
 11
-64.33638000488281
 21
-40.9063835144043
 31
0.0
1001
DBPROPERTIES
1002
{
1000
PbHidd
1002
}
  0
LINE
  5
CB
330
1F
100
AcDbEntity
  8
HIDDEN
100
AcDbLine
 10
-64.33638000488281
 20
-40.9063835144043
 30
0.0
 11
-64.01417541503906
 21
-40.8765869140625
 31
0.0
1001
DBPROPERTIES
1002
{
1000
PbHidd
1002
}
  0
LINE
  5
CC
330
1F
100
AcDbEntity
  8
HIDDEN
100
AcDbLine
 10
-64.01417541503906
 20
-40.8765869140625
 30
0.0
 11
-63.67771911621094
 21
-40.84886169433594
 31
0.0
1001
DBPROPERTIES
1002
{
1000
PbHidd
1002
}
  0
LINE
  5
CD
330
1F
100
AcDbEntity
  8
HIDDEN
100
AcDbLine
 10
-63.67771911621094
 20
-40.84886169433594
 30
0.0
 11
-63.32988357543945
 21
-40.82363128662109
 31
0.0
1001
DBPROPERTIES
1002
{
1000
PbHidd
1002
}
  0
LINE
  5
CE
330
1F
100
AcDbEntity
  8
HIDDEN
100
AcDbLine
 10
-63.32988357543945
 20
-40.82363128662109
 30
0.0
 11
-62.97384262084961
 21
-40.80120086669922
 31
0.0
1001
DBPROPERTIES
1002
{
1000
PbHidd
1002
}
  0
LINE
  5
CF
330
1F
100
AcDbEntity
  8
HIDDEN
100
AcDbLine
 10
-62.97384262084961
 20
-40.80120086669922
 30
0.0
 11
-62.61286544799805
 21
-40.78184509277344
 31
0.0
1001
DBPROPERTIES
1002
{
1000
PbHidd
1002
}
  0
LINE
  5
D0
330
1F
100
AcDbEntity
  8
HIDDEN
100
AcDbLine
 10
-62.61286544799805
 20
-40.78184509277344
 30
0.0
 11
-62.25
 21
-40.76576614379883
 31
0.0
1001
DBPROPERTIES
1002
{
1000
PbHidd
1002
}
  0
LINE
  5
D1
330
1F
100
AcDbEntity
  8
HIDDEN
100
AcDbLine
 10
-62.25
 20
-40.76576614379883
 30
0.0
 11
-62.00046539306641
 21
-40.75664520263672
 31
0.0
1001
DBPROPERTIES
1002
{
1000
PbHidd
1002
}
  0
LINE
  5
D2
330
1F
100
AcDbEntity
  8
HIDDEN
100
AcDbLine
 10
-62.00046539306641
 20
-40.75664520263672
 30
0.0
 11
-61.75269317626953
 21
-40.74916076660156
 31
0.0
1001
DBPROPERTIES
1002
{
1000
PbHidd
1002
}
  0
LINE
  5
D3
330
1F
100
AcDbEntity
  8
HIDDEN
100
AcDbLine
 10
-61.75269317626953
 20
-40.74916076660156
 30
0.0
 11
-61.50779342651367
 21
-40.74333572387695
 31
0.0
1001
DBPROPERTIES
1002
{
1000
PbHidd
1002
}
  0
LINE
  5
D4
330
1F
100
AcDbEntity
  8
HIDDEN
100
AcDbLine
 10
-61.50779342651367
 20
-40.74333572387695
 30
0.0
 11
-61.266845703125
 21
-40.7391471862793
 31
0.0
1001
DBPROPERTIES
1002
{
1000
PbHidd
1002
}
  0
LINE
  5
D5
330
1F
100
AcDbEntity
  8
HIDDEN
100
AcDbLine
 10
-61.266845703125
 20
-40.7391471862793
 30
0.0
 11
-61.03090667724609
 21
-40.7365608215332
 31
0.0
1001
DBPROPERTIES
1002
{
1000
PbHidd
1002
}
  0
LINE
  5
D6
330
1F
100
AcDbEntity
  8
HIDDEN
100
AcDbLine
 10
-61.03090667724609
 20
-40.7365608215332
 30
0.0
 11
-60.8010368347168
 21
-40.73553466796875
 31
0.0
1001
DBPROPERTIES
1002
{
1000
PbHidd
1002
}
  0
LINE
  5
D7
330
1F
100
AcDbEntity
  8
HIDDEN
100
AcDbLine
 10
-60.8010368347168
 20
-40.73553466796875
 30
0.0
 11
-60.57560729980469
 21
-40.73603820800781
 31
0.0
1001
DBPROPERTIES
1002
{
1000
PbHidd
1002
}
  0
LINE
  5
D8
330
1F
100
AcDbEntity
  8
HIDDEN
100
AcDbLine
 10
-60.57560729980469
 20
-40.73603820800781
 30
0.0
 11
-60.35074234008789
 21
-40.73808288574219
 31
0.0
1001
DBPROPERTIES
1002
{
1000
PbHidd
1002
}
  0
LINE
  5
D9
330
1F
100
AcDbEntity
  8
HIDDEN
100
AcDbLine
 10
-60.35074234008789
 20
-40.73808288574219
 30
0.0
 11
-60.12757110595703
 21
-40.74171829223633
 31
0.0
1001
DBPROPERTIES
1002
{
1000
PbHidd
1002
}
  0
LINE
  5
DA
330
1F
100
AcDbEntity
  8
HIDDEN
100
AcDbLine
 10
-60.12757110595703
 20
-40.74171829223633
 30
0.0
 11
-59.9073371887207
 21
-40.74697875976562
 31
0.0
1001
DBPROPERTIES
1002
{
1000
PbHidd
1002
}
  0
LINE
  5
DB
330
1F
100
AcDbEntity
  8
HIDDEN
100
AcDbLine
 10
-59.9073371887207
 20
-40.74697875976562
 30
0.0
 11
-59.69124984741211
 21
-40.75389862060547
 31
0.0
1001
DBPROPERTIES
1002
{
1000
PbHidd
1002
}
  0
LINE
  5
DC
330
1F
100
AcDbEntity
  8
HIDDEN
100
AcDbLine
 10
-59.69124984741211
 20
-40.75389862060547
 30
0.0
 11
-59.4803581237793
 21
-40.7624626159668
 31
0.0
1001
DBPROPERTIES
1002
{
1000
PbHidd
1002
}
  0
LINE
  5
DD
330
1F
100
AcDbEntity
  8
HIDDEN
100
AcDbLine
 10
-59.4803581237793
 20
-40.7624626159668
 30
0.0
 11
-59.27565765380859
 21
-40.77264022827148
 31
0.0
1001
DBPROPERTIES
1002
{
1000
PbHidd
1002
}
  0
LINE
  5
DE
330
1F
100
AcDbEntity
  8
HIDDEN
100
AcDbLine
 10
-59.27565765380859
 20
-40.77264022827148
 30
0.0
 11
-59.0781364440918
 21
-40.78440475463867
 31
0.0
1001
DBPROPERTIES
1002
{
1000
PbHidd
1002
}
  0
LINE
  5
DF
330
1F
100
AcDbEntity
  8
HIDDEN
100
AcDbLine
 10
-59.0781364440918
 20
-40.78440475463867
 30
0.0
 11
-58.888671875
 21
-40.79772567749023
 31
0.0
1001
DBPROPERTIES
1002
{
1000
PbHidd
1002
}
  0
LINE
  5
E0
330
1F
100
AcDbEntity
  8
HIDDEN
100
AcDbLine
 10
-58.888671875
 20
-40.79772567749023
 30
0.0
 11
-58.70793151855469
 21
-40.81252288818359
 31
0.0
1001
DBPROPERTIES
1002
{
1000
PbHidd
1002
}
  0
LINE
  5
E1
330
1F
100
AcDbEntity
  8
HIDDEN
100
AcDbLine
 10
-58.70793151855469
 20
-40.81252288818359
 30
0.0
 11
-58.53660202026367
 21
-40.82871627807617
 31
0.0
1001
DBPROPERTIES
1002
{
1000
PbHidd
1002
}
  0
LINE
  5
E2
330
1F
100
AcDbEntity
  8
HIDDEN
100
AcDbLine
 10
-58.53660202026367
 20
-40.82871627807617
 30
0.0
 11
-58.3753776550293
 21
-40.84621047973633
 31
0.0
1001
DBPROPERTIES
1002
{
1000
PbHidd
1002
}
  0
LINE
  5
E3
330
1F
100
AcDbEntity
  8
HIDDEN
100
AcDbLine
 10
-58.3753776550293
 20
-40.84621047973633
 30
0.0
 11
-58.22487640380859
 21
-40.86491394042969
 31
0.0
1001
DBPROPERTIES
1002
{
1000
PbHidd
1002
}
  0
LINE
  5
E4
330
1F
100
AcDbEntity
  8
HIDDEN
100
AcDbLine
 10
-58.22487640380859
 20
-40.86491394042969
 30
0.0
 11
-58.08544158935547
 21
-40.88468933105469
 31
0.0
1001
DBPROPERTIES
1002
{
1000
PbHidd
1002
}
  0
LINE
  5
E5
330
1F
100
AcDbEntity
  8
HIDDEN
100
AcDbLine
 10
-58.08544158935547
 20
-40.88468933105469
 30
0.0
 11
-57.95736694335938
 21
-40.90538787841797
 31
0.0
1001
DBPROPERTIES
1002
{
1000
PbHidd
1002
}
  0
LINE
  5
E6
330
1F
100
AcDbEntity
  8
HIDDEN
100
AcDbLine
 10
-57.95736694335938
 20
-40.90538787841797
 30
0.0
 11
-57.84090042114258
 21
-40.92687225341797
 31
0.0
1001
DBPROPERTIES
1002
{
1000
PbHidd
1002
}
  0
LINE
  5
E7
330
1F
100
AcDbEntity
  8
HIDDEN
100
AcDbLine
 10
-57.84090042114258
 20
-40.92687225341797
 30
0.0
 11
-57.73406600952148
 21
-40.94947814941406
 31
0.0
1001
DBPROPERTIES
1002
{
1000
PbHidd
1002
}
  0
LINE
  5
E8
330
1F
100
AcDbEntity
  8
HIDDEN
100
AcDbLine
 10
-57.73406600952148
 20
-40.94947814941406
 30
0.0
 11
-57.63610076904297
 21
-40.97340774536133
 31
0.0
1001
DBPROPERTIES
1002
{
1000
PbHidd
1002
}
  0
LINE
  5
E9
330
1F
100
AcDbEntity
  8
HIDDEN
100
AcDbLine
 10
-57.63610076904297
 20
-40.97340774536133
 30
0.0
 11
-57.54782867431641
 21
-40.99858093261719
 31
0.0
1001
DBPROPERTIES
1002
{
1000
PbHidd
1002
}
  0
LINE
  5
EA
330
1F
100
AcDbEntity
  8
HIDDEN
100
AcDbLine
 10
-57.54782867431641
 20
-40.99858093261719
 30
0.0
 11
-57.47006607055664
 21
-41.02490997314453
 31
0.0
1001
DBPROPERTIES
1002
{
1000
PbHidd
1002
}
  0
LINE
  5
EB
330
1F
100
AcDbEntity
  8
HIDDEN
100
AcDbLine
 10
-57.47006607055664
 20
-41.02490997314453
 30
0.0
 11
-57.40349578857422
 21
-41.05229949951172
 31
0.0
1001
DBPROPERTIES
1002
{
1000
PbHidd
1002
}
  0
LINE
  5
EC
330
1F
100
AcDbEntity
  8
HIDDEN
100
AcDbLine
 10
-57.40349578857422
 20
-41.05229949951172
 30
0.0
 11
-57.3484992980957
 21
-41.08063507080078
 31
0.0
1001
DBPROPERTIES
1002
{
1000
PbHidd
1002
}
  0
LINE
  5
ED
330
1F
100
AcDbEntity
  8
HIDDEN
100
AcDbLine
 10
-57.3484992980957
 20
-41.08063507080078
 30
0.0
 11
-57.30541229248047
 21
-41.10979843139648
 31
0.0
1001
DBPROPERTIES
1002
{
1000
PbHidd
1002
}
  0
LINE
  5
EE
330
1F
100
AcDbEntity
  8
HIDDEN
100
AcDbLine
 10
-57.30541229248047
 20
-41.10979843139648
 30
0.0
 11
-57.27456283569336
 21
-41.13966751098633
 31
0.0
1001
DBPROPERTIES
1002
{
1000
PbHidd
1002
}
  0
LINE
  5
EF
330
1F
100
AcDbEntity
  8
HIDDEN
100
AcDbLine
 10
-57.27456283569336
 20
-41.13966751098633
 30
0.0
 11
-57.25614929199219
 21
-41.17012786865234
 31
0.0
1001
DBPROPERTIES
1002
{
1000
PbHidd
1002
}
  0
LINE
  5
F0
330
1F
100
AcDbEntity
  8
HIDDEN
100
AcDbLine
 10
-57.25614929199219
 20
-41.17012786865234
 30
0.0
 11
-57.25008010864258
 21
-41.2010498046875
 31
0.0
1001
DBPROPERTIES
1002
{
1000
PbHidd
1002
}
  0
LINE
  5
F1
330
1F
100
AcDbEntity
  8
THICK
100
AcDbLine
 10
-57.25008010864258
 20
-41.2010498046875
 30
0.0
 11
-57.25591278076172
 21
-41.23146057128906
 31
0.0
1001
DBPROPERTIES
1002
{
1000
PbThick
1002
}
  0
LINE
  5
F2
330
1F
100
AcDbEntity
  8
THICK
100
AcDbLine
 10
-57.25591278076172
 20
-41.23146057128906
 30
0.0
 11
-57.27322769165039
 21
-41.26204299926758
 31
0.0
1001
DBPROPERTIES
1002
{
1000
PbThick
1002
}
  0
LINE
  5
F3
330
1F
100
AcDbEntity
  8
THICK
100
AcDbLine
 10
-57.27322769165039
 20
-41.26204299926758
 30
0.0
 11
-57.30178070068359
 21
-41.29266357421875
 31
0.0
1001
DBPROPERTIES
1002
{
1000
PbThick
1002
}
  0
LINE
  5
F4
330
1F
100
AcDbEntity
  8
THICK
100
AcDbLine
 10
-57.30178070068359
 20
-41.29266357421875
 30
0.0
 11
-57.34104919433594
 21
-41.32317733764648
 31
0.0
1001
DBPROPERTIES
1002
{
1000
PbThick
1002
}
  0
LINE
  5
F5
330
1F
100
AcDbEntity
  8
THICK
100
AcDbLine
 10
-57.34104919433594
 20
-41.32317733764648
 30
0.0
 11
-57.39046096801758
 21
-41.35345077514648
 31
0.0
1001
DBPROPERTIES
1002
{
1000
PbThick
1002
}
  0
LINE
  5
F6
330
1F
100
AcDbEntity
  8
THICK
100
AcDbLine
 10
-57.39046096801758
 20
-41.35345077514648
 30
0.0
 11
-57.44945526123047
 21
-41.38334655761719
 31
0.0
1001
DBPROPERTIES
1002
{
1000
PbThick
1002
}
  0
LINE
  5
F7
330
1F
100
AcDbEntity
  8
THICK
100
AcDbLine
 10
-57.44945526123047
 20
-41.38334655761719
 30
0.0
 11
-57.51884078979492
 21
-41.4133186340332
 31
0.0
1001
DBPROPERTIES
1002
{
1000
PbThick
1002
}
  0
LINE
  5
F8
330
1F
100
AcDbEntity
  8
THICK
100
AcDbLine
 10
-57.51884078979492
 20
-41.4133186340332
 30
0.0
 11
-57.59933853149414
 21
-41.44362258911133
 31
0.0
1001
DBPROPERTIES
1002
{
1000
PbThick
1002
}
  0
LINE
  5
F9
330
1F
100
AcDbEntity
  8
THICK
100
AcDbLine
 10
-57.59933853149414
 20
-41.44362258911133
 30
0.0
 11
-57.69092559814453
 21
-41.47412109375
 31
0.0
1001
DBPROPERTIES
1002
{
1000
PbThick
1002
}
  0
LINE
  5
FA
330
1F
100
AcDbEntity
  8
THICK
100
AcDbLine
 10
-57.69092559814453
 20
-41.47412109375
 30
0.0
 11
-57.7935676574707
 21
-41.50468444824219
 31
0.0
1001
DBPROPERTIES
1002
{
1000
PbThick
1002
}
  0
LINE
  5
FB
330
1F
100
AcDbEntity
  8
THICK
100
AcDbLine
 10
-57.7935676574707
 20
-41.50468444824219
 30
0.0
 11
-57.90718460083008
 21
-41.53517532348633
 31
0.0
1001
DBPROPERTIES
1002
{
1000
PbThick
1002
}
  0
LINE
  5
FC
330
1F
100
AcDbEntity
  8
THICK
100
AcDbLine
 10
-57.90718460083008
 20
-41.53517532348633
 30
0.0
 11
-58.03142929077148
 21
-41.56547164916992
 31
0.0
1001
DBPROPERTIES
1002
{
1000
PbThick
1002
}
  0
LINE
  5
FD
330
1F
100
AcDbEntity
  8
THICK
100
AcDbLine
 10
-58.03142929077148
 20
-41.56547164916992
 30
0.0
 11
-58.16587066650391
 21
-41.59545135498047
 31
0.0
1001
DBPROPERTIES
1002
{
1000
PbThick
1002
}
  0
LINE
  5
FE
330
1F
100
AcDbEntity
  8
THICK
100
AcDbLine
 10
-58.16587066650391
 20
-41.59545135498047
 30
0.0
 11
-58.31008529663086
 21
-41.6249885559082
 31
0.0
1001
DBPROPERTIES
1002
{
1000
PbThick
1002
}
  0
LINE
  5
FF
330
1F
100
AcDbEntity
  8
THICK
100
AcDbLine
 10
-58.31008529663086
 20
-41.6249885559082
 30
0.0
 11
-58.46365356445312
 21
-41.65396881103516
 31
0.0
1001
DBPROPERTIES
1002
{
1000
PbThick
1002
}
  0
LINE
  5
100
330
1F
100
AcDbEntity
  8
THICK
100
AcDbLine
 10
-58.46365356445312
 20
-41.65396881103516
 30
0.0
 11
-58.62601852416992
 21
-41.68230056762695
 31
0.0
1001
DBPROPERTIES
1002
{
1000
PbThick
1002
}
  0
LINE
  5
101
330
1F
100
AcDbEntity
  8
THICK
100
AcDbLine
 10
-58.62601852416992
 20
-41.68230056762695
 30
0.0
 11
-58.79644775390625
 21
-41.70988082885742
 31
0.0
1001
DBPROPERTIES
1002
{
1000
PbThick
1002
}
  0
LINE
  5
102
330
1F
100
AcDbEntity
  8
THICK
100
AcDbLine
 10
-58.79644775390625
 20
-41.70988082885742
 30
0.0
 11
-58.97419357299805
 21
-41.73661041259766
 31
0.0
1001
DBPROPERTIES
1002
{
1000
PbThick
1002
}
  0
LINE
  5
103
330
1F
100
AcDbEntity
  8
THICK
100
AcDbLine
 10
-58.97419357299805
 20
-41.73661041259766
 30
0.0
 11
-59.15851211547852
 21
-41.76238632202148
 31
0.0
1001
DBPROPERTIES
1002
{
1000
PbThick
1002
}
  0
LINE
  5
104
330
1F
100
AcDbEntity
  8
THICK
100
AcDbLine
 10
-59.15851211547852
 20
-41.76238632202148
 30
0.0
 11
-59.3485107421875
 21
-41.7871208190918
 31
0.0
1001
DBPROPERTIES
1002
{
1000
PbThick
1002
}
  0
LINE
  5
105
330
1F
100
AcDbEntity
  8
THICK
100
AcDbLine
 10
-59.3485107421875
 20
-41.7871208190918
 30
0.0
 11
-59.54315948486328
 21
-41.81074905395508
 31
0.0
1001
DBPROPERTIES
1002
{
1000
PbThick
1002
}
  0
LINE
  5
106
330
1F
100
AcDbEntity
  8
THICK
100
AcDbLine
 10
-59.54315948486328
 20
-41.81074905395508
 30
0.0
 11
-59.74143600463867
 21
-41.83319473266602
 31
0.0
1001
DBPROPERTIES
1002
{
1000
PbThick
1002
}
  0
LINE
  5
107
330
1F
100
AcDbEntity
  8
THICK
100
AcDbLine
 10
-59.74143600463867
 20
-41.83319473266602
 30
0.0
 11
-59.94267654418945
 21
-41.85442733764648
 31
0.0
1001
DBPROPERTIES
1002
{
1000
PbThick
1002
}
  0
LINE
  5
108
330
1F
100
AcDbEntity
  8
THICK
100
AcDbLine
 10
-59.94267654418945
 20
-41.85442733764648
 30
0.0
 11
-60.150634765625
 21
-41.87485122680664
 31
0.0
1001
DBPROPERTIES
1002
{
1000
PbThick
1002
}
  0
LINE
  5
109
330
1F
100
AcDbEntity
  8
THICK
100
AcDbLine
 10
-60.150634765625
 20
-41.87485122680664
 30
0.0
 11
-60.36589813232422
 21
-41.89449310302734
 31
0.0
1001
DBPROPERTIES
1002
{
1000
PbThick
1002
}
  0
LINE
  5
10A
330
1F
100
AcDbEntity
  8
THICK
100
AcDbLine
 10
-60.36589813232422
 20
-41.89449310302734
 30
0.0
 11
-60.58767700195312
 21
-41.91323471069336
 31
0.0
1001
DBPROPERTIES
1002
{
1000
PbThick
1002
}
  0
LINE
  5
10B
330
1F
100
AcDbEntity
  8
THICK
100
AcDbLine
 10
-60.58767700195312
 20
-41.91323471069336
 30
0.0
 11
-60.81516265869141
 21
-41.93095016479492
 31
0.0
1001
DBPROPERTIES
1002
{
1000
PbThick
1002
}
  0
LINE
  5
10C
330
1F
100
AcDbEntity
  8
THICK
100
AcDbLine
 10
-60.81516265869141
 20
-41.93095016479492
 30
0.0
 11
-61.04751586914062
 21
-41.94754028320312
 31
0.0
1001
DBPROPERTIES
1002
{
1000
PbThick
1002
}
  0
LINE
  5
10D
330
1F
100
AcDbEntity
  8
THICK
100
AcDbLine
 10
-61.04751586914062
 20
-41.94754028320312
 30
0.0
 11
-61.28381729125977
 21
-41.96292877197266
 31
0.0
1001
DBPROPERTIES
1002
{
1000
PbThick
1002
}
  0
LINE
  5
10E
330
1F
100
AcDbEntity
  8
THICK
100
AcDbLine
 10
-61.28381729125977
 20
-41.96292877197266
 30
0.0
 11
-61.52312088012695
 21
-41.97704315185547
 31
0.0
1001
DBPROPERTIES
1002
{
1000
PbThick
1002
}
  0
LINE
  5
10F
330
1F
100
AcDbEntity
  8
THICK
100
AcDbLine
 10
-61.52312088012695
 20
-41.97704315185547
 30
0.0
 11
-61.76449203491211
 21
-41.98981094360352
 31
0.0
1001
DBPROPERTIES
1002
{
1000
PbThick
1002
}
  0
LINE
  5
110
330
1F
100
AcDbEntity
  8
THICK
100
AcDbLine
 10
-61.76449203491211
 20
-41.98981094360352
 30
0.0
 11
-62.00707626342773
 21
-42.00117492675781
 31
0.0
1001
DBPROPERTIES
1002
{
1000
PbThick
1002
}
  0
LINE
  5
111
330
1F
100
AcDbEntity
  8
THICK
100
AcDbLine
 10
-62.00707626342773
 20
-42.00117492675781
 30
0.0
 11
-62.25
 21
-42.0111083984375
 31
0.0
1001
DBPROPERTIES
1002
{
1000
PbThick
1002
}
  0
LINE
  5
112
330
1F
100
AcDbEntity
  8
THICK
100
AcDbLine
 10
-216.2
 20
-65.3375
 30
0.0
 11
-0.0000000000000431
 21
-65.3375
 31
0.0
1001
DBPROPERTIES
1002
{
1000
PbThick
1002
}
  0
LINE
  5
113
330
1F
100
AcDbEntity
  8
THICK
100
AcDbLine
 10
-192.7
 20
-55.9375
 30
0.0
 11
-66.24999997187764
 21
-55.9375
 31
0.0
1001
DBPROPERTIES
1002
{
1000
PbThick
1002
}
  0
LINE
  5
114
330
1F
100
AcDbEntity
  8
HIDDEN
100
AcDbLine
 10
-66.24999997187764
 20
-55.9375
 30
0.0
 11
-58.24999996196621
 21
-55.9375
 31
0.0
1001
DBPROPERTIES
1002
{
1000
PbHidd
1002
}
  0
LINE
  5
115
330
1F
100
AcDbEntity
  8
THICK
100
AcDbLine
 10
-58.24999996196621
 20
-55.9375
 30
0.0
 11
-0.0000000000000388
 21
-55.9375
 31
0.0
1001
DBPROPERTIES
1002
{
1000
PbThick
1002
}
  0
LINE
  5
116
330
1F
100
AcDbEntity
  8
THICK
100
AcDbLine
 10
-62.25000381469727
 20
-64.458984375
 30
0.0
 11
-62.54967880249023
 21
-64.49050903320312
 31
0.0
1001
DBPROPERTIES
1002
{
1000
PbThick
1002
}
  0
LINE
  5
117
330
1F
100
AcDbEntity
  8
THICK
100
AcDbLine
 10
-62.54967880249023
 20
-64.49050903320312
 30
0.0
 11
-62.84706878662109
 21
-64.5151138305664
 31
0.0
1001
DBPROPERTIES
1002
{
1000
PbThick
1002
}
  0
LINE
  5
118
330
1F
100
AcDbEntity
  8
THICK
100
AcDbLine
 10
-62.84706878662109
 20
-64.5151138305664
 30
0.0
 11
-63.14030075073242
 21
-64.53271484375
 31
0.0
1001
DBPROPERTIES
1002
{
1000
PbThick
1002
}
  0
LINE
  5
119
330
1F
100
AcDbEntity
  8
THICK
100
AcDbLine
 10
-63.14030075073242
 20
-64.53271484375
 30
0.0
 11
-63.42754364013672
 21
-64.54344940185547
 31
0.0
1001
DBPROPERTIES
1002
{
1000
PbThick
1002
}
  0
LINE
  5
11A
330
1F
100
AcDbEntity
  8
THICK
100
AcDbLine
 10
-63.42754364013672
 20
-64.54344940185547
 30
0.0
 11
-63.70696640014648
 21
-64.5474853515625
 31
0.0
1001
DBPROPERTIES
1002
{
1000
PbThick
1002
}
  0
LINE
  5
11B
330
1F
100
AcDbEntity
  8
THICK
100
AcDbLine
 10
-63.70696640014648
 20
-64.5474853515625
 30
0.0
 11
-63.98056030273438
 21
-64.54492950439453
 31
0.0
1001
DBPROPERTIES
1002
{
1000
PbThick
1002
}
  0
LINE
  5
11C
330
1F
100
AcDbEntity
  8
THICK
100
AcDbLine
 10
-63.98056030273438
 20
-64.54492950439453
 30
0.0
 11
-64.25215911865234
 21
-64.53570556640625
 31
0.0
1001
DBPROPERTIES
1002
{
1000
PbThick
1002
}
  0
LINE
  5
11D
330
1F
100
AcDbEntity
  8
THICK
100
AcDbLine
 10
-64.25215911865234
 20
-64.53570556640625
 30
0.0
 11
-64.51976776123047
 21
-64.51964569091797
 31
0.0
1001
DBPROPERTIES
1002
{
1000
PbThick
1002
}
  0
LINE
  5
11E
330
1F
100
AcDbEntity
  8
THICK
100
AcDbLine
 10
-64.51976776123047
 20
-64.51964569091797
 30
0.0
 11
-64.78131866455078
 21
-64.49662017822266
 31
0.0
1001
DBPROPERTIES
1002
{
1000
PbThick
1002
}
  0
LINE
  5
11F
330
1F
100
AcDbEntity
  8
THICK
100
AcDbLine
 10
-64.78131866455078
 20
-64.49662017822266
 30
0.0
 11
-65.03500366210938
 21
-64.46662139892578
 31
0.0
1001
DBPROPERTIES
1002
{
1000
PbThick
1002
}
  0
LINE
  5
120
330
1F
100
AcDbEntity
  8
THICK
100
AcDbLine
 10
-65.03500366210938
 20
-64.46662139892578
 30
0.0
 11
-65.27919006347656
 21
-64.42984771728516
 31
0.0
1001
DBPROPERTIES
1002
{
1000
PbThick
1002
}
  0
LINE
  5
121
330
1F
100
AcDbEntity
  8
THICK
100
AcDbLine
 10
-65.27919006347656
 20
-64.42984771728516
 30
0.0
 11
-65.51229858398438
 21
-64.386474609375
 31
0.0
1001
DBPROPERTIES
1002
{
1000
PbThick
1002
}
  0
LINE
  5
122
330
1F
100
AcDbEntity
  8
THICK
100
AcDbLine
 10
-65.51229858398438
 20
-64.386474609375
 30
0.0
 11
-65.73298645019531
 21
-64.33671569824219
 31
0.0
1001
DBPROPERTIES
1002
{
1000
PbThick
1002
}
  0
LINE
  5
123
330
1F
100
AcDbEntity
  8
THICK
100
AcDbLine
 10
-65.73298645019531
 20
-64.33671569824219
 30
0.0
 11
-65.94025421142578
 21
-64.2809829711914
 31
0.0
1001
DBPROPERTIES
1002
{
1000
PbThick
1002
}
  0
LINE
  5
124
330
1F
100
AcDbEntity
  8
THICK
100
AcDbLine
 10
-65.94025421142578
 20
-64.2809829711914
 30
0.0
 11
-66.13304901123047
 21
-64.21973419189453
 31
0.0
1001
DBPROPERTIES
1002
{
1000
PbThick
1002
}
  0
LINE
  5
125
330
1F
100
AcDbEntity
  8
THICK
100
AcDbLine
 10
-66.13304901123047
 20
-64.21973419189453
 30
0.0
 11
-66.31038665771484
 21
-64.1534652709961
 31
0.0
1001
DBPROPERTIES
1002
{
1000
PbThick
1002
}
  0
LINE
  5
126
330
1F
100
AcDbEntity
  8
THICK
100
AcDbLine
 10
-66.31038665771484
 20
-64.1534652709961
 30
0.0
 11
-66.4716796875
 21
-64.08279418945312
 31
0.0
1001
DBPROPERTIES
1002
{
1000
PbThick
1002
}
  0
LINE
  5
127
330
1F
100
AcDbEntity
  8
THICK
100
AcDbLine
 10
-66.4716796875
 20
-64.08279418945312
 30
0.0
 11
-66.61662292480469
 21
-64.00846862792969
 31
0.0
1001
DBPROPERTIES
1002
{
1000
PbThick
1002
}
  0
LINE
  5
128
330
1F
100
AcDbEntity
  8
THICK
100
AcDbLine
 10
-66.61662292480469
 20
-64.00846862792969
 30
0.0
 11
-66.7451400756836
 21
-63.93106460571289
 31
0.0
1001
DBPROPERTIES
1002
{
1000
PbThick
1002
}
  0
LINE
  5
129
330
1F
100
AcDbEntity
  8
THICK
100
AcDbLine
 10
-66.7451400756836
 20
-63.93106460571289
 30
0.0
 11
-66.86022186279297
 21
-63.8489990234375
 31
0.0
1001
DBPROPERTIES
1002
{
1000
PbThick
1002
}
  0
LINE
  5
12A
330
1F
100
AcDbEntity
  8
THICK
100
AcDbLine
 10
-66.86022186279297
 20
-63.8489990234375
 30
0.0
 11
-66.96199035644531
 21
-63.76199340820312
 31
0.0
1001
DBPROPERTIES
1002
{
1000
PbThick
1002
}
  0
LINE
  5
12B
330
1F
100
AcDbEntity
  8
THICK
100
AcDbLine
 10
-66.96199035644531
 20
-63.76199340820312
 30
0.0
 11
-67.04944610595703
 21
-63.67042922973633
 31
0.0
1001
DBPROPERTIES
1002
{
1000
PbThick
1002
}
  0
LINE
  5
12C
330
1F
100
AcDbEntity
  8
THICK
100
AcDbLine
 10
-67.04944610595703
 20
-63.67042922973633
 30
0.0
 11
-67.12164306640625
 21
-63.57470321655273
 31
0.0
1001
DBPROPERTIES
1002
{
1000
PbThick
1002
}
  0
LINE
  5
12D
330
1F
100
AcDbEntity
  8
THICK
100
AcDbLine
 10
-67.12164306640625
 20
-63.57470321655273
 30
0.0
 11
-67.17807006835938
 21
-63.47529983520508
 31
0.0
1001
DBPROPERTIES
1002
{
1000
PbThick
1002
}
  0
LINE
  5
12E
330
1F
100
AcDbEntity
  8
THICK
100
AcDbLine
 10
-67.17807006835938
 20
-63.47529983520508
 30
0.0
 11
-67.21843719482422
 21
-63.37274551391602
 31
0.0
1001
DBPROPERTIES
1002
{
1000
PbThick
1002
}
  0
LINE
  5
12F
330
1F
100
AcDbEntity
  8
THICK
100
AcDbLine
 10
-67.21843719482422
 20
-63.37274551391602
 30
0.0
 11
-67.24241638183594
 21
-63.26755905151367
 31
0.0
1001
DBPROPERTIES
1002
{
1000
PbThick
1002
}
  0
LINE
  5
130
330
1F
100
AcDbEntity
  8
THICK
100
AcDbLine
 10
-67.24241638183594
 20
-63.26755905151367
 30
0.0
 11
-67.24992370605469
 21
-63.16024398803711
 31
0.0
1001
DBPROPERTIES
1002
{
1000
PbThick
1002
}
  0
LINE
  5
131
330
1F
100
AcDbEntity
  8
THICK
100
AcDbLine
 10
-67.24992370605469
 20
-63.16024398803711
 30
0.0
 11
-67.24170684814453
 21
-63.05446243286133
 31
0.0
1001
DBPROPERTIES
1002
{
1000
PbThick
1002
}
  0
LINE
  5
132
330
1F
100
AcDbEntity
  8
THICK
100
AcDbLine
 10
-67.24170684814453
 20
-63.05446243286133
 30
0.0
 11
-67.21849060058594
 21
-62.94778060913086
 31
0.0
1001
DBPROPERTIES
1002
{
1000
PbThick
1002
}
  0
LINE
  5
133
330
1F
100
AcDbEntity
  8
THICK
100
AcDbLine
 10
-67.21849060058594
 20
-62.94778060913086
 30
0.0
 11
-67.18061065673828
 21
-62.84075546264648
 31
0.0
1001
DBPROPERTIES
1002
{
1000
PbThick
1002
}
  0
LINE
  5
134
330
1F
100
AcDbEntity
  8
THICK
100
AcDbLine
 10
-67.18061065673828
 20
-62.84075546264648
 30
0.0
 11
-67.12872314453125
 21
-62.73398590087891
 31
0.0
1001
DBPROPERTIES
1002
{
1000
PbThick
1002
}
  0
LINE
  5
135
330
1F
100
AcDbEntity
  8
THICK
100
AcDbLine
 10
-67.12872314453125
 20
-62.73398590087891
 30
0.0
 11
-67.06376647949219
 21
-62.62807083129883
 31
0.0
1001
DBPROPERTIES
1002
{
1000
PbThick
1002
}
  0
LINE
  5
136
330
1F
100
AcDbEntity
  8
THICK
100
AcDbLine
 10
-67.06376647949219
 20
-62.62807083129883
 30
0.0
 11
-66.98665618896484
 21
-62.52362060546875
 31
0.0
1001
DBPROPERTIES
1002
{
1000
PbThick
1002
}
  0
LINE
  5
137
330
1F
100
AcDbEntity
  8
THICK
100
AcDbLine
 10
-66.98665618896484
 20
-62.52362060546875
 30
0.0
 11
-66.89844512939453
 21
-62.42126083374023
 31
0.0
1001
DBPROPERTIES
1002
{
1000
PbThick
1002
}
  0
LINE
  5
138
330
1F
100
AcDbEntity
  8
THICK
100
AcDbLine
 10
-66.89844512939453
 20
-62.42126083374023
 30
0.0
 11
-66.79627227783203
 21
-62.31745147705078
 31
0.0
1001
DBPROPERTIES
1002
{
1000
PbThick
1002
}
  0
LINE
  5
139
330
1F
100
AcDbEntity
  8
THICK
100
AcDbLine
 10
-66.79627227783203
 20
-62.31745147705078
 30
0.0
 11
-66.68018341064453
 21
-62.21277618408203
 31
0.0
1001
DBPROPERTIES
1002
{
1000
PbThick
1002
}
  0
LINE
  5
13A
330
1F
100
AcDbEntity
  8
THICK
100
AcDbLine
 10
-66.68018341064453
 20
-62.21277618408203
 30
0.0
 11
-66.55022430419922
 21
-62.10781860351562
 31
0.0
1001
DBPROPERTIES
1002
{
1000
PbThick
1002
}
  0
LINE
  5
13B
330
1F
100
AcDbEntity
  8
THICK
100
AcDbLine
 10
-66.55022430419922
 20
-62.10781860351562
 30
0.0
 11
-66.40664672851562
 21
-62.00315475463867
 31
0.0
1001
DBPROPERTIES
1002
{
1000
PbThick
1002
}
  0
LINE
  5
13C
330
1F
100
AcDbEntity
  8
THICK
100
AcDbLine
 10
-66.40664672851562
 20
-62.00315475463867
 30
0.0
 11
-66.25
 21
-61.89933776855469
 31
0.0
1001
DBPROPERTIES
1002
{
1000
PbThick
1002
}
  0
LINE
  5
13D
330
1F
100
AcDbEntity
  8
HIDDEN
100
AcDbLine
 10
-66.25
 20
-61.89933776855469
 30
0.0
 11
-66.02841186523438
 21
-61.76689529418945
 31
0.0
1001
DBPROPERTIES
1002
{
1000
PbHidd
1002
}
  0
LINE
  5
13E
330
1F
100
AcDbEntity
  8
HIDDEN
100
AcDbLine
 10
-66.02841186523438
 20
-61.76689529418945
 30
0.0
 11
-65.78713989257812
 21
-61.63791275024414
 31
0.0
1001
DBPROPERTIES
1002
{
1000
PbHidd
1002
}
  0
LINE
  5
13F
330
1F
100
AcDbEntity
  8
HIDDEN
100
AcDbLine
 10
-65.78713989257812
 20
-61.63791275024414
 30
0.0
 11
-65.52809143066406
 21
-61.51339340209961
 31
0.0
1001
DBPROPERTIES
1002
{
1000
PbHidd
1002
}
  0
LINE
  5
140
330
1F
100
AcDbEntity
  8
HIDDEN
100
AcDbLine
 10
-65.52809143066406
 20
-61.51339340209961
 30
0.0
 11
-65.25350189208984
 21
-61.39438629150391
 31
0.0
1001
DBPROPERTIES
1002
{
1000
PbHidd
1002
}
  0
LINE
  5
141
330
1F
100
AcDbEntity
  8
HIDDEN
100
AcDbLine
 10
-65.25350189208984
 20
-61.39438629150391
 30
0.0
 11
-64.96576690673828
 21
-61.2818717956543
 31
0.0
1001
DBPROPERTIES
1002
{
1000
PbHidd
1002
}
  0
LINE
  5
142
330
1F
100
AcDbEntity
  8
HIDDEN
100
AcDbLine
 10
-64.96576690673828
 20
-61.2818717956543
 30
0.0
 11
-64.66790008544922
 21
-61.1766471862793
 31
0.0
1001
DBPROPERTIES
1002
{
1000
PbHidd
1002
}
  0
LINE
  5
143
330
1F
100
AcDbEntity
  8
HIDDEN
100
AcDbLine
 10
-64.66790008544922
 20
-61.1766471862793
 30
0.0
 11
-64.36231994628906
 21
-61.07926940917969
 31
0.0
1001
DBPROPERTIES
1002
{
1000
PbHidd
1002
}
  0
LINE
  5
144
330
1F
100
AcDbEntity
  8
HIDDEN
100
AcDbLine
 10
-64.36231994628906
 20
-61.07926940917969
 30
0.0
 11
-64.04096221923828
 21
-60.98732376098633
 31
0.0
1001
DBPROPERTIES
1002
{
1000
PbHidd
1002
}
  0
LINE
  5
145
330
1F
100
AcDbEntity
  8
HIDDEN
100
AcDbLine
 10
-64.04096221923828
 20
-60.98732376098633
 30
0.0
 11
-63.70299911499023
 21
-60.90113067626953
 31
0.0
1001
DBPROPERTIES
1002
{
1000
PbHidd
1002
}
  0
LINE
  5
146
330
1F
100
AcDbEntity
  8
HIDDEN
100
AcDbLine
 10
-63.70299911499023
 20
-60.90113067626953
 30
0.0
 11
-63.35147094726562
 21
-60.82222366333008
 31
0.0
1001
DBPROPERTIES
1002
{
1000
PbHidd
1002
}
  0
LINE
  5
147
330
1F
100
AcDbEntity
  8
HIDDEN
100
AcDbLine
 10
-63.35147094726562
 20
-60.82222366333008
 30
0.0
 11
-62.98976898193359
 21
-60.75180816650391
 31
0.0
1001
DBPROPERTIES
1002
{
1000
PbHidd
1002
}
  0
LINE
  5
148
330
1F
100
AcDbEntity
  8
HIDDEN
100
AcDbLine
 10
-62.98976898193359
 20
-60.75180816650391
 30
0.0
 11
-62.62149047851562
 21
-60.69088745117188
 31
0.0
1001
DBPROPERTIES
1002
{
1000
PbHidd
1002
}
  0
LINE
  5
149
330
1F
100
AcDbEntity
  8
HIDDEN
100
AcDbLine
 10
-62.62149047851562
 20
-60.69088745117188
 30
0.0
 11
-62.24999618530273
 21
-60.64029312133789
 31
0.0
1001
DBPROPERTIES
1002
{
1000
PbHidd
1002
}
  0
LINE
  5
14A
330
1F
100
AcDbEntity
  8
HIDDEN
100
AcDbLine
 10
-62.24999618530273
 20
-60.64029312133789
 30
0.0
 11
-61.88884353637695
 21
-60.60138702392578
 31
0.0
1001
DBPROPERTIES
1002
{
1000
PbHidd
1002
}
  0
LINE
  5
14B
330
1F
100
AcDbEntity
  8
HIDDEN
100
AcDbLine
 10
-61.88884353637695
 20
-60.60138702392578
 30
0.0
 11
-61.5316047668457
 21
-60.57302856445312
 31
0.0
1001
DBPROPERTIES
1002
{
1000
PbHidd
1002
}
  0
LINE
  5
14C
330
1F
100
AcDbEntity
  8
HIDDEN
100
AcDbLine
 10
-61.5316047668457
 20
-60.57302856445312
 30
0.0
 11
-61.1817512512207
 21
-60.55527114868164
 31
0.0
1001
DBPROPERTIES
1002
{
1000
PbHidd
1002
}
  0
LINE
  5
14D
330
1F
100
AcDbEntity
  8
HIDDEN
100
AcDbLine
 10
-61.1817512512207
 20
-60.55527114868164
 30
0.0
 11
-60.84270095825195
 21
-60.54781723022461
 31
0.0
1001
DBPROPERTIES
1002
{
1000
PbHidd
1002
}
  0
LINE
  5
14E
330
1F
100
AcDbEntity
  8
HIDDEN
100
AcDbLine
 10
-60.84270095825195
 20
-60.54781723022461
 30
0.0
 11
-60.51338958740234
 21
-60.55038452148438
 31
0.0
1001
DBPROPERTIES
1002
{
1000
PbHidd
1002
}
  0
LINE
  5
14F
330
1F
100
AcDbEntity
  8
HIDDEN
100
AcDbLine
 10
-60.51338958740234
 20
-60.55038452148438
 30
0.0
 11
-60.18682098388672
 21
-60.56309509277344
 31
0.0
1001
DBPROPERTIES
1002
{
1000
PbHidd
1002
}
  0
LINE
  5
150
330
1F
100
AcDbEntity
  8
HIDDEN
100
AcDbLine
 10
-60.18682098388672
 20
-60.56309509277344
 30
0.0
 11
-59.86641311645508
 21
-60.58627319335938
 31
0.0
1001
DBPROPERTIES
1002
{
1000
PbHidd
1002
}
  0
LINE
  5
151
330
1F
100
AcDbEntity
  8
HIDDEN
100
AcDbLine
 10
-59.86641311645508
 20
-60.58627319335938
 30
0.0
 11
-59.55586624145508
 21
-60.62009811401367
 31
0.0
1001
DBPROPERTIES
1002
{
1000
PbHidd
1002
}
  0
LINE
  5
152
330
1F
100
AcDbEntity
  8
HIDDEN
100
AcDbLine
 10
-59.55586624145508
 20
-60.62009811401367
 30
0.0
 11
-59.25832366943359
 21
-60.66429138183594
 31
0.0
1001
DBPROPERTIES
1002
{
1000
PbHidd
1002
}
  0
LINE
  5
153
330
1F
100
AcDbEntity
  8
HIDDEN
100
AcDbLine
 10
-59.25832366943359
 20
-60.66429138183594
 30
0.0
 11
-58.97678756713867
 21
-60.71848678588867
 31
0.0
1001
DBPROPERTIES
1002
{
1000
PbHidd
1002
}
  0
LINE
  5
154
330
1F
100
AcDbEntity
  8
HIDDEN
100
AcDbLine
 10
-58.97678756713867
 20
-60.71848678588867
 30
0.0
 11
-58.71358489990234
 21
-60.78214263916016
 31
0.0
1001
DBPROPERTIES
1002
{
1000
PbHidd
1002
}
  0
LINE
  5
155
330
1F
100
AcDbEntity
  8
HIDDEN
100
AcDbLine
 10
-58.71358489990234
 20
-60.78214263916016
 30
0.0
 11
-58.47068405151367
 21
-60.85436248779297
 31
0.0
1001
DBPROPERTIES
1002
{
1000
PbHidd
1002
}
  0
LINE
  5
156
330
1F
100
AcDbEntity
  8
HIDDEN
100
AcDbLine
 10
-58.47068405151367
 20
-60.85436248779297
 30
0.0
 11
-58.25001907348633
 21
-60.93419647216797
 31
0.0
1001
DBPROPERTIES
1002
{
1000
PbHidd
1002
}
  0
LINE
  5
157
330
1F
100
AcDbEntity
  8
THICK
100
AcDbLine
 10
-58.25001907348633
 20
-60.93419647216797
 30
0.0
 11
-58.04354095458984
 21
-61.02479934692383
 31
0.0
1001
DBPROPERTIES
1002
{
1000
PbThick
1002
}
  0
LINE
  5
158
330
1F
100
AcDbEntity
  8
THICK
100
AcDbLine
 10
-58.04354095458984
 20
-61.02479934692383
 30
0.0
 11
-57.86354827880859
 21
-61.12077713012695
 31
0.0
1001
DBPROPERTIES
1002
{
1000
PbThick
1002
}
  0
LINE
  5
159
330
1F
100
AcDbEntity
  8
THICK
100
AcDbLine
 10
-57.86354827880859
 20
-61.12077713012695
 30
0.0
 11
-57.7056770324707
 21
-61.22380065917969
 31
0.0
1001
DBPROPERTIES
1002
{
1000
PbThick
1002
}
  0
LINE
  5
15A
330
1F
100
AcDbEntity
  8
THICK
100
AcDbLine
 10
-57.7056770324707
 20
-61.22380065917969
 30
0.0
 11
-57.56858825683594
 21
-61.33486175537109
 31
0.0
1001
DBPROPERTIES
1002
{
1000
PbThick
1002
}
  0
LINE
  5
15B
330
1F
100
AcDbEntity
  8
THICK
100
AcDbLine
 10
-57.56858825683594
 20
-61.33486175537109
 30
0.0
 11
-57.45443725585938
 21
-61.45314788818359
 31
0.0
1001
DBPROPERTIES
1002
{
1000
PbThick
1002
}
  0
LINE
  5
15C
330
1F
100
AcDbEntity
  8
THICK
100
AcDbLine
 10
-57.45443725585938
 20
-61.45314788818359
 30
0.0
 11
-57.36481094360352
 21
-61.57771682739258
 31
0.0
1001
DBPROPERTIES
1002
{
1000
PbThick
1002
}
  0
LINE
  5
15D
330
1F
100
AcDbEntity
  8
THICK
100
AcDbLine
 10
-57.36481094360352
 20
-61.57771682739258
 30
0.0
 11
-57.30052185058594
 21
-61.70746612548828
 31
0.0
1001
DBPROPERTIES
1002
{
1000
PbThick
1002
}
  0
LINE
  5
15E
330
1F
100
AcDbEntity
  8
THICK
100
AcDbLine
 10
-57.30052185058594
 20
-61.70746612548828
 30
0.0
 11
-57.26227951049805
 21
-61.84130096435547
 31
0.0
1001
DBPROPERTIES
1002
{
1000
PbThick
1002
}
  0
LINE
  5
15F
330
1F
100
AcDbEntity
  8
THICK
100
AcDbLine
 10
-57.26227951049805
 20
-61.84130096435547
 30
0.0
 11
-57.25008392333984
 21
-61.97811126708984
 31
0.0
1001
DBPROPERTIES
1002
{
1000
PbThick
1002
}
  0
LINE
  5
160
330
1F
100
AcDbEntity
  8
THICK
100
AcDbLine
 10
-57.25008392333984
 20
-61.97811126708984
 30
0.0
 11
-57.26037979125977
 21
-62.09930801391602
 31
0.0
1001
DBPROPERTIES
1002
{
1000
PbThick
1002
}
  0
LINE
  5
161
330
1F
100
AcDbEntity
  8
THICK
100
AcDbLine
 10
-57.26037979125977
 20
-62.09930801391602
 30
0.0
 11
-57.28985214233398
 21
-62.2209587097168
 31
0.0
1001
DBPROPERTIES
1002
{
1000
PbThick
1002
}
  0
LINE
  5
162
330
1F
100
AcDbEntity
  8
THICK
100
AcDbLine
 10
-57.28985214233398
 20
-62.2209587097168
 30
0.0
 11
-57.33757400512695
 21
-62.3421745300293
 31
0.0
1001
DBPROPERTIES
1002
{
1000
PbThick
1002
}
  0
LINE
  5
163
330
1F
100
AcDbEntity
  8
THICK
100
AcDbLine
 10
-57.33757400512695
 20
-62.3421745300293
 30
0.0
 11
-57.40226745605469
 21
-62.46203994750977
 31
0.0
1001
DBPROPERTIES
1002
{
1000
PbThick
1002
}
  0
LINE
  5
164
330
1F
100
AcDbEntity
  8
THICK
100
AcDbLine
 10
-57.40226745605469
 20
-62.46203994750977
 30
0.0
 11
-57.48308181762695
 21
-62.58026504516602
 31
0.0
1001
DBPROPERTIES
1002
{
1000
PbThick
1002
}
  0
LINE
  5
165
330
1F
100
AcDbEntity
  8
THICK
100
AcDbLine
 10
-57.48308181762695
 20
-62.58026504516602
 30
0.0
 11
-57.58215713500977
 21
-62.70000457763672
 31
0.0
1001
DBPROPERTIES
1002
{
1000
PbThick
1002
}
  0
LINE
  5
166
330
1F
100
AcDbEntity
  8
THICK
100
AcDbLine
 10
-57.58215713500977
 20
-62.70000457763672
 30
0.0
 11
-57.70000076293945
 21
-62.82110214233398
 31
0.0
1001
DBPROPERTIES
1002
{
1000
PbThick
1002
}
  0
LINE
  5
167
330
1F
100
AcDbEntity
  8
THICK
100
AcDbLine
 10
-57.70000076293945
 20
-62.82110214233398
 30
0.0
 11
-57.83665466308594
 21
-62.94266891479492
 31
0.0
1001
DBPROPERTIES
1002
{
1000
PbThick
1002
}
  0
LINE
  5
168
330
1F
100
AcDbEntity
  8
THICK
100
AcDbLine
 10
-57.83665466308594
 20
-62.94266891479492
 30
0.0
 11
-57.99186325073242
 21
-63.06383514404297
 31
0.0
1001
DBPROPERTIES
1002
{
1000
PbThick
1002
}
  0
LINE
  5
169
330
1F
100
AcDbEntity
  8
THICK
100
AcDbLine
 10
-57.99186325073242
 20
-63.06383514404297
 30
0.0
 11
-58.16486740112305
 21
-63.18376922607422
 31
0.0
1001
DBPROPERTIES
1002
{
1000
PbThick
1002
}
  0
LINE
  5
16A
330
1F
100
AcDbEntity
  8
THICK
100
AcDbLine
 10
-58.16486740112305
 20
-63.18376922607422
 30
0.0
 11
-58.35486602783203
 21
-63.30165481567383
 31
0.0
1001
DBPROPERTIES
1002
{
1000
PbThick
1002
}
  0
LINE
  5
16B
330
1F
100
AcDbEntity
  8
THICK
100
AcDbLine
 10
-58.35486602783203
 20
-63.30165481567383
 30
0.0
 11
-58.56100463867188
 21
-63.41674423217773
 31
0.0
1001
DBPROPERTIES
1002
{
1000
PbThick
1002
}
  0
LINE
  5
16C
330
1F
100
AcDbEntity
  8
THICK
100
AcDbLine
 10
-58.56100463867188
 20
-63.41674423217773
 30
0.0
 11
-58.78195190429688
 21
-63.52836227416992
 31
0.0
1001
DBPROPERTIES
1002
{
1000
PbThick
1002
}
  0
LINE
  5
16D
330
1F
100
AcDbEntity
  8
THICK
100
AcDbLine
 10
-58.78195190429688
 20
-63.52836227416992
 30
0.0
 11
-59.01620864868164
 21
-63.63579940795898
 31
0.0
1001
DBPROPERTIES
1002
{
1000
PbThick
1002
}
  0
LINE
  5
16E
330
1F
100
AcDbEntity
  8
THICK
100
AcDbLine
 10
-59.01620864868164
 20
-63.63579940795898
 30
0.0
 11
-59.26220321655273
 21
-63.73836898803711
 31
0.0
1001
DBPROPERTIES
1002
{
1000
PbThick
1002
}
  0
LINE
  5
16F
330
1F
100
AcDbEntity
  8
THICK
100
AcDbLine
 10
-59.26220321655273
 20
-63.73836898803711
 30
0.0
 11
-59.51794815063477
 21
-63.83550643920898
 31
0.0
1001
DBPROPERTIES
1002
{
1000
PbThick
1002
}
  0
LINE
  5
170
330
1F
100
AcDbEntity
  8
THICK
100
AcDbLine
 10
-59.51794815063477
 20
-63.83550643920898
 30
0.0
 11
-59.78128051757812
 21
-63.92669677734375
 31
0.0
1001
DBPROPERTIES
1002
{
1000
PbThick
1002
}
  0
LINE
  5
171
330
1F
100
AcDbEntity
  8
THICK
100
AcDbLine
 10
-59.78128051757812
 20
-63.92669677734375
 30
0.0
 11
-60.05251312255859
 21
-64.01219177246094
 31
0.0
1001
DBPROPERTIES
1002
{
1000
PbThick
1002
}
  0
LINE
  5
172
330
1F
100
AcDbEntity
  8
THICK
100
AcDbLine
 10
-60.05251312255859
 20
-64.01219177246094
 30
0.0
 11
-60.33802795410156
 21
-64.09386444091797
 31
0.0
1001
DBPROPERTIES
1002
{
1000
PbThick
1002
}
  0
LINE
  5
173
330
1F
100
AcDbEntity
  8
THICK
100
AcDbLine
 10
-60.33802795410156
 20
-64.09386444091797
 30
0.0
 11
-60.63656616210938
 21
-64.17093658447266
 31
0.0
1001
DBPROPERTIES
1002
{
1000
PbThick
1002
}
  0
LINE
  5
174
330
1F
100
AcDbEntity
  8
THICK
100
AcDbLine
 10
-60.63656616210938
 20
-64.17093658447266
 30
0.0
 11
-60.94617080688477
 21
-64.24243927001953
 31
0.0
1001
DBPROPERTIES
1002
{
1000
PbThick
1002
}
  0
LINE
  5
175
330
1F
100
AcDbEntity
  8
THICK
100
AcDbLine
 10
-60.94617080688477
 20
-64.24243927001953
 30
0.0
 11
-61.26465225219727
 21
-64.3075942993164
 31
0.0
1001
DBPROPERTIES
1002
{
1000
PbThick
1002
}
  0
LINE
  5
176
330
1F
100
AcDbEntity
  8
THICK
100
AcDbLine
 10
-61.26465225219727
 20
-64.3075942993164
 30
0.0
 11
-61.58964157104492
 21
-64.36576843261719
 31
0.0
1001
DBPROPERTIES
1002
{
1000
PbThick
1002
}
  0
LINE
  5
177
330
1F
100
AcDbEntity
  8
THICK
100
AcDbLine
 10
-61.58964157104492
 20
-64.36576843261719
 30
0.0
 11
-61.9188117980957
 21
-64.41636657714844
 31
0.0
1001
DBPROPERTIES
1002
{
1000
PbThick
1002
}
  0
LINE
  5
178
330
1F
100
AcDbEntity
  8
THICK
100
AcDbLine
 10
-61.9188117980957
 20
-64.41636657714844
 30
0.0
 11
-62.25000381469727
 21
-64.458984375
 31
0.0
1001
DBPROPERTIES
1002
{
1000
PbThick
1002
}
  0
LINE
  5
179
330
1F
100
AcDbEntity
  8
THICK
100
AcDbLine
 10
-216.2
 20
-87.7125
 30
0.0
 11
-0.0000000000000445
 21
-87.7125
 31
0.0
1001
DBPROPERTIES
1002
{
1000
PbThick
1002
}
  0
LINE
  5
17A
330
1F
100
AcDbEntity
  8
THICK
100
AcDbLine
 10
-192.7
 20
-78.3125
 30
0.0
 11
-66.24999997187766
 21
-78.3125
 31
0.0
1001
DBPROPERTIES
1002
{
1000
PbThick
1002
}
  0
LINE
  5
17B
330
1F
100
AcDbEntity
  8
HIDDEN
100
AcDbLine
 10
-66.24999997187766
 20
-78.3125
 30
0.0
 11
-58.24999996144938
 21
-78.3125
 31
0.0
1001
DBPROPERTIES
1002
{
1000
PbHidd
1002
}
  0
LINE
  5
17C
330
1F
100
AcDbEntity
  8
THICK
100
AcDbLine
 10
-58.24999996144938
 20
-78.3125
 30
0.0
 11
-0.0000000000000402
 21
-78.3125
 31
0.0
1001
DBPROPERTIES
1002
{
1000
PbThick
1002
}
  0
LINE
  5
17D
330
1F
100
AcDbEntity
  8
THICK
100
AcDbLine
 10
-62.25000381469727
 20
-86.833984375
 30
0.0
 11
-62.54967880249023
 21
-86.86550903320312
 31
0.0
1001
DBPROPERTIES
1002
{
1000
PbThick
1002
}
  0
LINE
  5
17E
330
1F
100
AcDbEntity
  8
THICK
100
AcDbLine
 10
-62.54967880249023
 20
-86.86550903320312
 30
0.0
 11
-62.84706878662109
 21
-86.8901138305664
 31
0.0
1001
DBPROPERTIES
1002
{
1000
PbThick
1002
}
  0
LINE
  5
17F
330
1F
100
AcDbEntity
  8
THICK
100
AcDbLine
 10
-62.84706878662109
 20
-86.8901138305664
 30
0.0
 11
-63.14030075073242
 21
-86.90771484375
 31
0.0
1001
DBPROPERTIES
1002
{
1000
PbThick
1002
}
  0
LINE
  5
180
330
1F
100
AcDbEntity
  8
THICK
100
AcDbLine
 10
-63.14030075073242
 20
-86.90771484375
 30
0.0
 11
-63.42754364013672
 21
-86.91844940185547
 31
0.0
1001
DBPROPERTIES
1002
{
1000
PbThick
1002
}
  0
LINE
  5
181
330
1F
100
AcDbEntity
  8
THICK
100
AcDbLine
 10
-63.42754364013672
 20
-86.91844940185547
 30
0.0
 11
-63.70696640014648
 21
-86.9224853515625
 31
0.0
1001
DBPROPERTIES
1002
{
1000
PbThick
1002
}
  0
LINE
  5
182
330
1F
100
AcDbEntity
  8
THICK
100
AcDbLine
 10
-63.70696640014648
 20
-86.9224853515625
 30
0.0
 11
-63.98056030273438
 21
-86.91992950439453
 31
0.0
1001
DBPROPERTIES
1002
{
1000
PbThick
1002
}
  0
LINE
  5
183
330
1F
100
AcDbEntity
  8
THICK
100
AcDbLine
 10
-63.98056030273438
 20
-86.91992950439453
 30
0.0
 11
-64.25215911865234
 21
-86.91070556640625
 31
0.0
1001
DBPROPERTIES
1002
{
1000
PbThick
1002
}
  0
LINE
  5
184
330
1F
100
AcDbEntity
  8
THICK
100
AcDbLine
 10
-64.25215911865234
 20
-86.91070556640625
 30
0.0
 11
-64.51976776123047
 21
-86.89464569091797
 31
0.0
1001
DBPROPERTIES
1002
{
1000
PbThick
1002
}
  0
LINE
  5
185
330
1F
100
AcDbEntity
  8
THICK
100
AcDbLine
 10
-64.51976776123047
 20
-86.89464569091797
 30
0.0
 11
-64.78131866455078
 21
-86.87162017822266
 31
0.0
1001
DBPROPERTIES
1002
{
1000
PbThick
1002
}
  0
LINE
  5
186
330
1F
100
AcDbEntity
  8
THICK
100
AcDbLine
 10
-64.78131866455078
 20
-86.87162017822266
 30
0.0
 11
-65.03500366210938
 21
-86.84162139892578
 31
0.0
1001
DBPROPERTIES
1002
{
1000
PbThick
1002
}
  0
LINE
  5
187
330
1F
100
AcDbEntity
  8
THICK
100
AcDbLine
 10
-65.03500366210938
 20
-86.84162139892578
 30
0.0
 11
-65.27919006347656
 21
-86.80484771728516
 31
0.0
1001
DBPROPERTIES
1002
{
1000
PbThick
1002
}
  0
LINE
  5
188
330
1F
100
AcDbEntity
  8
THICK
100
AcDbLine
 10
-65.27919006347656
 20
-86.80484771728516
 30
0.0
 11
-65.51229858398438
 21
-86.761474609375
 31
0.0
1001
DBPROPERTIES
1002
{
1000
PbThick
1002
}
  0
LINE
  5
189
330
1F
100
AcDbEntity
  8
THICK
100
AcDbLine
 10
-65.51229858398438
 20
-86.761474609375
 30
0.0
 11
-65.73298645019531
 21
-86.71171569824219
 31
0.0
1001
DBPROPERTIES
1002
{
1000
PbThick
1002
}
  0
LINE
  5
18A
330
1F
100
AcDbEntity
  8
THICK
100
AcDbLine
 10
-65.73298645019531
 20
-86.71171569824219
 30
0.0
 11
-65.94025421142578
 21
-86.6559829711914
 31
0.0
1001
DBPROPERTIES
1002
{
1000
PbThick
1002
}
  0
LINE
  5
18B
330
1F
100
AcDbEntity
  8
THICK
100
AcDbLine
 10
-65.94025421142578
 20
-86.6559829711914
 30
0.0
 11
-66.13304901123047
 21
-86.59473419189453
 31
0.0
1001
DBPROPERTIES
1002
{
1000
PbThick
1002
}
  0
LINE
  5
18C
330
1F
100
AcDbEntity
  8
THICK
100
AcDbLine
 10
-66.13304901123047
 20
-86.59473419189453
 30
0.0
 11
-66.31038665771484
 21
-86.5284652709961
 31
0.0
1001
DBPROPERTIES
1002
{
1000
PbThick
1002
}
  0
LINE
  5
18D
330
1F
100
AcDbEntity
  8
THICK
100
AcDbLine
 10
-66.31038665771484
 20
-86.5284652709961
 30
0.0
 11
-66.4716796875
 21
-86.45779418945312
 31
0.0
1001
DBPROPERTIES
1002
{
1000
PbThick
1002
}
  0
LINE
  5
18E
330
1F
100
AcDbEntity
  8
THICK
100
AcDbLine
 10
-66.4716796875
 20
-86.45779418945312
 30
0.0
 11
-66.61662292480469
 21
-86.38346862792969
 31
0.0
1001
DBPROPERTIES
1002
{
1000
PbThick
1002
}
  0
LINE
  5
18F
330
1F
100
AcDbEntity
  8
THICK
100
AcDbLine
 10
-66.61662292480469
 20
-86.38346862792969
 30
0.0
 11
-66.7451400756836
 21
-86.30606079101562
 31
0.0
1001
DBPROPERTIES
1002
{
1000
PbThick
1002
}
  0
LINE
  5
190
330
1F
100
AcDbEntity
  8
THICK
100
AcDbLine
 10
-66.7451400756836
 20
-86.30606079101562
 30
0.0
 11
-66.86022186279297
 21
-86.2239990234375
 31
0.0
1001
DBPROPERTIES
1002
{
1000
PbThick
1002
}
  0
LINE
  5
191
330
1F
100
AcDbEntity
  8
THICK
100
AcDbLine
 10
-66.86022186279297
 20
-86.2239990234375
 30
0.0
 11
-66.96199035644531
 21
-86.13699340820312
 31
0.0
1001
DBPROPERTIES
1002
{
1000
PbThick
1002
}
  0
LINE
  5
192
330
1F
100
AcDbEntity
  8
THICK
100
AcDbLine
 10
-66.96199035644531
 20
-86.13699340820312
 30
0.0
 11
-67.04944610595703
 21
-86.0454330444336
 31
0.0
1001
DBPROPERTIES
1002
{
1000
PbThick
1002
}
  0
LINE
  5
193
330
1F
100
AcDbEntity
  8
THICK
100
AcDbLine
 10
-67.04944610595703
 20
-86.0454330444336
 30
0.0
 11
-67.12164306640625
 21
-85.94969940185547
 31
0.0
1001
DBPROPERTIES
1002
{
1000
PbThick
1002
}
  0
LINE
  5
194
330
1F
100
AcDbEntity
  8
THICK
100
AcDbLine
 10
-67.12164306640625
 20
-85.94969940185547
 30
0.0
 11
-67.17807006835938
 21
-85.85029602050781
 31
0.0
1001
DBPROPERTIES
1002
{
1000
PbThick
1002
}
  0
LINE
  5
195
330
1F
100
AcDbEntity
  8
THICK
100
AcDbLine
 10
-67.17807006835938
 20
-85.85029602050781
 30
0.0
 11
-67.21843719482422
 21
-85.74774169921875
 31
0.0
1001
DBPROPERTIES
1002
{
1000
PbThick
1002
}
  0
LINE
  5
196
330
1F
100
AcDbEntity
  8
THICK
100
AcDbLine
 10
-67.21843719482422
 20
-85.74774169921875
 30
0.0
 11
-67.24241638183594
 21
-85.64256286621094
 31
0.0
1001
DBPROPERTIES
1002
{
1000
PbThick
1002
}
  0
LINE
  5
197
330
1F
100
AcDbEntity
  8
THICK
100
AcDbLine
 10
-67.24241638183594
 20
-85.64256286621094
 30
0.0
 11
-67.24992370605469
 21
-85.53524017333984
 31
0.0
1001
DBPROPERTIES
1002
{
1000
PbThick
1002
}
  0
LINE
  5
198
330
1F
100
AcDbEntity
  8
THICK
100
AcDbLine
 10
-67.24992370605469
 20
-85.53524017333984
 30
0.0
 11
-67.24170684814453
 21
-85.4294662475586
 31
0.0
1001
DBPROPERTIES
1002
{
1000
PbThick
1002
}
  0
LINE
  5
199
330
1F
100
AcDbEntity
  8
THICK
100
AcDbLine
 10
-67.24170684814453
 20
-85.4294662475586
 30
0.0
 11
-67.21849060058594
 21
-85.3227767944336
 31
0.0
1001
DBPROPERTIES
1002
{
1000
PbThick
1002
}
  0
LINE
  5
19A
330
1F
100
AcDbEntity
  8
THICK
100
AcDbLine
 10
-67.21849060058594
 20
-85.3227767944336
 30
0.0
 11
-67.18061065673828
 21
-85.21575927734375
 31
0.0
1001
DBPROPERTIES
1002
{
1000
PbThick
1002
}
  0
LINE
  5
19B
330
1F
100
AcDbEntity
  8
THICK
100
AcDbLine
 10
-67.18061065673828
 20
-85.21575927734375
 30
0.0
 11
-67.12872314453125
 21
-85.1089859008789
 31
0.0
1001
DBPROPERTIES
1002
{
1000
PbThick
1002
}
  0
LINE
  5
19C
330
1F
100
AcDbEntity
  8
THICK
100
AcDbLine
 10
-67.12872314453125
 20
-85.1089859008789
 30
0.0
 11
-67.06376647949219
 21
-85.00306701660156
 31
0.0
1001
DBPROPERTIES
1002
{
1000
PbThick
1002
}
  0
LINE
  5
19D
330
1F
100
AcDbEntity
  8
THICK
100
AcDbLine
 10
-67.06376647949219
 20
-85.00306701660156
 30
0.0
 11
-66.98665618896484
 21
-84.89862060546875
 31
0.0
1001
DBPROPERTIES
1002
{
1000
PbThick
1002
}
  0
LINE
  5
19E
330
1F
100
AcDbEntity
  8
THICK
100
AcDbLine
 10
-66.98665618896484
 20
-84.89862060546875
 30
0.0
 11
-66.89844512939453
 21
-84.7962646484375
 31
0.0
1001
DBPROPERTIES
1002
{
1000
PbThick
1002
}
  0
LINE
  5
19F
330
1F
100
AcDbEntity
  8
THICK
100
AcDbLine
 10
-66.89844512939453
 20
-84.7962646484375
 30
0.0
 11
-66.79627227783203
 21
-84.69245147705078
 31
0.0
1001
DBPROPERTIES
1002
{
1000
PbThick
1002
}
  0
LINE
  5
1A0
330
1F
100
AcDbEntity
  8
THICK
100
AcDbLine
 10
-66.79627227783203
 20
-84.69245147705078
 30
0.0
 11
-66.68018341064453
 21
-84.58777618408203
 31
0.0
1001
DBPROPERTIES
1002
{
1000
PbThick
1002
}
  0
LINE
  5
1A1
330
1F
100
AcDbEntity
  8
THICK
100
AcDbLine
 10
-66.68018341064453
 20
-84.58777618408203
 30
0.0
 11
-66.55022430419922
 21
-84.48281860351562
 31
0.0
1001
DBPROPERTIES
1002
{
1000
PbThick
1002
}
  0
LINE
  5
1A2
330
1F
100
AcDbEntity
  8
THICK
100
AcDbLine
 10
-66.55022430419922
 20
-84.48281860351562
 30
0.0
 11
-66.40664672851562
 21
-84.37815856933594
 31
0.0
1001
DBPROPERTIES
1002
{
1000
PbThick
1002
}
  0
LINE
  5
1A3
330
1F
100
AcDbEntity
  8
THICK
100
AcDbLine
 10
-66.40664672851562
 20
-84.37815856933594
 30
0.0
 11
-66.25
 21
-84.27433776855469
 31
0.0
1001
DBPROPERTIES
1002
{
1000
PbThick
1002
}
  0
LINE
  5
1A4
330
1F
100
AcDbEntity
  8
HIDDEN
100
AcDbLine
 10
-66.25
 20
-84.27433776855469
 30
0.0
 11
-66.02841186523438
 21
-84.14189147949219
 31
0.0
1001
DBPROPERTIES
1002
{
1000
PbHidd
1002
}
  0
LINE
  5
1A5
330
1F
100
AcDbEntity
  8
HIDDEN
100
AcDbLine
 10
-66.02841186523438
 20
-84.14189147949219
 30
0.0
 11
-65.78713989257812
 21
-84.01290893554688
 31
0.0
1001
DBPROPERTIES
1002
{
1000
PbHidd
1002
}
  0
LINE
  5
1A6
330
1F
100
AcDbEntity
  8
HIDDEN
100
AcDbLine
 10
-65.78713989257812
 20
-84.01290893554688
 30
0.0
 11
-65.52809143066406
 21
-83.88839721679688
 31
0.0
1001
DBPROPERTIES
1002
{
1000
PbHidd
1002
}
  0
LINE
  5
1A7
330
1F
100
AcDbEntity
  8
HIDDEN
100
AcDbLine
 10
-65.52809143066406
 20
-83.88839721679688
 30
0.0
 11
-65.25350189208984
 21
-83.7693862915039
 31
0.0
1001
DBPROPERTIES
1002
{
1000
PbHidd
1002
}
  0
LINE
  5
1A8
330
1F
100
AcDbEntity
  8
HIDDEN
100
AcDbLine
 10
-65.25350189208984
 20
-83.7693862915039
 30
0.0
 11
-64.96576690673828
 21
-83.65686798095703
 31
0.0
1001
DBPROPERTIES
1002
{
1000
PbHidd
1002
}
  0
LINE
  5
1A9
330
1F
100
AcDbEntity
  8
HIDDEN
100
AcDbLine
 10
-64.96576690673828
 20
-83.65686798095703
 30
0.0
 11
-64.66790008544922
 21
-83.55165100097656
 31
0.0
1001
DBPROPERTIES
1002
{
1000
PbHidd
1002
}
  0
LINE
  5
1AA
330
1F
100
AcDbEntity
  8
HIDDEN
100
AcDbLine
 10
-64.66790008544922
 20
-83.55165100097656
 30
0.0
 11
-64.36231994628906
 21
-83.45426940917969
 31
0.0
1001
DBPROPERTIES
1002
{
1000
PbHidd
1002
}
  0
LINE
  5
1AB
330
1F
100
AcDbEntity
  8
HIDDEN
100
AcDbLine
 10
-64.36231994628906
 20
-83.45426940917969
 30
0.0
 11
-64.04096221923828
 21
-83.36231994628906
 31
0.0
1001
DBPROPERTIES
1002
{
1000
PbHidd
1002
}
  0
LINE
  5
1AC
330
1F
100
AcDbEntity
  8
HIDDEN
100
AcDbLine
 10
-64.04096221923828
 20
-83.36231994628906
 30
0.0
 11
-63.70299911499023
 21
-83.27613067626953
 31
0.0
1001
DBPROPERTIES
1002
{
1000
PbHidd
1002
}
  0
LINE
  5
1AD
330
1F
100
AcDbEntity
  8
HIDDEN
100
AcDbLine
 10
-63.70299911499023
 20
-83.27613067626953
 30
0.0
 11
-63.35147094726562
 21
-83.19722747802734
 31
0.0
1001
DBPROPERTIES
1002
{
1000
PbHidd
1002
}
  0
LINE
  5
1AE
330
1F
100
AcDbEntity
  8
HIDDEN
100
AcDbLine
 10
-63.35147094726562
 20
-83.19722747802734
 30
0.0
 11
-62.98976898193359
 21
-83.1268081665039
 31
0.0
1001
DBPROPERTIES
1002
{
1000
PbHidd
1002
}
  0
LINE
  5
1AF
330
1F
100
AcDbEntity
  8
HIDDEN
100
AcDbLine
 10
-62.98976898193359
 20
-83.1268081665039
 30
0.0
 11
-62.62149047851562
 21
-83.06588745117188
 31
0.0
1001
DBPROPERTIES
1002
{
1000
PbHidd
1002
}
  0
LINE
  5
1B0
330
1F
100
AcDbEntity
  8
HIDDEN
100
AcDbLine
 10
-62.62149047851562
 20
-83.06588745117188
 30
0.0
 11
-62.24999618530273
 21
-83.01528930664062
 31
0.0
1001
DBPROPERTIES
1002
{
1000
PbHidd
1002
}
  0
LINE
  5
1B1
330
1F
100
AcDbEntity
  8
HIDDEN
100
AcDbLine
 10
-62.24999618530273
 20
-83.01528930664062
 30
0.0
 11
-61.88884353637695
 21
-82.97638702392578
 31
0.0
1001
DBPROPERTIES
1002
{
1000
PbHidd
1002
}
  0
LINE
  5
1B2
330
1F
100
AcDbEntity
  8
HIDDEN
100
AcDbLine
 10
-61.88884353637695
 20
-82.97638702392578
 30
0.0
 11
-61.5316047668457
 21
-82.94802856445312
 31
0.0
1001
DBPROPERTIES
1002
{
1000
PbHidd
1002
}
  0
LINE
  5
1B3
330
1F
100
AcDbEntity
  8
HIDDEN
100
AcDbLine
 10
-61.5316047668457
 20
-82.94802856445312
 30
0.0
 11
-61.1817512512207
 21
-82.93026733398438
 31
0.0
1001
DBPROPERTIES
1002
{
1000
PbHidd
1002
}
  0
LINE
  5
1B4
330
1F
100
AcDbEntity
  8
HIDDEN
100
AcDbLine
 10
-61.1817512512207
 20
-82.93026733398438
 30
0.0
 11
-60.84270095825195
 21
-82.92281341552734
 31
0.0
1001
DBPROPERTIES
1002
{
1000
PbHidd
1002
}
  0
LINE
  5
1B5
330
1F
100
AcDbEntity
  8
HIDDEN
100
AcDbLine
 10
-60.84270095825195
 20
-82.92281341552734
 30
0.0
 11
-60.51338958740234
 21
-82.92538452148438
 31
0.0
1001
DBPROPERTIES
1002
{
1000
PbHidd
1002
}
  0
LINE
  5
1B6
330
1F
100
AcDbEntity
  8
HIDDEN
100
AcDbLine
 10
-60.51338958740234
 20
-82.92538452148438
 30
0.0
 11
-60.18682098388672
 21
-82.93809509277344
 31
0.0
1001
DBPROPERTIES
1002
{
1000
PbHidd
1002
}
  0
LINE
  5
1B7
330
1F
100
AcDbEntity
  8
HIDDEN
100
AcDbLine
 10
-60.18682098388672
 20
-82.93809509277344
 30
0.0
 11
-59.86641311645508
 21
-82.96127319335938
 31
0.0
1001
DBPROPERTIES
1002
{
1000
PbHidd
1002
}
  0
LINE
  5
1B8
330
1F
100
AcDbEntity
  8
HIDDEN
100
AcDbLine
 10
-59.86641311645508
 20
-82.96127319335938
 30
0.0
 11
-59.55586624145508
 21
-82.9950942993164
 31
0.0
1001
DBPROPERTIES
1002
{
1000
PbHidd
1002
}
  0
LINE
  5
1B9
330
1F
100
AcDbEntity
  8
HIDDEN
100
AcDbLine
 10
-59.55586624145508
 20
-82.9950942993164
 30
0.0
 11
-59.25832366943359
 21
-83.03929138183594
 31
0.0
1001
DBPROPERTIES
1002
{
1000
PbHidd
1002
}
  0
LINE
  5
1BA
330
1F
100
AcDbEntity
  8
HIDDEN
100
AcDbLine
 10
-59.25832366943359
 20
-83.03929138183594
 30
0.0
 11
-58.97678756713867
 21
-83.09349060058594
 31
0.0
1001
DBPROPERTIES
1002
{
1000
PbHidd
1002
}
  0
LINE
  5
1BB
330
1F
100
AcDbEntity
  8
HIDDEN
100
AcDbLine
 10
-58.97678756713867
 20
-83.09349060058594
 30
0.0
 11
-58.71358489990234
 21
-83.15714263916016
 31
0.0
1001
DBPROPERTIES
1002
{
1000
PbHidd
1002
}
  0
LINE
  5
1BC
330
1F
100
AcDbEntity
  8
HIDDEN
100
AcDbLine
 10
-58.71358489990234
 20
-83.15714263916016
 30
0.0
 11
-58.47068405151367
 21
-83.22936248779297
 31
0.0
1001
DBPROPERTIES
1002
{
1000
PbHidd
1002
}
  0
LINE
  5
1BD
330
1F
100
AcDbEntity
  8
HIDDEN
100
AcDbLine
 10
-58.47068405151367
 20
-83.22936248779297
 30
0.0
 11
-58.25001907348633
 21
-83.30919647216797
 31
0.0
1001
DBPROPERTIES
1002
{
1000
PbHidd
1002
}
  0
LINE
  5
1BE
330
1F
100
AcDbEntity
  8
THICK
100
AcDbLine
 10
-58.25001907348633
 20
-83.30919647216797
 30
0.0
 11
-58.04354095458984
 21
-83.3998031616211
 31
0.0
1001
DBPROPERTIES
1002
{
1000
PbThick
1002
}
  0
LINE
  5
1BF
330
1F
100
AcDbEntity
  8
THICK
100
AcDbLine
 10
-58.04354095458984
 20
-83.3998031616211
 30
0.0
 11
-57.86354827880859
 21
-83.49578094482422
 31
0.0
1001
DBPROPERTIES
1002
{
1000
PbThick
1002
}
  0
LINE
  5
1C0
330
1F
100
AcDbEntity
  8
THICK
100
AcDbLine
 10
-57.86354827880859
 20
-83.49578094482422
 30
0.0
 11
-57.7056770324707
 21
-83.59880065917969
 31
0.0
1001
DBPROPERTIES
1002
{
1000
PbThick
1002
}
  0
LINE
  5
1C1
330
1F
100
AcDbEntity
  8
THICK
100
AcDbLine
 10
-57.7056770324707
 20
-83.59880065917969
 30
0.0
 11
-57.56858825683594
 21
-83.7098617553711
 31
0.0
1001
DBPROPERTIES
1002
{
1000
PbThick
1002
}
  0
LINE
  5
1C2
330
1F
100
AcDbEntity
  8
THICK
100
AcDbLine
 10
-57.56858825683594
 20
-83.7098617553711
 30
0.0
 11
-57.45443725585938
 21
-83.8281478881836
 31
0.0
1001
DBPROPERTIES
1002
{
1000
PbThick
1002
}
  0
LINE
  5
1C3
330
1F
100
AcDbEntity
  8
THICK
100
AcDbLine
 10
-57.45443725585938
 20
-83.8281478881836
 30
0.0
 11
-57.36481094360352
 21
-83.95272064208984
 31
0.0
1001
DBPROPERTIES
1002
{
1000
PbThick
1002
}
  0
LINE
  5
1C4
330
1F
100
AcDbEntity
  8
THICK
100
AcDbLine
 10
-57.36481094360352
 20
-83.95272064208984
 30
0.0
 11
-57.30052185058594
 21
-84.08246612548828
 31
0.0
1001
DBPROPERTIES
1002
{
1000
PbThick
1002
}
  0
LINE
  5
1C5
330
1F
100
AcDbEntity
  8
THICK
100
AcDbLine
 10
-57.30052185058594
 20
-84.08246612548828
 30
0.0
 11
-57.26227951049805
 21
-84.21630096435547
 31
0.0
1001
DBPROPERTIES
1002
{
1000
PbThick
1002
}
  0
LINE
  5
1C6
330
1F
100
AcDbEntity
  8
THICK
100
AcDbLine
 10
-57.26227951049805
 20
-84.21630096435547
 30
0.0
 11
-57.25008392333984
 21
-84.35311126708984
 31
0.0
1001
DBPROPERTIES
1002
{
1000
PbThick
1002
}
  0
LINE
  5
1C7
330
1F
100
AcDbEntity
  8
THICK
100
AcDbLine
 10
-57.25008392333984
 20
-84.35311126708984
 30
0.0
 11
-57.26037979125977
 21
-84.47431182861328
 31
0.0
1001
DBPROPERTIES
1002
{
1000
PbThick
1002
}
  0
LINE
  5
1C8
330
1F
100
AcDbEntity
  8
THICK
100
AcDbLine
 10
-57.26037979125977
 20
-84.47431182861328
 30
0.0
 11
-57.28985214233398
 21
-84.59596252441406
 31
0.0
1001
DBPROPERTIES
1002
{
1000
PbThick
1002
}
  0
LINE
  5
1C9
330
1F
100
AcDbEntity
  8
THICK
100
AcDbLine
 10
-57.28985214233398
 20
-84.59596252441406
 30
0.0
 11
-57.33757400512695
 21
-84.71717071533203
 31
0.0
1001
DBPROPERTIES
1002
{
1000
PbThick
1002
}
  0
LINE
  5
1CA
330
1F
100
AcDbEntity
  8
THICK
100
AcDbLine
 10
-57.33757400512695
 20
-84.71717071533203
 30
0.0
 11
-57.40226745605469
 21
-84.8370361328125
 31
0.0
1001
DBPROPERTIES
1002
{
1000
PbThick
1002
}
  0
LINE
  5
1CB
330
1F
100
AcDbEntity
  8
THICK
100
AcDbLine
 10
-57.40226745605469
 20
-84.8370361328125
 30
0.0
 11
-57.48308181762695
 21
-84.95526123046875
 31
0.0
1001
DBPROPERTIES
1002
{
1000
PbThick
1002
}
  0
LINE
  5
1CC
330
1F
100
AcDbEntity
  8
THICK
100
AcDbLine
 10
-57.48308181762695
 20
-84.95526123046875
 30
0.0
 11
-57.58215713500977
 21
-85.07500457763672
 31
0.0
1001
DBPROPERTIES
1002
{
1000
PbThick
1002
}
  0
LINE
  5
1CD
330
1F
100
AcDbEntity
  8
THICK
100
AcDbLine
 10
-57.58215713500977
 20
-85.07500457763672
 30
0.0
 11
-57.70000076293945
 21
-85.19610595703125
 31
0.0
1001
DBPROPERTIES
1002
{
1000
PbThick
1002
}
  0
LINE
  5
1CE
330
1F
100
AcDbEntity
  8
THICK
100
AcDbLine
 10
-57.70000076293945
 20
-85.19610595703125
 30
0.0
 11
-57.83665466308594
 21
-85.31767272949219
 31
0.0
1001
DBPROPERTIES
1002
{
1000
PbThick
1002
}
  0
LINE
  5
1CF
330
1F
100
AcDbEntity
  8
THICK
100
AcDbLine
 10
-57.83665466308594
 20
-85.31767272949219
 30
0.0
 11
-57.99186325073242
 21
-85.43883514404297
 31
0.0
1001
DBPROPERTIES
1002
{
1000
PbThick
1002
}
  0
LINE
  5
1D0
330
1F
100
AcDbEntity
  8
THICK
100
AcDbLine
 10
-57.99186325073242
 20
-85.43883514404297
 30
0.0
 11
-58.16486740112305
 21
-85.55876922607422
 31
0.0
1001
DBPROPERTIES
1002
{
1000
PbThick
1002
}
  0
LINE
  5
1D1
330
1F
100
AcDbEntity
  8
THICK
100
AcDbLine
 10
-58.16486740112305
 20
-85.55876922607422
 30
0.0
 11
-58.35486602783203
 21
-85.67665100097656
 31
0.0
1001
DBPROPERTIES
1002
{
1000
PbThick
1002
}
  0
LINE
  5
1D2
330
1F
100
AcDbEntity
  8
THICK
100
AcDbLine
 10
-58.35486602783203
 20
-85.67665100097656
 30
0.0
 11
-58.56100463867188
 21
-85.79174041748047
 31
0.0
1001
DBPROPERTIES
1002
{
1000
PbThick
1002
}
  0
LINE
  5
1D3
330
1F
100
AcDbEntity
  8
THICK
100
AcDbLine
 10
-58.56100463867188
 20
-85.79174041748047
 30
0.0
 11
-58.78195190429688
 21
-85.90335845947266
 31
0.0
1001
DBPROPERTIES
1002
{
1000
PbThick
1002
}
  0
LINE
  5
1D4
330
1F
100
AcDbEntity
  8
THICK
100
AcDbLine
 10
-58.78195190429688
 20
-85.90335845947266
 30
0.0
 11
-59.01620864868164
 21
-86.01079559326172
 31
0.0
1001
DBPROPERTIES
1002
{
1000
PbThick
1002
}
  0
LINE
  5
1D5
330
1F
100
AcDbEntity
  8
THICK
100
AcDbLine
 10
-59.01620864868164
 20
-86.01079559326172
 30
0.0
 11
-59.26220321655273
 21
-86.11337280273438
 31
0.0
1001
DBPROPERTIES
1002
{
1000
PbThick
1002
}
  0
LINE
  5
1D6
330
1F
100
AcDbEntity
  8
THICK
100
AcDbLine
 10
-59.26220321655273
 20
-86.11337280273438
 30
0.0
 11
-59.51794815063477
 21
-86.21051025390625
 31
0.0
1001
DBPROPERTIES
1002
{
1000
PbThick
1002
}
  0
LINE
  5
1D7
330
1F
100
AcDbEntity
  8
THICK
100
AcDbLine
 10
-59.51794815063477
 20
-86.21051025390625
 30
0.0
 11
-59.78128051757812
 21
-86.30169677734375
 31
0.0
1001
DBPROPERTIES
1002
{
1000
PbThick
1002
}
  0
LINE
  5
1D8
330
1F
100
AcDbEntity
  8
THICK
100
AcDbLine
 10
-59.78128051757812
 20
-86.30169677734375
 30
0.0
 11
-60.05251312255859
 21
-86.38719177246094
 31
0.0
1001
DBPROPERTIES
1002
{
1000
PbThick
1002
}
  0
LINE
  5
1D9
330
1F
100
AcDbEntity
  8
THICK
100
AcDbLine
 10
-60.05251312255859
 20
-86.38719177246094
 30
0.0
 11
-60.33802795410156
 21
-86.46886444091797
 31
0.0
1001
DBPROPERTIES
1002
{
1000
PbThick
1002
}
  0
LINE
  5
1DA
330
1F
100
AcDbEntity
  8
THICK
100
AcDbLine
 10
-60.33802795410156
 20
-86.46886444091797
 30
0.0
 11
-60.63656616210938
 21
-86.54593658447266
 31
0.0
1001
DBPROPERTIES
1002
{
1000
PbThick
1002
}
  0
LINE
  5
1DB
330
1F
100
AcDbEntity
  8
THICK
100
AcDbLine
 10
-60.63656616210938
 20
-86.54593658447266
 30
0.0
 11
-60.94617080688477
 21
-86.61743927001953
 31
0.0
1001
DBPROPERTIES
1002
{
1000
PbThick
1002
}
  0
LINE
  5
1DC
330
1F
100
AcDbEntity
  8
THICK
100
AcDbLine
 10
-60.94617080688477
 20
-86.61743927001953
 30
0.0
 11
-61.26465225219727
 21
-86.6825942993164
 31
0.0
1001
DBPROPERTIES
1002
{
1000
PbThick
1002
}
  0
LINE
  5
1DD
330
1F
100
AcDbEntity
  8
THICK
100
AcDbLine
 10
-61.26465225219727
 20
-86.6825942993164
 30
0.0
 11
-61.58964157104492
 21
-86.74076843261719
 31
0.0
1001
DBPROPERTIES
1002
{
1000
PbThick
1002
}
  0
LINE
  5
1DE
330
1F
100
AcDbEntity
  8
THICK
100
AcDbLine
 10
-61.58964157104492
 20
-86.74076843261719
 30
0.0
 11
-61.9188117980957
 21
-86.79136657714844
 31
0.0
1001
DBPROPERTIES
1002
{
1000
PbThick
1002
}
  0
LINE
  5
1DF
330
1F
100
AcDbEntity
  8
THICK
100
AcDbLine
 10
-61.9188117980957
 20
-86.79136657714844
 30
0.0
 11
-62.25000381469727
 21
-86.833984375
 31
0.0
1001
DBPROPERTIES
1002
{
1000
PbThick
1002
}
  0
LINE
  5
1E0
330
1F
100
AcDbEntity
  8
THICK
100
AcDbLine
 10
-216.2
 20
-110.0875
 30
0.0
 11
-0.0000000000000459
 21
-110.0875
 31
0.0
1001
DBPROPERTIES
1002
{
1000
PbThick
1002
}
  0
LINE
  5
1E1
330
1F
100
AcDbEntity
  8
THICK
100
AcDbLine
 10
-192.7
 20
-100.6875
 30
0.0
 11
-66.24999997187781
 21
-100.6875
 31
0.0
1001
DBPROPERTIES
1002
{
1000
PbThick
1002
}
  0
LINE
  5
1E2
330
1F
100
AcDbEntity
  8
HIDDEN
100
AcDbLine
 10
-66.24999997187781
 20
-100.6875
 30
0.0
 11
-58.24999996093269
 21
-100.6875
 31
0.0
1001
DBPROPERTIES
1002
{
1000
PbHidd
1002
}
  0
LINE
  5
1E3
330
1F
100
AcDbEntity
  8
THICK
100
AcDbLine
 10
-58.24999996093269
 20
-100.6875
 30
0.0
 11
-0.0000000000000416
 21
-100.6875
 31
0.0
1001
DBPROPERTIES
1002
{
1000
PbThick
1002
}
  0
LINE
  5
1E4
330
1F
100
AcDbEntity
  8
THICK
100
AcDbLine
 10
-62.25000381469727
 20
-109.208984375
 30
0.0
 11
-62.54967880249023
 21
-109.2405090332031
 31
0.0
1001
DBPROPERTIES
1002
{
1000
PbThick
1002
}
  0
LINE
  5
1E5
330
1F
100
AcDbEntity
  8
THICK
100
AcDbLine
 10
-62.54967880249023
 20
-109.2405090332031
 30
0.0
 11
-62.84706878662109
 21
-109.2651138305664
 31
0.0
1001
DBPROPERTIES
1002
{
1000
PbThick
1002
}
  0
LINE
  5
1E6
330
1F
100
AcDbEntity
  8
THICK
100
AcDbLine
 10
-62.84706878662109
 20
-109.2651138305664
 30
0.0
 11
-63.14030075073242
 21
-109.28271484375
 31
0.0
1001
DBPROPERTIES
1002
{
1000
PbThick
1002
}
  0
LINE
  5
1E7
330
1F
100
AcDbEntity
  8
THICK
100
AcDbLine
 10
-63.14030075073242
 20
-109.28271484375
 30
0.0
 11
-63.42754364013672
 21
-109.2934494018555
 31
0.0
1001
DBPROPERTIES
1002
{
1000
PbThick
1002
}
  0
LINE
  5
1E8
330
1F
100
AcDbEntity
  8
THICK
100
AcDbLine
 10
-63.42754364013672
 20
-109.2934494018555
 30
0.0
 11
-63.70696640014648
 21
-109.2974853515625
 31
0.0
1001
DBPROPERTIES
1002
{
1000
PbThick
1002
}
  0
LINE
  5
1E9
330
1F
100
AcDbEntity
  8
THICK
100
AcDbLine
 10
-63.70696640014648
 20
-109.2974853515625
 30
0.0
 11
-63.98056030273438
 21
-109.2949295043945
 31
0.0
1001
DBPROPERTIES
1002
{
1000
PbThick
1002
}
  0
LINE
  5
1EA
330
1F
100
AcDbEntity
  8
THICK
100
AcDbLine
 10
-63.98056030273438
 20
-109.2949295043945
 30
0.0
 11
-64.25215911865234
 21
-109.2857055664062
 31
0.0
1001
DBPROPERTIES
1002
{
1000
PbThick
1002
}
  0
LINE
  5
1EB
330
1F
100
AcDbEntity
  8
THICK
100
AcDbLine
 10
-64.25215911865234
 20
-109.2857055664062
 30
0.0
 11
-64.51976776123047
 21
-109.269645690918
 31
0.0
1001
DBPROPERTIES
1002
{
1000
PbThick
1002
}
  0
LINE
  5
1EC
330
1F
100
AcDbEntity
  8
THICK
100
AcDbLine
 10
-64.51976776123047
 20
-109.269645690918
 30
0.0
 11
-64.78131866455078
 21
-109.2466201782227
 31
0.0
1001
DBPROPERTIES
1002
{
1000
PbThick
1002
}
  0
LINE
  5
1ED
330
1F
100
AcDbEntity
  8
THICK
100
AcDbLine
 10
-64.78131866455078
 20
-109.2466201782227
 30
0.0
 11
-65.03500366210938
 21
-109.2166213989258
 31
0.0
1001
DBPROPERTIES
1002
{
1000
PbThick
1002
}
  0
LINE
  5
1EE
330
1F
100
AcDbEntity
  8
THICK
100
AcDbLine
 10
-65.03500366210938
 20
-109.2166213989258
 30
0.0
 11
-65.27919006347656
 21
-109.1798477172852
 31
0.0
1001
DBPROPERTIES
1002
{
1000
PbThick
1002
}
  0
LINE
  5
1EF
330
1F
100
AcDbEntity
  8
THICK
100
AcDbLine
 10
-65.27919006347656
 20
-109.1798477172852
 30
0.0
 11
-65.51229858398438
 21
-109.136474609375
 31
0.0
1001
DBPROPERTIES
1002
{
1000
PbThick
1002
}
  0
LINE
  5
1F0
330
1F
100
AcDbEntity
  8
THICK
100
AcDbLine
 10
-65.51229858398438
 20
-109.136474609375
 30
0.0
 11
-65.73298645019531
 21
-109.0867156982422
 31
0.0
1001
DBPROPERTIES
1002
{
1000
PbThick
1002
}
  0
LINE
  5
1F1
330
1F
100
AcDbEntity
  8
THICK
100
AcDbLine
 10
-65.73298645019531
 20
-109.0867156982422
 30
0.0
 11
-65.94025421142578
 21
-109.0309829711914
 31
0.0
1001
DBPROPERTIES
1002
{
1000
PbThick
1002
}
  0
LINE
  5
1F2
330
1F
100
AcDbEntity
  8
THICK
100
AcDbLine
 10
-65.94025421142578
 20
-109.0309829711914
 30
0.0
 11
-66.13304901123047
 21
-108.9697341918945
 31
0.0
1001
DBPROPERTIES
1002
{
1000
PbThick
1002
}
  0
LINE
  5
1F3
330
1F
100
AcDbEntity
  8
THICK
100
AcDbLine
 10
-66.13304901123047
 20
-108.9697341918945
 30
0.0
 11
-66.31038665771484
 21
-108.9034652709961
 31
0.0
1001
DBPROPERTIES
1002
{
1000
PbThick
1002
}
  0
LINE
  5
1F4
330
1F
100
AcDbEntity
  8
THICK
100
AcDbLine
 10
-66.31038665771484
 20
-108.9034652709961
 30
0.0
 11
-66.4716796875
 21
-108.8327941894531
 31
0.0
1001
DBPROPERTIES
1002
{
1000
PbThick
1002
}
  0
LINE
  5
1F5
330
1F
100
AcDbEntity
  8
THICK
100
AcDbLine
 10
-66.4716796875
 20
-108.8327941894531
 30
0.0
 11
-66.61662292480469
 21
-108.7584686279297
 31
0.0
1001
DBPROPERTIES
1002
{
1000
PbThick
1002
}
  0
LINE
  5
1F6
330
1F
100
AcDbEntity
  8
THICK
100
AcDbLine
 10
-66.61662292480469
 20
-108.7584686279297
 30
0.0
 11
-66.7451400756836
 21
-108.6810607910156
 31
0.0
1001
DBPROPERTIES
1002
{
1000
PbThick
1002
}
  0
LINE
  5
1F7
330
1F
100
AcDbEntity
  8
THICK
100
AcDbLine
 10
-66.7451400756836
 20
-108.6810607910156
 30
0.0
 11
-66.86022186279297
 21
-108.5989990234375
 31
0.0
1001
DBPROPERTIES
1002
{
1000
PbThick
1002
}
  0
LINE
  5
1F8
330
1F
100
AcDbEntity
  8
THICK
100
AcDbLine
 10
-66.86022186279297
 20
-108.5989990234375
 30
0.0
 11
-66.96199035644531
 21
-108.5119934082031
 31
0.0
1001
DBPROPERTIES
1002
{
1000
PbThick
1002
}
  0
LINE
  5
1F9
330
1F
100
AcDbEntity
  8
THICK
100
AcDbLine
 10
-66.96199035644531
 20
-108.5119934082031
 30
0.0
 11
-67.04944610595703
 21
-108.4204330444336
 31
0.0
1001
DBPROPERTIES
1002
{
1000
PbThick
1002
}
  0
LINE
  5
1FA
330
1F
100
AcDbEntity
  8
THICK
100
AcDbLine
 10
-67.04944610595703
 20
-108.4204330444336
 30
0.0
 11
-67.12164306640625
 21
-108.3246994018555
 31
0.0
1001
DBPROPERTIES
1002
{
1000
PbThick
1002
}
  0
LINE
  5
1FB
330
1F
100
AcDbEntity
  8
THICK
100
AcDbLine
 10
-67.12164306640625
 20
-108.3246994018555
 30
0.0
 11
-67.17807006835938
 21
-108.2252960205078
 31
0.0
1001
DBPROPERTIES
1002
{
1000
PbThick
1002
}
  0
LINE
  5
1FC
330
1F
100
AcDbEntity
  8
THICK
100
AcDbLine
 10
-67.17807006835938
 20
-108.2252960205078
 30
0.0
 11
-67.21843719482422
 21
-108.1227416992188
 31
0.0
1001
DBPROPERTIES
1002
{
1000
PbThick
1002
}
  0
LINE
  5
1FD
330
1F
100
AcDbEntity
  8
THICK
100
AcDbLine
 10
-67.21843719482422
 20
-108.1227416992188
 30
0.0
 11
-67.24241638183594
 21
-108.0175628662109
 31
0.0
1001
DBPROPERTIES
1002
{
1000
PbThick
1002
}
  0
LINE
  5
1FE
330
1F
100
AcDbEntity
  8
THICK
100
AcDbLine
 10
-67.24241638183594
 20
-108.0175628662109
 30
0.0
 11
-67.24992370605469
 21
-107.9102401733398
 31
0.0
1001
DBPROPERTIES
1002
{
1000
PbThick
1002
}
  0
LINE
  5
1FF
330
1F
100
AcDbEntity
  8
THICK
100
AcDbLine
 10
-67.24992370605469
 20
-107.9102401733398
 30
0.0
 11
-67.24170684814453
 21
-107.8044662475586
 31
0.0
1001
DBPROPERTIES
1002
{
1000
PbThick
1002
}
  0
LINE
  5
200
330
1F
100
AcDbEntity
  8
THICK
100
AcDbLine
 10
-67.24170684814453
 20
-107.8044662475586
 30
0.0
 11
-67.21849060058594
 21
-107.6977767944336
 31
0.0
1001
DBPROPERTIES
1002
{
1000
PbThick
1002
}
  0
LINE
  5
201
330
1F
100
AcDbEntity
  8
THICK
100
AcDbLine
 10
-67.21849060058594
 20
-107.6977767944336
 30
0.0
 11
-67.18061065673828
 21
-107.5907592773438
 31
0.0
1001
DBPROPERTIES
1002
{
1000
PbThick
1002
}
  0
LINE
  5
202
330
1F
100
AcDbEntity
  8
THICK
100
AcDbLine
 10
-67.18061065673828
 20
-107.5907592773438
 30
0.0
 11
-67.12872314453125
 21
-107.4839859008789
 31
0.0
1001
DBPROPERTIES
1002
{
1000
PbThick
1002
}
  0
LINE
  5
203
330
1F
100
AcDbEntity
  8
THICK
100
AcDbLine
 10
-67.12872314453125
 20
-107.4839859008789
 30
0.0
 11
-67.06376647949219
 21
-107.3780670166016
 31
0.0
1001
DBPROPERTIES
1002
{
1000
PbThick
1002
}
  0
LINE
  5
204
330
1F
100
AcDbEntity
  8
THICK
100
AcDbLine
 10
-67.06376647949219
 20
-107.3780670166016
 30
0.0
 11
-66.98665618896484
 21
-107.2736206054688
 31
0.0
1001
DBPROPERTIES
1002
{
1000
PbThick
1002
}
  0
LINE
  5
205
330
1F
100
AcDbEntity
  8
THICK
100
AcDbLine
 10
-66.98665618896484
 20
-107.2736206054688
 30
0.0
 11
-66.89844512939453
 21
-107.1712646484375
 31
0.0
1001
DBPROPERTIES
1002
{
1000
PbThick
1002
}
  0
LINE
  5
206
330
1F
100
AcDbEntity
  8
THICK
100
AcDbLine
 10
-66.89844512939453
 20
-107.1712646484375
 30
0.0
 11
-66.79627227783203
 21
-107.0674514770508
 31
0.0
1001
DBPROPERTIES
1002
{
1000
PbThick
1002
}
  0
LINE
  5
207
330
1F
100
AcDbEntity
  8
THICK
100
AcDbLine
 10
-66.79627227783203
 20
-107.0674514770508
 30
0.0
 11
-66.68018341064453
 21
-106.962776184082
 31
0.0
1001
DBPROPERTIES
1002
{
1000
PbThick
1002
}
  0
LINE
  5
208
330
1F
100
AcDbEntity
  8
THICK
100
AcDbLine
 10
-66.68018341064453
 20
-106.962776184082
 30
0.0
 11
-66.55022430419922
 21
-106.8578186035156
 31
0.0
1001
DBPROPERTIES
1002
{
1000
PbThick
1002
}
  0
LINE
  5
209
330
1F
100
AcDbEntity
  8
THICK
100
AcDbLine
 10
-66.55022430419922
 20
-106.8578186035156
 30
0.0
 11
-66.40664672851562
 21
-106.7531585693359
 31
0.0
1001
DBPROPERTIES
1002
{
1000
PbThick
1002
}
  0
LINE
  5
20A
330
1F
100
AcDbEntity
  8
THICK
100
AcDbLine
 10
-66.40664672851562
 20
-106.7531585693359
 30
0.0
 11
-66.25
 21
-106.6493377685547
 31
0.0
1001
DBPROPERTIES
1002
{
1000
PbThick
1002
}
  0
LINE
  5
20B
330
1F
100
AcDbEntity
  8
HIDDEN
100
AcDbLine
 10
-66.25
 20
-106.6493377685547
 30
0.0
 11
-66.02841186523438
 21
-106.5168914794922
 31
0.0
1001
DBPROPERTIES
1002
{
1000
PbHidd
1002
}
  0
LINE
  5
20C
330
1F
100
AcDbEntity
  8
HIDDEN
100
AcDbLine
 10
-66.02841186523438
 20
-106.5168914794922
 30
0.0
 11
-65.78713989257812
 21
-106.3879089355469
 31
0.0
1001
DBPROPERTIES
1002
{
1000
PbHidd
1002
}
  0
LINE
  5
20D
330
1F
100
AcDbEntity
  8
HIDDEN
100
AcDbLine
 10
-65.78713989257812
 20
-106.3879089355469
 30
0.0
 11
-65.52809143066406
 21
-106.2633972167969
 31
0.0
1001
DBPROPERTIES
1002
{
1000
PbHidd
1002
}
  0
LINE
  5
20E
330
1F
100
AcDbEntity
  8
HIDDEN
100
AcDbLine
 10
-65.52809143066406
 20
-106.2633972167969
 30
0.0
 11
-65.25350189208984
 21
-106.1443862915039
 31
0.0
1001
DBPROPERTIES
1002
{
1000
PbHidd
1002
}
  0
LINE
  5
20F
330
1F
100
AcDbEntity
  8
HIDDEN
100
AcDbLine
 10
-65.25350189208984
 20
-106.1443862915039
 30
0.0
 11
-64.96576690673828
 21
-106.031867980957
 31
0.0
1001
DBPROPERTIES
1002
{
1000
PbHidd
1002
}
  0
LINE
  5
210
330
1F
100
AcDbEntity
  8
HIDDEN
100
AcDbLine
 10
-64.96576690673828
 20
-106.031867980957
 30
0.0
 11
-64.66790008544922
 21
-105.9266510009766
 31
0.0
1001
DBPROPERTIES
1002
{
1000
PbHidd
1002
}
  0
LINE
  5
211
330
1F
100
AcDbEntity
  8
HIDDEN
100
AcDbLine
 10
-64.66790008544922
 20
-105.9266510009766
 30
0.0
 11
-64.36231994628906
 21
-105.8292694091797
 31
0.0
1001
DBPROPERTIES
1002
{
1000
PbHidd
1002
}
  0
LINE
  5
212
330
1F
100
AcDbEntity
  8
HIDDEN
100
AcDbLine
 10
-64.36231994628906
 20
-105.8292694091797
 30
0.0
 11
-64.04096221923828
 21
-105.7373199462891
 31
0.0
1001
DBPROPERTIES
1002
{
1000
PbHidd
1002
}
  0
LINE
  5
213
330
1F
100
AcDbEntity
  8
HIDDEN
100
AcDbLine
 10
-64.04096221923828
 20
-105.7373199462891
 30
0.0
 11
-63.70299911499023
 21
-105.6511306762695
 31
0.0
1001
DBPROPERTIES
1002
{
1000
PbHidd
1002
}
  0
LINE
  5
214
330
1F
100
AcDbEntity
  8
HIDDEN
100
AcDbLine
 10
-63.70299911499023
 20
-105.6511306762695
 30
0.0
 11
-63.35147094726562
 21
-105.5722274780273
 31
0.0
1001
DBPROPERTIES
1002
{
1000
PbHidd
1002
}
  0
LINE
  5
215
330
1F
100
AcDbEntity
  8
HIDDEN
100
AcDbLine
 10
-63.35147094726562
 20
-105.5722274780273
 30
0.0
 11
-62.98976898193359
 21
-105.5018081665039
 31
0.0
1001
DBPROPERTIES
1002
{
1000
PbHidd
1002
}
  0
LINE
  5
216
330
1F
100
AcDbEntity
  8
HIDDEN
100
AcDbLine
 10
-62.98976898193359
 20
-105.5018081665039
 30
0.0
 11
-62.62149047851562
 21
-105.4408874511719
 31
0.0
1001
DBPROPERTIES
1002
{
1000
PbHidd
1002
}
  0
LINE
  5
217
330
1F
100
AcDbEntity
  8
HIDDEN
100
AcDbLine
 10
-62.62149047851562
 20
-105.4408874511719
 30
0.0
 11
-62.24999618530273
 21
-105.3902893066406
 31
0.0
1001
DBPROPERTIES
1002
{
1000
PbHidd
1002
}
  0
LINE
  5
218
330
1F
100
AcDbEntity
  8
HIDDEN
100
AcDbLine
 10
-62.24999618530273
 20
-105.3902893066406
 30
0.0
 11
-61.88884353637695
 21
-105.3513870239258
 31
0.0
1001
DBPROPERTIES
1002
{
1000
PbHidd
1002
}
  0
LINE
  5
219
330
1F
100
AcDbEntity
  8
HIDDEN
100
AcDbLine
 10
-61.88884353637695
 20
-105.3513870239258
 30
0.0
 11
-61.5316047668457
 21
-105.3230285644531
 31
0.0
1001
DBPROPERTIES
1002
{
1000
PbHidd
1002
}
  0
LINE
  5
21A
330
1F
100
AcDbEntity
  8
HIDDEN
100
AcDbLine
 10
-61.5316047668457
 20
-105.3230285644531
 30
0.0
 11
-61.1817512512207
 21
-105.3052673339844
 31
0.0
1001
DBPROPERTIES
1002
{
1000
PbHidd
1002
}
  0
LINE
  5
21B
330
1F
100
AcDbEntity
  8
HIDDEN
100
AcDbLine
 10
-61.1817512512207
 20
-105.3052673339844
 30
0.0
 11
-60.84270095825195
 21
-105.2978134155273
 31
0.0
1001
DBPROPERTIES
1002
{
1000
PbHidd
1002
}
  0
LINE
  5
21C
330
1F
100
AcDbEntity
  8
HIDDEN
100
AcDbLine
 10
-60.84270095825195
 20
-105.2978134155273
 30
0.0
 11
-60.51338958740234
 21
-105.3003845214844
 31
0.0
1001
DBPROPERTIES
1002
{
1000
PbHidd
1002
}
  0
LINE
  5
21D
330
1F
100
AcDbEntity
  8
HIDDEN
100
AcDbLine
 10
-60.51338958740234
 20
-105.3003845214844
 30
0.0
 11
-60.18682098388672
 21
-105.3130950927734
 31
0.0
1001
DBPROPERTIES
1002
{
1000
PbHidd
1002
}
  0
LINE
  5
21E
330
1F
100
AcDbEntity
  8
HIDDEN
100
AcDbLine
 10
-60.18682098388672
 20
-105.3130950927734
 30
0.0
 11
-59.86641311645508
 21
-105.3362731933594
 31
0.0
1001
DBPROPERTIES
1002
{
1000
PbHidd
1002
}
  0
LINE
  5
21F
330
1F
100
AcDbEntity
  8
HIDDEN
100
AcDbLine
 10
-59.86641311645508
 20
-105.3362731933594
 30
0.0
 11
-59.55586624145508
 21
-105.3700942993164
 31
0.0
1001
DBPROPERTIES
1002
{
1000
PbHidd
1002
}
  0
LINE
  5
220
330
1F
100
AcDbEntity
  8
HIDDEN
100
AcDbLine
 10
-59.55586624145508
 20
-105.3700942993164
 30
0.0
 11
-59.25832366943359
 21
-105.4142913818359
 31
0.0
1001
DBPROPERTIES
1002
{
1000
PbHidd
1002
}
  0
LINE
  5
221
330
1F
100
AcDbEntity
  8
HIDDEN
100
AcDbLine
 10
-59.25832366943359
 20
-105.4142913818359
 30
0.0
 11
-58.97678756713867
 21
-105.4684906005859
 31
0.0
1001
DBPROPERTIES
1002
{
1000
PbHidd
1002
}
  0
LINE
  5
222
330
1F
100
AcDbEntity
  8
HIDDEN
100
AcDbLine
 10
-58.97678756713867
 20
-105.4684906005859
 30
0.0
 11
-58.71358489990234
 21
-105.5321426391602
 31
0.0
1001
DBPROPERTIES
1002
{
1000
PbHidd
1002
}
  0
LINE
  5
223
330
1F
100
AcDbEntity
  8
HIDDEN
100
AcDbLine
 10
-58.71358489990234
 20
-105.5321426391602
 30
0.0
 11
-58.47068405151367
 21
-105.604362487793
 31
0.0
1001
DBPROPERTIES
1002
{
1000
PbHidd
1002
}
  0
LINE
  5
224
330
1F
100
AcDbEntity
  8
HIDDEN
100
AcDbLine
 10
-58.47068405151367
 20
-105.604362487793
 30
0.0
 11
-58.25001907348633
 21
-105.684196472168
 31
0.0
1001
DBPROPERTIES
1002
{
1000
PbHidd
1002
}
  0
LINE
  5
225
330
1F
100
AcDbEntity
  8
THICK
100
AcDbLine
 10
-58.25001907348633
 20
-105.684196472168
 30
0.0
 11
-58.04354095458984
 21
-105.7748031616211
 31
0.0
1001
DBPROPERTIES
1002
{
1000
PbThick
1002
}
  0
LINE
  5
226
330
1F
100
AcDbEntity
  8
THICK
100
AcDbLine
 10
-58.04354095458984
 20
-105.7748031616211
 30
0.0
 11
-57.86354827880859
 21
-105.8707809448242
 31
0.0
1001
DBPROPERTIES
1002
{
1000
PbThick
1002
}
  0
LINE
  5
227
330
1F
100
AcDbEntity
  8
THICK
100
AcDbLine
 10
-57.86354827880859
 20
-105.8707809448242
 30
0.0
 11
-57.7056770324707
 21
-105.9738006591797
 31
0.0
1001
DBPROPERTIES
1002
{
1000
PbThick
1002
}
  0
LINE
  5
228
330
1F
100
AcDbEntity
  8
THICK
100
AcDbLine
 10
-57.7056770324707
 20
-105.9738006591797
 30
0.0
 11
-57.56858825683594
 21
-106.0848617553711
 31
0.0
1001
DBPROPERTIES
1002
{
1000
PbThick
1002
}
  0
LINE
  5
229
330
1F
100
AcDbEntity
  8
THICK
100
AcDbLine
 10
-57.56858825683594
 20
-106.0848617553711
 30
0.0
 11
-57.45443725585938
 21
-106.2031478881836
 31
0.0
1001
DBPROPERTIES
1002
{
1000
PbThick
1002
}
  0
LINE
  5
22A
330
1F
100
AcDbEntity
  8
THICK
100
AcDbLine
 10
-57.45443725585938
 20
-106.2031478881836
 30
0.0
 11
-57.36481094360352
 21
-106.3277206420898
 31
0.0
1001
DBPROPERTIES
1002
{
1000
PbThick
1002
}
  0
LINE
  5
22B
330
1F
100
AcDbEntity
  8
THICK
100
AcDbLine
 10
-57.36481094360352
 20
-106.3277206420898
 30
0.0
 11
-57.30052185058594
 21
-106.4574661254883
 31
0.0
1001
DBPROPERTIES
1002
{
1000
PbThick
1002
}
  0
LINE
  5
22C
330
1F
100
AcDbEntity
  8
THICK
100
AcDbLine
 10
-57.30052185058594
 20
-106.4574661254883
 30
0.0
 11
-57.26227951049805
 21
-106.5913009643555
 31
0.0
1001
DBPROPERTIES
1002
{
1000
PbThick
1002
}
  0
LINE
  5
22D
330
1F
100
AcDbEntity
  8
THICK
100
AcDbLine
 10
-57.26227951049805
 20
-106.5913009643555
 30
0.0
 11
-57.25008392333984
 21
-106.7281112670898
 31
0.0
1001
DBPROPERTIES
1002
{
1000
PbThick
1002
}
  0
LINE
  5
22E
330
1F
100
AcDbEntity
  8
THICK
100
AcDbLine
 10
-57.25008392333984
 20
-106.7281112670898
 30
0.0
 11
-57.26037979125977
 21
-106.8493118286133
 31
0.0
1001
DBPROPERTIES
1002
{
1000
PbThick
1002
}
  0
LINE
  5
22F
330
1F
100
AcDbEntity
  8
THICK
100
AcDbLine
 10
-57.26037979125977
 20
-106.8493118286133
 30
0.0
 11
-57.28985214233398
 21
-106.9709625244141
 31
0.0
1001
DBPROPERTIES
1002
{
1000
PbThick
1002
}
  0
LINE
  5
230
330
1F
100
AcDbEntity
  8
THICK
100
AcDbLine
 10
-57.28985214233398
 20
-106.9709625244141
 30
0.0
 11
-57.33757400512695
 21
-107.092170715332
 31
0.0
1001
DBPROPERTIES
1002
{
1000
PbThick
1002
}
  0
LINE
  5
231
330
1F
100
AcDbEntity
  8
THICK
100
AcDbLine
 10
-57.33757400512695
 20
-107.092170715332
 30
0.0
 11
-57.40226745605469
 21
-107.2120361328125
 31
0.0
1001
DBPROPERTIES
1002
{
1000
PbThick
1002
}
  0
LINE
  5
232
330
1F
100
AcDbEntity
  8
THICK
100
AcDbLine
 10
-57.40226745605469
 20
-107.2120361328125
 30
0.0
 11
-57.48308181762695
 21
-107.3302612304688
 31
0.0
1001
DBPROPERTIES
1002
{
1000
PbThick
1002
}
  0
LINE
  5
233
330
1F
100
AcDbEntity
  8
THICK
100
AcDbLine
 10
-57.48308181762695
 20
-107.3302612304688
 30
0.0
 11
-57.58215713500977
 21
-107.4500045776367
 31
0.0
1001
DBPROPERTIES
1002
{
1000
PbThick
1002
}
  0
LINE
  5
234
330
1F
100
AcDbEntity
  8
THICK
100
AcDbLine
 10
-57.58215713500977
 20
-107.4500045776367
 30
0.0
 11
-57.70000076293945
 21
-107.5711059570312
 31
0.0
1001
DBPROPERTIES
1002
{
1000
PbThick
1002
}
  0
LINE
  5
235
330
1F
100
AcDbEntity
  8
THICK
100
AcDbLine
 10
-57.70000076293945
 20
-107.5711059570312
 30
0.0
 11
-57.83665466308594
 21
-107.6926727294922
 31
0.0
1001
DBPROPERTIES
1002
{
1000
PbThick
1002
}
  0
LINE
  5
236
330
1F
100
AcDbEntity
  8
THICK
100
AcDbLine
 10
-57.83665466308594
 20
-107.6926727294922
 30
0.0
 11
-57.99186325073242
 21
-107.813835144043
 31
0.0
1001
DBPROPERTIES
1002
{
1000
PbThick
1002
}
  0
LINE
  5
237
330
1F
100
AcDbEntity
  8
THICK
100
AcDbLine
 10
-57.99186325073242
 20
-107.813835144043
 30
0.0
 11
-58.16486740112305
 21
-107.9337692260742
 31
0.0
1001
DBPROPERTIES
1002
{
1000
PbThick
1002
}
  0
LINE
  5
238
330
1F
100
AcDbEntity
  8
THICK
100
AcDbLine
 10
-58.16486740112305
 20
-107.9337692260742
 30
0.0
 11
-58.35486602783203
 21
-108.0516510009766
 31
0.0
1001
DBPROPERTIES
1002
{
1000
PbThick
1002
}
  0
LINE
  5
239
330
1F
100
AcDbEntity
  8
THICK
100
AcDbLine
 10
-58.35486602783203
 20
-108.0516510009766
 30
0.0
 11
-58.56100463867188
 21
-108.1667404174805
 31
0.0
1001
DBPROPERTIES
1002
{
1000
PbThick
1002
}
  0
LINE
  5
23A
330
1F
100
AcDbEntity
  8
THICK
100
AcDbLine
 10
-58.56100463867188
 20
-108.1667404174805
 30
0.0
 11
-58.78195190429688
 21
-108.2783584594727
 31
0.0
1001
DBPROPERTIES
1002
{
1000
PbThick
1002
}
  0
LINE
  5
23B
330
1F
100
AcDbEntity
  8
THICK
100
AcDbLine
 10
-58.78195190429688
 20
-108.2783584594727
 30
0.0
 11
-59.01620864868164
 21
-108.3857955932617
 31
0.0
1001
DBPROPERTIES
1002
{
1000
PbThick
1002
}
  0
LINE
  5
23C
330
1F
100
AcDbEntity
  8
THICK
100
AcDbLine
 10
-59.01620864868164
 20
-108.3857955932617
 30
0.0
 11
-59.26220321655273
 21
-108.4883728027344
 31
0.0
1001
DBPROPERTIES
1002
{
1000
PbThick
1002
}
  0
LINE
  5
23D
330
1F
100
AcDbEntity
  8
THICK
100
AcDbLine
 10
-59.26220321655273
 20
-108.4883728027344
 30
0.0
 11
-59.51794815063477
 21
-108.5855102539062
 31
0.0
1001
DBPROPERTIES
1002
{
1000
PbThick
1002
}
  0
LINE
  5
23E
330
1F
100
AcDbEntity
  8
THICK
100
AcDbLine
 10
-59.51794815063477
 20
-108.5855102539062
 30
0.0
 11
-59.78128051757812
 21
-108.6766967773438
 31
0.0
1001
DBPROPERTIES
1002
{
1000
PbThick
1002
}
  0
LINE
  5
23F
330
1F
100
AcDbEntity
  8
THICK
100
AcDbLine
 10
-59.78128051757812
 20
-108.6766967773438
 30
0.0
 11
-60.05251312255859
 21
-108.7621917724609
 31
0.0
1001
DBPROPERTIES
1002
{
1000
PbThick
1002
}
  0
LINE
  5
240
330
1F
100
AcDbEntity
  8
THICK
100
AcDbLine
 10
-60.05251312255859
 20
-108.7621917724609
 30
0.0
 11
-60.33802795410156
 21
-108.843864440918
 31
0.0
1001
DBPROPERTIES
1002
{
1000
PbThick
1002
}
  0
LINE
  5
241
330
1F
100
AcDbEntity
  8
THICK
100
AcDbLine
 10
-60.33802795410156
 20
-108.843864440918
 30
0.0
 11
-60.63656616210938
 21
-108.9209365844727
 31
0.0
1001
DBPROPERTIES
1002
{
1000
PbThick
1002
}
  0
LINE
  5
242
330
1F
100
AcDbEntity
  8
THICK
100
AcDbLine
 10
-60.63656616210938
 20
-108.9209365844727
 30
0.0
 11
-60.94617080688477
 21
-108.9924392700195
 31
0.0
1001
DBPROPERTIES
1002
{
1000
PbThick
1002
}
  0
LINE
  5
243
330
1F
100
AcDbEntity
  8
THICK
100
AcDbLine
 10
-60.94617080688477
 20
-108.9924392700195
 30
0.0
 11
-61.26465225219727
 21
-109.0575942993164
 31
0.0
1001
DBPROPERTIES
1002
{
1000
PbThick
1002
}
  0
LINE
  5
244
330
1F
100
AcDbEntity
  8
THICK
100
AcDbLine
 10
-61.26465225219727
 20
-109.0575942993164
 30
0.0
 11
-61.58964157104492
 21
-109.1157684326172
 31
0.0
1001
DBPROPERTIES
1002
{
1000
PbThick
1002
}
  0
LINE
  5
245
330
1F
100
AcDbEntity
  8
THICK
100
AcDbLine
 10
-61.58964157104492
 20
-109.1157684326172
 30
0.0
 11
-61.9188117980957
 21
-109.1663665771484
 31
0.0
1001
DBPROPERTIES
1002
{
1000
PbThick
1002
}
  0
LINE
  5
246
330
1F
100
AcDbEntity
  8
THICK
100
AcDbLine
 10
-61.9188117980957
 20
-109.1663665771484
 30
0.0
 11
-62.25000381469727
 21
-109.208984375
 31
0.0
1001
DBPROPERTIES
1002
{
1000
PbThick
1002
}
  0
LINE
  5
247
330
1F
100
AcDbEntity
  8
THICK
100
AcDbLine
 10
-216.2
 20
-132.4625
 30
0.0
 11
-0.0000000000000472
 21
-132.4625
 31
0.0
1001
DBPROPERTIES
1002
{
1000
PbThick
1002
}
  0
LINE
  5
248
330
1F
100
AcDbEntity
  8
THICK
100
AcDbLine
 10
-192.7
 20
-123.0625
 30
0.0
 11
-66.24999997187781
 21
-123.0625
 31
0.0
1001
DBPROPERTIES
1002
{
1000
PbThick
1002
}
  0
LINE
  5
249
330
1F
100
AcDbEntity
  8
HIDDEN
100
AcDbLine
 10
-66.24999997187781
 20
-123.0625
 30
0.0
 11
-58.24999996041601
 21
-123.0625
 31
0.0
1001
DBPROPERTIES
1002
{
1000
PbHidd
1002
}
  0
LINE
  5
24A
330
1F
100
AcDbEntity
  8
THICK
100
AcDbLine
 10
-58.24999996041601
 20
-123.0625
 30
0.0
 11
-0.0000000000000429
 21
-123.0625
 31
0.0
1001
DBPROPERTIES
1002
{
1000
PbThick
1002
}
  0
LINE
  5
24B
330
1F
100
AcDbEntity
  8
THICK
100
AcDbLine
 10
-62.25000381469727
 20
-131.583984375
 30
0.0
 11
-62.54967880249023
 21
-131.6155090332031
 31
0.0
1001
DBPROPERTIES
1002
{
1000
PbThick
1002
}
  0
LINE
  5
24C
330
1F
100
AcDbEntity
  8
THICK
100
AcDbLine
 10
-62.54967880249023
 20
-131.6155090332031
 30
0.0
 11
-62.84706878662109
 21
-131.6401062011719
 31
0.0
1001
DBPROPERTIES
1002
{
1000
PbThick
1002
}
  0
LINE
  5
24D
330
1F
100
AcDbEntity
  8
THICK
100
AcDbLine
 10
-62.84706878662109
 20
-131.6401062011719
 30
0.0
 11
-63.14030075073242
 21
-131.65771484375
 31
0.0
1001
DBPROPERTIES
1002
{
1000
PbThick
1002
}
  0
LINE
  5
24E
330
1F
100
AcDbEntity
  8
THICK
100
AcDbLine
 10
-63.14030075073242
 20
-131.65771484375
 30
0.0
 11
-63.42754364013672
 21
-131.66845703125
 31
0.0
1001
DBPROPERTIES
1002
{
1000
PbThick
1002
}
  0
LINE
  5
24F
330
1F
100
AcDbEntity
  8
THICK
100
AcDbLine
 10
-63.42754364013672
 20
-131.66845703125
 30
0.0
 11
-63.70696640014648
 21
-131.6724853515625
 31
0.0
1001
DBPROPERTIES
1002
{
1000
PbThick
1002
}
  0
LINE
  5
250
330
1F
100
AcDbEntity
  8
THICK
100
AcDbLine
 10
-63.70696640014648
 20
-131.6724853515625
 30
0.0
 11
-63.98056030273438
 21
-131.669921875
 31
0.0
1001
DBPROPERTIES
1002
{
1000
PbThick
1002
}
  0
LINE
  5
251
330
1F
100
AcDbEntity
  8
THICK
100
AcDbLine
 10
-63.98056030273438
 20
-131.669921875
 30
0.0
 11
-64.25215911865234
 21
-131.6607055664062
 31
0.0
1001
DBPROPERTIES
1002
{
1000
PbThick
1002
}
  0
LINE
  5
252
330
1F
100
AcDbEntity
  8
THICK
100
AcDbLine
 10
-64.25215911865234
 20
-131.6607055664062
 30
0.0
 11
-64.51976776123047
 21
-131.6446533203125
 31
0.0
1001
DBPROPERTIES
1002
{
1000
PbThick
1002
}
  0
LINE
  5
253
330
1F
100
AcDbEntity
  8
THICK
100
AcDbLine
 10
-64.51976776123047
 20
-131.6446533203125
 30
0.0
 11
-64.78131866455078
 21
-131.6216125488281
 31
0.0
1001
DBPROPERTIES
1002
{
1000
PbThick
1002
}
  0
LINE
  5
254
330
1F
100
AcDbEntity
  8
THICK
100
AcDbLine
 10
-64.78131866455078
 20
-131.6216125488281
 30
0.0
 11
-65.03500366210938
 21
-131.5916290283203
 31
0.0
1001
DBPROPERTIES
1002
{
1000
PbThick
1002
}
  0
LINE
  5
255
330
1F
100
AcDbEntity
  8
THICK
100
AcDbLine
 10
-65.03500366210938
 20
-131.5916290283203
 30
0.0
 11
-65.27919006347656
 21
-131.5548553466797
 31
0.0
1001
DBPROPERTIES
1002
{
1000
PbThick
1002
}
  0
LINE
  5
256
330
1F
100
AcDbEntity
  8
THICK
100
AcDbLine
 10
-65.27919006347656
 20
-131.5548553466797
 30
0.0
 11
-65.51229858398438
 21
-131.511474609375
 31
0.0
1001
DBPROPERTIES
1002
{
1000
PbThick
1002
}
  0
LINE
  5
257
330
1F
100
AcDbEntity
  8
THICK
100
AcDbLine
 10
-65.51229858398438
 20
-131.511474609375
 30
0.0
 11
-65.73298645019531
 21
-131.4617156982422
 31
0.0
1001
DBPROPERTIES
1002
{
1000
PbThick
1002
}
  0
LINE
  5
258
330
1F
100
AcDbEntity
  8
THICK
100
AcDbLine
 10
-65.73298645019531
 20
-131.4617156982422
 30
0.0
 11
-65.94025421142578
 21
-131.4059753417969
 31
0.0
1001
DBPROPERTIES
1002
{
1000
PbThick
1002
}
  0
LINE
  5
259
330
1F
100
AcDbEntity
  8
THICK
100
AcDbLine
 10
-65.94025421142578
 20
-131.4059753417969
 30
0.0
 11
-66.13304901123047
 21
-131.3447418212891
 31
0.0
1001
DBPROPERTIES
1002
{
1000
PbThick
1002
}
  0
LINE
  5
25A
330
1F
100
AcDbEntity
  8
THICK
100
AcDbLine
 10
-66.13304901123047
 20
-131.3447418212891
 30
0.0
 11
-66.31038665771484
 21
-131.2784576416016
 31
0.0
1001
DBPROPERTIES
1002
{
1000
PbThick
1002
}
  0
LINE
  5
25B
330
1F
100
AcDbEntity
  8
THICK
100
AcDbLine
 10
-66.31038665771484
 20
-131.2784576416016
 30
0.0
 11
-66.4716796875
 21
-131.2077941894531
 31
0.0
1001
DBPROPERTIES
1002
{
1000
PbThick
1002
}
  0
LINE
  5
25C
330
1F
100
AcDbEntity
  8
THICK
100
AcDbLine
 10
-66.4716796875
 20
-131.2077941894531
 30
0.0
 11
-66.61662292480469
 21
-131.1334686279297
 31
0.0
1001
DBPROPERTIES
1002
{
1000
PbThick
1002
}
  0
LINE
  5
25D
330
1F
100
AcDbEntity
  8
THICK
100
AcDbLine
 10
-66.61662292480469
 20
-131.1334686279297
 30
0.0
 11
-66.7451400756836
 21
-131.0560607910156
 31
0.0
1001
DBPROPERTIES
1002
{
1000
PbThick
1002
}
  0
LINE
  5
25E
330
1F
100
AcDbEntity
  8
THICK
100
AcDbLine
 10
-66.7451400756836
 20
-131.0560607910156
 30
0.0
 11
-66.86022186279297
 21
-130.9739990234375
 31
0.0
1001
DBPROPERTIES
1002
{
1000
PbThick
1002
}
  0
LINE
  5
25F
330
1F
100
AcDbEntity
  8
THICK
100
AcDbLine
 10
-66.86022186279297
 20
-130.9739990234375
 30
0.0
 11
-66.96199035644531
 21
-130.8869934082031
 31
0.0
1001
DBPROPERTIES
1002
{
1000
PbThick
1002
}
  0
LINE
  5
260
330
1F
100
AcDbEntity
  8
THICK
100
AcDbLine
 10
-66.96199035644531
 20
-130.8869934082031
 30
0.0
 11
-67.04944610595703
 21
-130.7954254150391
 31
0.0
1001
DBPROPERTIES
1002
{
1000
PbThick
1002
}
  0
LINE
  5
261
330
1F
100
AcDbEntity
  8
THICK
100
AcDbLine
 10
-67.04944610595703
 20
-130.7954254150391
 30
0.0
 11
-67.12164306640625
 21
-130.69970703125
 31
0.0
1001
DBPROPERTIES
1002
{
1000
PbThick
1002
}
  0
LINE
  5
262
330
1F
100
AcDbEntity
  8
THICK
100
AcDbLine
 10
-67.12164306640625
 20
-130.69970703125
 30
0.0
 11
-67.17807006835938
 21
-130.6002960205078
 31
0.0
1001
DBPROPERTIES
1002
{
1000
PbThick
1002
}
  0
LINE
  5
263
330
1F
100
AcDbEntity
  8
THICK
100
AcDbLine
 10
-67.17807006835938
 20
-130.6002960205078
 30
0.0
 11
-67.21843719482422
 21
-130.4977416992188
 31
0.0
1001
DBPROPERTIES
1002
{
1000
PbThick
1002
}
  0
LINE
  5
264
330
1F
100
AcDbEntity
  8
THICK
100
AcDbLine
 10
-67.21843719482422
 20
-130.4977416992188
 30
0.0
 11
-67.24241638183594
 21
-130.3925628662109
 31
0.0
1001
DBPROPERTIES
1002
{
1000
PbThick
1002
}
  0
LINE
  5
265
330
1F
100
AcDbEntity
  8
THICK
100
AcDbLine
 10
-67.24241638183594
 20
-130.3925628662109
 30
0.0
 11
-67.24992370605469
 21
-130.2852478027344
 31
0.0
1001
DBPROPERTIES
1002
{
1000
PbThick
1002
}
  0
LINE
  5
266
330
1F
100
AcDbEntity
  8
THICK
100
AcDbLine
 10
-67.24992370605469
 20
-130.2852478027344
 30
0.0
 11
-67.24170684814453
 21
-130.1794586181641
 31
0.0
1001
DBPROPERTIES
1002
{
1000
PbThick
1002
}
  0
LINE
  5
267
330
1F
100
AcDbEntity
  8
THICK
100
AcDbLine
 10
-67.24170684814453
 20
-130.1794586181641
 30
0.0
 11
-67.21849060058594
 21
-130.0727844238281
 31
0.0
1001
DBPROPERTIES
1002
{
1000
PbThick
1002
}
  0
LINE
  5
268
330
1F
100
AcDbEntity
  8
THICK
100
AcDbLine
 10
-67.21849060058594
 20
-130.0727844238281
 30
0.0
 11
-67.18061065673828
 21
-129.9657592773438
 31
0.0
1001
DBPROPERTIES
1002
{
1000
PbThick
1002
}
  0
LINE
  5
269
330
1F
100
AcDbEntity
  8
THICK
100
AcDbLine
 10
-67.18061065673828
 20
-129.9657592773438
 30
0.0
 11
-67.12872314453125
 21
-129.8589782714844
 31
0.0
1001
DBPROPERTIES
1002
{
1000
PbThick
1002
}
  0
LINE
  5
26A
330
1F
100
AcDbEntity
  8
THICK
100
AcDbLine
 10
-67.12872314453125
 20
-129.8589782714844
 30
0.0
 11
-67.06376647949219
 21
-129.7530670166016
 31
0.0
1001
DBPROPERTIES
1002
{
1000
PbThick
1002
}
  0
LINE
  5
26B
330
1F
100
AcDbEntity
  8
THICK
100
AcDbLine
 10
-67.06376647949219
 20
-129.7530670166016
 30
0.0
 11
-66.98665618896484
 21
-129.6486206054688
 31
0.0
1001
DBPROPERTIES
1002
{
1000
PbThick
1002
}
  0
LINE
  5
26C
330
1F
100
AcDbEntity
  8
THICK
100
AcDbLine
 10
-66.98665618896484
 20
-129.6486206054688
 30
0.0
 11
-66.89844512939453
 21
-129.5462646484375
 31
0.0
1001
DBPROPERTIES
1002
{
1000
PbThick
1002
}
  0
LINE
  5
26D
330
1F
100
AcDbEntity
  8
THICK
100
AcDbLine
 10
-66.89844512939453
 20
-129.5462646484375
 30
0.0
 11
-66.79627227783203
 21
-129.4424591064453
 31
0.0
1001
DBPROPERTIES
1002
{
1000
PbThick
1002
}
  0
LINE
  5
26E
330
1F
100
AcDbEntity
  8
THICK
100
AcDbLine
 10
-66.79627227783203
 20
-129.4424591064453
 30
0.0
 11
-66.68018341064453
 21
-129.3377685546875
 31
0.0
1001
DBPROPERTIES
1002
{
1000
PbThick
1002
}
  0
LINE
  5
26F
330
1F
100
AcDbEntity
  8
THICK
100
AcDbLine
 10
-66.68018341064453
 20
-129.3377685546875
 30
0.0
 11
-66.55022430419922
 21
-129.2328186035156
 31
0.0
1001
DBPROPERTIES
1002
{
1000
PbThick
1002
}
  0
LINE
  5
270
330
1F
100
AcDbEntity
  8
THICK
100
AcDbLine
 10
-66.55022430419922
 20
-129.2328186035156
 30
0.0
 11
-66.40664672851562
 21
-129.1281585693359
 31
0.0
1001
DBPROPERTIES
1002
{
1000
PbThick
1002
}
  0
LINE
  5
271
330
1F
100
AcDbEntity
  8
THICK
100
AcDbLine
 10
-66.40664672851562
 20
-129.1281585693359
 30
0.0
 11
-66.25
 21
-129.0243377685547
 31
0.0
1001
DBPROPERTIES
1002
{
1000
PbThick
1002
}
  0
LINE
  5
272
330
1F
100
AcDbEntity
  8
HIDDEN
100
AcDbLine
 10
-66.25
 20
-129.0243377685547
 30
0.0
 11
-66.02841186523438
 21
-128.8918914794922
 31
0.0
1001
DBPROPERTIES
1002
{
1000
PbHidd
1002
}
  0
LINE
  5
273
330
1F
100
AcDbEntity
  8
HIDDEN
100
AcDbLine
 10
-66.02841186523438
 20
-128.8918914794922
 30
0.0
 11
-65.78713989257812
 21
-128.7629089355469
 31
0.0
1001
DBPROPERTIES
1002
{
1000
PbHidd
1002
}
  0
LINE
  5
274
330
1F
100
AcDbEntity
  8
HIDDEN
100
AcDbLine
 10
-65.78713989257812
 20
-128.7629089355469
 30
0.0
 11
-65.52809143066406
 21
-128.6383972167969
 31
0.0
1001
DBPROPERTIES
1002
{
1000
PbHidd
1002
}
  0
LINE
  5
275
330
1F
100
AcDbEntity
  8
HIDDEN
100
AcDbLine
 10
-65.52809143066406
 20
-128.6383972167969
 30
0.0
 11
-65.25350189208984
 21
-128.5193939208984
 31
0.0
1001
DBPROPERTIES
1002
{
1000
PbHidd
1002
}
  0
LINE
  5
276
330
1F
100
AcDbEntity
  8
HIDDEN
100
AcDbLine
 10
-65.25350189208984
 20
-128.5193939208984
 30
0.0
 11
-64.96576690673828
 21
-128.4068756103516
 31
0.0
1001
DBPROPERTIES
1002
{
1000
PbHidd
1002
}
  0
LINE
  5
277
330
1F
100
AcDbEntity
  8
HIDDEN
100
AcDbLine
 10
-64.96576690673828
 20
-128.4068756103516
 30
0.0
 11
-64.66790008544922
 21
-128.3016510009766
 31
0.0
1001
DBPROPERTIES
1002
{
1000
PbHidd
1002
}
  0
LINE
  5
278
330
1F
100
AcDbEntity
  8
HIDDEN
100
AcDbLine
 10
-64.66790008544922
 20
-128.3016510009766
 30
0.0
 11
-64.36231994628906
 21
-128.2042694091797
 31
0.0
1001
DBPROPERTIES
1002
{
1000
PbHidd
1002
}
  0
LINE
  5
279
330
1F
100
AcDbEntity
  8
HIDDEN
100
AcDbLine
 10
-64.36231994628906
 20
-128.2042694091797
 30
0.0
 11
-64.04096221923828
 21
-128.1123199462891
 31
0.0
1001
DBPROPERTIES
1002
{
1000
PbHidd
1002
}
  0
LINE
  5
27A
330
1F
100
AcDbEntity
  8
HIDDEN
100
AcDbLine
 10
-64.04096221923828
 20
-128.1123199462891
 30
0.0
 11
-63.70299911499023
 21
-128.026123046875
 31
0.0
1001
DBPROPERTIES
1002
{
1000
PbHidd
1002
}
  0
LINE
  5
27B
330
1F
100
AcDbEntity
  8
HIDDEN
100
AcDbLine
 10
-63.70299911499023
 20
-128.026123046875
 30
0.0
 11
-63.35147094726562
 21
-127.9472274780273
 31
0.0
1001
DBPROPERTIES
1002
{
1000
PbHidd
1002
}
  0
LINE
  5
27C
330
1F
100
AcDbEntity
  8
HIDDEN
100
AcDbLine
 10
-63.35147094726562
 20
-127.9472274780273
 30
0.0
 11
-62.98976898193359
 21
-127.8768081665039
 31
0.0
1001
DBPROPERTIES
1002
{
1000
PbHidd
1002
}
  0
LINE
  5
27D
330
1F
100
AcDbEntity
  8
HIDDEN
100
AcDbLine
 10
-62.98976898193359
 20
-127.8768081665039
 30
0.0
 11
-62.62149047851562
 21
-127.8158874511719
 31
0.0
1001
DBPROPERTIES
1002
{
1000
PbHidd
1002
}
  0
LINE
  5
27E
330
1F
100
AcDbEntity
  8
HIDDEN
100
AcDbLine
 10
-62.62149047851562
 20
-127.8158874511719
 30
0.0
 11
-62.24999618530273
 21
-127.7652893066406
 31
0.0
1001
DBPROPERTIES
1002
{
1000
PbHidd
1002
}
  0
LINE
  5
27F
330
1F
100
AcDbEntity
  8
HIDDEN
100
AcDbLine
 10
-62.24999618530273
 20
-127.7652893066406
 30
0.0
 11
-61.88884353637695
 21
-127.7263870239258
 31
0.0
1001
DBPROPERTIES
1002
{
1000
PbHidd
1002
}
  0
LINE
  5
280
330
1F
100
AcDbEntity
  8
HIDDEN
100
AcDbLine
 10
-61.88884353637695
 20
-127.7263870239258
 30
0.0
 11
-61.5316047668457
 21
-127.6980285644531
 31
0.0
1001
DBPROPERTIES
1002
{
1000
PbHidd
1002
}
  0
LINE
  5
281
330
1F
100
AcDbEntity
  8
HIDDEN
100
AcDbLine
 10
-61.5316047668457
 20
-127.6980285644531
 30
0.0
 11
-61.1817512512207
 21
-127.6802673339844
 31
0.0
1001
DBPROPERTIES
1002
{
1000
PbHidd
1002
}
  0
LINE
  5
282
330
1F
100
AcDbEntity
  8
HIDDEN
100
AcDbLine
 10
-61.1817512512207
 20
-127.6802673339844
 30
0.0
 11
-60.84270095825195
 21
-127.6728134155273
 31
0.0
1001
DBPROPERTIES
1002
{
1000
PbHidd
1002
}
  0
LINE
  5
283
330
1F
100
AcDbEntity
  8
HIDDEN
100
AcDbLine
 10
-60.84270095825195
 20
-127.6728134155273
 30
0.0
 11
-60.51338958740234
 21
-127.6753845214844
 31
0.0
1001
DBPROPERTIES
1002
{
1000
PbHidd
1002
}
  0
LINE
  5
284
330
1F
100
AcDbEntity
  8
HIDDEN
100
AcDbLine
 10
-60.51338958740234
 20
-127.6753845214844
 30
0.0
 11
-60.18682098388672
 21
-127.6880950927734
 31
0.0
1001
DBPROPERTIES
1002
{
1000
PbHidd
1002
}
  0
LINE
  5
285
330
1F
100
AcDbEntity
  8
HIDDEN
100
AcDbLine
 10
-60.18682098388672
 20
-127.6880950927734
 30
0.0
 11
-59.86641311645508
 21
-127.7112731933594
 31
0.0
1001
DBPROPERTIES
1002
{
1000
PbHidd
1002
}
  0
LINE
  5
286
330
1F
100
AcDbEntity
  8
HIDDEN
100
AcDbLine
 10
-59.86641311645508
 20
-127.7112731933594
 30
0.0
 11
-59.55586624145508
 21
-127.7450942993164
 31
0.0
1001
DBPROPERTIES
1002
{
1000
PbHidd
1002
}
  0
LINE
  5
287
330
1F
100
AcDbEntity
  8
HIDDEN
100
AcDbLine
 10
-59.55586624145508
 20
-127.7450942993164
 30
0.0
 11
-59.25832366943359
 21
-127.7892913818359
 31
0.0
1001
DBPROPERTIES
1002
{
1000
PbHidd
1002
}
  0
LINE
  5
288
330
1F
100
AcDbEntity
  8
HIDDEN
100
AcDbLine
 10
-59.25832366943359
 20
-127.7892913818359
 30
0.0
 11
-58.97678756713867
 21
-127.8434906005859
 31
0.0
1001
DBPROPERTIES
1002
{
1000
PbHidd
1002
}
  0
LINE
  5
289
330
1F
100
AcDbEntity
  8
HIDDEN
100
AcDbLine
 10
-58.97678756713867
 20
-127.8434906005859
 30
0.0
 11
-58.71358489990234
 21
-127.9071426391602
 31
0.0
1001
DBPROPERTIES
1002
{
1000
PbHidd
1002
}
  0
LINE
  5
28A
330
1F
100
AcDbEntity
  8
HIDDEN
100
AcDbLine
 10
-58.71358489990234
 20
-127.9071426391602
 30
0.0
 11
-58.47068405151367
 21
-127.979362487793
 31
0.0
1001
DBPROPERTIES
1002
{
1000
PbHidd
1002
}
  0
LINE
  5
28B
330
1F
100
AcDbEntity
  8
HIDDEN
100
AcDbLine
 10
-58.47068405151367
 20
-127.979362487793
 30
0.0
 11
-58.25001907348633
 21
-128.0591888427734
 31
0.0
1001
DBPROPERTIES
1002
{
1000
PbHidd
1002
}
  0
LINE
  5
28C
330
1F
100
AcDbEntity
  8
THICK
100
AcDbLine
 10
-58.25001907348633
 20
-128.0591888427734
 30
0.0
 11
-58.04354095458984
 21
-128.1497955322266
 31
0.0
1001
DBPROPERTIES
1002
{
1000
PbThick
1002
}
  0
LINE
  5
28D
330
1F
100
AcDbEntity
  8
THICK
100
AcDbLine
 10
-58.04354095458984
 20
-128.1497955322266
 30
0.0
 11
-57.86354827880859
 21
-128.2457733154297
 31
0.0
1001
DBPROPERTIES
1002
{
1000
PbThick
1002
}
  0
LINE
  5
28E
330
1F
100
AcDbEntity
  8
THICK
100
AcDbLine
 10
-57.86354827880859
 20
-128.2457733154297
 30
0.0
 11
-57.7056770324707
 21
-128.3488006591797
 31
0.0
1001
DBPROPERTIES
1002
{
1000
PbThick
1002
}
  0
LINE
  5
28F
330
1F
100
AcDbEntity
  8
THICK
100
AcDbLine
 10
-57.7056770324707
 20
-128.3488006591797
 30
0.0
 11
-57.56858825683594
 21
-128.4598693847656
 31
0.0
1001
DBPROPERTIES
1002
{
1000
PbThick
1002
}
  0
LINE
  5
290
330
1F
100
AcDbEntity
  8
THICK
100
AcDbLine
 10
-57.56858825683594
 20
-128.4598693847656
 30
0.0
 11
-57.45443725585938
 21
-128.5781555175781
 31
0.0
1001
DBPROPERTIES
1002
{
1000
PbThick
1002
}
  0
LINE
  5
291
330
1F
100
AcDbEntity
  8
THICK
100
AcDbLine
 10
-57.45443725585938
 20
-128.5781555175781
 30
0.0
 11
-57.36481094360352
 21
-128.7027130126953
 31
0.0
1001
DBPROPERTIES
1002
{
1000
PbThick
1002
}
  0
LINE
  5
292
330
1F
100
AcDbEntity
  8
THICK
100
AcDbLine
 10
-57.36481094360352
 20
-128.7027130126953
 30
0.0
 11
-57.30052185058594
 21
-128.8324737548828
 31
0.0
1001
DBPROPERTIES
1002
{
1000
PbThick
1002
}
  0
LINE
  5
293
330
1F
100
AcDbEntity
  8
THICK
100
AcDbLine
 10
-57.30052185058594
 20
-128.8324737548828
 30
0.0
 11
-57.26227951049805
 21
-128.96630859375
 31
0.0
1001
DBPROPERTIES
1002
{
1000
PbThick
1002
}
  0
LINE
  5
294
330
1F
100
AcDbEntity
  8
THICK
100
AcDbLine
 10
-57.26227951049805
 20
-128.96630859375
 30
0.0
 11
-57.25008392333984
 21
-129.1031036376953
 31
0.0
1001
DBPROPERTIES
1002
{
1000
PbThick
1002
}
  0
LINE
  5
295
330
1F
100
AcDbEntity
  8
THICK
100
AcDbLine
 10
-57.25008392333984
 20
-129.1031036376953
 30
0.0
 11
-57.26037979125977
 21
-129.2243041992188
 31
0.0
1001
DBPROPERTIES
1002
{
1000
PbThick
1002
}
  0
LINE
  5
296
330
1F
100
AcDbEntity
  8
THICK
100
AcDbLine
 10
-57.26037979125977
 20
-129.2243041992188
 30
0.0
 11
-57.28985214233398
 21
-129.3459625244141
 31
0.0
1001
DBPROPERTIES
1002
{
1000
PbThick
1002
}
  0
LINE
  5
297
330
1F
100
AcDbEntity
  8
THICK
100
AcDbLine
 10
-57.28985214233398
 20
-129.3459625244141
 30
0.0
 11
-57.33757400512695
 21
-129.4671783447266
 31
0.0
1001
DBPROPERTIES
1002
{
1000
PbThick
1002
}
  0
LINE
  5
298
330
1F
100
AcDbEntity
  8
THICK
100
AcDbLine
 10
-57.33757400512695
 20
-129.4671783447266
 30
0.0
 11
-57.40226745605469
 21
-129.5870361328125
 31
0.0
1001
DBPROPERTIES
1002
{
1000
PbThick
1002
}
  0
LINE
  5
299
330
1F
100
AcDbEntity
  8
THICK
100
AcDbLine
 10
-57.40226745605469
 20
-129.5870361328125
 30
0.0
 11
-57.48308181762695
 21
-129.7052612304688
 31
0.0
1001
DBPROPERTIES
1002
{
1000
PbThick
1002
}
  0
LINE
  5
29A
330
1F
100
AcDbEntity
  8
THICK
100
AcDbLine
 10
-57.48308181762695
 20
-129.7052612304688
 30
0.0
 11
-57.58215713500977
 21
-129.8249969482422
 31
0.0
1001
DBPROPERTIES
1002
{
1000
PbThick
1002
}
  0
LINE
  5
29B
330
1F
100
AcDbEntity
  8
THICK
100
AcDbLine
 10
-57.58215713500977
 20
-129.8249969482422
 30
0.0
 11
-57.70000076293945
 21
-129.9461059570312
 31
0.0
1001
DBPROPERTIES
1002
{
1000
PbThick
1002
}
  0
LINE
  5
29C
330
1F
100
AcDbEntity
  8
THICK
100
AcDbLine
 10
-57.70000076293945
 20
-129.9461059570312
 30
0.0
 11
-57.83665466308594
 21
-130.0676727294922
 31
0.0
1001
DBPROPERTIES
1002
{
1000
PbThick
1002
}
  0
LINE
  5
29D
330
1F
100
AcDbEntity
  8
THICK
100
AcDbLine
 10
-57.83665466308594
 20
-130.0676727294922
 30
0.0
 11
-57.99186325073242
 21
-130.1888275146484
 31
0.0
1001
DBPROPERTIES
1002
{
1000
PbThick
1002
}
  0
LINE
  5
29E
330
1F
100
AcDbEntity
  8
THICK
100
AcDbLine
 10
-57.99186325073242
 20
-130.1888275146484
 30
0.0
 11
-58.16486740112305
 21
-130.3087768554688
 31
0.0
1001
DBPROPERTIES
1002
{
1000
PbThick
1002
}
  0
LINE
  5
29F
330
1F
100
AcDbEntity
  8
THICK
100
AcDbLine
 10
-58.16486740112305
 20
-130.3087768554688
 30
0.0
 11
-58.35486602783203
 21
-130.4266510009766
 31
0.0
1001
DBPROPERTIES
1002
{
1000
PbThick
1002
}
  0
LINE
  5
2A0
330
1F
100
AcDbEntity
  8
THICK
100
AcDbLine
 10
-58.35486602783203
 20
-130.4266510009766
 30
0.0
 11
-58.56100463867188
 21
-130.541748046875
 31
0.0
1001
DBPROPERTIES
1002
{
1000
PbThick
1002
}
  0
LINE
  5
2A1
330
1F
100
AcDbEntity
  8
THICK
100
AcDbLine
 10
-58.56100463867188
 20
-130.541748046875
 30
0.0
 11
-58.78195190429688
 21
-130.6533660888672
 31
0.0
1001
DBPROPERTIES
1002
{
1000
PbThick
1002
}
  0
LINE
  5
2A2
330
1F
100
AcDbEntity
  8
THICK
100
AcDbLine
 10
-58.78195190429688
 20
-130.6533660888672
 30
0.0
 11
-59.01620864868164
 21
-130.7608032226562
 31
0.0
1001
DBPROPERTIES
1002
{
1000
PbThick
1002
}
  0
LINE
  5
2A3
330
1F
100
AcDbEntity
  8
THICK
100
AcDbLine
 10
-59.01620864868164
 20
-130.7608032226562
 30
0.0
 11
-59.26220321655273
 21
-130.8633728027344
 31
0.0
1001
DBPROPERTIES
1002
{
1000
PbThick
1002
}
  0
LINE
  5
2A4
330
1F
100
AcDbEntity
  8
THICK
100
AcDbLine
 10
-59.26220321655273
 20
-130.8633728027344
 30
0.0
 11
-59.51794815063477
 21
-130.9605102539062
 31
0.0
1001
DBPROPERTIES
1002
{
1000
PbThick
1002
}
  0
LINE
  5
2A5
330
1F
100
AcDbEntity
  8
THICK
100
AcDbLine
 10
-59.51794815063477
 20
-130.9605102539062
 30
0.0
 11
-59.78128051757812
 21
-131.0516967773438
 31
0.0
1001
DBPROPERTIES
1002
{
1000
PbThick
1002
}
  0
LINE
  5
2A6
330
1F
100
AcDbEntity
  8
THICK
100
AcDbLine
 10
-59.78128051757812
 20
-131.0516967773438
 30
0.0
 11
-60.05251312255859
 21
-131.1371917724609
 31
0.0
1001
DBPROPERTIES
1002
{
1000
PbThick
1002
}
  0
LINE
  5
2A7
330
1F
100
AcDbEntity
  8
THICK
100
AcDbLine
 10
-60.05251312255859
 20
-131.1371917724609
 30
0.0
 11
-60.33802795410156
 21
-131.2188568115234
 31
0.0
1001
DBPROPERTIES
1002
{
1000
PbThick
1002
}
  0
LINE
  5
2A8
330
1F
100
AcDbEntity
  8
THICK
100
AcDbLine
 10
-60.33802795410156
 20
-131.2188568115234
 30
0.0
 11
-60.63656616210938
 21
-131.2959289550781
 31
0.0
1001
DBPROPERTIES
1002
{
1000
PbThick
1002
}
  0
LINE
  5
2A9
330
1F
100
AcDbEntity
  8
THICK
100
AcDbLine
 10
-60.63656616210938
 20
-131.2959289550781
 30
0.0
 11
-60.94617080688477
 21
-131.3674468994141
 31
0.0
1001
DBPROPERTIES
1002
{
1000
PbThick
1002
}
  0
LINE
  5
2AA
330
1F
100
AcDbEntity
  8
THICK
100
AcDbLine
 10
-60.94617080688477
 20
-131.3674468994141
 30
0.0
 11
-61.26465225219727
 21
-131.4326019287109
 31
0.0
1001
DBPROPERTIES
1002
{
1000
PbThick
1002
}
  0
LINE
  5
2AB
330
1F
100
AcDbEntity
  8
THICK
100
AcDbLine
 10
-61.26465225219727
 20
-131.4326019287109
 30
0.0
 11
-61.58964157104492
 21
-131.4907684326172
 31
0.0
1001
DBPROPERTIES
1002
{
1000
PbThick
1002
}
  0
LINE
  5
2AC
330
1F
100
AcDbEntity
  8
THICK
100
AcDbLine
 10
-61.58964157104492
 20
-131.4907684326172
 30
0.0
 11
-61.9188117980957
 21
-131.5413665771484
 31
0.0
1001
DBPROPERTIES
1002
{
1000
PbThick
1002
}
  0
LINE
  5
2AD
330
1F
100
AcDbEntity
  8
THICK
100
AcDbLine
 10
-61.9188117980957
 20
-131.5413665771484
 30
0.0
 11
-62.25000381469727
 21
-131.583984375
 31
0.0
1001
DBPROPERTIES
1002
{
1000
PbThick
1002
}
  0
LINE
  5
2AE
330
1F
100
AcDbEntity
  8
THICK
100
AcDbLine
 10
-216.2
 20
-154.8375
 30
0.0
 11
-0.0000000000000486
 21
-154.8375
 31
0.0
1001
DBPROPERTIES
1002
{
1000
PbThick
1002
}
  0
LINE
  5
2AF
330
1F
100
AcDbEntity
  8
THICK
100
AcDbLine
 10
-192.7
 20
-145.4375
 30
0.0
 11
-66.24999997187798
 21
-145.4375
 31
0.0
1001
DBPROPERTIES
1002
{
1000
PbThick
1002
}
  0
LINE
  5
2B0
330
1F
100
AcDbEntity
  8
HIDDEN
100
AcDbLine
 10
-66.24999997187798
 20
-145.4375
 30
0.0
 11
-58.24999995989918
 21
-145.4375
 31
0.0
1001
DBPROPERTIES
1002
{
1000
PbHidd
1002
}
  0
LINE
  5
2B1
330
1F
100
AcDbEntity
  8
THICK
100
AcDbLine
 10
-58.24999995989918
 20
-145.4375
 30
0.0
 11
-0.0000000000000443
 21
-145.4375
 31
0.0
1001
DBPROPERTIES
1002
{
1000
PbThick
1002
}
  0
LINE
  5
2B2
330
1F
100
AcDbEntity
  8
THICK
100
AcDbLine
 10
-62.25000381469727
 20
-153.958984375
 30
0.0
 11
-62.54967880249023
 21
-153.9905090332031
 31
0.0
1001
DBPROPERTIES
1002
{
1000
PbThick
1002
}
  0
LINE
  5
2B3
330
1F
100
AcDbEntity
  8
THICK
100
AcDbLine
 10
-62.54967880249023
 20
-153.9905090332031
 30
0.0
 11
-62.84706878662109
 21
-154.0151062011719
 31
0.0
1001
DBPROPERTIES
1002
{
1000
PbThick
1002
}
  0
LINE
  5
2B4
330
1F
100
AcDbEntity
  8
THICK
100
AcDbLine
 10
-62.84706878662109
 20
-154.0151062011719
 30
0.0
 11
-63.14030075073242
 21
-154.03271484375
 31
0.0
1001
DBPROPERTIES
1002
{
1000
PbThick
1002
}
  0
LINE
  5
2B5
330
1F
100
AcDbEntity
  8
THICK
100
AcDbLine
 10
-63.14030075073242
 20
-154.03271484375
 30
0.0
 11
-63.42754364013672
 21
-154.04345703125
 31
0.0
1001
DBPROPERTIES
1002
{
1000
PbThick
1002
}
  0
LINE
  5
2B6
330
1F
100
AcDbEntity
  8
THICK
100
AcDbLine
 10
-63.42754364013672
 20
-154.04345703125
 30
0.0
 11
-63.70696640014648
 21
-154.0474853515625
 31
0.0
1001
DBPROPERTIES
1002
{
1000
PbThick
1002
}
  0
LINE
  5
2B7
330
1F
100
AcDbEntity
  8
THICK
100
AcDbLine
 10
-63.70696640014648
 20
-154.0474853515625
 30
0.0
 11
-63.98056030273438
 21
-154.044921875
 31
0.0
1001
DBPROPERTIES
1002
{
1000
PbThick
1002
}
  0
LINE
  5
2B8
330
1F
100
AcDbEntity
  8
THICK
100
AcDbLine
 10
-63.98056030273438
 20
-154.044921875
 30
0.0
 11
-64.25215911865234
 21
-154.0357055664062
 31
0.0
1001
DBPROPERTIES
1002
{
1000
PbThick
1002
}
  0
LINE
  5
2B9
330
1F
100
AcDbEntity
  8
THICK
100
AcDbLine
 10
-64.25215911865234
 20
-154.0357055664062
 30
0.0
 11
-64.51976776123047
 21
-154.0196533203125
 31
0.0
1001
DBPROPERTIES
1002
{
1000
PbThick
1002
}
  0
LINE
  5
2BA
330
1F
100
AcDbEntity
  8
THICK
100
AcDbLine
 10
-64.51976776123047
 20
-154.0196533203125
 30
0.0
 11
-64.78131866455078
 21
-153.9966125488281
 31
0.0
1001
DBPROPERTIES
1002
{
1000
PbThick
1002
}
  0
LINE
  5
2BB
330
1F
100
AcDbEntity
  8
THICK
100
AcDbLine
 10
-64.78131866455078
 20
-153.9966125488281
 30
0.0
 11
-65.03500366210938
 21
-153.9666290283203
 31
0.0
1001
DBPROPERTIES
1002
{
1000
PbThick
1002
}
  0
LINE
  5
2BC
330
1F
100
AcDbEntity
  8
THICK
100
AcDbLine
 10
-65.03500366210938
 20
-153.9666290283203
 30
0.0
 11
-65.27919006347656
 21
-153.9298553466797
 31
0.0
1001
DBPROPERTIES
1002
{
1000
PbThick
1002
}
  0
LINE
  5
2BD
330
1F
100
AcDbEntity
  8
THICK
100
AcDbLine
 10
-65.27919006347656
 20
-153.9298553466797
 30
0.0
 11
-65.51229858398438
 21
-153.886474609375
 31
0.0
1001
DBPROPERTIES
1002
{
1000
PbThick
1002
}
  0
LINE
  5
2BE
330
1F
100
AcDbEntity
  8
THICK
100
AcDbLine
 10
-65.51229858398438
 20
-153.886474609375
 30
0.0
 11
-65.73298645019531
 21
-153.8367156982422
 31
0.0
1001
DBPROPERTIES
1002
{
1000
PbThick
1002
}
  0
LINE
  5
2BF
330
1F
100
AcDbEntity
  8
THICK
100
AcDbLine
 10
-65.73298645019531
 20
-153.8367156982422
 30
0.0
 11
-65.94025421142578
 21
-153.7809753417969
 31
0.0
1001
DBPROPERTIES
1002
{
1000
PbThick
1002
}
  0
LINE
  5
2C0
330
1F
100
AcDbEntity
  8
THICK
100
AcDbLine
 10
-65.94025421142578
 20
-153.7809753417969
 30
0.0
 11
-66.13304901123047
 21
-153.7197418212891
 31
0.0
1001
DBPROPERTIES
1002
{
1000
PbThick
1002
}
  0
LINE
  5
2C1
330
1F
100
AcDbEntity
  8
THICK
100
AcDbLine
 10
-66.13304901123047
 20
-153.7197418212891
 30
0.0
 11
-66.31038665771484
 21
-153.6534576416016
 31
0.0
1001
DBPROPERTIES
1002
{
1000
PbThick
1002
}
  0
LINE
  5
2C2
330
1F
100
AcDbEntity
  8
THICK
100
AcDbLine
 10
-66.31038665771484
 20
-153.6534576416016
 30
0.0
 11
-66.4716796875
 21
-153.5827941894531
 31
0.0
1001
DBPROPERTIES
1002
{
1000
PbThick
1002
}
  0
LINE
  5
2C3
330
1F
100
AcDbEntity
  8
THICK
100
AcDbLine
 10
-66.4716796875
 20
-153.5827941894531
 30
0.0
 11
-66.61662292480469
 21
-153.5084686279297
 31
0.0
1001
DBPROPERTIES
1002
{
1000
PbThick
1002
}
  0
LINE
  5
2C4
330
1F
100
AcDbEntity
  8
THICK
100
AcDbLine
 10
-66.61662292480469
 20
-153.5084686279297
 30
0.0
 11
-66.7451400756836
 21
-153.4310607910156
 31
0.0
1001
DBPROPERTIES
1002
{
1000
PbThick
1002
}
  0
LINE
  5
2C5
330
1F
100
AcDbEntity
  8
THICK
100
AcDbLine
 10
-66.7451400756836
 20
-153.4310607910156
 30
0.0
 11
-66.86022186279297
 21
-153.3489990234375
 31
0.0
1001
DBPROPERTIES
1002
{
1000
PbThick
1002
}
  0
LINE
  5
2C6
330
1F
100
AcDbEntity
  8
THICK
100
AcDbLine
 10
-66.86022186279297
 20
-153.3489990234375
 30
0.0
 11
-66.96199035644531
 21
-153.2619934082031
 31
0.0
1001
DBPROPERTIES
1002
{
1000
PbThick
1002
}
  0
LINE
  5
2C7
330
1F
100
AcDbEntity
  8
THICK
100
AcDbLine
 10
-66.96199035644531
 20
-153.2619934082031
 30
0.0
 11
-67.04944610595703
 21
-153.1704254150391
 31
0.0
1001
DBPROPERTIES
1002
{
1000
PbThick
1002
}
  0
LINE
  5
2C8
330
1F
100
AcDbEntity
  8
THICK
100
AcDbLine
 10
-67.04944610595703
 20
-153.1704254150391
 30
0.0
 11
-67.12164306640625
 21
-153.07470703125
 31
0.0
1001
DBPROPERTIES
1002
{
1000
PbThick
1002
}
  0
LINE
  5
2C9
330
1F
100
AcDbEntity
  8
THICK
100
AcDbLine
 10
-67.12164306640625
 20
-153.07470703125
 30
0.0
 11
-67.17807006835938
 21
-152.9752960205078
 31
0.0
1001
DBPROPERTIES
1002
{
1000
PbThick
1002
}
  0
LINE
  5
2CA
330
1F
100
AcDbEntity
  8
THICK
100
AcDbLine
 10
-67.17807006835938
 20
-152.9752960205078
 30
0.0
 11
-67.21843719482422
 21
-152.8727416992188
 31
0.0
1001
DBPROPERTIES
1002
{
1000
PbThick
1002
}
  0
LINE
  5
2CB
330
1F
100
AcDbEntity
  8
THICK
100
AcDbLine
 10
-67.21843719482422
 20
-152.8727416992188
 30
0.0
 11
-67.24241638183594
 21
-152.7675628662109
 31
0.0
1001
DBPROPERTIES
1002
{
1000
PbThick
1002
}
  0
LINE
  5
2CC
330
1F
100
AcDbEntity
  8
THICK
100
AcDbLine
 10
-67.24241638183594
 20
-152.7675628662109
 30
0.0
 11
-67.24992370605469
 21
-152.6602478027344
 31
0.0
1001
DBPROPERTIES
1002
{
1000
PbThick
1002
}
  0
LINE
  5
2CD
330
1F
100
AcDbEntity
  8
THICK
100
AcDbLine
 10
-67.24992370605469
 20
-152.6602478027344
 30
0.0
 11
-67.24170684814453
 21
-152.5544586181641
 31
0.0
1001
DBPROPERTIES
1002
{
1000
PbThick
1002
}
  0
LINE
  5
2CE
330
1F
100
AcDbEntity
  8
THICK
100
AcDbLine
 10
-67.24170684814453
 20
-152.5544586181641
 30
0.0
 11
-67.21849060058594
 21
-152.4477844238281
 31
0.0
1001
DBPROPERTIES
1002
{
1000
PbThick
1002
}
  0
LINE
  5
2CF
330
1F
100
AcDbEntity
  8
THICK
100
AcDbLine
 10
-67.21849060058594
 20
-152.4477844238281
 30
0.0
 11
-67.18061065673828
 21
-152.3407592773438
 31
0.0
1001
DBPROPERTIES
1002
{
1000
PbThick
1002
}
  0
LINE
  5
2D0
330
1F
100
AcDbEntity
  8
THICK
100
AcDbLine
 10
-67.18061065673828
 20
-152.3407592773438
 30
0.0
 11
-67.12872314453125
 21
-152.2339782714844
 31
0.0
1001
DBPROPERTIES
1002
{
1000
PbThick
1002
}
  0
LINE
  5
2D1
330
1F
100
AcDbEntity
  8
THICK
100
AcDbLine
 10
-67.12872314453125
 20
-152.2339782714844
 30
0.0
 11
-67.06376647949219
 21
-152.1280670166016
 31
0.0
1001
DBPROPERTIES
1002
{
1000
PbThick
1002
}
  0
LINE
  5
2D2
330
1F
100
AcDbEntity
  8
THICK
100
AcDbLine
 10
-67.06376647949219
 20
-152.1280670166016
 30
0.0
 11
-66.98665618896484
 21
-152.0236206054688
 31
0.0
1001
DBPROPERTIES
1002
{
1000
PbThick
1002
}
  0
LINE
  5
2D3
330
1F
100
AcDbEntity
  8
THICK
100
AcDbLine
 10
-66.98665618896484
 20
-152.0236206054688
 30
0.0
 11
-66.89844512939453
 21
-151.9212646484375
 31
0.0
1001
DBPROPERTIES
1002
{
1000
PbThick
1002
}
  0
LINE
  5
2D4
330
1F
100
AcDbEntity
  8
THICK
100
AcDbLine
 10
-66.89844512939453
 20
-151.9212646484375
 30
0.0
 11
-66.79627227783203
 21
-151.8174591064453
 31
0.0
1001
DBPROPERTIES
1002
{
1000
PbThick
1002
}
  0
LINE
  5
2D5
330
1F
100
AcDbEntity
  8
THICK
100
AcDbLine
 10
-66.79627227783203
 20
-151.8174591064453
 30
0.0
 11
-66.68018341064453
 21
-151.7127685546875
 31
0.0
1001
DBPROPERTIES
1002
{
1000
PbThick
1002
}
  0
LINE
  5
2D6
330
1F
100
AcDbEntity
  8
THICK
100
AcDbLine
 10
-66.68018341064453
 20
-151.7127685546875
 30
0.0
 11
-66.55022430419922
 21
-151.6078186035156
 31
0.0
1001
DBPROPERTIES
1002
{
1000
PbThick
1002
}
  0
LINE
  5
2D7
330
1F
100
AcDbEntity
  8
THICK
100
AcDbLine
 10
-66.55022430419922
 20
-151.6078186035156
 30
0.0
 11
-66.40664672851562
 21
-151.5031585693359
 31
0.0
1001
DBPROPERTIES
1002
{
1000
PbThick
1002
}
  0
LINE
  5
2D8
330
1F
100
AcDbEntity
  8
THICK
100
AcDbLine
 10
-66.40664672851562
 20
-151.5031585693359
 30
0.0
 11
-66.25
 21
-151.3993377685547
 31
0.0
1001
DBPROPERTIES
1002
{
1000
PbThick
1002
}
  0
LINE
  5
2D9
330
1F
100
AcDbEntity
  8
HIDDEN
100
AcDbLine
 10
-66.25
 20
-151.3993377685547
 30
0.0
 11
-66.02841186523438
 21
-151.2668914794922
 31
0.0
1001
DBPROPERTIES
1002
{
1000
PbHidd
1002
}
  0
LINE
  5
2DA
330
1F
100
AcDbEntity
  8
HIDDEN
100
AcDbLine
 10
-66.02841186523438
 20
-151.2668914794922
 30
0.0
 11
-65.78713989257812
 21
-151.1379089355469
 31
0.0
1001
DBPROPERTIES
1002
{
1000
PbHidd
1002
}
  0
LINE
  5
2DB
330
1F
100
AcDbEntity
  8
HIDDEN
100
AcDbLine
 10
-65.78713989257812
 20
-151.1379089355469
 30
0.0
 11
-65.52809143066406
 21
-151.0133972167969
 31
0.0
1001
DBPROPERTIES
1002
{
1000
PbHidd
1002
}
  0
LINE
  5
2DC
330
1F
100
AcDbEntity
  8
HIDDEN
100
AcDbLine
 10
-65.52809143066406
 20
-151.0133972167969
 30
0.0
 11
-65.25350189208984
 21
-150.8943939208984
 31
0.0
1001
DBPROPERTIES
1002
{
1000
PbHidd
1002
}
  0
LINE
  5
2DD
330
1F
100
AcDbEntity
  8
HIDDEN
100
AcDbLine
 10
-65.25350189208984
 20
-150.8943939208984
 30
0.0
 11
-64.96576690673828
 21
-150.7818756103516
 31
0.0
1001
DBPROPERTIES
1002
{
1000
PbHidd
1002
}
  0
LINE
  5
2DE
330
1F
100
AcDbEntity
  8
HIDDEN
100
AcDbLine
 10
-64.96576690673828
 20
-150.7818756103516
 30
0.0
 11
-64.66790008544922
 21
-150.6766510009766
 31
0.0
1001
DBPROPERTIES
1002
{
1000
PbHidd
1002
}
  0
LINE
  5
2DF
330
1F
100
AcDbEntity
  8
HIDDEN
100
AcDbLine
 10
-64.66790008544922
 20
-150.6766510009766
 30
0.0
 11
-64.36231994628906
 21
-150.5792694091797
 31
0.0
1001
DBPROPERTIES
1002
{
1000
PbHidd
1002
}
  0
LINE
  5
2E0
330
1F
100
AcDbEntity
  8
HIDDEN
100
AcDbLine
 10
-64.36231994628906
 20
-150.5792694091797
 30
0.0
 11
-64.04096221923828
 21
-150.4873199462891
 31
0.0
1001
DBPROPERTIES
1002
{
1000
PbHidd
1002
}
  0
LINE
  5
2E1
330
1F
100
AcDbEntity
  8
HIDDEN
100
AcDbLine
 10
-64.04096221923828
 20
-150.4873199462891
 30
0.0
 11
-63.70299911499023
 21
-150.401123046875
 31
0.0
1001
DBPROPERTIES
1002
{
1000
PbHidd
1002
}
  0
LINE
  5
2E2
330
1F
100
AcDbEntity
  8
HIDDEN
100
AcDbLine
 10
-63.70299911499023
 20
-150.401123046875
 30
0.0
 11
-63.35147094726562
 21
-150.3222198486328
 31
0.0
1001
DBPROPERTIES
1002
{
1000
PbHidd
1002
}
  0
LINE
  5
2E3
330
1F
100
AcDbEntity
  8
HIDDEN
100
AcDbLine
 10
-63.35147094726562
 20
-150.3222198486328
 30
0.0
 11
-62.98976898193359
 21
-150.2518157958984
 31
0.0
1001
DBPROPERTIES
1002
{
1000
PbHidd
1002
}
  0
LINE
  5
2E4
330
1F
100
AcDbEntity
  8
HIDDEN
100
AcDbLine
 10
-62.98976898193359
 20
-150.2518157958984
 30
0.0
 11
-62.62149047851562
 21
-150.1908874511719
 31
0.0
1001
DBPROPERTIES
1002
{
1000
PbHidd
1002
}
  0
LINE
  5
2E5
330
1F
100
AcDbEntity
  8
HIDDEN
100
AcDbLine
 10
-62.62149047851562
 20
-150.1908874511719
 30
0.0
 11
-62.24999618530273
 21
-150.1402893066406
 31
0.0
1001
DBPROPERTIES
1002
{
1000
PbHidd
1002
}
  0
LINE
  5
2E6
330
1F
100
AcDbEntity
  8
HIDDEN
100
AcDbLine
 10
-62.24999618530273
 20
-150.1402893066406
 30
0.0
 11
-61.88884353637695
 21
-150.1013793945312
 31
0.0
1001
DBPROPERTIES
1002
{
1000
PbHidd
1002
}
  0
LINE
  5
2E7
330
1F
100
AcDbEntity
  8
HIDDEN
100
AcDbLine
 10
-61.88884353637695
 20
-150.1013793945312
 30
0.0
 11
-61.5316047668457
 21
-150.0730285644531
 31
0.0
1001
DBPROPERTIES
1002
{
1000
PbHidd
1002
}
  0
LINE
  5
2E8
330
1F
100
AcDbEntity
  8
HIDDEN
100
AcDbLine
 10
-61.5316047668457
 20
-150.0730285644531
 30
0.0
 11
-61.1817512512207
 21
-150.0552673339844
 31
0.0
1001
DBPROPERTIES
1002
{
1000
PbHidd
1002
}
  0
LINE
  5
2E9
330
1F
100
AcDbEntity
  8
HIDDEN
100
AcDbLine
 10
-61.1817512512207
 20
-150.0552673339844
 30
0.0
 11
-60.84270095825195
 21
-150.0478210449219
 31
0.0
1001
DBPROPERTIES
1002
{
1000
PbHidd
1002
}
  0
LINE
  5
2EA
330
1F
100
AcDbEntity
  8
HIDDEN
100
AcDbLine
 10
-60.84270095825195
 20
-150.0478210449219
 30
0.0
 11
-60.51338958740234
 21
-150.0503845214844
 31
0.0
1001
DBPROPERTIES
1002
{
1000
PbHidd
1002
}
  0
LINE
  5
2EB
330
1F
100
AcDbEntity
  8
HIDDEN
100
AcDbLine
 10
-60.51338958740234
 20
-150.0503845214844
 30
0.0
 11
-60.18682098388672
 21
-150.0630950927734
 31
0.0
1001
DBPROPERTIES
1002
{
1000
PbHidd
1002
}
  0
LINE
  5
2EC
330
1F
100
AcDbEntity
  8
HIDDEN
100
AcDbLine
 10
-60.18682098388672
 20
-150.0630950927734
 30
0.0
 11
-59.86641311645508
 21
-150.0862731933594
 31
0.0
1001
DBPROPERTIES
1002
{
1000
PbHidd
1002
}
  0
LINE
  5
2ED
330
1F
100
AcDbEntity
  8
HIDDEN
100
AcDbLine
 10
-59.86641311645508
 20
-150.0862731933594
 30
0.0
 11
-59.55586624145508
 21
-150.1201019287109
 31
0.0
1001
DBPROPERTIES
1002
{
1000
PbHidd
1002
}
  0
LINE
  5
2EE
330
1F
100
AcDbEntity
  8
HIDDEN
100
AcDbLine
 10
-59.55586624145508
 20
-150.1201019287109
 30
0.0
 11
-59.25832366943359
 21
-150.1642913818359
 31
0.0
1001
DBPROPERTIES
1002
{
1000
PbHidd
1002
}
  0
LINE
  5
2EF
330
1F
100
AcDbEntity
  8
HIDDEN
100
AcDbLine
 10
-59.25832366943359
 20
-150.1642913818359
 30
0.0
 11
-58.97678756713867
 21
-150.2184906005859
 31
0.0
1001
DBPROPERTIES
1002
{
1000
PbHidd
1002
}
  0
LINE
  5
2F0
330
1F
100
AcDbEntity
  8
HIDDEN
100
AcDbLine
 10
-58.97678756713867
 20
-150.2184906005859
 30
0.0
 11
-58.71358489990234
 21
-150.2821350097656
 31
0.0
1001
DBPROPERTIES
1002
{
1000
PbHidd
1002
}
  0
LINE
  5
2F1
330
1F
100
AcDbEntity
  8
HIDDEN
100
AcDbLine
 10
-58.71358489990234
 20
-150.2821350097656
 30
0.0
 11
-58.47068405151367
 21
-150.3543701171875
 31
0.0
1001
DBPROPERTIES
1002
{
1000
PbHidd
1002
}
  0
LINE
  5
2F2
330
1F
100
AcDbEntity
  8
HIDDEN
100
AcDbLine
 10
-58.47068405151367
 20
-150.3543701171875
 30
0.0
 11
-58.25001907348633
 21
-150.4341888427734
 31
0.0
1001
DBPROPERTIES
1002
{
1000
PbHidd
1002
}
  0
LINE
  5
2F3
330
1F
100
AcDbEntity
  8
THICK
100
AcDbLine
 10
-58.25001907348633
 20
-150.4341888427734
 30
0.0
 11
-58.04354095458984
 21
-150.5247955322266
 31
0.0
1001
DBPROPERTIES
1002
{
1000
PbThick
1002
}
  0
LINE
  5
2F4
330
1F
100
AcDbEntity
  8
THICK
100
AcDbLine
 10
-58.04354095458984
 20
-150.5247955322266
 30
0.0
 11
-57.86354827880859
 21
-150.6207733154297
 31
0.0
1001
DBPROPERTIES
1002
{
1000
PbThick
1002
}
  0
LINE
  5
2F5
330
1F
100
AcDbEntity
  8
THICK
100
AcDbLine
 10
-57.86354827880859
 20
-150.6207733154297
 30
0.0
 11
-57.7056770324707
 21
-150.7238006591797
 31
0.0
1001
DBPROPERTIES
1002
{
1000
PbThick
1002
}
  0
LINE
  5
2F6
330
1F
100
AcDbEntity
  8
THICK
100
AcDbLine
 10
-57.7056770324707
 20
-150.7238006591797
 30
0.0
 11
-57.56858825683594
 21
-150.8348693847656
 31
0.0
1001
DBPROPERTIES
1002
{
1000
PbThick
1002
}
  0
LINE
  5
2F7
330
1F
100
AcDbEntity
  8
THICK
100
AcDbLine
 10
-57.56858825683594
 20
-150.8348693847656
 30
0.0
 11
-57.45443725585938
 21
-150.9531555175781
 31
0.0
1001
DBPROPERTIES
1002
{
1000
PbThick
1002
}
  0
LINE
  5
2F8
330
1F
100
AcDbEntity
  8
THICK
100
AcDbLine
 10
-57.45443725585938
 20
-150.9531555175781
 30
0.0
 11
-57.36481094360352
 21
-151.0777130126953
 31
0.0
1001
DBPROPERTIES
1002
{
1000
PbThick
1002
}
  0
LINE
  5
2F9
330
1F
100
AcDbEntity
  8
THICK
100
AcDbLine
 10
-57.36481094360352
 20
-151.0777130126953
 30
0.0
 11
-57.30052185058594
 21
-151.2074737548828
 31
0.0
1001
DBPROPERTIES
1002
{
1000
PbThick
1002
}
  0
LINE
  5
2FA
330
1F
100
AcDbEntity
  8
THICK
100
AcDbLine
 10
-57.30052185058594
 20
-151.2074737548828
 30
0.0
 11
-57.26227951049805
 21
-151.34130859375
 31
0.0
1001
DBPROPERTIES
1002
{
1000
PbThick
1002
}
  0
LINE
  5
2FB
330
1F
100
AcDbEntity
  8
THICK
100
AcDbLine
 10
-57.26227951049805
 20
-151.34130859375
 30
0.0
 11
-57.25008392333984
 21
-151.4781036376953
 31
0.0
1001
DBPROPERTIES
1002
{
1000
PbThick
1002
}
  0
LINE
  5
2FC
330
1F
100
AcDbEntity
  8
THICK
100
AcDbLine
 10
-57.25008392333984
 20
-151.4781036376953
 30
0.0
 11
-57.26037979125977
 21
-151.5993041992188
 31
0.0
1001
DBPROPERTIES
1002
{
1000
PbThick
1002
}
  0
LINE
  5
2FD
330
1F
100
AcDbEntity
  8
THICK
100
AcDbLine
 10
-57.26037979125977
 20
-151.5993041992188
 30
0.0
 11
-57.28985214233398
 21
-151.7209625244141
 31
0.0
1001
DBPROPERTIES
1002
{
1000
PbThick
1002
}
  0
LINE
  5
2FE
330
1F
100
AcDbEntity
  8
THICK
100
AcDbLine
 10
-57.28985214233398
 20
-151.7209625244141
 30
0.0
 11
-57.33757400512695
 21
-151.8421783447266
 31
0.0
1001
DBPROPERTIES
1002
{
1000
PbThick
1002
}
  0
LINE
  5
2FF
330
1F
100
AcDbEntity
  8
THICK
100
AcDbLine
 10
-57.33757400512695
 20
-151.8421783447266
 30
0.0
 11
-57.40226745605469
 21
-151.9620361328125
 31
0.0
1001
DBPROPERTIES
1002
{
1000
PbThick
1002
}
  0
LINE
  5
300
330
1F
100
AcDbEntity
  8
THICK
100
AcDbLine
 10
-57.40226745605469
 20
-151.9620361328125
 30
0.0
 11
-57.48308181762695
 21
-152.0802612304688
 31
0.0
1001
DBPROPERTIES
1002
{
1000
PbThick
1002
}
  0
LINE
  5
301
330
1F
100
AcDbEntity
  8
THICK
100
AcDbLine
 10
-57.48308181762695
 20
-152.0802612304688
 30
0.0
 11
-57.58215713500977
 21
-152.1999969482422
 31
0.0
1001
DBPROPERTIES
1002
{
1000
PbThick
1002
}
  0
LINE
  5
302
330
1F
100
AcDbEntity
  8
THICK
100
AcDbLine
 10
-57.58215713500977
 20
-152.1999969482422
 30
0.0
 11
-57.70000076293945
 21
-152.3211059570312
 31
0.0
1001
DBPROPERTIES
1002
{
1000
PbThick
1002
}
  0
LINE
  5
303
330
1F
100
AcDbEntity
  8
THICK
100
AcDbLine
 10
-57.70000076293945
 20
-152.3211059570312
 30
0.0
 11
-57.83665466308594
 21
-152.4426727294922
 31
0.0
1001
DBPROPERTIES
1002
{
1000
PbThick
1002
}
  0
LINE
  5
304
330
1F
100
AcDbEntity
  8
THICK
100
AcDbLine
 10
-57.83665466308594
 20
-152.4426727294922
 30
0.0
 11
-57.99186325073242
 21
-152.5638275146484
 31
0.0
1001
DBPROPERTIES
1002
{
1000
PbThick
1002
}
  0
LINE
  5
305
330
1F
100
AcDbEntity
  8
THICK
100
AcDbLine
 10
-57.99186325073242
 20
-152.5638275146484
 30
0.0
 11
-58.16486740112305
 21
-152.6837768554688
 31
0.0
1001
DBPROPERTIES
1002
{
1000
PbThick
1002
}
  0
LINE
  5
306
330
1F
100
AcDbEntity
  8
THICK
100
AcDbLine
 10
-58.16486740112305
 20
-152.6837768554688
 30
0.0
 11
-58.35486602783203
 21
-152.8016510009766
 31
0.0
1001
DBPROPERTIES
1002
{
1000
PbThick
1002
}
  0
LINE
  5
307
330
1F
100
AcDbEntity
  8
THICK
100
AcDbLine
 10
-58.35486602783203
 20
-152.8016510009766
 30
0.0
 11
-58.56100463867188
 21
-152.916748046875
 31
0.0
1001
DBPROPERTIES
1002
{
1000
PbThick
1002
}
  0
LINE
  5
308
330
1F
100
AcDbEntity
  8
THICK
100
AcDbLine
 10
-58.56100463867188
 20
-152.916748046875
 30
0.0
 11
-58.78195190429688
 21
-153.0283660888672
 31
0.0
1001
DBPROPERTIES
1002
{
1000
PbThick
1002
}
  0
LINE
  5
309
330
1F
100
AcDbEntity
  8
THICK
100
AcDbLine
 10
-58.78195190429688
 20
-153.0283660888672
 30
0.0
 11
-59.01620864868164
 21
-153.1358032226562
 31
0.0
1001
DBPROPERTIES
1002
{
1000
PbThick
1002
}
  0
LINE
  5
30A
330
1F
100
AcDbEntity
  8
THICK
100
AcDbLine
 10
-59.01620864868164
 20
-153.1358032226562
 30
0.0
 11
-59.26220321655273
 21
-153.2383728027344
 31
0.0
1001
DBPROPERTIES
1002
{
1000
PbThick
1002
}
  0
LINE
  5
30B
330
1F
100
AcDbEntity
  8
THICK
100
AcDbLine
 10
-59.26220321655273
 20
-153.2383728027344
 30
0.0
 11
-59.51794815063477
 21
-153.3355102539062
 31
0.0
1001
DBPROPERTIES
1002
{
1000
PbThick
1002
}
  0
LINE
  5
30C
330
1F
100
AcDbEntity
  8
THICK
100
AcDbLine
 10
-59.51794815063477
 20
-153.3355102539062
 30
0.0
 11
-59.78128051757812
 21
-153.4266967773438
 31
0.0
1001
DBPROPERTIES
1002
{
1000
PbThick
1002
}
  0
LINE
  5
30D
330
1F
100
AcDbEntity
  8
THICK
100
AcDbLine
 10
-59.78128051757812
 20
-153.4266967773438
 30
0.0
 11
-60.05251312255859
 21
-153.5121917724609
 31
0.0
1001
DBPROPERTIES
1002
{
1000
PbThick
1002
}
  0
LINE
  5
30E
330
1F
100
AcDbEntity
  8
THICK
100
AcDbLine
 10
-60.05251312255859
 20
-153.5121917724609
 30
0.0
 11
-60.33802795410156
 21
-153.5938568115234
 31
0.0
1001
DBPROPERTIES
1002
{
1000
PbThick
1002
}
  0
LINE
  5
30F
330
1F
100
AcDbEntity
  8
THICK
100
AcDbLine
 10
-60.33802795410156
 20
-153.5938568115234
 30
0.0
 11
-60.63656616210938
 21
-153.6709289550781
 31
0.0
1001
DBPROPERTIES
1002
{
1000
PbThick
1002
}
  0
LINE
  5
310
330
1F
100
AcDbEntity
  8
THICK
100
AcDbLine
 10
-60.63656616210938
 20
-153.6709289550781
 30
0.0
 11
-60.94617080688477
 21
-153.7424468994141
 31
0.0
1001
DBPROPERTIES
1002
{
1000
PbThick
1002
}
  0
LINE
  5
311
330
1F
100
AcDbEntity
  8
THICK
100
AcDbLine
 10
-60.94617080688477
 20
-153.7424468994141
 30
0.0
 11
-61.26465225219727
 21
-153.8076019287109
 31
0.0
1001
DBPROPERTIES
1002
{
1000
PbThick
1002
}
  0
LINE
  5
312
330
1F
100
AcDbEntity
  8
THICK
100
AcDbLine
 10
-61.26465225219727
 20
-153.8076019287109
 30
0.0
 11
-61.58964157104492
 21
-153.8657684326172
 31
0.0
1001
DBPROPERTIES
1002
{
1000
PbThick
1002
}
  0
LINE
  5
313
330
1F
100
AcDbEntity
  8
THICK
100
AcDbLine
 10
-61.58964157104492
 20
-153.8657684326172
 30
0.0
 11
-61.9188117980957
 21
-153.9163665771484
 31
0.0
1001
DBPROPERTIES
1002
{
1000
PbThick
1002
}
  0
LINE
  5
314
330
1F
100
AcDbEntity
  8
THICK
100
AcDbLine
 10
-61.9188117980957
 20
-153.9163665771484
 30
0.0
 11
-62.25000381469727
 21
-153.958984375
 31
0.0
1001
DBPROPERTIES
1002
{
1000
PbThick
1002
}
  0
LINE
  5
315
330
1F
100
AcDbEntity
  8
THICK
100
AcDbLine
 10
-192.4
 20
-161.1
 30
0.0
 11
-66.2499999681933
 21
-161.1
 31
0.0
1001
DBPROPERTIES
1002
{
1000
PbThick
1002
}
  0
LINE
  5
316
330
1F
100
AcDbEntity
  8
HIDDEN
100
AcDbLine
 10
-66.2499999681933
 20
-161.1
 30
0.0
 11
-58.2499999574028
 21
-161.1
 31
0.0
1001
DBPROPERTIES
1002
{
1000
PbHidd
1002
}
  0
LINE
  5
317
330
1F
100
AcDbEntity
  8
THICK
100
AcDbLine
 10
-58.2499999574028
 20
-161.1
 30
0.0
 11
-0.0000000000000452
 21
-161.1
 31
0.0
1001
DBPROPERTIES
1002
{
1000
PbThick
1002
}
  0
ARC
  5
318
330
1F
100
AcDbEntity
  8
THICK
100
AcDbCircle
 10
-192.4
 20
-166.1
 30
0.0
 40
5.0
100
AcDbArc
 50
89.99992398025215
 51
180.0000947437162
1001
DBPROPERTIES
1002
{
1000
PbThick
1002
}
  0
LINE
  5
319
330
1F
100
AcDbEntity
  8
THICK
100
AcDbLine
 10
-35.24999999999999
 20
-166.1
 30
0.0
 11
-58.24999998077759
 21
-166.1
 31
0.0
1001
DBPROPERTIES
1002
{
1000
PbThick
1002
}
  0
LINE
  5
31A
330
1F
100
AcDbEntity
  8
HIDDEN
100
AcDbLine
 10
-58.24999998077759
 20
-166.1
 30
0.0
 11
-66.24999996729365
 21
-166.1
 31
0.0
1001
DBPROPERTIES
1002
{
1000
PbHidd
1002
}
  0
LINE
  5
31B
330
1F
100
AcDbEntity
  8
THICK
100
AcDbLine
 10
-66.24999996729365
 20
-166.1
 30
0.0
 11
-197.4
 21
-166.1
 31
0.0
1001
DBPROPERTIES
1002
{
1000
PbThick
1002
}
  0
ARC
  5
31C
330
1F
100
AcDbEntity
  8
THICK
100
AcDbCircle
 10
192.4
 20
-166.1
 30
0.0
 40
5.0
100
AcDbArc
 50
359.9999427042205
 51
90.00009586759069
1001
DBPROPERTIES
1002
{
1000
PbThick
1002
}
  0
LINE
  5
31D
330
1F
100
AcDbEntity
  8
THICK
100
AcDbLine
 10
0.0000000000000019
 20
-161.1
 30
0.0
 11
192.4
 21
-161.1
 31
0.0
1001
DBPROPERTIES
1002
{
1000
PbThick
1002
}
  0
LINE
  5
31E
330
1F
100
AcDbEntity
  8
THICK
100
AcDbLine
 10
-47.0
 20
0.0
 30
0.0
 11
-0.0000000000000086
 21
0.0
 31
0.0
1001
DBPROPERTIES
1002
{
1000
PbThick
1002
}
  0
LINE
  5
31F
330
1F
100
AcDbEntity
  8
HIDDEN
100
AcDbLine
 10
-20.16311264038086
 20
-23.25275993347168
 30
0.0
 11
-20.3791561126709
 21
-23.18009376525879
 31
0.0
1001
DBPROPERTIES
1002
{
1000
PbHidd
1002
}
  0
LINE
  5
320
330
1F
100
AcDbEntity
  8
HIDDEN
100
AcDbLine
 10
-20.3791561126709
 20
-23.18009376525879
 30
0.0
 11
-20.58491134643555
 21
-23.09159660339355
 31
0.0
1001
DBPROPERTIES
1002
{
1000
PbHidd
1002
}
  0
LINE
  5
321
330
1F
100
AcDbEntity
  8
HIDDEN
100
AcDbLine
 10
-20.58491134643555
 20
-23.09159660339355
 30
0.0
 11
-20.77900695800781
 21
-22.98822975158691
 31
0.0
1001
DBPROPERTIES
1002
{
1000
PbHidd
1002
}
  0
LINE
  5
322
330
1F
100
AcDbEntity
  8
HIDDEN
100
AcDbLine
 10
-20.77900695800781
 20
-22.98822975158691
 30
0.0
 11
-20.96004104614258
 21
-22.8709888458252
 31
0.0
1001
DBPROPERTIES
1002
{
1000
PbHidd
1002
}
  0
LINE
  5
323
330
1F
100
AcDbEntity
  8
HIDDEN
100
AcDbLine
 10
-20.96004104614258
 20
-22.8709888458252
 30
0.0
 11
-21.12692260742188
 21
-22.7411994934082
 31
0.0
1001
DBPROPERTIES
1002
{
1000
PbHidd
1002
}
  0
LINE
  5
324
330
1F
100
AcDbEntity
  8
HIDDEN
100
AcDbLine
 10
-21.12692260742188
 20
-22.7411994934082
 30
0.0
 11
-21.27901458740234
 21
-22.60068511962891
 31
0.0
1001
DBPROPERTIES
1002
{
1000
PbHidd
1002
}
  0
LINE
  5
325
330
1F
100
AcDbEntity
  8
HIDDEN
100
AcDbLine
 10
-21.27901458740234
 20
-22.60068511962891
 30
0.0
 11
-21.4157657623291
 21
-22.45125198364258
 31
0.0
1001
DBPROPERTIES
1002
{
1000
PbHidd
1002
}
  0
LINE
  5
326
330
1F
100
AcDbEntity
  8
HIDDEN
100
AcDbLine
 10
-21.4157657623291
 20
-22.45125198364258
 30
0.0
 11
-21.53935623168945
 21
-22.29137802124023
 31
0.0
1001
DBPROPERTIES
1002
{
1000
PbHidd
1002
}
  0
LINE
  5
327
330
1F
100
AcDbEntity
  8
HIDDEN
100
AcDbLine
 10
-21.53935623168945
 20
-22.29137802124023
 30
0.0
 11
-21.65070152282715
 21
-22.12027168273926
 31
0.0
1001
DBPROPERTIES
1002
{
1000
PbHidd
1002
}
  0
LINE
  5
328
330
1F
100
AcDbEntity
  8
HIDDEN
100
AcDbLine
 10
-21.65070152282715
 20
-22.12027168273926
 30
0.0
 11
-21.74908828735352
 21
-21.93886375427246
 31
0.0
1001
DBPROPERTIES
1002
{
1000
PbHidd
1002
}
  0
LINE
  5
329
330
1F
100
AcDbEntity
  8
HIDDEN
100
AcDbLine
 10
-21.74908828735352
 20
-21.93886375427246
 30
0.0
 11
-21.8338680267334
 21
-21.74811744689941
 31
0.0
1001
DBPROPERTIES
1002
{
1000
PbHidd
1002
}
  0
LINE
  5
32A
330
1F
100
AcDbEntity
  8
HIDDEN
100
AcDbLine
 10
-21.8338680267334
 20
-21.74811744689941
 30
0.0
 11
-21.90464782714844
 21
-21.54912948608398
 31
0.0
1001
DBPROPERTIES
1002
{
1000
PbHidd
1002
}
  0
LINE
  5
32B
330
1F
100
AcDbEntity
  8
HIDDEN
100
AcDbLine
 10
-21.90464782714844
 20
-21.54912948608398
 30
0.0
 11
-21.96135902404785
 21
-21.34316635131836
 31
0.0
1001
DBPROPERTIES
1002
{
1000
PbHidd
1002
}
  0
LINE
  5
32C
330
1F
100
AcDbEntity
  8
HIDDEN
100
AcDbLine
 10
-21.96135902404785
 20
-21.34316635131836
 30
0.0
 11
-22.00383758544922
 21
-21.13143730163574
 31
0.0
1001
DBPROPERTIES
1002
{
1000
PbHidd
1002
}
  0
LINE
  5
32D
330
1F
100
AcDbEntity
  8
HIDDEN
100
AcDbLine
 10
-22.00383758544922
 20
-21.13143730163574
 30
0.0
 11
-22.03214454650879
 21
-20.91510963439941
 31
0.0
1001
DBPROPERTIES
1002
{
1000
PbHidd
1002
}
  0
LINE
  5
32E
330
1F
100
AcDbEntity
  8
HIDDEN
100
AcDbLine
 10
-22.03214454650879
 20
-20.91510963439941
 30
0.0
 11
-22.04662704467773
 21
-20.69553565979004
 31
0.0
1001
DBPROPERTIES
1002
{
1000
PbHidd
1002
}
  0
LINE
  5
32F
330
1F
100
AcDbEntity
  8
HIDDEN
100
AcDbLine
 10
-22.04662704467773
 20
-20.69553565979004
 30
0.0
 11
-22.04764556884766
 21
-20.47411346435547
 31
0.0
1001
DBPROPERTIES
1002
{
1000
PbHidd
1002
}
  0
LINE
  5
330
330
1F
100
AcDbEntity
  8
HIDDEN
100
AcDbLine
 10
-22.04764556884766
 20
-20.47411346435547
 30
0.0
 11
-22.03562355041504
 21
-20.25225448608398
 31
0.0
1001
DBPROPERTIES
1002
{
1000
PbHidd
1002
}
  0
LINE
  5
331
330
1F
100
AcDbEntity
  8
HIDDEN
100
AcDbLine
 10
-22.03562355041504
 20
-20.25225448608398
 30
0.0
 11
-22.01134300231934
 21
-20.03143501281738
 31
0.0
1001
DBPROPERTIES
1002
{
1000
PbHidd
1002
}
  0
LINE
  5
332
330
1F
100
AcDbEntity
  8
HIDDEN
100
AcDbLine
 10
-22.01134300231934
 20
-20.03143501281738
 30
0.0
 11
-21.97572135925293
 21
-19.81315803527832
 31
0.0
1001
DBPROPERTIES
1002
{
1000
PbHidd
1002
}
  0
LINE
  5
333
330
1F
100
AcDbEntity
  8
HIDDEN
100
AcDbLine
 10
-21.97572135925293
 20
-19.81315803527832
 30
0.0
 11
-21.929443359375
 21
-19.5979175567627
 31
0.0
1001
DBPROPERTIES
1002
{
1000
PbHidd
1002
}
  0
LINE
  5
334
330
1F
100
AcDbEntity
  8
HIDDEN
100
AcDbLine
 10
-21.929443359375
 20
-19.5979175567627
 30
0.0
 11
-21.87144660949707
 21
-19.38000297546387
 31
0.0
1001
DBPROPERTIES
1002
{
1000
PbHidd
1002
}
  0
LINE
  5
335
330
1F
100
AcDbEntity
  8
HIDDEN
100
AcDbLine
 10
-21.87144660949707
 20
-19.38000297546387
 30
0.0
 11
-21.79499816894531
 21
-19.14066123962402
 31
0.0
1001
DBPROPERTIES
1002
{
1000
PbHidd
1002
}
  0
LINE
  5
336
330
1F
100
AcDbEntity
  8
HIDDEN
100
AcDbLine
 10
-21.79499816894531
 20
-19.14066123962402
 30
0.0
 11
-21.70438003540039
 21
-18.89961624145508
 31
0.0
1001
DBPROPERTIES
1002
{
1000
PbHidd
1002
}
  0
LINE
  5
337
330
1F
100
AcDbEntity
  8
HIDDEN
100
AcDbLine
 10
-21.70438003540039
 20
-18.89961624145508
 30
0.0
 11
-21.59969329833984
 21
-18.6584415435791
 31
0.0
1001
DBPROPERTIES
1002
{
1000
PbHidd
1002
}
  0
LINE
  5
338
330
1F
100
AcDbEntity
  8
HIDDEN
100
AcDbLine
 10
-21.59969329833984
 20
-18.6584415435791
 30
0.0
 11
-21.48140716552734
 21
-18.41865539550781
 31
0.0
1001
DBPROPERTIES
1002
{
1000
PbHidd
1002
}
  0
LINE
  5
339
330
1F
100
AcDbEntity
  8
HIDDEN
100
AcDbLine
 10
-21.48140716552734
 20
-18.41865539550781
 30
0.0
 11
-21.35006141662598
 21
-18.18177223205566
 31
0.0
1001
DBPROPERTIES
1002
{
1000
PbHidd
1002
}
  0
LINE
  5
33A
330
1F
100
AcDbEntity
  8
HIDDEN
100
AcDbLine
 10
-21.35006141662598
 20
-18.18177223205566
 30
0.0
 11
-21.20621109008789
 21
-17.94922637939453
 31
0.0
1001
DBPROPERTIES
1002
{
1000
PbHidd
1002
}
  0
LINE
  5
33B
330
1F
100
AcDbEntity
  8
HIDDEN
100
AcDbLine
 10
-21.20621109008789
 20
-17.94922637939453
 30
0.0
 11
-21.05071449279785
 21
-17.72231483459473
 31
0.0
1001
DBPROPERTIES
1002
{
1000
PbHidd
1002
}
  0
LINE
  5
33C
330
1F
100
AcDbEntity
  8
HIDDEN
100
AcDbLine
 10
-21.05071449279785
 20
-17.72231483459473
 30
0.0
 11
-20.88460159301758
 21
-17.50238227844238
 31
0.0
1001
DBPROPERTIES
1002
{
1000
PbHidd
1002
}
  0
LINE
  5
33D
330
1F
100
AcDbEntity
  8
HIDDEN
100
AcDbLine
 10
-20.88460159301758
 20
-17.50238227844238
 30
0.0
 11
-20.70892333984375
 21
-17.2907657623291
 31
0.0
1001
DBPROPERTIES
1002
{
1000
PbHidd
1002
}
  0
LINE
  5
33E
330
1F
100
AcDbEntity
  8
HIDDEN
100
AcDbLine
 10
-20.70892333984375
 20
-17.2907657623291
 30
0.0
 11
-20.52500534057617
 21
-17.08863639831543
 31
0.0
1001
DBPROPERTIES
1002
{
1000
PbHidd
1002
}
  0
LINE
  5
33F
330
1F
100
AcDbEntity
  8
HIDDEN
100
AcDbLine
 10
-20.52500534057617
 20
-17.08863639831543
 30
0.0
 11
-20.33437728881836
 21
-16.89704132080078
 31
0.0
1001
DBPROPERTIES
1002
{
1000
PbHidd
1002
}
  0
LINE
  5
340
330
1F
100
AcDbEntity
  8
HIDDEN
100
AcDbLine
 10
-20.33437728881836
 20
-16.89704132080078
 30
0.0
 11
-20.13774490356445
 21
-16.71628570556641
 31
0.0
1001
DBPROPERTIES
1002
{
1000
PbHidd
1002
}
  0
LINE
  5
341
330
1F
100
AcDbEntity
  8
HIDDEN
100
AcDbLine
 10
-20.13774490356445
 20
-16.71628570556641
 30
0.0
 11
-19.92913818359375
 21
-16.54121398925781
 31
0.0
1001
DBPROPERTIES
1002
{
1000
PbHidd
1002
}
  0
LINE
  5
342
330
1F
100
AcDbEntity
  8
HIDDEN
100
AcDbLine
 10
-19.92913818359375
 20
-16.54121398925781
 30
0.0
 11
-19.70804214477539
 21
-16.3724193572998
 31
0.0
1001
DBPROPERTIES
1002
{
1000
PbHidd
1002
}
  0
LINE
  5
343
330
1F
100
AcDbEntity
  8
HIDDEN
100
AcDbLine
 10
-19.70804214477539
 20
-16.3724193572998
 30
0.0
 11
-19.47567367553711
 21
-16.21210098266602
 31
0.0
1001
DBPROPERTIES
1002
{
1000
PbHidd
1002
}
  0
LINE
  5
344
330
1F
100
AcDbEntity
  8
HIDDEN
100
AcDbLine
 10
-19.47567367553711
 20
-16.21210098266602
 30
0.0
 11
-19.23345947265625
 21
-16.06217575073242
 31
0.0
1001
DBPROPERTIES
1002
{
1000
PbHidd
1002
}
  0
LINE
  5
345
330
1F
100
AcDbEntity
  8
HIDDEN
100
AcDbLine
 10
-19.23345947265625
 20
-16.06217575073242
 30
0.0
 11
-18.98303604125977
 21
-15.9242696762085
 31
0.0
1001
DBPROPERTIES
1002
{
1000
PbHidd
1002
}
  0
LINE
  5
346
330
1F
100
AcDbEntity
  8
HIDDEN
100
AcDbLine
 10
-18.98303604125977
 20
-15.9242696762085
 30
0.0
 11
-18.72602653503418
 21
-15.79995632171631
 31
0.0
1001
DBPROPERTIES
1002
{
1000
PbHidd
1002
}
  0
LINE
  5
347
330
1F
100
AcDbEntity
  8
HIDDEN
100
AcDbLine
 10
-18.72602653503418
 20
-15.79995632171631
 30
0.0
 11
-18.46408653259277
 21
-15.69039344787598
 31
0.0
1001
DBPROPERTIES
1002
{
1000
PbHidd
1002
}
  0
LINE
  5
348
330
1F
100
AcDbEntity
  8
HIDDEN
100
AcDbLine
 10
-18.46408653259277
 20
-15.69039344787598
 30
0.0
 11
-18.19915962219238
 21
-15.59652137756348
 31
0.0
1001
DBPROPERTIES
1002
{
1000
PbHidd
1002
}
  0
LINE
  5
349
330
1F
100
AcDbEntity
  8
HIDDEN
100
AcDbLine
 10
-18.19915962219238
 20
-15.59652137756348
 30
0.0
 11
-17.9332218170166
 21
-15.51924324035645
 31
0.0
1001
DBPROPERTIES
1002
{
1000
PbHidd
1002
}
  0
LINE
  5
34A
330
1F
100
AcDbEntity
  8
HIDDEN
100
AcDbLine
 10
-17.9332218170166
 20
-15.51924324035645
 30
0.0
 11
-17.66835021972656
 21
-15.4589729309082
 31
0.0
1001
DBPROPERTIES
1002
{
1000
PbHidd
1002
}
  0
LINE
  5
34B
330
1F
100
AcDbEntity
  8
HIDDEN
100
AcDbLine
 10
-17.66835021972656
 20
-15.4589729309082
 30
0.0
 11
-17.40669631958008
 21
-15.41579818725586
 31
0.0
1001
DBPROPERTIES
1002
{
1000
PbHidd
1002
}
  0
LINE
  5
34C
330
1F
100
AcDbEntity
  8
HIDDEN
100
AcDbLine
 10
-17.40669631958008
 20
-15.41579818725586
 30
0.0
 11
-17.14691352844238
 21
-15.38948917388916
 31
0.0
1001
DBPROPERTIES
1002
{
1000
PbHidd
1002
}
  0
LINE
  5
34D
330
1F
100
AcDbEntity
  8
HIDDEN
100
AcDbLine
 10
-17.14691352844238
 20
-15.38948917388916
 30
0.0
 11
-16.88350296020508
 21
-15.38006496429443
 31
0.0
1001
DBPROPERTIES
1002
{
1000
PbHidd
1002
}
  0
LINE
  5
34E
330
1F
100
AcDbEntity
  8
THICK
100
AcDbLine
 10
-16.88350296020508
 20
-15.38006496429443
 30
0.0
 11
-16.6104736328125
 21
-15.38945388793945
 31
0.0
1001
DBPROPERTIES
1002
{
1000
PbThick
1002
}
  0
LINE
  5
34F
330
1F
100
AcDbEntity
  8
THICK
100
AcDbLine
 10
-16.6104736328125
 20
-15.38945388793945
 30
0.0
 11
-16.33980941772461
 21
-15.41946601867676
 31
0.0
1001
DBPROPERTIES
1002
{
1000
PbThick
1002
}
  0
LINE
  5
350
330
1F
100
AcDbEntity
  8
THICK
100
AcDbLine
 10
-16.33980941772461
 20
-15.41946601867676
 30
0.0
 11
-16.07463264465332
 21
-15.47034931182861
 31
0.0
1001
DBPROPERTIES
1002
{
1000
PbThick
1002
}
  0
LINE
  5
351
330
1F
100
AcDbEntity
  8
THICK
100
AcDbLine
 10
-16.07463264465332
 20
-15.47034931182861
 30
0.0
 11
-15.81797504425049
 21
-15.54214477539062
 31
0.0
1001
DBPROPERTIES
1002
{
1000
PbThick
1002
}
  0
LINE
  5
352
330
1F
100
AcDbEntity
  8
THICK
100
AcDbLine
 10
-15.81797504425049
 20
-15.54214477539062
 30
0.0
 11
-15.57235717773438
 21
-15.63441181182861
 31
0.0
1001
DBPROPERTIES
1002
{
1000
PbThick
1002
}
  0
LINE
  5
353
330
1F
100
AcDbEntity
  8
THICK
100
AcDbLine
 10
-15.57235717773438
 20
-15.63441181182861
 30
0.0
 11
-15.34022808074951
 21
-15.74593639373779
 31
0.0
1001
DBPROPERTIES
1002
{
1000
PbThick
1002
}
  0
LINE
  5
354
330
1F
100
AcDbEntity
  8
THICK
100
AcDbLine
 10
-15.34022808074951
 20
-15.74593639373779
 30
0.0
 11
-15.12400817871094
 21
-15.87533473968506
 31
0.0
1001
DBPROPERTIES
1002
{
1000
PbThick
1002
}
  0
LINE
  5
355
330
1F
100
AcDbEntity
  8
THICK
100
AcDbLine
 10
-15.12400817871094
 20
-15.87533473968506
 30
0.0
 11
-14.92548656463623
 21
-16.0203914642334
 31
0.0
1001
DBPROPERTIES
1002
{
1000
PbThick
1002
}
  0
LINE
  5
356
330
1F
100
AcDbEntity
  8
THICK
100
AcDbLine
 10
-14.92548656463623
 20
-16.0203914642334
 30
0.0
 11
-14.74607276916504
 21
-16.17854881286621
 31
0.0
1001
DBPROPERTIES
1002
{
1000
PbThick
1002
}
  0
LINE
  5
357
330
1F
100
AcDbEntity
  8
THICK
100
AcDbLine
 10
-14.74607276916504
 20
-16.17854881286621
 30
0.0
 11
-14.5829439163208
 21
-16.35153388977051
 31
0.0
1001
DBPROPERTIES
1002
{
1000
PbThick
1002
}
  0
LINE
  5
358
330
1F
100
AcDbEntity
  8
THICK
100
AcDbLine
 10
-14.5829439163208
 20
-16.35153388977051
 30
0.0
 11
-14.43516635894775
 21
-16.54025268554688
 31
0.0
1001
DBPROPERTIES
1002
{
1000
PbThick
1002
}
  0
LINE
  5
359
330
1F
100
AcDbEntity
  8
THICK
100
AcDbLine
 10
-14.43516635894775
 20
-16.54025268554688
 30
0.0
 11
-14.30447006225586
 21
-16.7432746887207
 31
0.0
1001
DBPROPERTIES
1002
{
1000
PbThick
1002
}
  0
LINE
  5
35A
330
1F
100
AcDbEntity
  8
THICK
100
AcDbLine
 10
-14.30447006225586
 20
-16.7432746887207
 30
0.0
 11
-14.19221687316895
 21
-16.95896148681641
 31
0.0
1001
DBPROPERTIES
1002
{
1000
PbThick
1002
}
  0
LINE
  5
35B
330
1F
100
AcDbEntity
  8
THICK
100
AcDbLine
 10
-14.19221687316895
 20
-16.95896148681641
 30
0.0
 11
-14.09908866882324
 21
-17.1852970123291
 31
0.0
1001
DBPROPERTIES
1002
{
1000
PbThick
1002
}
  0
LINE
  5
35C
330
1F
100
AcDbEntity
  8
THICK
100
AcDbLine
 10
-14.09908866882324
 20
-17.1852970123291
 30
0.0
 11
-14.02567672729492
 21
-17.42024040222168
 31
0.0
1001
DBPROPERTIES
1002
{
1000
PbThick
1002
}
  0
LINE
  5
35D
330
1F
100
AcDbEntity
  8
THICK
100
AcDbLine
 10
-14.02567672729492
 20
-17.42024040222168
 30
0.0
 11
-13.97210121154785
 21
-17.66181564331055
 31
0.0
1001
DBPROPERTIES
1002
{
1000
PbThick
1002
}
  0
LINE
  5
35E
330
1F
100
AcDbEntity
  8
THICK
100
AcDbLine
 10
-13.97210121154785
 20
-17.66181564331055
 30
0.0
 11
-13.93794918060303
 21
-17.90773963928223
 31
0.0
1001
DBPROPERTIES
1002
{
1000
PbThick
1002
}
  0
LINE
  5
35F
330
1F
100
AcDbEntity
  8
THICK
100
AcDbLine
 10
-13.93794918060303
 20
-17.90773963928223
 30
0.0
 11
-13.92276477813721
 21
-18.15565490722656
 31
0.0
1001
DBPROPERTIES
1002
{
1000
PbThick
1002
}
  0
LINE
  5
360
330
1F
100
AcDbEntity
  8
THICK
100
AcDbLine
 10
-13.92276477813721
 20
-18.15565490722656
 30
0.0
 11
-13.92559719085693
 21
-18.40313911437988
 31
0.0
1001
DBPROPERTIES
1002
{
1000
PbThick
1002
}
  0
LINE
  5
361
330
1F
100
AcDbEntity
  8
THICK
100
AcDbLine
 10
-13.92559719085693
 20
-18.40313911437988
 30
0.0
 11
-13.94497489929199
 21
-18.647705078125
 31
0.0
1001
DBPROPERTIES
1002
{
1000
PbThick
1002
}
  0
LINE
  5
362
330
1F
100
AcDbEntity
  8
THICK
100
AcDbLine
 10
-13.94497489929199
 20
-18.647705078125
 30
0.0
 11
-13.97970390319824
 21
-18.8887996673584
 31
0.0
1001
DBPROPERTIES
1002
{
1000
PbThick
1002
}
  0
LINE
  5
363
330
1F
100
AcDbEntity
  8
THICK
100
AcDbLine
 10
-13.97970390319824
 20
-18.8887996673584
 30
0.0
 11
-14.03024673461914
 21
-19.1330623626709
 31
0.0
1001
DBPROPERTIES
1002
{
1000
PbThick
1002
}
  0
LINE
  5
364
330
1F
100
AcDbEntity
  8
THICK
100
AcDbLine
 10
-14.03024673461914
 20
-19.1330623626709
 30
0.0
 11
-14.09666538238525
 21
-19.37999534606934
 31
0.0
1001
DBPROPERTIES
1002
{
1000
PbThick
1002
}
  0
LINE
  5
365
330
1F
100
AcDbEntity
  8
THICK
100
AcDbLine
 10
-14.09666538238525
 20
-19.37999534606934
 30
0.0
 11
-14.19423484802246
 21
-19.66972160339355
 31
0.0
1001
DBPROPERTIES
1002
{
1000
PbThick
1002
}
  0
LINE
  5
366
330
1F
100
AcDbEntity
  8
THICK
100
AcDbLine
 10
-14.19423484802246
 20
-19.66972160339355
 30
0.0
 11
-14.31283092498779
 21
-19.95866203308105
 31
0.0
1001
DBPROPERTIES
1002
{
1000
PbThick
1002
}
  0
LINE
  5
367
330
1F
100
AcDbEntity
  8
THICK
100
AcDbLine
 10
-14.31283092498779
 20
-19.95866203308105
 30
0.0
 11
-14.45142459869385
 21
-20.24456214904785
 31
0.0
1001
DBPROPERTIES
1002
{
1000
PbThick
1002
}
  0
LINE
  5
368
330
1F
100
AcDbEntity
  8
THICK
100
AcDbLine
 10
-14.45142459869385
 20
-20.24456214904785
 30
0.0
 11
-14.60894870758057
 21
-20.52521514892578
 31
0.0
1001
DBPROPERTIES
1002
{
1000
PbThick
1002
}
  0
LINE
  5
369
330
1F
100
AcDbEntity
  8
THICK
100
AcDbLine
 10
-14.60894870758057
 20
-20.52521514892578
 30
0.0
 11
-14.78399658203125
 21
-20.79867553710938
 31
0.0
1001
DBPROPERTIES
1002
{
1000
PbThick
1002
}
  0
LINE
  5
36A
330
1F
100
AcDbEntity
  8
THICK
100
AcDbLine
 10
-14.78399658203125
 20
-20.79867553710938
 30
0.0
 11
-14.97477912902832
 21
-21.06298446655273
 31
0.0
1001
DBPROPERTIES
1002
{
1000
PbThick
1002
}
  0
LINE
  5
36B
330
1F
100
AcDbEntity
  8
THICK
100
AcDbLine
 10
-14.97477912902832
 20
-21.06298446655273
 30
0.0
 11
-15.17943859100342
 21
-21.31619644165039
 31
0.0
1001
DBPROPERTIES
1002
{
1000
PbThick
1002
}
  0
LINE
  5
36C
330
1F
100
AcDbEntity
  8
THICK
100
AcDbLine
 10
-15.17943859100342
 20
-21.31619644165039
 30
0.0
 11
-15.39566230773926
 21
-21.55661392211914
 31
0.0
1001
DBPROPERTIES
1002
{
1000
PbThick
1002
}
  0
LINE
  5
36D
330
1F
100
AcDbEntity
  8
THICK
100
AcDbLine
 10
-15.39566230773926
 20
-21.55661392211914
 30
0.0
 11
-15.62090587615967
 21
-21.78265762329102
 31
0.0
1001
DBPROPERTIES
1002
{
1000
PbThick
1002
}
  0
LINE
  5
36E
330
1F
100
AcDbEntity
  8
THICK
100
AcDbLine
 10
-15.62090587615967
 20
-21.78265762329102
 30
0.0
 11
-15.85878276824951
 21
-21.99823760986328
 31
0.0
1001
DBPROPERTIES
1002
{
1000
PbThick
1002
}
  0
LINE
  5
36F
330
1F
100
AcDbEntity
  8
THICK
100
AcDbLine
 10
-15.85878276824951
 20
-21.99823760986328
 30
0.0
 11
-16.11442375183105
 21
-22.20712471008301
 31
0.0
1001
DBPROPERTIES
1002
{
1000
PbThick
1002
}
  0
LINE
  5
370
330
1F
100
AcDbEntity
  8
THICK
100
AcDbLine
 10
-16.11442375183105
 20
-22.20712471008301
 30
0.0
 11
-16.38608551025391
 21
-22.4061393737793
 31
0.0
1001
DBPROPERTIES
1002
{
1000
PbThick
1002
}
  0
LINE
  5
371
330
1F
100
AcDbEntity
  8
THICK
100
AcDbLine
 10
-16.38608551025391
 20
-22.4061393737793
 30
0.0
 11
-16.67179489135742
 21
-22.59235572814941
 31
0.0
1001
DBPROPERTIES
1002
{
1000
PbThick
1002
}
  0
LINE
  5
372
330
1F
100
AcDbEntity
  8
THICK
100
AcDbLine
 10
-16.67179489135742
 20
-22.59235572814941
 30
0.0
 11
-16.96920013427734
 21
-22.7632942199707
 31
0.0
1001
DBPROPERTIES
1002
{
1000
PbThick
1002
}
  0
LINE
  5
373
330
1F
100
AcDbEntity
  8
THICK
100
AcDbLine
 10
-16.96920013427734
 20
-22.7632942199707
 30
0.0
 11
-17.27595901489258
 21
-22.91657066345215
 31
0.0
1001
DBPROPERTIES
1002
{
1000
PbThick
1002
}
  0
LINE
  5
374
330
1F
100
AcDbEntity
  8
THICK
100
AcDbLine
 10
-17.27595901489258
 20
-22.91657066345215
 30
0.0
 11
-17.58964729309082
 21
-23.05031585693359
 31
0.0
1001
DBPROPERTIES
1002
{
1000
PbThick
1002
}
  0
LINE
  5
375
330
1F
100
AcDbEntity
  8
THICK
100
AcDbLine
 10
-17.58964729309082
 20
-23.05031585693359
 30
0.0
 11
-17.90746688842773
 21
-23.16287612915039
 31
0.0
1001
DBPROPERTIES
1002
{
1000
PbThick
1002
}
  0
LINE
  5
376
330
1F
100
AcDbEntity
  8
THICK
100
AcDbLine
 10
-17.90746688842773
 20
-23.16287612915039
 30
0.0
 11
-18.22656440734863
 21
-23.25273132324219
 31
0.0
1001
DBPROPERTIES
1002
{
1000
PbThick
1002
}
  0
LINE
  5
377
330
1F
100
AcDbEntity
  8
THICK
100
AcDbLine
 10
-66.25
 20
-176.9
 30
0.0
 11
-62.25
 21
-176.9
 31
0.0
1001
DBPROPERTIES
1002
{
1000
PbThick
1002
}
  0
LINE
  5
378
330
1F
100
AcDbEntity
  8
HIDDEN
100
AcDbLine
 10
-65.07842712474618
 20
-39.38
 30
0.0
 11
-66.25
 21
-39.38
 31
0.0
1001
DBPROPERTIES
1002
{
1000
PbHidd
1002
}
  0
LINE
  5
379
330
1F
100
AcDbEntity
  8
THICK
100
AcDbLine
 10
-66.24999999999947
 20
-39.38
 30
0.0
 11
-62.24999999999999
 21
-39.38
 31
0.0
1001
DBPROPERTIES
1002
{
1000
PbThick
1002
}
  0
LINE
  5
37A
330
1F
100
AcDbEntity
  8
HIDDEN
100
AcDbLine
 10
-62.24999999999999
 20
-39.38
 30
0.0
 11
-65.07842712474618
 21
-39.38
 31
0.0
1001
DBPROPERTIES
1002
{
1000
PbHidd
1002
}
  0
LINE
  5
37B
330
1F
100
AcDbEntity
  8
HIDDEN
100
AcDbLine
 10
-66.25
 20
-176.9
 30
0.0
 11
-62.25
 21
-176.9
 31
0.0
1001
DBPROPERTIES
1002
{
1000
PbHidd
1002
}
  0
LINE
  5
37C
330
1F
100
AcDbEntity
  8
HIDDEN
100
AcDbLine
 10
-76.25
 20
-15.3800048828125
 30
0.0
 11
-76.25650787353516
 21
-15.38001251220703
 31
0.0
1001
DBPROPERTIES
1002
{
1000
PbHidd
1002
}
  0
LINE
  5
37D
330
1F
100
AcDbEntity
  8
HIDDEN
100
AcDbLine
 10
-76.25650787353516
 20
-15.38001251220703
 30
0.0
 11
-76.2632064819336
 21
-15.38002872467041
 31
0.0
1001
DBPROPERTIES
1002
{
1000
PbHidd
1002
}
  0
LINE
  5
37E
330
1F
100
AcDbEntity
  8
HIDDEN
100
AcDbLine
 10
-76.2632064819336
 20
-15.38002872467041
 30
0.0
 11
-76.26961517333984
 21
-15.38005352020264
 31
0.0
1001
DBPROPERTIES
1002
{
1000
PbHidd
1002
}
  0
LINE
  5
37F
330
1F
100
AcDbEntity
  8
HIDDEN
100
AcDbLine
 10
-76.26961517333984
 20
-15.38005352020264
 30
0.0
 11
-76.27619934082031
 21
-15.38008880615234
 31
0.0
1001
DBPROPERTIES
1002
{
1000
PbHidd
1002
}
  0
LINE
  5
380
330
1F
100
AcDbEntity
  8
HIDDEN
100
AcDbLine
 10
-76.27619934082031
 20
-15.38008880615234
 30
0.0
 11
-76.2824478149414
 21
-15.3801326751709
 31
0.0
1001
DBPROPERTIES
1002
{
1000
PbHidd
1002
}
  0
LINE
  5
381
330
1F
100
AcDbEntity
  8
HIDDEN
100
AcDbLine
 10
-76.2824478149414
 20
-15.3801326751709
 30
0.0
 11
-76.28840637207031
 21
-15.3801851272583
 31
0.0
1001
DBPROPERTIES
1002
{
1000
PbHidd
1002
}
  0
LINE
  5
382
330
1F
100
AcDbEntity
  8
THICK
100
AcDbLine
 10
-76.28840637207031
 20
-15.3801851272583
 30
0.0
 11
-76.29399871826172
 21
-15.38024616241455
 31
0.0
1001
DBPROPERTIES
1002
{
1000
PbThick
1002
}
  0
LINE
  5
383
330
1F
100
AcDbEntity
  8
THICK
100
AcDbLine
 10
-76.29399871826172
 20
-15.38024616241455
 30
0.0
 11
-76.2996597290039
 21
-15.38031578063965
 31
0.0
1001
DBPROPERTIES
1002
{
1000
PbThick
1002
}
  0
LINE
  5
384
330
1F
100
AcDbEntity
  8
THICK
100
AcDbLine
 10
-76.2996597290039
 20
-15.38031578063965
 30
0.0
 11
-76.30532836914062
 21
-15.38039588928223
 31
0.0
1001
DBPROPERTIES
1002
{
1000
PbThick
1002
}
  0
LINE
  5
385
330
1F
100
AcDbEntity
  8
THICK
100
AcDbLine
 10
-76.30532836914062
 20
-15.38039588928223
 30
0.0
 11
-76.31095886230469
 21
-15.38048362731934
 31
0.0
1001
DBPROPERTIES
1002
{
1000
PbThick
1002
}
  0
LINE
  5
386
330
1F
100
AcDbEntity
  8
THICK
100
AcDbLine
 10
-76.31095886230469
 20
-15.38048362731934
 30
0.0
 11
-76.3165054321289
 21
-15.38057994842529
 31
0.0
1001
DBPROPERTIES
1002
{
1000
PbThick
1002
}
  0
LINE
  5
387
330
1F
100
AcDbEntity
  8
THICK
100
AcDbLine
 10
-76.3165054321289
 20
-15.38057994842529
 30
0.0
 11
-76.32190704345703
 21
-15.38068294525146
 31
0.0
1001
DBPROPERTIES
1002
{
1000
PbThick
1002
}
  0
LINE
  5
388
330
1F
100
AcDbEntity
  8
THICK
100
AcDbLine
 10
-76.32190704345703
 20
-15.38068294525146
 30
0.0
 11
-76.32711791992188
 21
-15.38079166412354
 31
0.0
1001
DBPROPERTIES
1002
{
1000
PbThick
1002
}
  0
LINE
  5
389
330
1F
100
AcDbEntity
  8
THICK
100
AcDbLine
 10
-76.32711791992188
 20
-15.38079166412354
 30
0.0
 11
-76.33214569091797
 21
-15.38090705871582
 31
0.0
1001
DBPROPERTIES
1002
{
1000
PbThick
1002
}
  0
LINE
  5
38A
330
1F
100
AcDbEntity
  8
THICK
100
AcDbLine
 10
-76.33214569091797
 20
-15.38090705871582
 30
0.0
 11
-76.33719635009766
 21
-15.38103199005127
 31
0.0
1001
DBPROPERTIES
1002
{
1000
PbThick
1002
}
  0
LINE
  5
38B
330
1F
100
AcDbEntity
  8
THICK
100
AcDbLine
 10
-76.33719635009766
 20
-15.38103199005127
 30
0.0
 11
-76.34227752685547
 21
-15.3811674118042
 31
0.0
1001
DBPROPERTIES
1002
{
1000
PbThick
1002
}
  0
LINE
  5
38C
330
1F
100
AcDbEntity
  8
THICK
100
AcDbLine
 10
-76.34227752685547
 20
-15.3811674118042
 30
0.0
 11
-76.34739685058594
 21
-15.38131237030029
 31
0.0
1001
DBPROPERTIES
1002
{
1000
PbThick
1002
}
  0
LINE
  5
38D
330
1F
100
AcDbEntity
  8
THICK
100
AcDbLine
 10
-76.34739685058594
 20
-15.38131237030029
 30
0.0
 11
-76.35254669189453
 21
-15.38146877288818
 31
0.0
1001
DBPROPERTIES
1002
{
1000
PbThick
1002
}
  0
LINE
  5
38E
330
1F
100
AcDbEntity
  8
THICK
100
AcDbLine
 10
-76.35254669189453
 20
-15.38146877288818
 30
0.0
 11
-76.35771942138672
 21
-15.38163471221924
 31
0.0
1001
DBPROPERTIES
1002
{
1000
PbThick
1002
}
  0
LINE
  5
38F
330
1F
100
AcDbEntity
  8
THICK
100
AcDbLine
 10
-76.35771942138672
 20
-15.38163471221924
 30
0.0
 11
-76.3629150390625
 21
-15.38181018829346
 31
0.0
1001
DBPROPERTIES
1002
{
1000
PbThick
1002
}
  0
LINE
  5
390
330
1F
100
AcDbEntity
  8
THICK
100
AcDbLine
 10
-76.3629150390625
 20
-15.38181018829346
 30
0.0
 11
-76.36812591552734
 21
-15.38199710845947
 31
0.0
1001
DBPROPERTIES
1002
{
1000
PbThick
1002
}
  0
LINE
  5
391
330
1F
100
AcDbEntity
  8
THICK
100
AcDbLine
 10
-76.36812591552734
 20
-15.38199710845947
 30
0.0
 11
-76.37335968017578
 21
-15.38219356536865
 31
0.0
1001
DBPROPERTIES
1002
{
1000
PbThick
1002
}
  0
LINE
  5
392
330
1F
100
AcDbEntity
  8
THICK
100
AcDbLine
 10
-76.37335968017578
 20
-15.38219356536865
 30
0.0
 11
-76.37859344482422
 21
-15.38240051269531
 31
0.0
1001
DBPROPERTIES
1002
{
1000
PbThick
1002
}
  0
LINE
  5
393
330
1F
100
AcDbEntity
  8
THICK
100
AcDbLine
 10
-76.37859344482422
 20
-15.38240051269531
 30
0.0
 11
-76.38383483886719
 21
-15.38261795043945
 31
0.0
1001
DBPROPERTIES
1002
{
1000
PbThick
1002
}
  0
LINE
  5
394
330
1F
100
AcDbEntity
  8
THICK
100
AcDbLine
 10
-76.38383483886719
 20
-15.38261795043945
 30
0.0
 11
-76.38908386230469
 21
-15.38284587860107
 31
0.0
1001
DBPROPERTIES
1002
{
1000
PbThick
1002
}
  0
LINE
  5
395
330
1F
100
AcDbEntity
  8
THICK
100
AcDbLine
 10
-76.38908386230469
 20
-15.38284587860107
 30
0.0
 11
-76.39432525634766
 21
-15.38308429718018
 31
0.0
1001
DBPROPERTIES
1002
{
1000
PbThick
1002
}
  0
LINE
  5
396
330
1F
100
AcDbEntity
  8
THICK
100
AcDbLine
 10
-76.25
 20
-15.38480472564697
 30
0.0
 11
-76.38961791992188
 21
-15.3965311050415
 31
0.0
1001
DBPROPERTIES
1002
{
1000
PbThick
1002
}
  0
LINE
  5
397
330
1F
100
AcDbEntity
  8
THICK
100
AcDbLine
 10
-76.38961791992188
 20
-15.3965311050415
 30
0.0
 11
-76.53193664550781
 21
-15.41854381561279
 31
0.0
1001
DBPROPERTIES
1002
{
1000
PbThick
1002
}
  0
LINE
  5
398
330
1F
100
AcDbEntity
  8
THICK
100
AcDbLine
 10
-76.53193664550781
 20
-15.41854381561279
 30
0.0
 11
-76.67547607421875
 21
-15.45120906829834
 31
0.0
1001
DBPROPERTIES
1002
{
1000
PbThick
1002
}
  0
LINE
  5
399
330
1F
100
AcDbEntity
  8
THICK
100
AcDbLine
 10
-76.67547607421875
 20
-15.45120906829834
 30
0.0
 11
-76.81876373291016
 21
-15.49445724487305
 31
0.0
1001
DBPROPERTIES
1002
{
1000
PbThick
1002
}
  0
LINE
  5
39A
330
1F
100
AcDbEntity
  8
THICK
100
AcDbLine
 10
-76.81876373291016
 20
-15.49445724487305
 30
0.0
 11
-76.96038818359375
 21
-15.54805088043213
 31
0.0
1001
DBPROPERTIES
1002
{
1000
PbThick
1002
}
  0
LINE
  5
39B
330
1F
100
AcDbEntity
  8
THICK
100
AcDbLine
 10
-76.96038818359375
 20
-15.54805088043213
 30
0.0
 11
-77.0990219116211
 21
-15.61125659942627
 31
0.0
1001
DBPROPERTIES
1002
{
1000
PbThick
1002
}
  0
LINE
  5
39C
330
1F
100
AcDbEntity
  8
THICK
100
AcDbLine
 10
-77.0990219116211
 20
-15.61125659942627
 30
0.0
 11
-77.23332214355469
 21
-15.68317794799805
 31
0.0
1001
DBPROPERTIES
1002
{
1000
PbThick
1002
}
  0
LINE
  5
39D
330
1F
100
AcDbEntity
  8
THICK
100
AcDbLine
 10
-77.23332214355469
 20
-15.68317794799805
 30
0.0
 11
-77.36205291748047
 21
-15.76247596740723
 31
0.0
1001
DBPROPERTIES
1002
{
1000
PbThick
1002
}
  0
LINE
  5
39E
330
1F
100
AcDbEntity
  8
THICK
100
AcDbLine
 10
-77.36205291748047
 20
-15.76247596740723
 30
0.0
 11
-77.4848403930664
 21
-15.84816551208496
 31
0.0
1001
DBPROPERTIES
1002
{
1000
PbThick
1002
}
  0
LINE
  5
39F
330
1F
100
AcDbEntity
  8
THICK
100
AcDbLine
 10
-77.4848403930664
 20
-15.84816551208496
 30
0.0
 11
-77.60724639892578
 21
-15.94408130645752
 31
0.0
1001
DBPROPERTIES
1002
{
1000
PbThick
1002
}
  0
LINE
  5
3A0
330
1F
100
AcDbEntity
  8
THICK
100
AcDbLine
 10
-77.60724639892578
 20
-15.94408130645752
 30
0.0
 11
-77.72931671142578
 21
-16.05093002319336
 31
0.0
1001
DBPROPERTIES
1002
{
1000
PbThick
1002
}
  0
LINE
  5
3A1
330
1F
100
AcDbEntity
  8
THICK
100
AcDbLine
 10
-77.72931671142578
 20
-16.05093002319336
 30
0.0
 11
-77.84952545166016
 21
-16.1681957244873
 31
0.0
1001
DBPROPERTIES
1002
{
1000
PbThick
1002
}
  0
LINE
  5
3A2
330
1F
100
AcDbEntity
  8
THICK
100
AcDbLine
 10
-77.84952545166016
 20
-16.1681957244873
 30
0.0
 11
-77.96654510498047
 21
-16.29494094848633
 31
0.0
1001
DBPROPERTIES
1002
{
1000
PbThick
1002
}
  0
LINE
  5
3A3
330
1F
100
AcDbEntity
  8
THICK
100
AcDbLine
 10
-77.96654510498047
 20
-16.29494094848633
 30
0.0
 11
-78.0791244506836
 21
-16.43011665344238
 31
0.0
1001
DBPROPERTIES
1002
{
1000
PbThick
1002
}
  0
LINE
  5
3A4
330
1F
100
AcDbEntity
  8
THICK
100
AcDbLine
 10
-78.0791244506836
 20
-16.43011665344238
 30
0.0
 11
-78.1862564086914
 21
-16.57234191894531
 31
0.0
1001
DBPROPERTIES
1002
{
1000
PbThick
1002
}
  0
LINE
  5
3A5
330
1F
100
AcDbEntity
  8
THICK
100
AcDbLine
 10
-78.1862564086914
 20
-16.57234191894531
 30
0.0
 11
-78.2869873046875
 21
-16.72000503540039
 31
0.0
1001
DBPROPERTIES
1002
{
1000
PbThick
1002
}
  0
LINE
  5
3A6
330
1F
100
AcDbEntity
  8
THICK
100
AcDbLine
 10
-78.2869873046875
 20
-16.72000503540039
 30
0.0
 11
-78.38054656982422
 21
-16.87125587463379
 31
0.0
1001
DBPROPERTIES
1002
{
1000
PbThick
1002
}
  0
LINE
  5
3A7
330
1F
100
AcDbEntity
  8
THICK
100
AcDbLine
 10
-78.38054656982422
 20
-16.87125587463379
 30
0.0
 11
-78.4664077758789
 21
-17.0240478515625
 31
0.0
1001
DBPROPERTIES
1002
{
1000
PbThick
1002
}
  0
LINE
  5
3A8
330
1F
100
AcDbEntity
  8
THICK
100
AcDbLine
 10
-78.4664077758789
 20
-17.0240478515625
 30
0.0
 11
-78.54779052734375
 21
-17.18376350402832
 31
0.0
1001
DBPROPERTIES
1002
{
1000
PbThick
1002
}
  0
LINE
  5
3A9
330
1F
100
AcDbEntity
  8
THICK
100
AcDbLine
 10
-78.54779052734375
 20
-17.18376350402832
 30
0.0
 11
-78.62596130371094
 21
-17.35367202758789
 31
0.0
1001
DBPROPERTIES
1002
{
1000
PbThick
1002
}
  0
LINE
  5
3AA
330
1F
100
AcDbEntity
  8
THICK
100
AcDbLine
 10
-78.62596130371094
 20
-17.35367202758789
 30
0.0
 11
-78.69953918457031
 21
-17.53216934204102
 31
0.0
1001
DBPROPERTIES
1002
{
1000
PbThick
1002
}
  0
LINE
  5
3AB
330
1F
100
AcDbEntity
  8
THICK
100
AcDbLine
 10
-78.69953918457031
 20
-17.53216934204102
 30
0.0
 11
-78.76744842529297
 21
-17.71736335754395
 31
0.0
1001
DBPROPERTIES
1002
{
1000
PbThick
1002
}
  0
LINE
  5
3AC
330
1F
100
AcDbEntity
  8
THICK
100
AcDbLine
 10
-78.76744842529297
 20
-17.71736335754395
 30
0.0
 11
-78.82880401611328
 21
-17.90727615356445
 31
0.0
1001
DBPROPERTIES
1002
{
1000
PbThick
1002
}
  0
LINE
  5
3AD
330
1F
100
AcDbEntity
  8
THICK
100
AcDbLine
 10
-78.82880401611328
 20
-17.90727615356445
 30
0.0
 11
-78.8830337524414
 21
-18.09976577758789
 31
0.0
1001
DBPROPERTIES
1002
{
1000
PbThick
1002
}
  0
LINE
  5
3AE
330
1F
100
AcDbEntity
  8
THICK
100
AcDbLine
 10
-78.8830337524414
 20
-18.09976577758789
 30
0.0
 11
-78.92977905273438
 21
-18.2924861907959
 31
0.0
1001
DBPROPERTIES
1002
{
1000
PbThick
1002
}
  0
LINE
  5
3AF
330
1F
100
AcDbEntity
  8
THICK
100
AcDbLine
 10
-78.92977905273438
 20
-18.2924861907959
 30
0.0
 11
-78.9689712524414
 21
-18.48297500610352
 31
0.0
1001
DBPROPERTIES
1002
{
1000
PbThick
1002
}
  0
LINE
  5
3B0
330
1F
100
AcDbEntity
  8
THICK
100
AcDbLine
 10
-78.9689712524414
 20
-18.48297500610352
 30
0.0
 11
-79.0014419555664
 21
-18.67279434204102
 31
0.0
1001
DBPROPERTIES
1002
{
1000
PbThick
1002
}
  0
LINE
  5
3B1
330
1F
100
AcDbEntity
  8
THICK
100
AcDbLine
 10
-79.0014419555664
 20
-18.67279434204102
 30
0.0
 11
-79.02937316894531
 21
-18.87650871276855
 31
0.0
1001
DBPROPERTIES
1002
{
1000
PbThick
1002
}
  0
LINE
  5
3B2
330
1F
100
AcDbEntity
  8
THICK
100
AcDbLine
 10
-79.02937316894531
 20
-18.87650871276855
 30
0.0
 11
-79.05072784423828
 21
-19.08033561706543
 31
0.0
1001
DBPROPERTIES
1002
{
1000
PbThick
1002
}
  0
LINE
  5
3B3
330
1F
100
AcDbEntity
  8
THICK
100
AcDbLine
 10
-79.05072784423828
 20
-19.08033561706543
 30
0.0
 11
-79.06670379638672
 21
-19.28008270263672
 31
0.0
1001
DBPROPERTIES
1002
{
1000
PbThick
1002
}
  0
LINE
  5
3B4
330
1F
100
AcDbEntity
  8
THICK
100
AcDbLine
 10
-79.06670379638672
 20
-19.28008270263672
 30
0.0
 11
-79.08671569824219
 21
-19.28733825683594
 31
0.0
1001
DBPROPERTIES
1002
{
1000
PbThick
1002
}
  0
LINE
  5
3B5
330
1F
100
AcDbEntity
  8
THICK
100
AcDbLine
 10
-79.08671569824219
 20
-19.28733825683594
 30
0.0
 11
-79.08605194091797
 21
-19.08719825744629
 31
0.0
1001
DBPROPERTIES
1002
{
1000
PbThick
1002
}
  0
LINE
  5
3B6
330
1F
100
AcDbEntity
  8
THICK
100
AcDbLine
 10
-79.08605194091797
 20
-19.08719825744629
 30
0.0
 11
-79.07563781738281
 21
-18.88356781005859
 31
0.0
1001
DBPROPERTIES
1002
{
1000
PbThick
1002
}
  0
LINE
  5
3B7
330
1F
100
AcDbEntity
  8
THICK
100
AcDbLine
 10
-79.07563781738281
 20
-18.88356781005859
 30
0.0
 11
-79.05670928955078
 21
-18.67939949035645
 31
0.0
1001
DBPROPERTIES
1002
{
1000
PbThick
1002
}
  0
LINE
  5
3B8
330
1F
100
AcDbEntity
  8
THICK
100
AcDbLine
 10
-79.05670928955078
 20
-18.67939949035645
 30
0.0
 11
-79.03160858154297
 21
-18.48912048339844
 31
0.0
1001
DBPROPERTIES
1002
{
1000
PbThick
1002
}
  0
LINE
  5
3B9
330
1F
100
AcDbEntity
  8
THICK
100
AcDbLine
 10
-79.03160858154297
 20
-18.48912048339844
 30
0.0
 11
-78.99923706054688
 21
-18.29867362976074
 31
0.0
1001
DBPROPERTIES
1002
{
1000
PbThick
1002
}
  0
LINE
  5
3BA
330
1F
100
AcDbEntity
  8
THICK
100
AcDbLine
 10
-78.99923706054688
 20
-18.29867362976074
 30
0.0
 11
-78.95890808105469
 21
-18.10590362548828
 31
0.0
1001
DBPROPERTIES
1002
{
1000
PbThick
1002
}
  0
LINE
  5
3BB
330
1F
100
AcDbEntity
  8
THICK
100
AcDbLine
 10
-78.95890808105469
 20
-18.10590362548828
 30
0.0
 11
-78.91071319580078
 21
-17.91328048706055
 31
0.0
1001
DBPROPERTIES
1002
{
1000
PbThick
1002
}
  0
LINE
  5
3BC
330
1F
100
AcDbEntity
  8
THICK
100
AcDbLine
 10
-78.91071319580078
 20
-17.91328048706055
 30
0.0
 11
-78.85499572753906
 21
-17.72315406799316
 31
0.0
1001
DBPROPERTIES
1002
{
1000
PbThick
1002
}
  0
LINE
  5
3BD
330
1F
100
AcDbEntity
  8
THICK
100
AcDbLine
 10
-78.85499572753906
 20
-17.72315406799316
 30
0.0
 11
-78.7923355102539
 21
-17.53767776489258
 31
0.0
1001
DBPROPERTIES
1002
{
1000
PbThick
1002
}
  0
LINE
  5
3BE
330
1F
100
AcDbEntity
  8
THICK
100
AcDbLine
 10
-78.7923355102539
 20
-17.53767776489258
 30
0.0
 11
-78.7236099243164
 21
-17.35882949829102
 31
0.0
1001
DBPROPERTIES
1002
{
1000
PbThick
1002
}
  0
LINE
  5
3BF
330
1F
100
AcDbEntity
  8
THICK
100
AcDbLine
 10
-78.7236099243164
 20
-17.35882949829102
 30
0.0
 11
-78.6498794555664
 21
-17.18851089477539
 31
0.0
1001
DBPROPERTIES
1002
{
1000
PbThick
1002
}
  0
LINE
  5
3C0
330
1F
100
AcDbEntity
  8
THICK
100
AcDbLine
 10
-78.6498794555664
 20
-17.18851089477539
 30
0.0
 11
-78.57252502441406
 21
-17.0283317565918
 31
0.0
1001
DBPROPERTIES
1002
{
1000
PbThick
1002
}
  0
LINE
  5
3C1
330
1F
100
AcDbEntity
  8
THICK
100
AcDbLine
 10
-78.57252502441406
 20
-17.0283317565918
 30
0.0
 11
-78.49059295654297
 21
-16.87541389465332
 31
0.0
1001
DBPROPERTIES
1002
{
1000
PbThick
1002
}
  0
LINE
  5
3C2
330
1F
100
AcDbEntity
  8
THICK
100
AcDbLine
 10
-78.49059295654297
 20
-16.87541389465332
 30
0.0
 11
-78.4008560180664
 21
-16.72402000427246
 31
0.0
1001
DBPROPERTIES
1002
{
1000
PbThick
1002
}
  0
LINE
  5
3C3
330
1F
100
AcDbEntity
  8
THICK
100
AcDbLine
 10
-78.4008560180664
 20
-16.72402000427246
 30
0.0
 11
-78.30377197265625
 21
-16.57613945007324
 31
0.0
1001
DBPROPERTIES
1002
{
1000
PbThick
1002
}
  0
LINE
  5
3C4
330
1F
100
AcDbEntity
  8
THICK
100
AcDbLine
 10
-78.30377197265625
 20
-16.57613945007324
 30
0.0
 11
-78.20008087158203
 21
-16.43363571166992
 31
0.0
1001
DBPROPERTIES
1002
{
1000
PbThick
1002
}
  0
LINE
  5
3C5
330
1F
100
AcDbEntity
  8
THICK
100
AcDbLine
 10
-78.20008087158203
 20
-16.43363571166992
 30
0.0
 11
-78.0906982421875
 21
-16.29812622070312
 31
0.0
1001
DBPROPERTIES
1002
{
1000
PbThick
1002
}
  0
LINE
  5
3C6
330
1F
100
AcDbEntity
  8
THICK
100
AcDbLine
 10
-78.0906982421875
 20
-16.29812622070312
 30
0.0
 11
-77.97660064697266
 21
-16.17101097106934
 31
0.0
1001
DBPROPERTIES
1002
{
1000
PbThick
1002
}
  0
LINE
  5
3C7
330
1F
100
AcDbEntity
  8
THICK
100
AcDbLine
 10
-77.97660064697266
 20
-16.17101097106934
 30
0.0
 11
-77.85903930664062
 21
-16.05333518981934
 31
0.0
1001
DBPROPERTIES
1002
{
1000
PbThick
1002
}
  0
LINE
  5
3C8
330
1F
100
AcDbEntity
  8
THICK
100
AcDbLine
 10
-77.85903930664062
 20
-16.05333518981934
 30
0.0
 11
-77.73930358886719
 21
-15.94605541229248
 31
0.0
1001
DBPROPERTIES
1002
{
1000
PbThick
1002
}
  0
LINE
  5
3C9
330
1F
100
AcDbEntity
  8
THICK
100
AcDbLine
 10
-77.73930358886719
 20
-15.94605541229248
 30
0.0
 11
-77.6189193725586
 21
-15.84969615936279
 31
0.0
1001
DBPROPERTIES
1002
{
1000
PbThick
1002
}
  0
LINE
  5
3CA
330
1F
100
AcDbEntity
  8
THICK
100
AcDbLine
 10
-77.6189193725586
 20
-15.84969615936279
 30
0.0
 11
-77.4980697631836
 21
-15.76368427276611
 31
0.0
1001
DBPROPERTIES
1002
{
1000
PbThick
1002
}
  0
LINE
  5
3CB
330
1F
100
AcDbEntity
  8
THICK
100
AcDbLine
 10
-77.4980697631836
 20
-15.76368427276611
 30
0.0
 11
-77.37123107910156
 21
-15.68411827087402
 31
0.0
1001
DBPROPERTIES
1002
{
1000
PbThick
1002
}
  0
LINE
  5
3CC
330
1F
100
AcDbEntity
  8
THICK
100
AcDbLine
 10
-77.37123107910156
 20
-15.68411827087402
 30
0.0
 11
-77.23861694335938
 21
-15.61187362670898
 31
0.0
1001
DBPROPERTIES
1002
{
1000
PbThick
1002
}
  0
LINE
  5
3CD
330
1F
100
AcDbEntity
  8
THICK
100
AcDbLine
 10
-77.23861694335938
 20
-15.61187362670898
 30
0.0
 11
-77.10142517089844
 21
-15.54830741882324
 31
0.0
1001
DBPROPERTIES
1002
{
1000
PbThick
1002
}
  0
LINE
  5
3CE
330
1F
100
AcDbEntity
  8
THICK
100
AcDbLine
 10
-77.10142517089844
 20
-15.54830741882324
 30
0.0
 11
-76.96099853515625
 21
-15.49432468414307
 31
0.0
1001
DBPROPERTIES
1002
{
1000
PbThick
1002
}
  0
LINE
  5
3CF
330
1F
100
AcDbEntity
  8
THICK
100
AcDbLine
 10
-76.96099853515625
 20
-15.49432468414307
 30
0.0
 11
-76.81864166259766
 21
-15.4506721496582
 31
0.0
1001
DBPROPERTIES
1002
{
1000
PbThick
1002
}
  0
LINE
  5
3D0
330
1F
100
AcDbEntity
  8
THICK
100
AcDbLine
 10
-76.81864166259766
 20
-15.4506721496582
 30
0.0
 11
-76.6757583618164
 21
-15.41760063171387
 31
0.0
1001
DBPROPERTIES
1002
{
1000
PbThick
1002
}
  0
LINE
  5
3D1
330
1F
100
AcDbEntity
  8
THICK
100
AcDbLine
 10
-76.6757583618164
 20
-15.41760063171387
 30
0.0
 11
-76.53382110595703
 21
-15.39518737792969
 31
0.0
1001
DBPROPERTIES
1002
{
1000
PbThick
1002
}
  0
LINE
  5
3D2
330
1F
100
AcDbEntity
  8
THICK
100
AcDbLine
 10
-76.53382110595703
 20
-15.39518737792969
 30
0.0
 11
-76.39432525634766
 21
-15.38308429718018
 31
0.0
1001
DBPROPERTIES
1002
{
1000
PbThick
1002
}
  0
ELLIPSE
  5
3D3
330
1F
100
AcDbEntity
  8
HIDDEN
100
AcDbEllipse
 10
-76.39213562373094
 20
-19.38
 30
0.0
 11
-2.449212707644755E-16
 21
-4.0
 31
0.0
210
0.0
220
0.0
230
1.0
 40
0.7071067811865475
 41
3.140076183813686
 42
3.141592653589793
1001
DBPROPERTIES
1002
{
1000
PbHidd
1002
}
  0
LINE
  5
3D4
330
1F
100
AcDbEntity
  8
THICK
100
AcDbLine
 10
-76.37158966064453
 20
-15.38001728057861
 30
0.0
 11
-76.39213562011719
 21
-15.38000011444092
 31
0.0
1001
DBPROPERTIES
1002
{
1000
PbThick
1002
}
  0
LINE
  5
3D5
330
1F
100
AcDbEntity
  8
THICK
100
AcDbLine
 10
-76.37158966064453
 20
-15.38001728057861
 30
0.0
 11
-76.37224578857422
 21
-15.38001537322998
 31
0.0
1001
DBPROPERTIES
1002
{
1000
PbThick
1002
}
  0
LINE
  5
3D6
330
1F
100
AcDbEntity
  8
THICK
100
AcDbLine
 10
-76.37224578857422
 20
-15.38001537322998
 30
0.0
 11
-76.3729248046875
 21
-15.38001441955566
 31
0.0
1001
DBPROPERTIES
1002
{
1000
PbThick
1002
}
  0
LINE
  5
3D7
330
1F
100
AcDbEntity
  8
THICK
100
AcDbLine
 10
-76.3729248046875
 20
-15.38001441955566
 30
0.0
 11
-76.3736343383789
 21
-15.38001251220703
 31
0.0
1001
DBPROPERTIES
1002
{
1000
PbThick
1002
}
  0
LINE
  5
3D8
330
1F
100
AcDbEntity
  8
THICK
100
AcDbLine
 10
-76.3736343383789
 20
-15.38001251220703
 30
0.0
 11
-76.37437438964844
 21
-15.38001155853271
 31
0.0
1001
DBPROPERTIES
1002
{
1000
PbThick
1002
}
  0
LINE
  5
3D9
330
1F
100
AcDbEntity
  8
THICK
100
AcDbLine
 10
-76.37437438964844
 20
-15.38001155853271
 30
0.0
 11
-76.37515258789062
 21
-15.3800106048584
 31
0.0
1001
DBPROPERTIES
1002
{
1000
PbThick
1002
}
  0
LINE
  5
3DA
330
1F
100
AcDbEntity
  8
THICK
100
AcDbLine
 10
-76.37515258789062
 20
-15.3800106048584
 30
0.0
 11
-76.3759536743164
 21
-15.38000965118408
 31
0.0
1001
DBPROPERTIES
1002
{
1000
PbThick
1002
}
  0
LINE
  5
3DB
330
1F
100
AcDbEntity
  8
HIDDEN
100
AcDbLine
 10
-73.42156982421875
 20
-19.3805046081543
 30
0.0
 11
-73.40960693359375
 21
-19.19827270507812
 31
0.0
1001
DBPROPERTIES
1002
{
1000
PbHidd
1002
}
  0
LINE
  5
3DC
330
1F
100
AcDbEntity
  8
HIDDEN
100
AcDbLine
 10
-73.40960693359375
 20
-19.19827270507812
 30
0.0
 11
-73.41136932373047
 21
-19.01821327209473
 31
0.0
1001
DBPROPERTIES
1002
{
1000
PbHidd
1002
}
  0
LINE
  5
3DD
330
1F
100
AcDbEntity
  8
HIDDEN
100
AcDbLine
 10
-73.41136932373047
 20
-19.01821327209473
 30
0.0
 11
-73.42074584960938
 21
-18.83013343811035
 31
0.0
1001
DBPROPERTIES
1002
{
1000
PbHidd
1002
}
  0
LINE
  5
3DE
330
1F
100
AcDbEntity
  8
HIDDEN
100
AcDbLine
 10
-73.42074584960938
 20
-18.83013343811035
 30
0.0
 11
-73.43688201904297
 21
-18.64554023742676
 31
0.0
1001
DBPROPERTIES
1002
{
1000
PbHidd
1002
}
  0
LINE
  5
3DF
330
1F
100
AcDbEntity
  8
HIDDEN
100
AcDbLine
 10
-73.43688201904297
 20
-18.64554023742676
 30
0.0
 11
-73.45809173583984
 21
-18.47294807434082
 31
0.0
1001
DBPROPERTIES
1002
{
1000
PbHidd
1002
}
  0
LINE
  5
3E0
330
1F
100
AcDbEntity
  8
HIDDEN
100
AcDbLine
 10
-73.45809173583984
 20
-18.47294807434082
 30
0.0
 11
-73.48555755615234
 21
-18.29872512817383
 31
0.0
1001
DBPROPERTIES
1002
{
1000
PbHidd
1002
}
  0
LINE
  5
3E1
330
1F
100
AcDbEntity
  8
HIDDEN
100
AcDbLine
 10
-73.48555755615234
 20
-18.29872512817383
 30
0.0
 11
-73.5196533203125
 21
-18.1225700378418
 31
0.0
1001
DBPROPERTIES
1002
{
1000
PbHidd
1002
}
  0
LINE
  5
3E2
330
1F
100
AcDbEntity
  8
HIDDEN
100
AcDbLine
 10
-73.5196533203125
 20
-18.1225700378418
 30
0.0
 11
-73.56034088134766
 21
-17.94637107849121
 31
0.0
1001
DBPROPERTIES
1002
{
1000
PbHidd
1002
}
  0
LINE
  5
3E3
330
1F
100
AcDbEntity
  8
HIDDEN
100
AcDbLine
 10
-73.56034088134766
 20
-17.94637107849121
 30
0.0
 11
-73.60740661621094
 21
-17.77193641662598
 31
0.0
1001
DBPROPERTIES
1002
{
1000
PbHidd
1002
}
  0
LINE
  5
3E4
330
1F
100
AcDbEntity
  8
HIDDEN
100
AcDbLine
 10
-73.60740661621094
 20
-17.77193641662598
 30
0.0
 11
-73.66047668457031
 21
-17.60095596313477
 31
0.0
1001
DBPROPERTIES
1002
{
1000
PbHidd
1002
}
  0
LINE
  5
3E5
330
1F
100
AcDbEntity
  8
HIDDEN
100
AcDbLine
 10
-73.66047668457031
 20
-17.60095596313477
 30
0.0
 11
-73.71894836425781
 21
-17.43495750427246
 31
0.0
1001
DBPROPERTIES
1002
{
1000
PbHidd
1002
}
  0
LINE
  5
3E6
330
1F
100
AcDbEntity
  8
HIDDEN
100
AcDbLine
 10
-73.71894836425781
 20
-17.43495750427246
 30
0.0
 11
-73.78211212158203
 21
-17.27543640136719
 31
0.0
1001
DBPROPERTIES
1002
{
1000
PbHidd
1002
}
  0
LINE
  5
3E7
330
1F
100
AcDbEntity
  8
HIDDEN
100
AcDbLine
 10
-73.78211212158203
 20
-17.27543640136719
 30
0.0
 11
-73.84902954101562
 21
-17.12372779846191
 31
0.0
1001
DBPROPERTIES
1002
{
1000
PbHidd
1002
}
  0
LINE
  5
3E8
330
1F
100
AcDbEntity
  8
HIDDEN
100
AcDbLine
 10
-73.84902954101562
 20
-17.12372779846191
 30
0.0
 11
-73.91870880126953
 21
-16.98083686828613
 31
0.0
1001
DBPROPERTIES
1002
{
1000
PbHidd
1002
}
  0
LINE
  5
3E9
330
1F
100
AcDbEntity
  8
HIDDEN
100
AcDbLine
 10
-73.91870880126953
 20
-16.98083686828613
 30
0.0
 11
-73.99362182617188
 21
-16.84132766723633
 31
0.0
1001
DBPROPERTIES
1002
{
1000
PbHidd
1002
}
  0
LINE
  5
3EA
330
1F
100
AcDbEntity
  8
HIDDEN
100
AcDbLine
 10
-73.99362182617188
 20
-16.84132766723633
 30
0.0
 11
-74.07503509521484
 21
-16.70339775085449
 31
0.0
1001
DBPROPERTIES
1002
{
1000
PbHidd
1002
}
  0
LINE
  5
3EB
330
1F
100
AcDbEntity
  8
HIDDEN
100
AcDbLine
 10
-74.07503509521484
 20
-16.70339775085449
 30
0.0
 11
-74.16255950927734
 21
-16.56866073608398
 31
0.0
1001
DBPROPERTIES
1002
{
1000
PbHidd
1002
}
  0
LINE
  5
3EC
330
1F
100
AcDbEntity
  8
HIDDEN
100
AcDbLine
 10
-74.16255950927734
 20
-16.56866073608398
 30
0.0
 11
-74.2556381225586
 21
-16.43850708007812
 31
0.0
1001
DBPROPERTIES
1002
{
1000
PbHidd
1002
}
  0
LINE
  5
3ED
330
1F
100
AcDbEntity
  8
HIDDEN
100
AcDbLine
 10
-74.2556381225586
 20
-16.43850708007812
 30
0.0
 11
-74.35357666015625
 21
-16.31416893005371
 31
0.0
1001
DBPROPERTIES
1002
{
1000
PbHidd
1002
}
  0
LINE
  5
3EE
330
1F
100
AcDbEntity
  8
HIDDEN
100
AcDbLine
 10
-74.35357666015625
 20
-16.31416893005371
 30
0.0
 11
-74.45565032958984
 21
-16.19674301147461
 31
0.0
1001
DBPROPERTIES
1002
{
1000
PbHidd
1002
}
  0
LINE
  5
3EF
330
1F
100
AcDbEntity
  8
HIDDEN
100
AcDbLine
 10
-74.45565032958984
 20
-16.19674301147461
 30
0.0
 11
-74.56095123291016
 21
-16.08704376220703
 31
0.0
1001
DBPROPERTIES
1002
{
1000
PbHidd
1002
}
  0
LINE
  5
3F0
330
1F
100
AcDbEntity
  8
HIDDEN
100
AcDbLine
 10
-74.56095123291016
 20
-16.08704376220703
 30
0.0
 11
-74.66850280761719
 21
-15.98583602905273
 31
0.0
1001
DBPROPERTIES
1002
{
1000
PbHidd
1002
}
  0
LINE
  5
3F1
330
1F
100
AcDbEntity
  8
HIDDEN
100
AcDbLine
 10
-74.66850280761719
 20
-15.98583602905273
 30
0.0
 11
-74.77720642089844
 21
-15.89363479614258
 31
0.0
1001
DBPROPERTIES
1002
{
1000
PbHidd
1002
}
  0
LINE
  5
3F2
330
1F
100
AcDbEntity
  8
HIDDEN
100
AcDbLine
 10
-74.77720642089844
 20
-15.89363479614258
 30
0.0
 11
-74.8858642578125
 21
-15.81073474884033
 31
0.0
1001
DBPROPERTIES
1002
{
1000
PbHidd
1002
}
  0
LINE
  5
3F3
330
1F
100
AcDbEntity
  8
HIDDEN
100
AcDbLine
 10
-74.8858642578125
 20
-15.81073474884033
 30
0.0
 11
-74.99722290039062
 21
-15.73477172851562
 31
0.0
1001
DBPROPERTIES
1002
{
1000
PbHidd
1002
}
  0
LINE
  5
3F4
330
1F
100
AcDbEntity
  8
HIDDEN
100
AcDbLine
 10
-74.99722290039062
 20
-15.73477172851562
 30
0.0
 11
-75.11408996582031
 21
-15.66411113739014
 31
0.0
1001
DBPROPERTIES
1002
{
1000
PbHidd
1002
}
  0
LINE
  5
3F5
330
1F
100
AcDbEntity
  8
HIDDEN
100
AcDbLine
 10
-75.11408996582031
 20
-15.66411113739014
 30
0.0
 11
-75.23558807373047
 21
-15.59994602203369
 31
0.0
1001
DBPROPERTIES
1002
{
1000
PbHidd
1002
}
  0
LINE
  5
3F6
330
1F
100
AcDbEntity
  8
HIDDEN
100
AcDbLine
 10
-75.23558807373047
 20
-15.59994602203369
 30
0.0
 11
-75.36079406738281
 21
-15.54321384429932
 31
0.0
1001
DBPROPERTIES
1002
{
1000
PbHidd
1002
}
  0
LINE
  5
3F7
330
1F
100
AcDbEntity
  8
HIDDEN
100
AcDbLine
 10
-75.36079406738281
 20
-15.54321384429932
 30
0.0
 11
-75.48869323730469
 21
-15.49457550048828
 31
0.0
1001
DBPROPERTIES
1002
{
1000
PbHidd
1002
}
  0
LINE
  5
3F8
330
1F
100
AcDbEntity
  8
HIDDEN
100
AcDbLine
 10
-75.48869323730469
 20
-15.49457550048828
 30
0.0
 11
-75.6182861328125
 21
-15.4545955657959
 31
0.0
1001
DBPROPERTIES
1002
{
1000
PbHidd
1002
}
  0
LINE
  5
3F9
330
1F
100
AcDbEntity
  8
HIDDEN
100
AcDbLine
 10
-75.6182861328125
 20
-15.4545955657959
 30
0.0
 11
-75.7485122680664
 21
-15.42345523834229
 31
0.0
1001
DBPROPERTIES
1002
{
1000
PbHidd
1002
}
  0
LINE
  5
3FA
330
1F
100
AcDbEntity
  8
HIDDEN
100
AcDbLine
 10
-75.7485122680664
 20
-15.42345523834229
 30
0.0
 11
-75.87824249267578
 21
-15.40122509002686
 31
0.0
1001
DBPROPERTIES
1002
{
1000
PbHidd
1002
}
  0
LINE
  5
3FB
330
1F
100
AcDbEntity
  8
HIDDEN
100
AcDbLine
 10
-75.87824249267578
 20
-15.40122509002686
 30
0.0
 11
-76.00633239746094
 21
-15.38773918151855
 31
0.0
1001
DBPROPERTIES
1002
{
1000
PbHidd
1002
}
  0
LINE
  5
3FC
330
1F
100
AcDbEntity
  8
HIDDEN
100
AcDbLine
 10
-76.00633239746094
 20
-15.38773918151855
 30
0.0
 11
-76.02437591552734
 21
-15.38650131225586
 31
0.0
1001
DBPROPERTIES
1002
{
1000
PbHidd
1002
}
  0
LINE
  5
3FD
330
1F
100
AcDbEntity
  8
HIDDEN
100
AcDbLine
 10
-76.02437591552734
 20
-15.38650131225586
 30
0.0
 11
-76.0423583984375
 21
-15.38543033599854
 31
0.0
1001
DBPROPERTIES
1002
{
1000
PbHidd
1002
}
  0
LINE
  5
3FE
330
1F
100
AcDbEntity
  8
HIDDEN
100
AcDbLine
 10
-76.0423583984375
 20
-15.38543033599854
 30
0.0
 11
-76.06027221679688
 21
-15.38452339172363
 31
0.0
1001
DBPROPERTIES
1002
{
1000
PbHidd
1002
}
  0
LINE
  5
3FF
330
1F
100
AcDbEntity
  8
HIDDEN
100
AcDbLine
 10
-76.06027221679688
 20
-15.38452339172363
 30
0.0
 11
-76.078125
 21
-15.38378047943115
 31
0.0
1001
DBPROPERTIES
1002
{
1000
PbHidd
1002
}
  0
LINE
  5
400
330
1F
100
AcDbEntity
  8
HIDDEN
100
AcDbLine
 10
-76.078125
 20
-15.38378047943115
 30
0.0
 11
-76.09590148925781
 21
-15.38319778442383
 31
0.0
1001
DBPROPERTIES
1002
{
1000
PbHidd
1002
}
  0
LINE
  5
401
330
1F
100
AcDbEntity
  8
HIDDEN
100
AcDbLine
 10
-76.09590148925781
 20
-15.38319778442383
 30
0.0
 11
-76.11360931396484
 21
-15.38277626037598
 31
0.0
1001
DBPROPERTIES
1002
{
1000
PbHidd
1002
}
  0
LINE
  5
402
330
1F
100
AcDbEntity
  8
THICK
100
AcDbLine
 10
-76.11360931396484
 20
-15.38277626037598
 30
0.0
 11
-76.12002563476562
 21
-15.38266181945801
 31
0.0
1001
DBPROPERTIES
1002
{
1000
PbThick
1002
}
  0
LINE
  5
403
330
1F
100
AcDbEntity
  8
THICK
100
AcDbLine
 10
-76.12002563476562
 20
-15.38266181945801
 30
0.0
 11
-76.12643432617188
 21
-15.382568359375
 31
0.0
1001
DBPROPERTIES
1002
{
1000
PbThick
1002
}
  0
LINE
  5
404
330
1F
100
AcDbEntity
  8
THICK
100
AcDbLine
 10
-76.12643432617188
 20
-15.382568359375
 30
0.0
 11
-76.1328353881836
 21
-15.38249683380127
 31
0.0
1001
DBPROPERTIES
1002
{
1000
PbThick
1002
}
  0
LINE
  5
405
330
1F
100
AcDbEntity
  8
THICK
100
AcDbLine
 10
-76.1328353881836
 20
-15.38249683380127
 30
0.0
 11
-76.13922119140625
 21
-15.38244438171387
 31
0.0
1001
DBPROPERTIES
1002
{
1000
PbThick
1002
}
  0
LINE
  5
406
330
1F
100
AcDbEntity
  8
THICK
100
AcDbLine
 10
-76.13922119140625
 20
-15.38244438171387
 30
0.0
 11
-76.14559936523438
 21
-15.38241386413574
 31
0.0
1001
DBPROPERTIES
1002
{
1000
PbThick
1002
}
  0
LINE
  5
407
330
1F
100
AcDbEntity
  8
THICK
100
AcDbLine
 10
-76.14559936523438
 20
-15.38241386413574
 30
0.0
 11
-76.15196228027344
 21
-15.38240337371826
 31
0.0
1001
DBPROPERTIES
1002
{
1000
PbThick
1002
}
  0
LINE
  5
408
330
1F
100
AcDbEntity
  8
THICK
100
AcDbLine
 10
-59.42157287525379
 20
-39.38
 30
0.0
 11
-58.25000000317597
 21
-39.38
 31
0.0
1001
DBPROPERTIES
1002
{
1000
PbThick
1002
}
  0
LINE
  5
409
330
1F
100
AcDbEntity
  8
HIDDEN
100
AcDbLine
 10
-58.24999999999999
 20
-39.38
 30
0.0
 11
-59.4215728752538
 21
-39.38
 31
0.0
1001
DBPROPERTIES
1002
{
1000
PbHidd
1002
}
  0
LINE
  5
40A
330
1F
100
AcDbEntity
  8
HIDDEN
100
AcDbLine
 10
-59.4215728752538
 20
-39.38
 30
0.0
 11
-62.24999999999999
 21
-39.38
 31
0.0
1001
DBPROPERTIES
1002
{
1000
PbHidd
1002
}
  0
ELLIPSE
  5
40B
330
1F
100
AcDbEntity
  8
HIDDEN
100
AcDbEllipse
 10
-76.39213562373094
 20
-19.38
 30
0.0
 11
-2.449212707644755E-16
 21
-4.0
 31
0.0
210
0.0
220
0.0
230
1.0
 40
0.7071067811865475
 41
0.0
 42
0.0015164697773285
1001
DBPROPERTIES
1002
{
1000
PbHidd
1002
}
  0
LINE
  5
40C
330
1F
100
AcDbEntity
  8
HIDDEN
100
AcDbLine
 10
-76.38784790039062
 20
-23.37999534606934
 30
0.0
 11
-76.38482666015625
 21
-23.37999534606934
 31
0.0
1001
DBPROPERTIES
1002
{
1000
PbHidd
1002
}
  0
LINE
  5
40D
330
1F
100
AcDbEntity
  8
HIDDEN
100
AcDbLine
 10
-76.38482666015625
 20
-23.37999534606934
 30
0.0
 11
-76.381591796875
 21
-23.37999725341797
 31
0.0
1001
DBPROPERTIES
1002
{
1000
PbHidd
1002
}
  0
LINE
  5
40E
330
1F
100
AcDbEntity
  8
HIDDEN
100
AcDbLine
 10
-76.381591796875
 20
-23.37999725341797
 30
0.0
 11
-76.37812805175781
 21
-23.37999725341797
 31
0.0
1001
DBPROPERTIES
1002
{
1000
PbHidd
1002
}
  0
LINE
  5
40F
330
1F
100
AcDbEntity
  8
HIDDEN
100
AcDbLine
 10
-76.37812805175781
 20
-23.37999725341797
 30
0.0
 11
-76.37445831298828
 21
-23.3799991607666
 31
0.0
1001
DBPROPERTIES
1002
{
1000
PbHidd
1002
}
  0
LINE
  5
410
330
1F
100
AcDbEntity
  8
HIDDEN
100
AcDbLine
 10
-76.37445831298828
 20
-23.3799991607666
 30
0.0
 11
-76.37064361572266
 21
-23.3799991607666
 31
0.0
1001
DBPROPERTIES
1002
{
1000
PbHidd
1002
}
  0
LINE
  5
411
330
1F
100
AcDbEntity
  8
HIDDEN
100
AcDbLine
 10
-76.37064361572266
 20
-23.3799991607666
 30
0.0
 11
-76.36672973632812
 21
-23.3799991607666
 31
0.0
1001
DBPROPERTIES
1002
{
1000
PbHidd
1002
}
  0
LINE
  5
412
330
1F
100
AcDbEntity
  8
HIDDEN
100
AcDbLine
 10
-76.36672973632812
 20
-23.3799991607666
 30
0.0
 11
-76.35287475585938
 21
-23.37999153137207
 31
0.0
1001
DBPROPERTIES
1002
{
1000
PbHidd
1002
}
  0
LINE
  5
413
330
1F
100
AcDbEntity
  8
HIDDEN
100
AcDbLine
 10
-76.35287475585938
 20
-23.37999153137207
 30
0.0
 11
-76.33844757080078
 21
-23.37996101379395
 31
0.0
1001
DBPROPERTIES
1002
{
1000
PbHidd
1002
}
  0
LINE
  5
414
330
1F
100
AcDbEntity
  8
HIDDEN
100
AcDbLine
 10
-76.33844757080078
 20
-23.37996101379395
 30
0.0
 11
-76.32394409179688
 21
-23.3798999786377
 31
0.0
1001
DBPROPERTIES
1002
{
1000
PbHidd
1002
}
  0
LINE
  5
415
330
1F
100
AcDbEntity
  8
HIDDEN
100
AcDbLine
 10
-76.32394409179688
 20
-23.3798999786377
 30
0.0
 11
-76.30972290039062
 21
-23.37980079650879
 31
0.0
1001
DBPROPERTIES
1002
{
1000
PbHidd
1002
}
  0
LINE
  5
416
330
1F
100
AcDbEntity
  8
HIDDEN
100
AcDbLine
 10
-76.30972290039062
 20
-23.37980079650879
 30
0.0
 11
-76.29509735107422
 21
-23.37965202331543
 31
0.0
1001
DBPROPERTIES
1002
{
1000
PbHidd
1002
}
  0
LINE
  5
417
330
1F
100
AcDbEntity
  8
HIDDEN
100
AcDbLine
 10
-76.29509735107422
 20
-23.37965202331543
 30
0.0
 11
-76.28011322021484
 21
-23.37945175170898
 31
0.0
1001
DBPROPERTIES
1002
{
1000
PbHidd
1002
}
  0
LINE
  5
418
330
1F
100
AcDbEntity
  8
HIDDEN
100
AcDbLine
 10
-76.28011322021484
 20
-23.37945175170898
 30
0.0
 11
-76.2649154663086
 21
-23.37919425964355
 31
0.0
1001
DBPROPERTIES
1002
{
1000
PbHidd
1002
}
  0
LINE
  5
419
330
1F
100
AcDbEntity
  8
HIDDEN
100
AcDbLine
 10
-76.2649154663086
 20
-23.37919425964355
 30
0.0
 11
-76.24967193603516
 21
-23.37888145446777
 31
0.0
1001
DBPROPERTIES
1002
{
1000
PbHidd
1002
}
  0
LINE
  5
41A
330
1F
100
AcDbEntity
  8
HIDDEN
100
AcDbLine
 10
-76.24967193603516
 20
-23.37888145446777
 30
0.0
 11
-76.2345199584961
 21
-23.37850761413574
 31
0.0
1001
DBPROPERTIES
1002
{
1000
PbHidd
1002
}
  0
LINE
  5
41B
330
1F
100
AcDbEntity
  8
HIDDEN
100
AcDbLine
 10
-76.2345199584961
 20
-23.37850761413574
 30
0.0
 11
-76.21928405761719
 21
-23.37806510925293
 31
0.0
1001
DBPROPERTIES
1002
{
1000
PbHidd
1002
}
  0
LINE
  5
41C
330
1F
100
AcDbEntity
  8
HIDDEN
100
AcDbLine
 10
-76.21928405761719
 20
-23.37806510925293
 30
0.0
 11
-76.2034912109375
 21
-23.37753868103027
 31
0.0
1001
DBPROPERTIES
1002
{
1000
PbHidd
1002
}
  0
LINE
  5
41D
330
1F
100
AcDbEntity
  8
HIDDEN
100
AcDbLine
 10
-76.2034912109375
 20
-23.37753868103027
 30
0.0
 11
-76.1871337890625
 21
-23.37691688537598
 31
0.0
1001
DBPROPERTIES
1002
{
1000
PbHidd
1002
}
  0
LINE
  5
41E
330
1F
100
AcDbEntity
  8
HIDDEN
100
AcDbLine
 10
-76.1871337890625
 20
-23.37691688537598
 30
0.0
 11
-76.17021942138672
 21
-23.37619018554688
 31
0.0
1001
DBPROPERTIES
1002
{
1000
PbHidd
1002
}
  0
LINE
  5
41F
330
1F
100
AcDbEntity
  8
HIDDEN
100
AcDbLine
 10
-76.17021942138672
 20
-23.37619018554688
 30
0.0
 11
-76.15276336669922
 21
-23.37534523010254
 31
0.0
1001
DBPROPERTIES
1002
{
1000
PbHidd
1002
}
  0
LINE
  5
420
330
1F
100
AcDbEntity
  8
HIDDEN
100
AcDbLine
 10
-76.15276336669922
 20
-23.37534523010254
 30
0.0
 11
-76.13477325439453
 21
-23.3743724822998
 31
0.0
1001
DBPROPERTIES
1002
{
1000
PbHidd
1002
}
  0
LINE
  5
421
330
1F
100
AcDbEntity
  8
HIDDEN
100
AcDbLine
 10
-76.13477325439453
 20
-23.3743724822998
 30
0.0
 11
-76.11626434326172
 21
-23.37326049804688
 31
0.0
1001
DBPROPERTIES
1002
{
1000
PbHidd
1002
}
  0
LINE
  5
422
330
1F
100
AcDbEntity
  8
HIDDEN
100
AcDbLine
 10
-76.11626434326172
 20
-23.37326049804688
 30
0.0
 11
-76.09722900390625
 21
-23.37199974060059
 31
0.0
1001
DBPROPERTIES
1002
{
1000
PbHidd
1002
}
  0
LINE
  5
423
330
1F
100
AcDbEntity
  8
HIDDEN
100
AcDbLine
 10
-76.09722900390625
 20
-23.37199974060059
 30
0.0
 11
-76.07769775390625
 21
-23.37057685852051
 31
0.0
1001
DBPROPERTIES
1002
{
1000
PbHidd
1002
}
  0
LINE
  5
424
330
1F
100
AcDbEntity
  8
HIDDEN
100
AcDbLine
 10
-76.07769775390625
 20
-23.37057685852051
 30
0.0
 11
-76.05766296386719
 21
-23.36898231506348
 31
0.0
1001
DBPROPERTIES
1002
{
1000
PbHidd
1002
}
  0
LINE
  5
425
330
1F
100
AcDbEntity
  8
HIDDEN
100
AcDbLine
 10
-76.05766296386719
 20
-23.36898231506348
 30
0.0
 11
-76.03713989257812
 21
-23.3672046661377
 31
0.0
1001
DBPROPERTIES
1002
{
1000
PbHidd
1002
}
  0
LINE
  5
426
330
1F
100
AcDbEntity
  8
HIDDEN
100
AcDbLine
 10
-76.03713989257812
 20
-23.3672046661377
 30
0.0
 11
-76.0161361694336
 21
-23.36523246765137
 31
0.0
1001
DBPROPERTIES
1002
{
1000
PbHidd
1002
}
  0
LINE
  5
427
330
1F
100
AcDbEntity
  8
HIDDEN
100
AcDbLine
 10
-76.0161361694336
 20
-23.36523246765137
 30
0.0
 11
-75.99465942382812
 21
-23.36305618286133
 31
0.0
1001
DBPROPERTIES
1002
{
1000
PbHidd
1002
}
  0
LINE
  5
428
330
1F
100
AcDbEntity
  8
HIDDEN
100
AcDbLine
 10
-75.99465942382812
 20
-23.36305618286133
 30
0.0
 11
-75.97272491455078
 21
-23.36066436767578
 31
0.0
1001
DBPROPERTIES
1002
{
1000
PbHidd
1002
}
  0
LINE
  5
429
330
1F
100
AcDbEntity
  8
HIDDEN
100
AcDbLine
 10
-75.97272491455078
 20
-23.36066436767578
 30
0.0
 11
-75.9503402709961
 21
-23.35804748535156
 31
0.0
1001
DBPROPERTIES
1002
{
1000
PbHidd
1002
}
  0
LINE
  5
42A
330
1F
100
AcDbEntity
  8
HIDDEN
100
AcDbLine
 10
-75.9503402709961
 20
-23.35804748535156
 30
0.0
 11
-75.9275131225586
 21
-23.35517501831055
 31
0.0
1001
DBPROPERTIES
1002
{
1000
PbHidd
1002
}
  0
LINE
  5
42B
330
1F
100
AcDbEntity
  8
HIDDEN
100
AcDbLine
 10
-75.9275131225586
 20
-23.35517501831055
 30
0.0
 11
-75.69641876220703
 21
-23.30389595031738
 31
0.0
1001
DBPROPERTIES
1002
{
1000
PbHidd
1002
}
  0
LINE
  5
42C
330
1F
100
AcDbEntity
  8
HIDDEN
100
AcDbLine
 10
-75.69641876220703
 20
-23.30389595031738
 30
0.0
 11
-75.4692153930664
 21
-23.22554206848145
 31
0.0
1001
DBPROPERTIES
1002
{
1000
PbHidd
1002
}
  0
LINE
  5
42D
330
1F
100
AcDbEntity
  8
HIDDEN
100
AcDbLine
 10
-75.4692153930664
 20
-23.22554206848145
 30
0.0
 11
-75.25341033935547
 21
-23.12462043762207
 31
0.0
1001
DBPROPERTIES
1002
{
1000
PbHidd
1002
}
  0
LINE
  5
42E
330
1F
100
AcDbEntity
  8
HIDDEN
100
AcDbLine
 10
-75.25341033935547
 20
-23.12462043762207
 30
0.0
 11
-75.05130004882812
 21
-23.00408363342285
 31
0.0
1001
DBPROPERTIES
1002
{
1000
PbHidd
1002
}
  0
LINE
  5
42F
330
1F
100
AcDbEntity
  8
HIDDEN
100
AcDbLine
 10
-75.05130004882812
 20
-23.00408363342285
 30
0.0
 11
-74.84821319580078
 21
-22.85513687133789
 31
0.0
1001
DBPROPERTIES
1002
{
1000
PbHidd
1002
}
  0
LINE
  5
430
330
1F
100
AcDbEntity
  8
HIDDEN
100
AcDbLine
 10
-74.84821319580078
 20
-22.85513687133789
 30
0.0
 11
-74.64962768554688
 21
-22.67933082580566
 31
0.0
1001
DBPROPERTIES
1002
{
1000
PbHidd
1002
}
  0
LINE
  5
431
330
1F
100
AcDbEntity
  8
HIDDEN
100
AcDbLine
 10
-74.64962768554688
 20
-22.67933082580566
 30
0.0
 11
-74.46296691894531
 21
-22.48131370544434
 31
0.0
1001
DBPROPERTIES
1002
{
1000
PbHidd
1002
}
  0
LINE
  5
432
330
1F
100
AcDbEntity
  8
HIDDEN
100
AcDbLine
 10
-74.46296691894531
 20
-22.48131370544434
 30
0.0
 11
-74.29366302490234
 21
-22.26997375488281
 31
0.0
1001
DBPROPERTIES
1002
{
1000
PbHidd
1002
}
  0
LINE
  5
433
330
1F
100
AcDbEntity
  8
HIDDEN
100
AcDbLine
 10
-74.29366302490234
 20
-22.26997375488281
 30
0.0
 11
-74.140869140625
 21
-22.04633712768555
 31
0.0
1001
DBPROPERTIES
1002
{
1000
PbHidd
1002
}
  0
LINE
  5
434
330
1F
100
AcDbEntity
  8
HIDDEN
100
AcDbLine
 10
-74.140869140625
 20
-22.04633712768555
 30
0.0
 11
-73.99485778808594
 21
-21.79508399963379
 31
0.0
1001
DBPROPERTIES
1002
{
1000
PbHidd
1002
}
  0
LINE
  5
435
330
1F
100
AcDbEntity
  8
HIDDEN
100
AcDbLine
 10
-73.99485778808594
 20
-21.79508399963379
 30
0.0
 11
-73.8611068725586
 21
-21.52261543273926
 31
0.0
1001
DBPROPERTIES
1002
{
1000
PbHidd
1002
}
  0
LINE
  5
436
330
1F
100
AcDbEntity
  8
HIDDEN
100
AcDbLine
 10
-73.8611068725586
 20
-21.52261543273926
 30
0.0
 11
-73.74468994140625
 21
-21.23768043518066
 31
0.0
1001
DBPROPERTIES
1002
{
1000
PbHidd
1002
}
  0
LINE
  5
437
330
1F
100
AcDbEntity
  8
HIDDEN
100
AcDbLine
 10
-73.74468994140625
 20
-21.23768043518066
 30
0.0
 11
-73.64859008789062
 21
-20.95119094848633
 31
0.0
1001
DBPROPERTIES
1002
{
1000
PbHidd
1002
}
  0
LINE
  5
438
330
1F
100
AcDbEntity
  8
HIDDEN
100
AcDbLine
 10
-73.64859008789062
 20
-20.95119094848633
 30
0.0
 11
-73.57001495361328
 21
-20.65915489196777
 31
0.0
1001
DBPROPERTIES
1002
{
1000
PbHidd
1002
}
  0
LINE
  5
439
330
1F
100
AcDbEntity
  8
HIDDEN
100
AcDbLine
 10
-73.57001495361328
 20
-20.65915489196777
 30
0.0
 11
-73.50514221191406
 21
-20.34560775756836
 31
0.0
1001
DBPROPERTIES
1002
{
1000
PbHidd
1002
}
  0
LINE
  5
43A
330
1F
100
AcDbEntity
  8
HIDDEN
100
AcDbLine
 10
-73.50514221191406
 20
-20.34560775756836
 30
0.0
 11
-73.45802307128906
 21
-20.0205020904541
 31
0.0
1001
DBPROPERTIES
1002
{
1000
PbHidd
1002
}
  0
LINE
  5
43B
330
1F
100
AcDbEntity
  8
HIDDEN
100
AcDbLine
 10
-73.45802307128906
 20
-20.0205020904541
 30
0.0
 11
-73.43048095703125
 21
-19.69486427307129
 31
0.0
1001
DBPROPERTIES
1002
{
1000
PbHidd
1002
}
  0
LINE
  5
43C
330
1F
100
AcDbEntity
  8
HIDDEN
100
AcDbLine
 10
-73.43048095703125
 20
-19.69486427307129
 30
0.0
 11
-73.42156982421875
 21
-19.3805046081543
 31
0.0
1001
DBPROPERTIES
1002
{
1000
PbHidd
1002
}
  0
LINE
  5
43D
330
1F
100
AcDbEntity
  8
THICK
100
AcDbLine
 10
-79.29981231689453
 20
-19.3799991607666
 30
0.0
 11
-79.29417419433594
 21
-19.62632369995117
 31
0.0
1001
DBPROPERTIES
1002
{
1000
PbThick
1002
}
  0
LINE
  5
43E
330
1F
100
AcDbEntity
  8
THICK
100
AcDbLine
 10
-79.29417419433594
 20
-19.62632369995117
 30
0.0
 11
-79.27658081054688
 21
-19.8800048828125
 31
0.0
1001
DBPROPERTIES
1002
{
1000
PbThick
1002
}
  0
LINE
  5
43F
330
1F
100
AcDbEntity
  8
THICK
100
AcDbLine
 10
-79.27658081054688
 20
-19.8800048828125
 30
0.0
 11
-79.24632263183594
 21
-20.13664817810059
 31
0.0
1001
DBPROPERTIES
1002
{
1000
PbThick
1002
}
  0
LINE
  5
440
330
1F
100
AcDbEntity
  8
THICK
100
AcDbLine
 10
-79.24632263183594
 20
-20.13664817810059
 30
0.0
 11
-79.20343780517578
 21
-20.3919849395752
 31
0.0
1001
DBPROPERTIES
1002
{
1000
PbThick
1002
}
  0
LINE
  5
441
330
1F
100
AcDbEntity
  8
THICK
100
AcDbLine
 10
-79.20343780517578
 20
-20.3919849395752
 30
0.0
 11
-79.14848327636719
 21
-20.64201164245605
 31
0.0
1001
DBPROPERTIES
1002
{
1000
PbThick
1002
}
  0
LINE
  5
442
330
1F
100
AcDbEntity
  8
THICK
100
AcDbLine
 10
-79.14848327636719
 20
-20.64201164245605
 30
0.0
 11
-79.08270263671875
 21
-20.88286209106445
 31
0.0
1001
DBPROPERTIES
1002
{
1000
PbThick
1002
}
  0
LINE
  5
443
330
1F
100
AcDbEntity
  8
THICK
100
AcDbLine
 10
-79.08270263671875
 20
-20.88286209106445
 30
0.0
 11
-79.00794982910156
 21
-21.11092185974121
 31
0.0
1001
DBPROPERTIES
1002
{
1000
PbThick
1002
}
  0
LINE
  5
444
330
1F
100
AcDbEntity
  8
THICK
100
AcDbLine
 10
-79.00794982910156
 20
-21.11092185974121
 30
0.0
 11
-78.92459106445312
 21
-21.32779121398926
 31
0.0
1001
DBPROPERTIES
1002
{
1000
PbThick
1002
}
  0
LINE
  5
445
330
1F
100
AcDbEntity
  8
THICK
100
AcDbLine
 10
-78.92459106445312
 20
-21.32779121398926
 30
0.0
 11
-78.82823944091797
 21
-21.54436874389648
 31
0.0
1001
DBPROPERTIES
1002
{
1000
PbThick
1002
}
  0
LINE
  5
446
330
1F
100
AcDbEntity
  8
THICK
100
AcDbLine
 10
-78.82823944091797
 20
-21.54436874389648
 30
0.0
 11
-78.71916961669922
 21
-21.75717735290527
 31
0.0
1001
DBPROPERTIES
1002
{
1000
PbThick
1002
}
  0
LINE
  5
447
330
1F
100
AcDbEntity
  8
THICK
100
AcDbLine
 10
-78.71916961669922
 20
-21.75717735290527
 30
0.0
 11
-78.59866333007812
 21
-21.96228790283203
 31
0.0
1001
DBPROPERTIES
1002
{
1000
PbThick
1002
}
  0
LINE
  5
448
330
1F
100
AcDbEntity
  8
THICK
100
AcDbLine
 10
-78.59866333007812
 20
-21.96228790283203
 30
0.0
 11
-78.4683837890625
 21
-22.15624618530273
 31
0.0
1001
DBPROPERTIES
1002
{
1000
PbThick
1002
}
  0
LINE
  5
449
330
1F
100
AcDbEntity
  8
THICK
100
AcDbLine
 10
-78.4683837890625
 20
-22.15624618530273
 30
0.0
 11
-78.33055877685547
 21
-22.33626365661621
 31
0.0
1001
DBPROPERTIES
1002
{
1000
PbThick
1002
}
  0
LINE
  5
44A
330
1F
100
AcDbEntity
  8
THICK
100
AcDbLine
 10
-78.33055877685547
 20
-22.33626365661621
 30
0.0
 11
-78.18785095214844
 21
-22.4999828338623
 31
0.0
1001
DBPROPERTIES
1002
{
1000
PbThick
1002
}
  0
LINE
  5
44B
330
1F
100
AcDbEntity
  8
THICK
100
AcDbLine
 10
-78.18785095214844
 20
-22.4999828338623
 30
0.0
 11
-78.0423583984375
 21
-22.64680099487305
 31
0.0
1001
DBPROPERTIES
1002
{
1000
PbThick
1002
}
  0
LINE
  5
44C
330
1F
100
AcDbEntity
  8
THICK
100
AcDbLine
 10
-78.0423583984375
 20
-22.64680099487305
 30
0.0
 11
-77.88599395751953
 21
-22.78492546081543
 31
0.0
1001
DBPROPERTIES
1002
{
1000
PbThick
1002
}
  0
LINE
  5
44D
330
1F
100
AcDbEntity
  8
THICK
100
AcDbLine
 10
-77.88599395751953
 20
-22.78492546081543
 30
0.0
 11
-77.71820831298828
 21
-22.91314315795898
 31
0.0
1001
DBPROPERTIES
1002
{
1000
PbThick
1002
}
  0
LINE
  5
44E
330
1F
100
AcDbEntity
  8
HIDDEN
100
AcDbLine
 10
-77.71820831298828
 20
-22.91314315795898
 30
0.0
 11
-77.69438171386719
 21
-22.9298095703125
 31
0.0
1001
DBPROPERTIES
1002
{
1000
PbHidd
1002
}
  0
LINE
  5
44F
330
1F
100
AcDbEntity
  8
HIDDEN
100
AcDbLine
 10
-77.69438171386719
 20
-22.9298095703125
 30
0.0
 11
-77.67039489746094
 21
-22.94621658325195
 31
0.0
1001
DBPROPERTIES
1002
{
1000
PbHidd
1002
}
  0
LINE
  5
450
330
1F
100
AcDbEntity
  8
HIDDEN
100
AcDbLine
 10
-77.67039489746094
 20
-22.94621658325195
 30
0.0
 11
-77.64625549316406
 21
-22.96236038208008
 31
0.0
1001
DBPROPERTIES
1002
{
1000
PbHidd
1002
}
  0
LINE
  5
451
330
1F
100
AcDbEntity
  8
HIDDEN
100
AcDbLine
 10
-77.64625549316406
 20
-22.96236038208008
 30
0.0
 11
-77.62197875976562
 21
-22.97823143005371
 31
0.0
1001
DBPROPERTIES
1002
{
1000
PbHidd
1002
}
  0
LINE
  5
452
330
1F
100
AcDbEntity
  8
HIDDEN
100
AcDbLine
 10
-77.62197875976562
 20
-22.97823143005371
 30
0.0
 11
-77.59756469726562
 21
-22.99382591247559
 31
0.0
1001
DBPROPERTIES
1002
{
1000
PbHidd
1002
}
  0
LINE
  5
453
330
1F
100
AcDbEntity
  8
HIDDEN
100
AcDbLine
 10
-77.59756469726562
 20
-22.99382591247559
 30
0.0
 11
-77.5730209350586
 21
-23.00913619995117
 31
0.0
1001
DBPROPERTIES
1002
{
1000
PbHidd
1002
}
  0
ELLIPSE
  5
454
330
1F
100
AcDbEntity
  8
HIDDEN
100
AcDbEllipse
 10
-79.42050807568876
 20
-19.38
 30
0.0
 11
2.449212707644755E-16
 21
3.999999999999999
 31
0.0
210
0.0
220
0.0
230
1.0
 40
0.8660254037844388
 41
1.570796326794896
 42
4.71238898038469
1001
DBPROPERTIES
1002
{
1000
PbHidd
1002
}
  0
ELLIPSE
  5
455
330
1F
100
AcDbEntity
  8
HIDDEN
100
AcDbEllipse
 10
-76.24213562373093
 20
-19.38
 30
0.0
 11
2.449212707644754E-16
 21
4.0
 31
0.0
210
0.0
220
0.0
230
1.0
 40
0.7071067811865476
 41
-3.030124898013746
 42
-1.570796326794897
1001
DBPROPERTIES
1002
{
1000
PbHidd
1002
}
  0
LINE
  5
456
330
1F
100
AcDbEntity
  8
HIDDEN
100
AcDbLine
 10
-77.5729751586914
 20
-23.0090160369873
 30
0.0
 11
-77.46503448486328
 21
-23.07608222961426
 31
0.0
1001
DBPROPERTIES
1002
{
1000
PbHidd
1002
}
  0
LINE
  5
457
330
1F
100
AcDbEntity
  8
HIDDEN
100
AcDbLine
 10
-77.46503448486328
 20
-23.07608222961426
 30
0.0
 11
-77.35507202148438
 21
-23.13651466369629
 31
0.0
1001
DBPROPERTIES
1002
{
1000
PbHidd
1002
}
  0
LINE
  5
458
330
1F
100
AcDbEntity
  8
HIDDEN
100
AcDbLine
 10
-77.35507202148438
 20
-23.13651466369629
 30
0.0
 11
-77.23995971679688
 21
-23.19196128845215
 31
0.0
1001
DBPROPERTIES
1002
{
1000
PbHidd
1002
}
  0
LINE
  5
459
330
1F
100
AcDbEntity
  8
HIDDEN
100
AcDbLine
 10
-77.23995971679688
 20
-23.19196128845215
 30
0.0
 11
-77.12084197998047
 21
-23.24148941040039
 31
0.0
1001
DBPROPERTIES
1002
{
1000
PbHidd
1002
}
  0
LINE
  5
45A
330
1F
100
AcDbEntity
  8
HIDDEN
100
AcDbLine
 10
-77.12084197998047
 20
-23.24148941040039
 30
0.0
 11
-76.99884796142578
 21
-23.28421783447266
 31
0.0
1001
DBPROPERTIES
1002
{
1000
PbHidd
1002
}
  0
LINE
  5
45B
330
1F
100
AcDbEntity
  8
HIDDEN
100
AcDbLine
 10
-76.99884796142578
 20
-23.28421783447266
 30
0.0
 11
-76.8750991821289
 21
-23.3190975189209
 31
0.0
1001
DBPROPERTIES
1002
{
1000
PbHidd
1002
}
  0
LINE
  5
45C
330
1F
100
AcDbEntity
  8
HIDDEN
100
AcDbLine
 10
-76.8750991821289
 20
-23.3190975189209
 30
0.0
 11
-76.7508316040039
 21
-23.34591674804688
 31
0.0
1001
DBPROPERTIES
1002
{
1000
PbHidd
1002
}
  0
LINE
  5
45D
330
1F
100
AcDbEntity
  8
HIDDEN
100
AcDbLine
 10
-76.7508316040039
 20
-23.34591674804688
 30
0.0
 11
-76.62733459472656
 21
-23.36484527587891
 31
0.0
1001
DBPROPERTIES
1002
{
1000
PbHidd
1002
}
  0
LINE
  5
45E
330
1F
100
AcDbEntity
  8
HIDDEN
100
AcDbLine
 10
-76.62733459472656
 20
-23.36484527587891
 30
0.0
 11
-76.50590515136719
 21
-23.37612342834473
 31
0.0
1001
DBPROPERTIES
1002
{
1000
PbHidd
1002
}
  0
LINE
  5
45F
330
1F
100
AcDbEntity
  8
HIDDEN
100
AcDbLine
 10
-76.50590515136719
 20
-23.37612342834473
 30
0.0
 11
-76.38784790039062
 21
-23.37999534606934
 31
0.0
1001
DBPROPERTIES
1002
{
1000
PbHidd
1002
}
  0
ARC
  5
460
330
1F
100
AcDbEntity
  8
THICK
100
AcDbCircle
 10
-42.25
 20
-176.9
 30
0.0
 40
24.0
100
AcDbArc
 50
179.9999625520633
 51
265.9709222128289
1001
DBPROPERTIES
1002
{
1000
PbThick
1002
}
  0
LINE
  5
461
330
1F
100
AcDbEntity
  8
THICK
100
AcDbLine
 10
-43.93629455566406
 20
-200.8406829833984
 30
0.0
 11
-43.93581008911133
 21
-200.8367156982422
 31
0.0
1001
DBPROPERTIES
1002
{
1000
PbThick
1002
}
  0
LINE
  5
462
330
1F
100
AcDbEntity
  8
THICK
100
AcDbLine
 10
-43.93581008911133
 20
-200.8367156982422
 30
0.0
 11
-43.93431091308594
 21
-200.8244476318359
 31
0.0
1001
DBPROPERTIES
1002
{
1000
PbThick
1002
}
  0
LINE
  5
463
330
1F
100
AcDbEntity
  8
THICK
100
AcDbLine
 10
-43.93431091308594
 20
-200.8244476318359
 30
0.0
 11
-43.93173980712891
 21
-200.8033752441406
 31
0.0
1001
DBPROPERTIES
1002
{
1000
PbThick
1002
}
  0
LINE
  5
464
330
1F
100
AcDbEntity
  8
THICK
100
AcDbLine
 10
-43.93173980712891
 20
-200.8033752441406
 30
0.0
 11
-43.92805862426758
 21
-200.7732543945312
 31
0.0
1001
DBPROPERTIES
1002
{
1000
PbThick
1002
}
  0
LINE
  5
465
330
1F
100
AcDbEntity
  8
THICK
100
AcDbLine
 10
-43.92805862426758
 20
-200.7732543945312
 30
0.0
 11
-43.92327117919922
 21
-200.7341766357422
 31
0.0
1001
DBPROPERTIES
1002
{
1000
PbThick
1002
}
  0
LINE
  5
466
330
1F
100
AcDbEntity
  8
THICK
100
AcDbLine
 10
-43.92327117919922
 20
-200.7341766357422
 30
0.0
 11
-43.91739654541016
 21
-200.686279296875
 31
0.0
1001
DBPROPERTIES
1002
{
1000
PbThick
1002
}
  0
LINE
  5
467
330
1F
100
AcDbEntity
  8
THICK
100
AcDbLine
 10
-43.91739654541016
 20
-200.686279296875
 30
0.0
 11
-43.91048812866211
 21
-200.6301422119141
 31
0.0
1001
DBPROPERTIES
1002
{
1000
PbThick
1002
}
  0
LINE
  5
468
330
1F
100
AcDbEntity
  8
THICK
100
AcDbLine
 10
-43.91048812866211
 20
-200.6301422119141
 30
0.0
 11
-43.90262985229492
 21
-200.5664215087891
 31
0.0
1001
DBPROPERTIES
1002
{
1000
PbThick
1002
}
  0
LINE
  5
469
330
1F
100
AcDbEntity
  8
THICK
100
AcDbLine
 10
-43.90262985229492
 20
-200.5664215087891
 30
0.0
 11
-43.8939208984375
 21
-200.49609375
 31
0.0
1001
DBPROPERTIES
1002
{
1000
PbThick
1002
}
  0
LINE
  5
46A
330
1F
100
AcDbEntity
  8
THICK
100
AcDbLine
 10
-43.8939208984375
 20
-200.49609375
 30
0.0
 11
-43.88451385498047
 21
-200.4203491210938
 31
0.0
1001
DBPROPERTIES
1002
{
1000
PbThick
1002
}
  0
LINE
  5
46B
330
1F
100
AcDbEntity
  8
THICK
100
AcDbLine
 10
-43.88451385498047
 20
-200.4203491210938
 30
0.0
 11
-43.87418746948242
 21
-200.3376007080078
 31
0.0
1001
DBPROPERTIES
1002
{
1000
PbThick
1002
}
  0
LINE
  5
46C
330
1F
100
AcDbEntity
  8
THICK
100
AcDbLine
 10
-43.87418746948242
 20
-200.3376007080078
 30
0.0
 11
-43.86262893676758
 21
-200.2454071044922
 31
0.0
1001
DBPROPERTIES
1002
{
1000
PbThick
1002
}
  0
LINE
  5
46D
330
1F
100
AcDbEntity
  8
THICK
100
AcDbLine
 10
-43.86262893676758
 20
-200.2454071044922
 30
0.0
 11
-43.84985733032227
 21
-200.1441040039062
 31
0.0
1001
DBPROPERTIES
1002
{
1000
PbThick
1002
}
  0
LINE
  5
46E
330
1F
100
AcDbEntity
  8
THICK
100
AcDbLine
 10
-43.84985733032227
 20
-200.1441040039062
 30
0.0
 11
-43.83591461181641
 21
-200.0342102050781
 31
0.0
1001
DBPROPERTIES
1002
{
1000
PbThick
1002
}
  0
LINE
  5
46F
330
1F
100
AcDbEntity
  8
THICK
100
AcDbLine
 10
-43.83591461181641
 20
-200.0342102050781
 30
0.0
 11
-43.82088088989258
 21
-199.9165496826172
 31
0.0
1001
DBPROPERTIES
1002
{
1000
PbThick
1002
}
  0
LINE
  5
470
330
1F
100
AcDbEntity
  8
THICK
100
AcDbLine
 10
-43.82088088989258
 20
-199.9165496826172
 30
0.0
 11
-43.80482482910156
 21
-199.7919464111328
 31
0.0
1001
DBPROPERTIES
1002
{
1000
PbThick
1002
}
  0
LINE
  5
471
330
1F
100
AcDbEntity
  8
THICK
100
AcDbLine
 10
-43.80482482910156
 20
-199.7919464111328
 30
0.0
 11
-43.78787612915039
 21
-199.6615905761719
 31
0.0
1001
DBPROPERTIES
1002
{
1000
PbThick
1002
}
  0
LINE
  5
472
330
1F
100
AcDbEntity
  8
THICK
100
AcDbLine
 10
-43.78787612915039
 20
-199.6615905761719
 30
0.0
 11
-43.77016067504883
 21
-199.5267028808594
 31
0.0
1001
DBPROPERTIES
1002
{
1000
PbThick
1002
}
  0
LINE
  5
473
330
1F
100
AcDbEntity
  8
THICK
100
AcDbLine
 10
-43.77016067504883
 20
-199.5267028808594
 30
0.0
 11
-43.75184631347656
 21
-199.3888092041016
 31
0.0
1001
DBPROPERTIES
1002
{
1000
PbThick
1002
}
  0
LINE
  5
474
330
1F
100
AcDbEntity
  8
THICK
100
AcDbLine
 10
-43.75184631347656
 20
-199.3888092041016
 30
0.0
 11
-43.73311996459961
 21
-199.2495422363281
 31
0.0
1001
DBPROPERTIES
1002
{
1000
PbThick
1002
}
  0
LINE
  5
475
330
1F
100
AcDbEntity
  8
THICK
100
AcDbLine
 10
-43.73311996459961
 20
-199.2495422363281
 30
0.0
 11
-43.71350860595703
 21
-199.1056823730469
 31
0.0
1001
DBPROPERTIES
1002
{
1000
PbThick
1002
}
  0
LINE
  5
476
330
1F
100
AcDbEntity
  8
THICK
100
AcDbLine
 10
-43.71350860595703
 20
-199.1056823730469
 30
0.0
 11
-43.69235610961914
 21
-198.9529418945312
 31
0.0
1001
DBPROPERTIES
1002
{
1000
PbThick
1002
}
  0
LINE
  5
477
330
1F
100
AcDbEntity
  8
THICK
100
AcDbLine
 10
-43.69235610961914
 20
-198.9529418945312
 30
0.0
 11
-43.66973876953125
 21
-198.7925415039062
 31
0.0
1001
DBPROPERTIES
1002
{
1000
PbThick
1002
}
  0
LINE
  5
478
330
1F
100
AcDbEntity
  8
THICK
100
AcDbLine
 10
-43.66973876953125
 20
-198.7925415039062
 30
0.0
 11
-43.64572906494141
 21
-198.6259155273438
 31
0.0
1001
DBPROPERTIES
1002
{
1000
PbThick
1002
}
  0
LINE
  5
479
330
1F
100
AcDbEntity
  8
THICK
100
AcDbLine
 10
-43.64572906494141
 20
-198.6259155273438
 30
0.0
 11
-43.62042236328125
 21
-198.4546356201172
 31
0.0
1001
DBPROPERTIES
1002
{
1000
PbThick
1002
}
  0
LINE
  5
47A
330
1F
100
AcDbEntity
  8
THICK
100
AcDbLine
 10
-43.62042236328125
 20
-198.4546356201172
 30
0.0
 11
-43.59389495849609
 21
-198.2802886962891
 31
0.0
1001
DBPROPERTIES
1002
{
1000
PbThick
1002
}
  0
LINE
  5
47B
330
1F
100
AcDbEntity
  8
THICK
100
AcDbLine
 10
-43.59389495849609
 20
-198.2802886962891
 30
0.0
 11
-43.56621932983398
 21
-198.1046905517578
 31
0.0
1001
DBPROPERTIES
1002
{
1000
PbThick
1002
}
  0
LINE
  5
47C
330
1F
100
AcDbEntity
  8
THICK
100
AcDbLine
 10
-43.56621932983398
 20
-198.1046905517578
 30
0.0
 11
-43.53747177124023
 21
-197.9297027587891
 31
0.0
1001
DBPROPERTIES
1002
{
1000
PbThick
1002
}
  0
LINE
  5
47D
330
1F
100
AcDbEntity
  8
THICK
100
AcDbLine
 10
-43.53747177124023
 20
-197.9297027587891
 30
0.0
 11
-43.5076789855957
 21
-197.7573852539062
 31
0.0
1001
DBPROPERTIES
1002
{
1000
PbThick
1002
}
  0
LINE
  5
47E
330
1F
100
AcDbEntity
  8
THICK
100
AcDbLine
 10
-43.5076789855957
 20
-197.7573852539062
 30
0.0
 11
-43.47570037841797
 21
-197.5837707519531
 31
0.0
1001
DBPROPERTIES
1002
{
1000
PbThick
1002
}
  0
LINE
  5
47F
330
1F
100
AcDbEntity
  8
THICK
100
AcDbLine
 10
-43.47570037841797
 20
-197.5837707519531
 30
0.0
 11
-43.43848419189453
 21
-197.3987731933594
 31
0.0
1001
DBPROPERTIES
1002
{
1000
PbThick
1002
}
  0
LINE
  5
480
330
1F
100
AcDbEntity
  8
THICK
100
AcDbLine
 10
-43.43848419189453
 20
-197.3987731933594
 30
0.0
 11
-43.39643478393555
 21
-197.2154693603516
 31
0.0
1001
DBPROPERTIES
1002
{
1000
PbThick
1002
}
  0
LINE
  5
481
330
1F
100
AcDbEntity
  8
THICK
100
AcDbLine
 10
-43.39643478393555
 20
-197.2154693603516
 30
0.0
 11
-43.34571838378906
 21
-197.0388031005859
 31
0.0
1001
DBPROPERTIES
1002
{
1000
PbThick
1002
}
  0
LINE
  5
482
330
1F
100
AcDbEntity
  8
THICK
100
AcDbLine
 10
-43.34571838378906
 20
-197.0388031005859
 30
0.0
 11
-43.25
 21
-196.8874969482422
 31
0.0
1001
DBPROPERTIES
1002
{
1000
PbThick
1002
}
  0
ARC
  5
483
330
1F
100
AcDbEntity
  8
THICK
100
AcDbCircle
 10
-42.25
 20
-176.9
 30
0.0
 40
16.0
100
AcDbArc
 50
179.9999625520633
 51
266.4166833774407
1001
DBPROPERTIES
1002
{
1000
PbThick
1002
}
  0
LINE
  5
484
330
1F
100
AcDbEntity
  8
THICK
100
AcDbLine
 10
-58.25
 20
-176.9
 30
0.0
 11
-62.25
 21
-176.9
 31
0.0
1001
DBPROPERTIES
1002
{
1000
PbThick
1002
}
  0
ARC
  5
485
330
1F
100
AcDbEntity
  8
THICK
100
AcDbCircle
 10
0.0000000000000033
 20
-189.0
 30
0.0
 40
5.0
100
AcDbArc
 50
0.0
 51
89.99998127603165
1001
DBPROPERTIES
1002
{
1000
PbThick
1002
}
  0
ARC
  5
486
330
1F
100
AcDbEntity
  8
THICK
100
AcDbCircle
 10
0.0000000000000033
 20
-189.0
 30
0.0
 40
5.0
100
AcDbArc
 50
270.0000187239684
 51
0.0
1001
DBPROPERTIES
1002
{
1000
PbThick
1002
}
  0
ARC
  5
487
330
1F
100
AcDbEntity
  8
THICK
100
AcDbCircle
 10
0.0000000000000033
 20
-189.0
 30
0.0
 40
3.0
100
AcDbArc
 50
270.0000187239684
 51
0.0
1001
DBPROPERTIES
1002
{
1000
PbThick
1002
}
  0
ARC
  5
488
330
1F
100
AcDbEntity
  8
THICK
100
AcDbCircle
 10
0.0000000000000033
 20
-189.0
 30
0.0
 40
3.0
100
AcDbArc
 50
0.0
 51
89.99998127603165
1001
DBPROPERTIES
1002
{
1000
PbThick
1002
}
  0
LINE
  5
489
330
1F
100
AcDbEntity
  8
HIDDEN
100
AcDbLine
 10
-32.05646628587309
 20
-23.25278209161218
 30
0.0
 11
-30.17822961393053
 21
-23.25278209161218
 31
0.0
1001
DBPROPERTIES
1002
{
1000
PbHidd
1002
}
  0
LINE
  5
48A
330
1F
100
AcDbEntity
  8
HIDDEN
100
AcDbLine
 10
-35.25
 20
-165.575
 30
0.0
 11
-35.25
 21
-165.575
 31
0.0
1001
DBPROPERTIES
1002
{
1000
PbHidd
1002
}
  0
LINE
  5
48B
330
1F
100
AcDbEntity
  8
HIDDEN
100
AcDbLine
 10
-35.25
 20
-179.0
 30
0.0
 11
-35.25
 21
-179.0
 31
0.0
1001
DBPROPERTIES
1002
{
1000
PbHidd
1002
}
  0
LINE
  5
48C
330
1F
100
AcDbEntity
  8
HIDDEN
100
AcDbLine
 10
-35.25
 20
-236.075
 30
0.0
 11
-35.25
 21
-236.075
 31
0.0
1001
DBPROPERTIES
1002
{
1000
PbHidd
1002
}
  0
LINE
  5
48D
330
1F
100
AcDbEntity
  8
THICK
100
AcDbLine
 10
-35.25
 20
-236.075
 30
0.0
 11
-35.25
 21
-165.575
 31
0.0
1001
DBPROPERTIES
1002
{
1000
PbThick
1002
}
  0
LINE
  5
48E
330
1F
100
AcDbEntity
  8
HIDDEN
100
AcDbLine
 10
35.25
 20
-179.0
 30
0.0
 11
10.0
 21
-179.0
 31
0.0
1001
DBPROPERTIES
1002
{
1000
PbHidd
1002
}
  0
LINE
  5
48F
330
1F
100
AcDbEntity
  8
HIDDEN
100
AcDbLine
 10
-10.0
 20
-179.0
 30
0.0
 11
-35.25
 21
-179.0
 31
0.0
1001
DBPROPERTIES
1002
{
1000
PbHidd
1002
}
  0
ELLIPSE
  5
490
330
1F
100
AcDbEntity
  8
HIDDEN
100
AcDbEllipse
 10
-79.42050807568876
 20
-19.38
 30
0.0
 11
2.449212707644755E-16
 21
3.999999999999999
 31
0.0
210
0.0
220
0.0
230
1.0
 40
0.8660254037844388
 41
-1.570796326794897
 42
1.570796326794896
1001
DBPROPERTIES
1002
{
1000
PbHidd
1002
}
  0
LINE
  5
491
330
1F
100
AcDbEntity
  8
HIDDEN
100
AcDbLine
 10
10.0
 20
-199.0
 30
0.0
 11
10.0
 21
-199.0
 31
0.0
1001
DBPROPERTIES
1002
{
1000
PbHidd
1002
}
  0
LINE
  5
492
330
1F
100
AcDbEntity
  8
HIDDEN
100
AcDbLine
 10
10.0
 20
-179.0
 30
0.0
 11
10.0
 21
-179.0
 31
0.0
1001
DBPROPERTIES
1002
{
1000
PbHidd
1002
}
  0
LINE
  5
493
330
1F
100
AcDbEntity
  8
THICK
100
AcDbLine
 10
10.0
 20
-199.0
 30
0.0
 11
10.0
 21
-179.0
 31
0.0
1001
DBPROPERTIES
1002
{
1000
PbThick
1002
}
  0
LINE
  5
494
330
1F
100
AcDbEntity
  8
HIDDEN
100
AcDbLine
 10
-9.999999999999996
 20
-179.0
 30
0.0
 11
-9.999999999999996
 21
-179.0
 31
0.0
1001
DBPROPERTIES
1002
{
1000
PbHidd
1002
}
  0
LINE
  5
495
330
1F
100
AcDbEntity
  8
THICK
100
AcDbLine
 10
-9.999999999999996
 20
-179.0
 30
0.0
 11
10.0
 21
-179.0
 31
0.0
1001
DBPROPERTIES
1002
{
1000
PbThick
1002
}
  0
LINE
  5
496
330
1F
100
AcDbEntity
  8
THICK
100
AcDbLine
 10
9.000000000000002
 20
-198.0
 30
0.0
 11
-8.999999999999998
 21
-198.0
 31
0.0
1001
DBPROPERTIES
1002
{
1000
PbThick
1002
}
  0
LINE
  5
497
330
1F
100
AcDbEntity
  8
THICK
100
AcDbLine
 10
9.000000000000002
 20
-198.0
 30
0.0
 11
9.000000000000002
 21
-180.0
 31
0.0
1001
DBPROPERTIES
1002
{
1000
PbThick
1002
}
  0
LINE
  5
498
330
1F
100
AcDbEntity
  8
THICK
100
AcDbLine
 10
-8.999999999999996
 20
-180.0
 30
0.0
 11
9.000000000000004
 21
-180.0
 31
0.0
1001
DBPROPERTIES
1002
{
1000
PbThick
1002
}
  0
LINE
  5
499
330
1F
100
AcDbEntity
  8
THICK
100
AcDbLine
 10
-8.999999999999998
 20
-198.0
 30
0.0
 11
-8.999999999999998
 21
-180.0
 31
0.0
1001
DBPROPERTIES
1002
{
1000
PbThick
1002
}
  0
LINE
  5
49A
330
1F
100
AcDbEntity
  8
HIDDEN
100
AcDbLine
 10
9.000000000000002
 20
-198.0
 30
0.0
 11
9.000000000000002
 21
-198.0
 31
0.0
1001
DBPROPERTIES
1002
{
1000
PbHidd
1002
}
  0
LINE
  5
49B
330
1F
100
AcDbEntity
  8
HIDDEN
100
AcDbLine
 10
9.000000000000004
 20
-180.0
 30
0.0
 11
9.000000000000004
 21
-180.0
 31
0.0
1001
DBPROPERTIES
1002
{
1000
PbHidd
1002
}
  0
LINE
  5
49C
330
1F
100
AcDbEntity
  8
HIDDEN
100
AcDbLine
 10
-8.999999999999996
 20
-180.0
 30
0.0
 11
-8.999999999999996
 21
-180.0
 31
0.0
1001
DBPROPERTIES
1002
{
1000
PbHidd
1002
}
  0
LINE
  5
49D
330
1F
100
AcDbEntity
  8
HIDDEN
100
AcDbLine
 10
-8.999999999999998
 20
-198.0
 30
0.0
 11
-8.999999999999998
 21
-198.0
 31
0.0
1001
DBPROPERTIES
1002
{
1000
PbHidd
1002
}
  0
LINE
  5
49E
330
1F
100
AcDbEntity
  8
HIDDEN
100
AcDbLine
 10
-9.999999999999998
 20
-199.0
 30
0.0
 11
-9.999999999999998
 21
-199.0
 31
0.0
1001
DBPROPERTIES
1002
{
1000
PbHidd
1002
}
  0
LINE
  5
49F
330
1F
100
AcDbEntity
  8
THICK
100
AcDbLine
 10
10.0
 20
-199.0
 30
0.0
 11
-9.999999999999998
 21
-199.0
 31
0.0
1001
DBPROPERTIES
1002
{
1000
PbThick
1002
}
  0
LINE
  5
4A0
330
1F
100
AcDbEntity
  8
THICK
100
AcDbLine
 10
-9.999999999999998
 20
-199.0
 30
0.0
 11
-9.999999999999998
 21
-179.0
 31
0.0
1001
DBPROPERTIES
1002
{
1000
PbThick
1002
}
  0
ARC
  5
4A1
330
1F
100
AcDbEntity
  8
THICK
100
AcDbCircle
 10
0.0000000000000033
 20
-189.0
 30
0.0
 40
5.0
100
AcDbArc
 50
89.99998127603165
 51
270.0000187239684
1001
DBPROPERTIES
1002
{
1000
PbThick
1002
}
  0
ARC
  5
4A2
330
1F
100
AcDbEntity
  8
THICK
100
AcDbCircle
 10
0.0000000000000033
 20
-189.0
 30
0.0
 40
3.0
100
AcDbArc
 50
89.99998127603165
 51
270.0000187239684
1001
DBPROPERTIES
1002
{
1000
PbThick
1002
}
  0
LINE
  5
4A3
330
1F
100
AcDbEntity
  8
THICK
100
AcDbLine
 10
-35.25
 20
-188.9
 30
0.0
 11
-43.25
 21
-188.9
 31
0.0
1001
DBPROPERTIES
1002
{
1000
PbThick
1002
}
  0
LINE
  5
4A4
330
1F
100
AcDbEntity
  8
HIDDEN
100
AcDbLine
 10
-35.25
 20
-192.9
 30
0.0
 11
-43.25
 21
-192.9
 31
0.0
1001
DBPROPERTIES
1002
{
1000
PbHidd
1002
}
  0
LINE
  5
4A5
330
1F
100
AcDbEntity
  8
HIDDEN
100
AcDbLine
 10
-35.25
 20
-200.9
 30
0.0
 11
-43.25
 21
-200.9
 31
0.0
1001
DBPROPERTIES
1002
{
1000
PbHidd
1002
}
  0
LINE
  5
4A6
330
1F
100
AcDbEntity
  8
THICK
100
AcDbLine
 10
-35.25
 20
-204.9
 30
0.0
 11
-43.25
 21
-204.9
 31
0.0
1001
DBPROPERTIES
1002
{
1000
PbThick
1002
}
  0
LINE
  5
4A7
330
1F
100
AcDbEntity
  8
THICK
100
AcDbLine
 10
-43.25
 20
-200.9
 30
0.0
 11
-43.25
 21
-204.9
 31
0.0
1001
DBPROPERTIES
1002
{
1000
PbThick
1002
}
  0
LINE
  5
4A8
330
1F
100
AcDbEntity
  8
THICK
100
AcDbLine
 10
-43.25
 20
-192.9
 30
0.0
 11
-43.25
 21
-200.9
 31
0.0
1001
DBPROPERTIES
1002
{
1000
PbThick
1002
}
  0
LINE
  5
4A9
330
1F
100
AcDbEntity
  8
THICK
100
AcDbLine
 10
-43.25
 20
-188.9
 30
0.0
 11
-43.25
 21
-192.9
 31
0.0
1001
DBPROPERTIES
1002
{
1000
PbThick
1002
}
  0
LINE
  5
4AA
330
1F
100
AcDbEntity
  8
THICK
100
AcDbLine
 10
-35.25
 20
-192.9
 30
0.0
 11
-43.25
 21
-192.9
 31
0.0
1001
DBPROPERTIES
1002
{
1000
PbThick
1002
}
  0
LINE
  5
4AB
330
1F
100
AcDbEntity
  8
THICK
100
AcDbLine
 10
-35.25
 20
-200.9
 30
0.0
 11
-43.25
 21
-200.9
 31
0.0
1001
DBPROPERTIES
1002
{
1000
PbThick
1002
}
  0
LINE
  5
4AC
330
1F
100
AcDbEntity
  8
HIDDEN
100
AcDbLine
 10
-43.25
 20
-196.8874969482422
 30
0.0
 11
-43.32469940185547
 21
-196.9827270507812
 31
0.0
1001
DBPROPERTIES
1002
{
1000
PbHidd
1002
}
  0
LINE
  5
4AD
330
1F
100
AcDbEntity
  8
HIDDEN
100
AcDbLine
 10
-43.32469940185547
 20
-196.9827270507812
 30
0.0
 11
-43.36639785766602
 21
-197.1043395996094
 31
0.0
1001
DBPROPERTIES
1002
{
1000
PbHidd
1002
}
  0
LINE
  5
4AE
330
1F
100
AcDbEntity
  8
HIDDEN
100
AcDbLine
 10
-43.36639785766602
 20
-197.1043395996094
 30
0.0
 11
-43.39821243286133
 21
-197.2225799560547
 31
0.0
1001
DBPROPERTIES
1002
{
1000
PbHidd
1002
}
  0
LINE
  5
4AF
330
1F
100
AcDbEntity
  8
HIDDEN
100
AcDbLine
 10
-43.39821243286133
 20
-197.2225799560547
 30
0.0
 11
-43.42719650268555
 21
-197.3466339111328
 31
0.0
1001
DBPROPERTIES
1002
{
1000
PbHidd
1002
}
  0
LINE
  5
4B0
330
1F
100
AcDbEntity
  8
HIDDEN
100
AcDbLine
 10
-43.42719650268555
 20
-197.3466339111328
 30
0.0
 11
-43.45397567749023
 21
-197.473388671875
 31
0.0
1001
DBPROPERTIES
1002
{
1000
PbHidd
1002
}
  0
LINE
  5
4B1
330
1F
100
AcDbEntity
  8
HIDDEN
100
AcDbLine
 10
-43.45397567749023
 20
-197.473388671875
 30
0.0
 11
-43.47845077514648
 21
-197.5982055664062
 31
0.0
1001
DBPROPERTIES
1002
{
1000
PbHidd
1002
}
  0
LINE
  5
4B2
330
1F
100
AcDbEntity
  8
HIDDEN
100
AcDbLine
 10
-43.47845077514648
 20
-197.5982055664062
 30
0.0
 11
-43.50037384033203
 21
-197.7166442871094
 31
0.0
1001
DBPROPERTIES
1002
{
1000
PbHidd
1002
}
  0
LINE
  5
4B3
330
1F
100
AcDbEntity
  8
HIDDEN
100
AcDbLine
 10
-43.50037384033203
 20
-197.7166442871094
 30
0.0
 11
-43.52091598510742
 21
-197.8327484130859
 31
0.0
1001
DBPROPERTIES
1002
{
1000
PbHidd
1002
}
  0
LINE
  5
4B4
330
1F
100
AcDbEntity
  8
HIDDEN
100
AcDbLine
 10
-43.52091598510742
 20
-197.8327484130859
 30
0.0
 11
-43.54097366333008
 21
-197.9506072998047
 31
0.0
1001
DBPROPERTIES
1002
{
1000
PbHidd
1002
}
  0
LINE
  5
4B5
330
1F
100
AcDbEntity
  8
HIDDEN
100
AcDbLine
 10
-43.54097366333008
 20
-197.9506072998047
 30
0.0
 11
-43.56055450439453
 21
-198.069580078125
 31
0.0
1001
DBPROPERTIES
1002
{
1000
PbHidd
1002
}
  0
LINE
  5
4B6
330
1F
100
AcDbEntity
  8
HIDDEN
100
AcDbLine
 10
-43.56055450439453
 20
-198.069580078125
 30
0.0
 11
-43.57963943481445
 21
-198.1890106201172
 31
0.0
1001
DBPROPERTIES
1002
{
1000
PbHidd
1002
}
  0
LINE
  5
4B7
330
1F
100
AcDbEntity
  8
HIDDEN
100
AcDbLine
 10
-43.57963943481445
 20
-198.1890106201172
 30
0.0
 11
-43.59821701049805
 21
-198.3083038330078
 31
0.0
1001
DBPROPERTIES
1002
{
1000
PbHidd
1002
}
  0
LINE
  5
4B8
330
1F
100
AcDbEntity
  8
HIDDEN
100
AcDbLine
 10
-43.59821701049805
 20
-198.3083038330078
 30
0.0
 11
-43.61625671386719
 21
-198.4268951416016
 31
0.0
1001
DBPROPERTIES
1002
{
1000
PbHidd
1002
}
  0
LINE
  5
4B9
330
1F
100
AcDbEntity
  8
HIDDEN
100
AcDbLine
 10
-43.61625671386719
 20
-198.4268951416016
 30
0.0
 11
-43.63373947143555
 21
-198.544189453125
 31
0.0
1001
DBPROPERTIES
1002
{
1000
PbHidd
1002
}
  0
LINE
  5
4BA
330
1F
100
AcDbEntity
  8
HIDDEN
100
AcDbLine
 10
-43.63373947143555
 20
-198.544189453125
 30
0.0
 11
-43.65063858032227
 21
-198.65966796875
 31
0.0
1001
DBPROPERTIES
1002
{
1000
PbHidd
1002
}
  0
LINE
  5
4BB
330
1F
100
AcDbEntity
  8
HIDDEN
100
AcDbLine
 10
-43.65063858032227
 20
-198.65966796875
 30
0.0
 11
-43.66692733764648
 21
-198.7728424072266
 31
0.0
1001
DBPROPERTIES
1002
{
1000
PbHidd
1002
}
  0
LINE
  5
4BC
330
1F
100
AcDbEntity
  8
HIDDEN
100
AcDbLine
 10
-43.66692733764648
 20
-198.7728424072266
 30
0.0
 11
-43.68258285522461
 21
-198.8832244873047
 31
0.0
1001
DBPROPERTIES
1002
{
1000
PbHidd
1002
}
  0
LINE
  5
4BD
330
1F
100
AcDbEntity
  8
HIDDEN
100
AcDbLine
 10
-43.68258285522461
 20
-198.8832244873047
 30
0.0
 11
-43.69757080078125
 21
-198.9903411865234
 31
0.0
1001
DBPROPERTIES
1002
{
1000
PbHidd
1002
}
  0
LINE
  5
4BE
330
1F
100
AcDbEntity
  8
HIDDEN
100
AcDbLine
 10
-43.69757080078125
 20
-198.9903411865234
 30
0.0
 11
-43.71187210083008
 21
-199.0937652587891
 31
0.0
1001
DBPROPERTIES
1002
{
1000
PbHidd
1002
}
  0
LINE
  5
4BF
330
1F
100
AcDbEntity
  8
HIDDEN
100
AcDbLine
 10
-43.71187210083008
 20
-199.0937652587891
 30
0.0
 11
-43.7254638671875
 21
-199.1931457519531
 31
0.0
1001
DBPROPERTIES
1002
{
1000
PbHidd
1002
}
  0
LINE
  5
4C0
330
1F
100
AcDbEntity
  8
HIDDEN
100
AcDbLine
 10
-43.7254638671875
 20
-199.1931457519531
 30
0.0
 11
-43.7383918762207
 21
-199.28857421875
 31
0.0
1001
DBPROPERTIES
1002
{
1000
PbHidd
1002
}
  0
LINE
  5
4C1
330
1F
100
AcDbEntity
  8
HIDDEN
100
AcDbLine
 10
-43.7383918762207
 20
-199.28857421875
 30
0.0
 11
-43.75110244750977
 21
-199.3832550048828
 31
0.0
1001
DBPROPERTIES
1002
{
1000
PbHidd
1002
}
  0
LINE
  5
4C2
330
1F
100
AcDbEntity
  8
HIDDEN
100
AcDbLine
 10
-43.75110244750977
 20
-199.3832550048828
 30
0.0
 11
-43.76362609863281
 21
-199.4773254394531
 31
0.0
1001
DBPROPERTIES
1002
{
1000
PbHidd
1002
}
  0
LINE
  5
4C3
330
1F
100
AcDbEntity
  8
HIDDEN
100
AcDbLine
 10
-43.76362609863281
 20
-199.4773254394531
 30
0.0
 11
-43.77590560913086
 21
-199.5702667236328
 31
0.0
1001
DBPROPERTIES
1002
{
1000
PbHidd
1002
}
  0
LINE
  5
4C4
330
1F
100
AcDbEntity
  8
HIDDEN
100
AcDbLine
 10
-43.77590560913086
 20
-199.5702667236328
 30
0.0
 11
-43.78787612915039
 21
-199.6615905761719
 31
0.0
1001
DBPROPERTIES
1002
{
1000
PbHidd
1002
}
  0
LINE
  5
4C5
330
1F
100
AcDbEntity
  8
HIDDEN
100
AcDbLine
 10
-43.78787612915039
 20
-199.6615905761719
 30
0.0
 11
-43.79949188232422
 21
-199.7507934570312
 31
0.0
1001
DBPROPERTIES
1002
{
1000
PbHidd
1002
}
  0
LINE
  5
4C6
330
1F
100
AcDbEntity
  8
HIDDEN
100
AcDbLine
 10
-43.79949188232422
 20
-199.7507934570312
 30
0.0
 11
-43.81071472167969
 21
-199.8375396728516
 31
0.0
1001
DBPROPERTIES
1002
{
1000
PbHidd
1002
}
  0
LINE
  5
4C7
330
1F
100
AcDbEntity
  8
HIDDEN
100
AcDbLine
 10
-43.81071472167969
 20
-199.8375396728516
 30
0.0
 11
-43.82150268554688
 21
-199.9214019775391
 31
0.0
1001
DBPROPERTIES
1002
{
1000
PbHidd
1002
}
  0
LINE
  5
4C8
330
1F
100
AcDbEntity
  8
HIDDEN
100
AcDbLine
 10
-43.82150268554688
 20
-199.9214019775391
 30
0.0
 11
-43.83181381225586
 21
-200.0020141601562
 31
0.0
1001
DBPROPERTIES
1002
{
1000
PbHidd
1002
}
  0
LINE
  5
4C9
330
1F
100
AcDbEntity
  8
HIDDEN
100
AcDbLine
 10
-43.83181381225586
 20
-200.0020141601562
 30
0.0
 11
-43.84162902832031
 21
-200.0791473388672
 31
0.0
1001
DBPROPERTIES
1002
{
1000
PbHidd
1002
}
  0
LINE
  5
4CA
330
1F
100
AcDbEntity
  8
HIDDEN
100
AcDbLine
 10
-43.84162902832031
 20
-200.0791473388672
 30
0.0
 11
-43.85092163085938
 21
-200.1525268554688
 31
0.0
1001
DBPROPERTIES
1002
{
1000
PbHidd
1002
}
  0
LINE
  5
4CB
330
1F
100
AcDbEntity
  8
HIDDEN
100
AcDbLine
 10
-43.85092163085938
 20
-200.1525268554688
 30
0.0
 11
-43.85967254638672
 21
-200.2219085693359
 31
0.0
1001
DBPROPERTIES
1002
{
1000
PbHidd
1002
}
  0
LINE
  5
4CC
330
1F
100
AcDbEntity
  8
HIDDEN
100
AcDbLine
 10
-43.85967254638672
 20
-200.2219085693359
 30
0.0
 11
-43.86786651611328
 21
-200.287109375
 31
0.0
1001
DBPROPERTIES
1002
{
1000
PbHidd
1002
}
  0
LINE
  5
4CD
330
1F
100
AcDbEntity
  8
HIDDEN
100
AcDbLine
 10
-43.86786651611328
 20
-200.287109375
 30
0.0
 11
-43.87549209594727
 21
-200.3480224609375
 31
0.0
1001
DBPROPERTIES
1002
{
1000
PbHidd
1002
}
  0
LINE
  5
4CE
330
1F
100
AcDbEntity
  8
HIDDEN
100
AcDbLine
 10
-43.87549209594727
 20
-200.3480224609375
 30
0.0
 11
-43.88254547119141
 21
-200.4045715332031
 31
0.0
1001
DBPROPERTIES
1002
{
1000
PbHidd
1002
}
  0
LINE
  5
4CF
330
1F
100
AcDbEntity
  8
HIDDEN
100
AcDbLine
 10
-43.88254547119141
 20
-200.4045715332031
 30
0.0
 11
-43.88910675048828
 21
-200.4573059082031
 31
0.0
1001
DBPROPERTIES
1002
{
1000
PbHidd
1002
}
  0
LINE
  5
4D0
330
1F
100
AcDbEntity
  8
HIDDEN
100
AcDbLine
 10
-43.88910675048828
 20
-200.4573059082031
 30
0.0
 11
-43.89536666870117
 21
-200.5077362060547
 31
0.0
1001
DBPROPERTIES
1002
{
1000
PbHidd
1002
}
  0
LINE
  5
4D1
330
1F
100
AcDbEntity
  8
HIDDEN
100
AcDbLine
 10
-43.89536666870117
 20
-200.5077362060547
 30
0.0
 11
-43.90128707885742
 21
-200.5555877685547
 31
0.0
1001
DBPROPERTIES
1002
{
1000
PbHidd
1002
}
  0
LINE
  5
4D2
330
1F
100
AcDbEntity
  8
HIDDEN
100
AcDbLine
 10
-43.90128707885742
 20
-200.5555877685547
 30
0.0
 11
-43.90682983398438
 21
-200.6004638671875
 31
0.0
1001
DBPROPERTIES
1002
{
1000
PbHidd
1002
}
  0
LINE
  5
4D3
330
1F
100
AcDbEntity
  8
HIDDEN
100
AcDbLine
 10
-43.90682983398438
 20
-200.6004638671875
 30
0.0
 11
-43.91194915771484
 21
-200.6419982910156
 31
0.0
1001
DBPROPERTIES
1002
{
1000
PbHidd
1002
}
  0
LINE
  5
4D4
330
1F
100
AcDbEntity
  8
HIDDEN
100
AcDbLine
 10
-43.91194915771484
 20
-200.6419982910156
 30
0.0
 11
-43.91661834716797
 21
-200.6799774169922
 31
0.0
1001
DBPROPERTIES
1002
{
1000
PbHidd
1002
}
  0
LINE
  5
4D5
330
1F
100
AcDbEntity
  8
HIDDEN
100
AcDbLine
 10
-43.91661834716797
 20
-200.6799774169922
 30
0.0
 11
-43.92081832885742
 21
-200.7141571044922
 31
0.0
1001
DBPROPERTIES
1002
{
1000
PbHidd
1002
}
  0
LINE
  5
4D6
330
1F
100
AcDbEntity
  8
HIDDEN
100
AcDbLine
 10
-43.92081832885742
 20
-200.7141571044922
 30
0.0
 11
-43.92452239990234
 21
-200.7443695068359
 31
0.0
1001
DBPROPERTIES
1002
{
1000
PbHidd
1002
}
  0
LINE
  5
4D7
330
1F
100
AcDbEntity
  8
HIDDEN
100
AcDbLine
 10
-43.92452239990234
 20
-200.7443695068359
 30
0.0
 11
-43.92771530151367
 21
-200.7704620361328
 31
0.0
1001
DBPROPERTIES
1002
{
1000
PbHidd
1002
}
  0
LINE
  5
4D8
330
1F
100
AcDbEntity
  8
HIDDEN
100
AcDbLine
 10
-43.92771530151367
 20
-200.7704620361328
 30
0.0
 11
-43.93040084838867
 21
-200.7924041748047
 31
0.0
1001
DBPROPERTIES
1002
{
1000
PbHidd
1002
}
  0
LINE
  5
4D9
330
1F
100
AcDbEntity
  8
HIDDEN
100
AcDbLine
 10
-43.93040084838867
 20
-200.7924041748047
 30
0.0
 11
-43.93257141113281
 21
-200.8101806640625
 31
0.0
1001
DBPROPERTIES
1002
{
1000
PbHidd
1002
}
  0
LINE
  5
4DA
330
1F
100
AcDbEntity
  8
HIDDEN
100
AcDbLine
 10
-43.93257141113281
 20
-200.8101806640625
 30
0.0
 11
-43.93423080444336
 21
-200.8237762451172
 31
0.0
1001
DBPROPERTIES
1002
{
1000
PbHidd
1002
}
  0
LINE
  5
4DB
330
1F
100
AcDbEntity
  8
HIDDEN
100
AcDbLine
 10
-43.93423080444336
 20
-200.8237762451172
 30
0.0
 11
-43.93539047241211
 21
-200.8332824707031
 31
0.0
1001
DBPROPERTIES
1002
{
1000
PbHidd
1002
}
  0
LINE
  5
4DC
330
1F
100
AcDbEntity
  8
HIDDEN
100
AcDbLine
 10
-43.93539047241211
 20
-200.8332824707031
 30
0.0
 11
-43.93607330322266
 21
-200.8388671875
 31
0.0
1001
DBPROPERTIES
1002
{
1000
PbHidd
1002
}
  0
LINE
  5
4DD
330
1F
100
AcDbEntity
  8
HIDDEN
100
AcDbLine
 10
-43.93607330322266
 20
-200.8388671875
 30
0.0
 11
-43.93629455566406
 21
-200.8406829833984
 31
0.0
1001
DBPROPERTIES
1002
{
1000
PbHidd
1002
}
  0
LINE
  5
4DE
330
1F
100
AcDbEntity
  8
HIDDEN
100
AcDbLine
 10
-62.25
 20
-176.9
 30
0.0
 11
-58.25
 21
-176.9
 31
0.0
1001
DBPROPERTIES
1002
{
1000
PbHidd
1002
}
  0
ELLIPSE
  5
4DF
330
1F
100
AcDbEntity
  8
HIDDEN
100
AcDbEllipse
 10
-76.24213562373093
 20
-19.38
 30
0.0
 11
2.449212707644754E-16
 21
4.0
 31
0.0
210
0.0
220
0.0
230
1.0
 40
0.7071067811865476
 41
0.0010622085814377
 42
0.0013902388952066
1001
DBPROPERTIES
1002
{
1000
PbHidd
1002
}
  0
ELLIPSE
  5
4E0
330
1F
100
AcDbEntity
  8
THICK
100
AcDbEllipse
 10
-76.24213562373093
 20
-19.38
 30
0.0
 11
2.449212707644754E-16
 21
4.0
 31
0.0
210
0.0
220
0.0
230
1.0
 40
0.7071067811865476
 41
-0.0000087984844416
 42
0.0010622085814377
1001
DBPROPERTIES
1002
{
1000
PbThick
1002
}
  0
ELLIPSE
  5
4E1
330
1F
100
AcDbEntity
  8
THICK
100
AcDbEllipse
 10
-76.24213562373093
 20
-19.38
 30
0.0
 11
2.449212707644754E-16
 21
4.0
 31
0.0
210
0.0
220
0.0
230
1.0
 40
0.7071067811865476
 41
-0.0046284920772378
 42
-0.0000087984844416
1001
DBPROPERTIES
1002
{
1000
PbThick
1002
}
  0
ELLIPSE
  5
4E2
330
1F
100
AcDbEntity
  8
HIDDEN
100
AcDbEllipse
 10
-76.24213562373093
 20
-19.38
 30
0.0
 11
2.449212707644754E-16
 21
4.0
 31
0.0
210
0.0
220
0.0
230
1.0
 40
0.7071067811865476
 41
-1.570796326794897
 42
-0.0046284920772377
1001
DBPROPERTIES
1002
{
1000
PbHidd
1002
}
  0
ELLIPSE
  5
4E3
330
1F
100
AcDbEntity
  8
HIDDEN
100
AcDbEllipse
 10
-76.24999999999999
 20
-19.38
 30
0.0
 11
-2.449212707644755E-16
 21
-4.0
 31
0.0
210
0.0
220
0.0
230
1.0
 40
0.7071067811865476
 41
1.570670060947325
 42
3.140202414694506
1001
DBPROPERTIES
1002
{
1000
PbHidd
1002
}
  0
LINE
  5
4E4
330
1F
100
AcDbEntity
  8
HIDDEN
100
AcDbLine
 10
-77.5730209350586
 20
-15.75086307525635
 30
0.0
 11
-77.59756469726562
 21
-15.76617431640625
 31
0.0
1001
DBPROPERTIES
1002
{
1000
PbHidd
1002
}
  0
LINE
  5
4E5
330
1F
100
AcDbEntity
  8
HIDDEN
100
AcDbLine
 10
-77.59756469726562
 20
-15.76617431640625
 30
0.0
 11
-77.62197875976562
 21
-15.78176784515381
 31
0.0
1001
DBPROPERTIES
1002
{
1000
PbHidd
1002
}
  0
LINE
  5
4E6
330
1F
100
AcDbEntity
  8
HIDDEN
100
AcDbLine
 10
-77.62197875976562
 20
-15.78176784515381
 30
0.0
 11
-77.64625549316406
 21
-15.79763984680176
 31
0.0
1001
DBPROPERTIES
1002
{
1000
PbHidd
1002
}
  0
LINE
  5
4E7
330
1F
100
AcDbEntity
  8
HIDDEN
100
AcDbLine
 10
-77.64625549316406
 20
-15.79763984680176
 30
0.0
 11
-77.67039489746094
 21
-15.81378364562988
 31
0.0
1001
DBPROPERTIES
1002
{
1000
PbHidd
1002
}
  0
LINE
  5
4E8
330
1F
100
AcDbEntity
  8
HIDDEN
100
AcDbLine
 10
-77.67039489746094
 20
-15.81378364562988
 30
0.0
 11
-77.69438171386719
 21
-15.83019161224365
 31
0.0
1001
DBPROPERTIES
1002
{
1000
PbHidd
1002
}
  0
LINE
  5
4E9
330
1F
100
AcDbEntity
  8
HIDDEN
100
AcDbLine
 10
-77.69438171386719
 20
-15.83019161224365
 30
0.0
 11
-77.71820831298828
 21
-15.84685611724854
 31
0.0
1001
DBPROPERTIES
1002
{
1000
PbHidd
1002
}
  0
LINE
  5
4EA
330
1F
100
AcDbEntity
  8
THICK
100
AcDbLine
 10
-77.71820831298828
 20
-15.84685611724854
 30
0.0
 11
-77.88599395751953
 21
-15.97507572174072
 31
0.0
1001
DBPROPERTIES
1002
{
1000
PbThick
1002
}
  0
LINE
  5
4EB
330
1F
100
AcDbEntity
  8
THICK
100
AcDbLine
 10
-77.88599395751953
 20
-15.97507572174072
 30
0.0
 11
-78.0423583984375
 21
-16.11319923400879
 31
0.0
1001
DBPROPERTIES
1002
{
1000
PbThick
1002
}
  0
LINE
  5
4EC
330
1F
100
AcDbEntity
  8
THICK
100
AcDbLine
 10
-78.0423583984375
 20
-16.11319923400879
 30
0.0
 11
-78.18785095214844
 21
-16.26001739501953
 31
0.0
1001
DBPROPERTIES
1002
{
1000
PbThick
1002
}
  0
LINE
  5
4ED
330
1F
100
AcDbEntity
  8
THICK
100
AcDbLine
 10
-78.18785095214844
 20
-16.26001739501953
 30
0.0
 11
-78.33055877685547
 21
-16.42373657226562
 31
0.0
1001
DBPROPERTIES
1002
{
1000
PbThick
1002
}
  0
LINE
  5
4EE
330
1F
100
AcDbEntity
  8
THICK
100
AcDbLine
 10
-78.33055877685547
 20
-16.42373657226562
 30
0.0
 11
-78.4683837890625
 21
-16.6037540435791
 31
0.0
1001
DBPROPERTIES
1002
{
1000
PbThick
1002
}
  0
LINE
  5
4EF
330
1F
100
AcDbEntity
  8
THICK
100
AcDbLine
 10
-78.4683837890625
 20
-16.6037540435791
 30
0.0
 11
-78.59866333007812
 21
-16.7977123260498
 31
0.0
1001
DBPROPERTIES
1002
{
1000
PbThick
1002
}
  0
LINE
  5
4F0
330
1F
100
AcDbEntity
  8
THICK
100
AcDbLine
 10
-78.59866333007812
 20
-16.7977123260498
 30
0.0
 11
-78.71916961669922
 21
-17.00282287597656
 31
0.0
1001
DBPROPERTIES
1002
{
1000
PbThick
1002
}
  0
LINE
  5
4F1
330
1F
100
AcDbEntity
  8
THICK
100
AcDbLine
 10
-78.71916961669922
 20
-17.00282287597656
 30
0.0
 11
-78.82823944091797
 21
-17.21563148498535
 31
0.0
1001
DBPROPERTIES
1002
{
1000
PbThick
1002
}
  0
LINE
  5
4F2
330
1F
100
AcDbEntity
  8
THICK
100
AcDbLine
 10
-78.82823944091797
 20
-17.21563148498535
 30
0.0
 11
-78.92459106445312
 21
-17.43220901489258
 31
0.0
1001
DBPROPERTIES
1002
{
1000
PbThick
1002
}
  0
LINE
  5
4F3
330
1F
100
AcDbEntity
  8
THICK
100
AcDbLine
 10
-78.92459106445312
 20
-17.43220901489258
 30
0.0
 11
-79.00794982910156
 21
-17.64907836914062
 31
0.0
1001
DBPROPERTIES
1002
{
1000
PbThick
1002
}
  0
LINE
  5
4F4
330
1F
100
AcDbEntity
  8
THICK
100
AcDbLine
 10
-79.00794982910156
 20
-17.64907836914062
 30
0.0
 11
-79.08270263671875
 21
-17.87713813781738
 31
0.0
1001
DBPROPERTIES
1002
{
1000
PbThick
1002
}
  0
LINE
  5
4F5
330
1F
100
AcDbEntity
  8
THICK
100
AcDbLine
 10
-79.08270263671875
 20
-17.87713813781738
 30
0.0
 11
-79.14848327636719
 21
-18.11798858642578
 31
0.0
1001
DBPROPERTIES
1002
{
1000
PbThick
1002
}
  0
LINE
  5
4F6
330
1F
100
AcDbEntity
  8
THICK
100
AcDbLine
 10
-79.14848327636719
 20
-18.11798858642578
 30
0.0
 11
-79.20343780517578
 21
-18.36801528930664
 31
0.0
1001
DBPROPERTIES
1002
{
1000
PbThick
1002
}
  0
LINE
  5
4F7
330
1F
100
AcDbEntity
  8
THICK
100
AcDbLine
 10
-79.20343780517578
 20
-18.36801528930664
 30
0.0
 11
-79.24632263183594
 21
-18.62335205078125
 31
0.0
1001
DBPROPERTIES
1002
{
1000
PbThick
1002
}
  0
LINE
  5
4F8
330
1F
100
AcDbEntity
  8
THICK
100
AcDbLine
 10
-79.24632263183594
 20
-18.62335205078125
 30
0.0
 11
-79.27658081054688
 21
-18.8799934387207
 31
0.0
1001
DBPROPERTIES
1002
{
1000
PbThick
1002
}
  0
LINE
  5
4F9
330
1F
100
AcDbEntity
  8
THICK
100
AcDbLine
 10
-79.27658081054688
 20
-18.8799934387207
 30
0.0
 11
-79.29417419433594
 21
-19.13367652893066
 31
0.0
1001
DBPROPERTIES
1002
{
1000
PbThick
1002
}
  0
LINE
  5
4FA
330
1F
100
AcDbEntity
  8
THICK
100
AcDbLine
 10
-79.29417419433594
 20
-19.13367652893066
 30
0.0
 11
-79.29981231689453
 21
-19.3799991607666
 31
0.0
1001
DBPROPERTIES
1002
{
1000
PbThick
1002
}
  0
LINE
  5
4FB
330
1F
100
AcDbEntity
  8
HIDDEN
100
AcDbLine
 10
-76.38784790039062
 20
-15.3800048828125
 30
0.0
 11
-76.50590515136719
 21
-15.38388633728027
 31
0.0
1001
DBPROPERTIES
1002
{
1000
PbHidd
1002
}
  0
LINE
  5
4FC
330
1F
100
AcDbEntity
  8
HIDDEN
100
AcDbLine
 10
-76.50590515136719
 20
-15.38388633728027
 30
0.0
 11
-76.62733459472656
 21
-15.39516544342041
 31
0.0
1001
DBPROPERTIES
1002
{
1000
PbHidd
1002
}
  0
LINE
  5
4FD
330
1F
100
AcDbEntity
  8
HIDDEN
100
AcDbLine
 10
-76.62733459472656
 20
-15.39516544342041
 30
0.0
 11
-76.7508316040039
 21
-15.41408920288086
 31
0.0
1001
DBPROPERTIES
1002
{
1000
PbHidd
1002
}
  0
LINE
  5
4FE
330
1F
100
AcDbEntity
  8
HIDDEN
100
AcDbLine
 10
-76.7508316040039
 20
-15.41408920288086
 30
0.0
 11
-76.8750991821289
 21
-15.44090366363525
 31
0.0
1001
DBPROPERTIES
1002
{
1000
PbHidd
1002
}
  0
LINE
  5
4FF
330
1F
100
AcDbEntity
  8
HIDDEN
100
AcDbLine
 10
-76.8750991821289
 20
-15.44090366363525
 30
0.0
 11
-76.99884796142578
 21
-15.47578239440918
 31
0.0
1001
DBPROPERTIES
1002
{
1000
PbHidd
1002
}
  0
LINE
  5
500
330
1F
100
AcDbEntity
  8
HIDDEN
100
AcDbLine
 10
-76.99884796142578
 20
-15.47578239440918
 30
0.0
 11
-77.12084197998047
 21
-15.51850986480713
 31
0.0
1001
DBPROPERTIES
1002
{
1000
PbHidd
1002
}
  0
LINE
  5
501
330
1F
100
AcDbEntity
  8
HIDDEN
100
AcDbLine
 10
-77.12084197998047
 20
-15.51850986480713
 30
0.0
 11
-77.23995971679688
 21
-15.56803894042969
 31
0.0
1001
DBPROPERTIES
1002
{
1000
PbHidd
1002
}
  0
LINE
  5
502
330
1F
100
AcDbEntity
  8
HIDDEN
100
AcDbLine
 10
-77.23995971679688
 20
-15.56803894042969
 30
0.0
 11
-77.35507202148438
 21
-15.62348556518555
 31
0.0
1001
DBPROPERTIES
1002
{
1000
PbHidd
1002
}
  0
LINE
  5
503
330
1F
100
AcDbEntity
  8
HIDDEN
100
AcDbLine
 10
-77.35507202148438
 20
-15.62348556518555
 30
0.0
 11
-77.46503448486328
 21
-15.68391799926758
 31
0.0
1001
DBPROPERTIES
1002
{
1000
PbHidd
1002
}
  0
LINE
  5
504
330
1F
100
AcDbEntity
  8
HIDDEN
100
AcDbLine
 10
-77.46503448486328
 20
-15.68391799926758
 30
0.0
 11
-77.5730209350586
 21
-15.75086307525635
 31
0.0
1001
DBPROPERTIES
1002
{
1000
PbHidd
1002
}
  0
LINE
  5
505
330
1F
100
AcDbEntity
  8
THICK
100
AcDbLine
 10
-76.39432525634766
 20
-15.38308429718018
 30
0.0
 11
-76.38894653320312
 21
-15.3825511932373
 31
0.0
1001
DBPROPERTIES
1002
{
1000
PbThick
1002
}
  0
LINE
  5
506
330
1F
100
AcDbEntity
  8
THICK
100
AcDbLine
 10
-76.38894653320312
 20
-15.3825511932373
 30
0.0
 11
-76.38399505615234
 21
-15.382080078125
 31
0.0
1001
DBPROPERTIES
1002
{
1000
PbThick
1002
}
  0
LINE
  5
507
330
1F
100
AcDbEntity
  8
THICK
100
AcDbLine
 10
-76.38399505615234
 20
-15.382080078125
 30
0.0
 11
-76.37950897216797
 21
-15.38167190551758
 31
0.0
1001
DBPROPERTIES
1002
{
1000
PbThick
1002
}
  0
LINE
  5
508
330
1F
100
AcDbEntity
  8
THICK
100
AcDbLine
 10
-76.37950897216797
 20
-15.38167190551758
 30
0.0
 11
-76.3755111694336
 21
-15.38132190704346
 31
0.0
1001
DBPROPERTIES
1002
{
1000
PbThick
1002
}
  0
LINE
  5
509
330
1F
100
AcDbEntity
  8
THICK
100
AcDbLine
 10
-76.3755111694336
 20
-15.38132190704346
 30
0.0
 11
-76.37203216552734
 21
-15.38102531433105
 31
0.0
1001
DBPROPERTIES
1002
{
1000
PbThick
1002
}
  0
LINE
  5
50A
330
1F
100
AcDbEntity
  8
THICK
100
AcDbLine
 10
-76.37203216552734
 20
-15.38102531433105
 30
0.0
 11
-76.36910247802734
 21
-15.38077831268311
 31
0.0
1001
DBPROPERTIES
1002
{
1000
PbThick
1002
}
  0
LINE
  5
50B
330
1F
100
AcDbEntity
  8
THICK
100
AcDbLine
 10
-76.36910247802734
 20
-15.38077831268311
 30
0.0
 11
-76.36676025390625
 21
-15.38057231903076
 31
0.0
1001
DBPROPERTIES
1002
{
1000
PbThick
1002
}
  0
LINE
  5
50C
330
1F
100
AcDbEntity
  8
THICK
100
AcDbLine
 10
-76.36676025390625
 20
-15.38057231903076
 30
0.0
 11
-76.36502838134766
 21
-15.38041496276855
 31
0.0
1001
DBPROPERTIES
1002
{
1000
PbThick
1002
}
  0
LINE
  5
50D
330
1F
100
AcDbEntity
  8
THICK
100
AcDbLine
 10
-76.36502838134766
 20
-15.38041496276855
 30
0.0
 11
-76.36393737792969
 21
-15.38029003143311
 31
0.0
1001
DBPROPERTIES
1002
{
1000
PbThick
1002
}
  0
LINE
  5
50E
330
1F
100
AcDbEntity
  8
THICK
100
AcDbLine
 10
-76.36393737792969
 20
-15.38029003143311
 30
0.0
 11
-76.363525390625
 21
-15.38019466400146
 31
0.0
1001
DBPROPERTIES
1002
{
1000
PbThick
1002
}
  0
LINE
  5
50F
330
1F
100
AcDbEntity
  8
THICK
100
AcDbLine
 10
-76.363525390625
 20
-15.38019466400146
 30
0.0
 11
-76.3639144897461
 21
-15.38012218475342
 31
0.0
1001
DBPROPERTIES
1002
{
1000
PbThick
1002
}
  0
LINE
  5
510
330
1F
100
AcDbEntity
  8
THICK
100
AcDbLine
 10
-76.3639144897461
 20
-15.38012218475342
 30
0.0
 11
-76.36527252197266
 21
-15.38007068634033
 31
0.0
1001
DBPROPERTIES
1002
{
1000
PbThick
1002
}
  0
LINE
  5
511
330
1F
100
AcDbEntity
  8
THICK
100
AcDbLine
 10
-76.36527252197266
 20
-15.38007068634033
 30
0.0
 11
-76.3677749633789
 21
-15.38003635406494
 31
0.0
1001
DBPROPERTIES
1002
{
1000
PbThick
1002
}
  0
LINE
  5
512
330
1F
100
AcDbEntity
  8
THICK
100
AcDbLine
 10
-76.3677749633789
 20
-15.38003635406494
 30
0.0
 11
-76.37158966064453
 21
-15.38001728057861
 31
0.0
1001
DBPROPERTIES
1002
{
1000
PbThick
1002
}
  0
LINE
  5
513
330
1F
100
AcDbEntity
  8
HIDDEN
100
AcDbLine
 10
-76.2460708618164
 20
-15.38000392913818
 30
0.0
 11
-76.24639892578125
 21
-15.38000392913818
 31
0.0
1001
DBPROPERTIES
1002
{
1000
PbHidd
1002
}
  0
LINE
  5
514
330
1F
100
AcDbEntity
  8
HIDDEN
100
AcDbLine
 10
-76.24639892578125
 20
-15.38000392913818
 30
0.0
 11
-76.24674987792969
 21
-15.38000392913818
 31
0.0
1001
DBPROPERTIES
1002
{
1000
PbHidd
1002
}
  0
LINE
  5
515
330
1F
100
AcDbEntity
  8
HIDDEN
100
AcDbLine
 10
-76.24674987792969
 20
-15.38000392913818
 30
0.0
 11
-76.24711608886719
 21
-15.38000392913818
 31
0.0
1001
DBPROPERTIES
1002
{
1000
PbHidd
1002
}
  0
LINE
  5
516
330
1F
100
AcDbEntity
  8
HIDDEN
100
AcDbLine
 10
-76.24711608886719
 20
-15.38000392913818
 30
0.0
 11
-76.24750518798828
 21
-15.38000392913818
 31
0.0
1001
DBPROPERTIES
1002
{
1000
PbHidd
1002
}
  0
LINE
  5
517
330
1F
100
AcDbEntity
  8
HIDDEN
100
AcDbLine
 10
-76.24750518798828
 20
-15.38000392913818
 30
0.0
 11
-76.24789428710938
 21
-15.38000392913818
 31
0.0
1001
DBPROPERTIES
1002
{
1000
PbHidd
1002
}
  0
LINE
  5
518
330
1F
100
AcDbEntity
  8
HIDDEN
100
AcDbLine
 10
-76.24789428710938
 20
-15.38000392913818
 30
0.0
 11
-76.24832153320312
 21
-15.38000392913818
 31
0.0
1001
DBPROPERTIES
1002
{
1000
PbHidd
1002
}
  0
LINE
  5
519
330
1F
100
AcDbEntity
  8
HIDDEN
100
AcDbLine
 10
-76.24832153320312
 20
-15.38000392913818
 30
0.0
 11
-76.24873352050781
 21
-15.3800048828125
 31
0.0
1001
DBPROPERTIES
1002
{
1000
PbHidd
1002
}
  0
LINE
  5
51A
330
1F
100
AcDbEntity
  8
HIDDEN
100
AcDbLine
 10
-76.24873352050781
 20
-15.3800048828125
 30
0.0
 11
-76.24916076660156
 21
-15.3800048828125
 31
0.0
1001
DBPROPERTIES
1002
{
1000
PbHidd
1002
}
  0
LINE
  5
51B
330
1F
100
AcDbEntity
  8
HIDDEN
100
AcDbLine
 10
-76.24916076660156
 20
-15.3800048828125
 30
0.0
 11
-76.24958038330078
 21
-15.3800048828125
 31
0.0
1001
DBPROPERTIES
1002
{
1000
PbHidd
1002
}
  0
LINE
  5
51C
330
1F
100
AcDbEntity
  8
HIDDEN
100
AcDbLine
 10
-76.24958038330078
 20
-15.3800048828125
 30
0.0
 11
-76.25
 21
-15.3800048828125
 31
0.0
1001
DBPROPERTIES
1002
{
1000
PbHidd
1002
}
  0
LINE
  5
51D
330
1F
100
AcDbEntity
  8
THICK
100
AcDbLine
 10
-62.24999999999999
 20
-39.38
 30
0.0
 11
-59.42157287525379
 21
-39.38
 31
0.0
1001
DBPROPERTIES
1002
{
1000
PbThick
1002
}
  0
LINE
  5
51E
330
1F
100
AcDbEntity
  8
THICK
100
AcDbLine
 10
-76.15196228027344
 20
-15.38240337371826
 30
0.0
 11
-76.16812133789062
 21
-15.38247013092041
 31
0.0
1001
DBPROPERTIES
1002
{
1000
PbThick
1002
}
  0
LINE
  5
51F
330
1F
100
AcDbEntity
  8
THICK
100
AcDbLine
 10
-76.16812133789062
 20
-15.38247013092041
 30
0.0
 11
-76.18436431884766
 21
-15.38266944885254
 31
0.0
1001
DBPROPERTIES
1002
{
1000
PbThick
1002
}
  0
LINE
  5
520
330
1F
100
AcDbEntity
  8
THICK
100
AcDbLine
 10
-76.18436431884766
 20
-15.38266944885254
 30
0.0
 11
-76.20066833496094
 21
-15.38299655914307
 31
0.0
1001
DBPROPERTIES
1002
{
1000
PbThick
1002
}
  0
LINE
  5
521
330
1F
100
AcDbEntity
  8
THICK
100
AcDbLine
 10
-76.20066833496094
 20
-15.38299655914307
 30
0.0
 11
-76.21704864501953
 21
-15.38347244262695
 31
0.0
1001
DBPROPERTIES
1002
{
1000
PbThick
1002
}
  0
LINE
  5
522
330
1F
100
AcDbEntity
  8
THICK
100
AcDbLine
 10
-76.21704864501953
 20
-15.38347244262695
 30
0.0
 11
-76.23348999023438
 21
-15.38407897949219
 31
0.0
1001
DBPROPERTIES
1002
{
1000
PbThick
1002
}
  0
LINE
  5
523
330
1F
100
AcDbEntity
  8
THICK
100
AcDbLine
 10
-76.23348999023438
 20
-15.38407897949219
 30
0.0
 11
-76.25
 21
-15.38480472564697
 31
0.0
1001
DBPROPERTIES
1002
{
1000
PbThick
1002
}
  0
ELLIPSE
  5
524
330
1F
100
AcDbEntity
  8
THICK
100
AcDbEllipse
 10
-76.39213562373094
 20
-19.38
 30
0.0
 11
-2.449212707644755E-16
 21
-4.0
 31
0.0
210
0.0
220
0.0
230
1.0
 40
0.7071067811865475
 41
-3.141592653589793
 42
0.0
1001
DBPROPERTIES
1002
{
1000
PbThick
1002
}
  0
ELLIPSE
  5
525
330
1F
100
AcDbEntity
  8
HIDDEN
100
AcDbEllipse
 10
-76.39213562373094
 20
-19.38
 30
0.0
 11
-2.446118233605692E-16
 21
-3.994946173471331
 31
0.0
210
0.0
220
0.0
230
1.0
 40
0.7071067811865475
 41
-2.710313803336694
 42
-0.4312788502550644
1001
DBPROPERTIES
1002
{
1000
PbHidd
1002
}
  0
LINE
  5
526
330
1F
100
AcDbEntity
  8
THICK
100
AcDbLine
 10
30.25
 20
-170.575
 30
0.0
 11
-30.25
 21
-170.575
 31
0.0
1001
DBPROPERTIES
1002
{
1000
PbThick
1002
}
  0
LINE
  5
527
330
1F
100
AcDbEntity
  8
THICK
100
AcDbLine
 10
35.25
 20
-165.575
 30
0.0
 11
30.25
 21
-170.575
 31
0.0
1001
DBPROPERTIES
1002
{
1000
PbThick
1002
}
  0
LINE
  5
528
330
1F
100
AcDbEntity
  8
THICK
100
AcDbLine
 10
35.25000000000001
 20
-165.575
 30
0.0
 11
-35.24999999999999
 21
-165.575
 31
0.0
1001
DBPROPERTIES
1002
{
1000
PbThick
1002
}
  0
LINE
  5
529
330
1F
100
AcDbEntity
  8
THICK
100
AcDbLine
 10
-35.25
 20
-165.575
 30
0.0
 11
-25.25
 21
-175.575
 31
0.0
1001
DBPROPERTIES
1002
{
1000
PbThick
1002
}
  0
LINE
  5
52A
330
1F
100
AcDbEntity
  8
THICK
100
AcDbLine
 10
35.25
 20
-236.075
 30
0.0
 11
35.25
 21
-165.575
 31
0.0
1001
DBPROPERTIES
1002
{
1000
PbThick
1002
}
  0
LINE
  5
52B
330
1F
100
AcDbEntity
  8
THICK
100
AcDbLine
 10
30.25
 20
-231.075
 30
0.0
 11
30.25000000000001
 21
-170.575
 31
0.0
1001
DBPROPERTIES
1002
{
1000
PbThick
1002
}
  0
LINE
  5
52C
330
1F
100
AcDbEntity
  8
THICK
100
AcDbLine
 10
30.25
 20
-231.075
 30
0.0
 11
35.25
 21
-236.075
 31
0.0
1001
DBPROPERTIES
1002
{
1000
PbThick
1002
}
  0
LINE
  5
52D
330
1F
100
AcDbEntity
  8
THICK
100
AcDbLine
 10
-30.25
 20
-231.075
 30
0.0
 11
-30.24999999999999
 21
-170.575
 31
0.0
1001
DBPROPERTIES
1002
{
1000
PbThick
1002
}
  0
LINE
  5
52E
330
1F
100
AcDbEntity
  8
THICK
100
AcDbLine
 10
30.25
 20
-231.075
 30
0.0
 11
-30.25
 21
-231.075
 31
0.0
1001
DBPROPERTIES
1002
{
1000
PbThick
1002
}
  0
LINE
  5
52F
330
1F
100
AcDbEntity
  8
THICK
100
AcDbLine
 10
-35.25
 20
-236.075
 30
0.0
 11
-30.25
 21
-231.075
 31
0.0
1001
DBPROPERTIES
1002
{
1000
PbThick
1002
}
  0
LINE
  5
530
330
1F
100
AcDbEntity
  8
THICK
100
AcDbLine
 10
35.25
 20
-236.075
 30
0.0
 11
-35.25
 21
-236.075
 31
0.0
1001
DBPROPERTIES
1002
{
1000
PbThick
1002
}
  0
LINE
  5
531
330
1F
100
AcDbEntity
  8
HIDDEN
100
AcDbLine
 10
35.25
 20
-236.075
 30
0.0
 11
35.25
 21
-236.075
 31
0.0
1001
DBPROPERTIES
1002
{
1000
PbHidd
1002
}
  0
LINE
  5
532
330
1F
100
AcDbEntity
  8
HIDDEN
100
AcDbLine
 10
35.25
 20
-165.575
 30
0.0
 11
35.25
 21
-165.575
 31
0.0
1001
DBPROPERTIES
1002
{
1000
PbHidd
1002
}
  0
LINE
  5
533
330
1F
100
AcDbEntity
  8
HIDDEN
100
AcDbLine
 10
35.25
 20
-179.0
 30
0.0
 11
35.25
 21
-179.0
 31
0.0
1001
DBPROPERTIES
1002
{
1000
PbHidd
1002
}
  0
LINE
  5
534
330
1F
100
AcDbEntity
  8
THICK
100
AcDbLine
 10
0.0000000000000029
 20
0.0
 30
0.0
 11
47.0
 21
0.0
 31
0.0
1001
DBPROPERTIES
1002
{
1000
PbThick
1002
}
  0
LINE
  5
535
330
1F
100
AcDbEntity
  8
HIDDEN
100
AcDbLine
 10
-197.4
 20
-166.1
 30
0.0
 11
-0.0000000000000461
 21
-166.1
 31
0.0
1001
DBPROPERTIES
1002
{
1000
PbHidd
1002
}
  0
LINE
  5
536
330
1F
100
AcDbEntity
  8
THICK
100
AcDbLine
 10
192.7
 20
-145.4375
 30
0.0
 11
0.0000000000000029
 21
-145.4375
 31
0.0
1001
DBPROPERTIES
1002
{
1000
PbThick
1002
}
  0
LINE
  5
537
330
1F
100
AcDbEntity
  8
THICK
100
AcDbLine
 10
216.2
 20
-154.8375
 30
0.0
 11
0.0000000000000043
 21
-154.8375
 31
0.0
1001
DBPROPERTIES
1002
{
1000
PbThick
1002
}
  0
LINE
  5
538
330
1F
100
AcDbEntity
  8
THICK
100
AcDbLine
 10
192.7
 20
-123.0625
 30
0.0
 11
0.0000000000000043
 21
-123.0625
 31
0.0
1001
DBPROPERTIES
1002
{
1000
PbThick
1002
}
  0
LINE
  5
539
330
1F
100
AcDbEntity
  8
THICK
100
AcDbLine
 10
216.2
 20
-132.4625
 30
0.0
 11
0.0000000000000057
 21
-132.4625
 31
0.0
1001
DBPROPERTIES
1002
{
1000
PbThick
1002
}
  0
LINE
  5
53A
330
1F
100
AcDbEntity
  8
THICK
100
AcDbLine
 10
192.7
 20
-100.6875
 30
0.0
 11
0.0000000000000056
 21
-100.6875
 31
0.0
1001
DBPROPERTIES
1002
{
1000
PbThick
1002
}
  0
LINE
  5
53B
330
1F
100
AcDbEntity
  8
THICK
100
AcDbLine
 10
216.2
 20
-110.0875
 30
0.0
 11
0.0000000000000071
 21
-110.0875
 31
0.0
1001
DBPROPERTIES
1002
{
1000
PbThick
1002
}
  0
LINE
  5
53C
330
1F
100
AcDbEntity
  8
THICK
100
AcDbLine
 10
192.7
 20
-78.3125
 30
0.0
 11
0.000000000000007
 21
-78.3125
 31
0.0
1001
DBPROPERTIES
1002
{
1000
PbThick
1002
}
  0
LINE
  5
53D
330
1F
100
AcDbEntity
  8
THICK
100
AcDbLine
 10
216.2
 20
-87.7125
 30
0.0
 11
0.0000000000000084
 21
-87.7125
 31
0.0
1001
DBPROPERTIES
1002
{
1000
PbThick
1002
}
  0
LINE
  5
53E
330
1F
100
AcDbEntity
  8
THICK
100
AcDbLine
 10
192.7
 20
-55.9375
 30
0.0
 11
0.0000000000000084
 21
-55.9375
 31
0.0
1001
DBPROPERTIES
1002
{
1000
PbThick
1002
}
  0
LINE
  5
53F
330
1F
100
AcDbEntity
  8
THICK
100
AcDbLine
 10
216.2
 20
-65.3375
 30
0.0
 11
0.0000000000000098
 21
-65.3375
 31
0.0
1001
DBPROPERTIES
1002
{
1000
PbThick
1002
}
  0
LINE
  5
540
330
1F
100
AcDbEntity
  8
THICK
100
AcDbLine
 10
0.0000000000000144
 20
-44.75
 30
0.0
 11
235.0
 21
-44.75
 31
0.0
1001
DBPROPERTIES
1002
{
1000
PbThick
1002
}
  0
LINE
  5
541
330
1F
100
AcDbEntity
  8
THICK
100
AcDbLine
 10
83.92500000000001
 20
-25.0427820916122
 30
0.0
 11
0.0000000000000051
 21
-25.0427820916122
 31
0.0
1001
DBPROPERTIES
1002
{
1000
PbThick
1002
}
  0
LINE
  5
542
330
1F
100
AcDbEntity
  8
HIDDEN
100
AcDbLine
 10
83.92500000000001
 20
-25.0427820916122
 30
0.0
 11
0.0000000000000051
 21
-25.0427820916122
 31
0.0
1001
DBPROPERTIES
1002
{
1000
PbHidd
1002
}
  0
LINE
  5
543
330
1F
100
AcDbEntity
  8
THICK
100
AcDbLine
 10
0.0000000000000051
 20
-23.25278209161218
 30
0.0
 11
83.925
 21
-23.25278209161218
 31
0.0
1001
DBPROPERTIES
1002
{
1000
PbThick
1002
}
  0
LINE
  5
544
330
1F
100
AcDbEntity
  8
THICK
100
AcDbLine
 10
-35.24999999999999
 20
-179.0
 30
0.0
 11
-58.11158880782183
 21
-179.0
 31
0.0
1001
DBPROPERTIES
1002
{
1000
PbThick
1002
}
  0
LINE
  5
545
330
1F
100
AcDbEntity
  8
HIDDEN
100
AcDbLine
 10
-58.11158880782183
 20
-179.0
 30
0.0
 11
-66.15794840668492
 21
-179.0
 31
0.0
1001
DBPROPERTIES
1002
{
1000
PbHidd
1002
}
  0
LINE
  5
546
330
1F
100
AcDbEntity
  8
THICK
100
AcDbLine
 10
-197.4
 20
-179.0
 30
0.0
 11
-66.15794840668492
 21
-179.0
 31
0.0
1001
DBPROPERTIES
1002
{
1000
PbThick
1002
}
  0
LINE
  5
547
330
1F
100
AcDbEntity
  8
THICK
100
AcDbLine
 10
-124.5
 20
-239.9
 30
0.0
 11
-0.0000000000000071
 21
-239.9
 31
0.0
1001
DBPROPERTIES
1002
{
1000
PbThick
1002
}
  0
LINE
  5
548
330
1F
100
AcDbEntity
  8
THICK
100
AcDbLine
 10
-124.5
 20
-253.2
 30
0.0
 11
-0.0000000000000079
 21
-253.2
 31
0.0
1001
DBPROPERTIES
1002
{
1000
PbThick
1002
}
  0
LINE
  5
549
330
1F
100
AcDbEntity
  8
THICK
100
AcDbLine
 10
-120.15
 20
-257.55
 30
0.0
 11
120.15
 21
-257.55
 31
0.0
1001
DBPROPERTIES
1002
{
1000
PbThick
1002
}
  0
LINE
  5
54A
330
1F
100
AcDbEntity
  8
THICK
100
AcDbLine
 10
-124.5
 20
-261.9
 30
0.0
 11
-0.0000000000000084
 21
-261.9
 31
0.0
1001
DBPROPERTIES
1002
{
1000
PbThick
1002
}
  0
LINE
  5
54B
330
1F
100
AcDbEntity
  8
THICK
100
AcDbLine
 10
-0.0000000000000076
 20
-248.6
 30
0.0
 11
-124.5
 21
-248.6
 31
0.0
1001
DBPROPERTIES
1002
{
1000
PbThick
1002
}
  0
LINE
  5
54C
330
1F
100
AcDbEntity
  8
THICK
100
AcDbLine
 10
120.15
 20
-244.25
 30
0.0
 11
-120.15
 21
-244.25
 31
0.0
1001
DBPROPERTIES
1002
{
1000
PbThick
1002
}
  0
LINE
  5
54D
330
1F
100
AcDbEntity
  8
THICK
100
AcDbLine
 10
124.5
 20
-266.0
 30
0.0
 11
124.5
 21
-261.8999938964844
 31
0.0
1001
DBPROPERTIES
1002
{
1000
PbThick
1002
}
  0
LINE
  5
54E
330
1F
100
AcDbEntity
  8
THICK
100
AcDbLine
 10
124.5
 20
-253.1999969482422
 30
0.0
 11
124.5
 21
-248.6000061035156
 31
0.0
1001
DBPROPERTIES
1002
{
1000
PbThick
1002
}
  0
LINE
  5
54F
330
1F
100
AcDbEntity
  8
THICK
100
AcDbLine
 10
124.5
 20
-239.8999938964844
 30
0.0
 11
124.5
 21
-179.0
 31
0.0
1001
DBPROPERTIES
1002
{
1000
PbThick
1002
}
  0
LINE
  5
550
330
1F
100
AcDbEntity
  8
THICK
100
AcDbLine
 10
197.4
 20
-179.0
 30
0.0
 11
197.4
 21
-166.1000061035156
 31
0.0
1001
DBPROPERTIES
1002
{
1000
PbThick
1002
}
  0
LINE
  5
551
330
1F
100
AcDbEntity
  8
THICK
100
AcDbLine
 10
188.0
 20
-55.9375
 30
0.0
 11
188.0
 21
-44.75
 31
0.0
1001
DBPROPERTIES
1002
{
1000
PbThick
1002
}
  0
LINE
  5
552
330
1F
100
AcDbEntity
  8
THICK
100
AcDbLine
 10
-83.92500000000001
 20
-23.25278282165527
 30
0.0
 11
-83.92500000000001
 21
-25.04278182983398
 31
0.0
1001
DBPROPERTIES
1002
{
1000
PbThick
1002
}
  0
LINE
  5
553
330
1F
100
AcDbEntity
  8
THICK
100
AcDbLine
 10
-83.92500296712029
 20
-25.0427824786629
 30
0.0
 11
-235.0
 21
-44.75000000000001
 31
0.0
1001
DBPROPERTIES
1002
{
1000
PbThick
1002
}
  0
LINE
  5
554
330
1F
100
AcDbEntity
  8
THICK
100
AcDbLine
 10
188.0
 20
-78.3125
 30
0.0
 11
188.0
 21
-65.3375015258789
 31
0.0
1001
DBPROPERTIES
1002
{
1000
PbThick
1002
}
  0
LINE
  5
555
330
1F
100
AcDbEntity
  8
THICK
100
AcDbLine
 10
-192.6999973691743
 20
-55.9374989476697
 30
0.0
 11
-216.1999978953394
 21
-65.33749915813576
 31
0.0
1001
DBPROPERTIES
1002
{
1000
PbThick
1002
}
  0
LINE
  5
556
330
1F
100
AcDbEntity
  8
THICK
100
AcDbLine
 10
188.0
 20
-100.6875
 30
0.0
 11
188.0
 21
-87.7125015258789
 31
0.0
1001
DBPROPERTIES
1002
{
1000
PbThick
1002
}
  0
LINE
  5
557
330
1F
100
AcDbEntity
  8
THICK
100
AcDbLine
 10
-192.6999973691743
 20
-78.31249894766971
 30
0.0
 11
-216.1999978953394
 21
-87.71249915813576
 31
0.0
1001
DBPROPERTIES
1002
{
1000
PbThick
1002
}
  0
LINE
  5
558
330
1F
100
AcDbEntity
  8
THICK
100
AcDbLine
 10
188.0
 20
-123.0625
 30
0.0
 11
188.0
 21
-110.0875015258789
 31
0.0
1001
DBPROPERTIES
1002
{
1000
PbThick
1002
}
  0
LINE
  5
559
330
1F
100
AcDbEntity
  8
THICK
100
AcDbLine
 10
-192.6999973691743
 20
-100.6874989476697
 30
0.0
 11
-216.1999978953394
 21
-110.0874991581358
 31
0.0
1001
DBPROPERTIES
1002
{
1000
PbThick
1002
}
  0
LINE
  5
55A
330
1F
100
AcDbEntity
  8
THICK
100
AcDbLine
 10
188.0
 20
-145.4375
 30
0.0
 11
188.0
 21
-132.4624938964844
 31
0.0
1001
DBPROPERTIES
1002
{
1000
PbThick
1002
}
  0
LINE
  5
55B
330
1F
100
AcDbEntity
  8
THICK
100
AcDbLine
 10
-192.6999973691743
 20
-123.0624989476697
 30
0.0
 11
-216.1999952645137
 21
-132.4624981058055
 31
0.0
1001
DBPROPERTIES
1002
{
1000
PbThick
1002
}
  0
LINE
  5
55C
330
1F
100
AcDbEntity
  8
THICK
100
AcDbLine
 10
-192.6999973691743
 20
-145.4374989476697
 30
0.0
 11
-216.1999952645137
 21
-154.8374981058055
 31
0.0
1001
DBPROPERTIES
1002
{
1000
PbThick
1002
}
  0
LINE
  5
55D
330
1F
100
AcDbEntity
  8
THICK
100
AcDbLine
 10
188.0
 20
-161.1000061035156
 30
0.0
 11
188.0
 21
-154.8374938964844
 31
0.0
1001
DBPROPERTIES
1002
{
1000
PbThick
1002
}
  0
LINE
  5
55E
330
1F
100
AcDbEntity
  8
HIDDEN
100
AcDbLine
 10
-67.25
 20
-152.6641845703125
 30
0.0
 11
-67.25
 21
-154.8374938964844
 31
0.0
1001
DBPROPERTIES
1002
{
1000
PbHidd
1002
}
  0
LINE
  5
55F
330
1F
100
AcDbEntity
  8
HIDDEN
100
AcDbLine
 10
-67.25
 20
-130.2891845703125
 30
0.0
 11
-67.25
 21
-132.4624938964844
 31
0.0
1001
DBPROPERTIES
1002
{
1000
PbHidd
1002
}
  0
LINE
  5
560
330
1F
100
AcDbEntity
  8
HIDDEN
100
AcDbLine
 10
-67.25
 20
-107.914192199707
 30
0.0
 11
-67.25
 21
-110.0875015258789
 31
0.0
1001
DBPROPERTIES
1002
{
1000
PbHidd
1002
}
  0
LINE
  5
561
330
1F
100
AcDbEntity
  8
HIDDEN
100
AcDbLine
 10
-67.25
 20
-85.53919219970703
 30
0.0
 11
-67.25
 21
-87.7125015258789
 31
0.0
1001
DBPROPERTIES
1002
{
1000
PbHidd
1002
}
  0
LINE
  5
562
330
1F
100
AcDbEntity
  8
HIDDEN
100
AcDbLine
 10
-67.25
 20
-63.16419219970703
 30
0.0
 11
-67.25
 21
-65.3375015258789
 31
0.0
1001
DBPROPERTIES
1002
{
1000
PbHidd
1002
}
  0
LINE
  5
563
330
1F
100
AcDbEntity
  8
HIDDEN
100
AcDbLine
 10
-67.25
 20
-41.5888557434082
 30
0.0
 11
-67.25
 21
-44.75
 31
0.0
1001
DBPROPERTIES
1002
{
1000
PbHidd
1002
}
  0
LINE
  5
564
330
1F
100
AcDbEntity
  8
THICK
100
AcDbLine
 10
-47.0
 20
-0.0000000000000036
 30
0.0
 11
-55.87964697997408
 21
-15.37999972259066
 31
0.0
1001
DBPROPERTIES
1002
{
1000
PbThick
1002
}
  0
LINE
  5
565
330
1F
100
AcDbEntity
  8
HIDDEN
100
AcDbLine
 10
-55.87964697997408
 20
-15.37999972259066
 30
0.0
 11
-60.42500012538306
 21
-23.25278230878202
 31
0.0
1001
DBPROPERTIES
1002
{
1000
PbHidd
1002
}
  0
LINE
  5
566
330
1F
100
AcDbEntity
  8
THICK
100
AcDbLine
 10
-66.25
 20
-39.38000106811523
 30
0.0
 11
-66.25
 21
-41.91922760009766
 31
0.0
1001
DBPROPERTIES
1002
{
1000
PbThick
1002
}
  0
LINE
  5
567
330
1F
100
AcDbEntity
  8
HIDDEN
100
AcDbLine
 10
-66.25
 20
-41.91922760009766
 30
0.0
 11
-66.25
 21
-44.75
 31
0.0
1001
DBPROPERTIES
1002
{
1000
PbHidd
1002
}
  0
LINE
  5
568
330
1F
100
AcDbEntity
  8
THICK
100
AcDbLine
 10
-66.25
 20
-44.75
 30
0.0
 11
-66.25
 21
-64.17725372314453
 31
0.0
1001
DBPROPERTIES
1002
{
1000
PbThick
1002
}
  0
LINE
  5
569
330
1F
100
AcDbEntity
  8
HIDDEN
100
AcDbLine
 10
-66.25
 20
-64.17725372314453
 30
0.0
 11
-66.25
 21
-65.3375015258789
 31
0.0
1001
DBPROPERTIES
1002
{
1000
PbHidd
1002
}
  0
LINE
  5
56A
330
1F
100
AcDbEntity
  8
THICK
100
AcDbLine
 10
-66.25
 20
-65.3375015258789
 30
0.0
 11
-66.25
 21
-86.55225372314453
 31
0.0
1001
DBPROPERTIES
1002
{
1000
PbThick
1002
}
  0
LINE
  5
56B
330
1F
100
AcDbEntity
  8
HIDDEN
100
AcDbLine
 10
-66.25
 20
-86.55225372314453
 30
0.0
 11
-66.25
 21
-87.7125015258789
 31
0.0
1001
DBPROPERTIES
1002
{
1000
PbHidd
1002
}
  0
LINE
  5
56C
330
1F
100
AcDbEntity
  8
THICK
100
AcDbLine
 10
-66.25
 20
-87.7125015258789
 30
0.0
 11
-66.25
 21
-108.9272537231445
 31
0.0
1001
DBPROPERTIES
1002
{
1000
PbThick
1002
}
  0
LINE
  5
56D
330
1F
100
AcDbEntity
  8
HIDDEN
100
AcDbLine
 10
-66.25
 20
-108.9272537231445
 30
0.0
 11
-66.25
 21
-110.0875015258789
 31
0.0
1001
DBPROPERTIES
1002
{
1000
PbHidd
1002
}
  0
LINE
  5
56E
330
1F
100
AcDbEntity
  8
THICK
100
AcDbLine
 10
-66.25
 20
-110.0875015258789
 30
0.0
 11
-66.25
 21
-131.30224609375
 31
0.0
1001
DBPROPERTIES
1002
{
1000
PbThick
1002
}
  0
LINE
  5
56F
330
1F
100
AcDbEntity
  8
HIDDEN
100
AcDbLine
 10
-66.25
 20
-131.30224609375
 30
0.0
 11
-66.25
 21
-132.4624938964844
 31
0.0
1001
DBPROPERTIES
1002
{
1000
PbHidd
1002
}
  0
LINE
  5
570
330
1F
100
AcDbEntity
  8
THICK
100
AcDbLine
 10
-66.25
 20
-132.4624938964844
 30
0.0
 11
-66.25
 21
-153.67724609375
 31
0.0
1001
DBPROPERTIES
1002
{
1000
PbThick
1002
}
  0
LINE
  5
571
330
1F
100
AcDbEntity
  8
HIDDEN
100
AcDbLine
 10
-66.25
 20
-153.67724609375
 30
0.0
 11
-66.25
 21
-154.8374938964844
 31
0.0
1001
DBPROPERTIES
1002
{
1000
PbHidd
1002
}
  0
LINE
  5
572
330
1F
100
AcDbEntity
  8
THICK
100
AcDbLine
 10
-66.25
 20
-154.8374938964844
 30
0.0
 11
-66.25
 21
-176.8999938964844
 31
0.0
1001
DBPROPERTIES
1002
{
1000
PbThick
1002
}
  0
ARC
  5
573
330
1F
100
AcDbEntity
  8
THICK
100
AcDbCircle
 10
-76.24999999999999
 20
-19.38
 30
0.0
 40
4.0
100
AcDbArc
 50
89.99998127603165
 51
90.54904673110552
1001
DBPROPERTIES
1002
{
1000
PbThick
1002
}
  0
LINE
  5
574
330
1F
100
AcDbEntity
  8
HIDDEN
100
AcDbLine
 10
-76.39213562011719
 20
-15.38000011444092
 30
0.0
 11
-76.38739776611328
 21
-15.38000106811523
 31
0.0
1001
DBPROPERTIES
1002
{
1000
PbHidd
1002
}
  0
LINE
  5
575
330
1F
100
AcDbEntity
  8
HIDDEN
100
AcDbLine
 10
-76.38739776611328
 20
-15.38000106811523
 30
0.0
 11
-76.38414764404297
 21
-15.38000202178955
 31
0.0
1001
DBPROPERTIES
1002
{
1000
PbHidd
1002
}
  0
LINE
  5
576
330
1F
100
AcDbEntity
  8
HIDDEN
100
AcDbLine
 10
-76.38414764404297
 20
-15.38000202178955
 30
0.0
 11
-76.38314056396484
 21
-15.38000297546387
 31
0.0
1001
DBPROPERTIES
1002
{
1000
PbHidd
1002
}
  0
LINE
  5
577
330
1F
100
AcDbEntity
  8
HIDDEN
100
AcDbLine
 10
-76.38314056396484
 20
-15.38000297546387
 30
0.0
 11
-76.38212585449219
 21
-15.38000392913818
 31
0.0
1001
DBPROPERTIES
1002
{
1000
PbHidd
1002
}
  0
LINE
  5
578
330
1F
100
AcDbEntity
  8
HIDDEN
100
AcDbLine
 10
-76.38212585449219
 20
-15.38000392913818
 30
0.0
 11
-76.37956237792969
 21
-15.38000583648682
 31
0.0
1001
DBPROPERTIES
1002
{
1000
PbHidd
1002
}
  0
LINE
  5
579
330
1F
100
AcDbEntity
  8
HIDDEN
100
AcDbLine
 10
-76.37956237792969
 20
-15.38000583648682
 30
0.0
 11
-76.3759536743164
 21
-15.38000965118408
 31
0.0
1001
DBPROPERTIES
1002
{
1000
PbHidd
1002
}
  0
LINE
  5
57A
330
1F
100
AcDbEntity
  8
THICK
100
AcDbLine
 10
-76.1123275756836
 20
-15.38279628753662
 30
0.0
 11
-74.89442443847656
 21
-15.46026039123535
 31
0.0
1001
DBPROPERTIES
1002
{
1000
PbThick
1002
}
  0
LINE
  5
57B
330
1F
100
AcDbEntity
  8
THICK
100
AcDbLine
 10
-74.89442443847656
 20
-15.46026039123535
 30
0.0
 11
-73.67741394042969
 21
-15.64481258392334
 31
0.0
1001
DBPROPERTIES
1002
{
1000
PbThick
1002
}
  0
LINE
  5
57C
330
1F
100
AcDbEntity
  8
THICK
100
AcDbLine
 10
-73.67741394042969
 20
-15.64481258392334
 30
0.0
 11
-72.28590393066406
 21
-15.9907169342041
 31
0.0
1001
DBPROPERTIES
1002
{
1000
PbThick
1002
}
  0
LINE
  5
57D
330
1F
100
AcDbEntity
  8
THICK
100
AcDbLine
 10
-72.28590393066406
 20
-15.9907169342041
 30
0.0
 11
-70.90338134765625
 21
-16.48374557495117
 31
0.0
1001
DBPROPERTIES
1002
{
1000
PbThick
1002
}
  0
LINE
  5
57E
330
1F
100
AcDbEntity
  8
THICK
100
AcDbLine
 10
-70.90338134765625
 20
-16.48374557495117
 30
0.0
 11
-70.16753387451172
 21
-16.81038284301758
 31
0.0
1001
DBPROPERTIES
1002
{
1000
PbThick
1002
}
  0
LINE
  5
57F
330
1F
100
AcDbEntity
  8
THICK
100
AcDbLine
 10
-70.16753387451172
 20
-16.81038284301758
 30
0.0
 11
-69.4369125366211
 21
-17.18147277832031
 31
0.0
1001
DBPROPERTIES
1002
{
1000
PbThick
1002
}
  0
LINE
  5
580
330
1F
100
AcDbEntity
  8
THICK
100
AcDbLine
 10
-69.4369125366211
 20
-17.18147277832031
 30
0.0
 11
-68.71226501464844
 21
-17.59806823730469
 31
0.0
1001
DBPROPERTIES
1002
{
1000
PbThick
1002
}
  0
LINE
  5
581
330
1F
100
AcDbEntity
  8
THICK
100
AcDbLine
 10
-68.71226501464844
 20
-17.59806823730469
 30
0.0
 11
-67.99525451660156
 21
-18.06082153320312
 31
0.0
1001
DBPROPERTIES
1002
{
1000
PbThick
1002
}
  0
LINE
  5
582
330
1F
100
AcDbEntity
  8
THICK
100
AcDbLine
 10
-67.99525451660156
 20
-18.06082153320312
 30
0.0
 11
-66.79120635986328
 21
-18.96113777160645
 31
0.0
1001
DBPROPERTIES
1002
{
1000
PbThick
1002
}
  0
LINE
  5
583
330
1F
100
AcDbEntity
  8
THICK
100
AcDbLine
 10
-66.79120635986328
 20
-18.96113777160645
 30
0.0
 11
-65.80599975585938
 21
-19.82622528076172
 31
0.0
1001
DBPROPERTIES
1002
{
1000
PbThick
1002
}
  0
LINE
  5
584
330
1F
100
AcDbEntity
  8
THICK
100
AcDbLine
 10
-65.80599975585938
 20
-19.82622528076172
 30
0.0
 11
-64.85224151611328
 21
-20.79059219360352
 31
0.0
1001
DBPROPERTIES
1002
{
1000
PbThick
1002
}
  0
LINE
  5
585
330
1F
100
AcDbEntity
  8
THICK
100
AcDbLine
 10
-64.85224151611328
 20
-20.79059219360352
 30
0.0
 11
-63.88250350952148
 21
-21.92126083374023
 31
0.0
1001
DBPROPERTIES
1002
{
1000
PbThick
1002
}
  0
LINE
  5
586
330
1F
100
AcDbEntity
  8
THICK
100
AcDbLine
 10
-63.88250350952148
 20
-21.92126083374023
 30
0.0
 11
-62.9638557434082
 21
-23.16108322143555
 31
0.0
1001
DBPROPERTIES
1002
{
1000
PbThick
1002
}
  0
LINE
  5
587
330
1F
100
AcDbEntity
  8
THICK
100
AcDbLine
 10
-62.9638557434082
 20
-23.16108322143555
 30
0.0
 11
-62.10512924194336
 21
-24.505859375
 31
0.0
1001
DBPROPERTIES
1002
{
1000
PbThick
1002
}
  0
LINE
  5
588
330
1F
100
AcDbEntity
  8
THICK
100
AcDbLine
 10
-62.10512924194336
 20
-24.505859375
 30
0.0
 11
-61.31474685668945
 21
-25.94997596740723
 31
0.0
1001
DBPROPERTIES
1002
{
1000
PbThick
1002
}
  0
LINE
  5
589
330
1F
100
AcDbEntity
  8
THICK
100
AcDbLine
 10
-61.31474685668945
 20
-25.94997596740723
 30
0.0
 11
-60.86242294311523
 21
-26.8924674987793
 31
0.0
1001
DBPROPERTIES
1002
{
1000
PbThick
1002
}
  0
LINE
  5
58A
330
1F
100
AcDbEntity
  8
THICK
100
AcDbLine
 10
-60.86242294311523
 20
-26.8924674987793
 30
0.0
 11
-60.44138336181641
 21
-27.86819458007812
 31
0.0
1001
DBPROPERTIES
1002
{
1000
PbThick
1002
}
  0
LINE
  5
58B
330
1F
100
AcDbEntity
  8
THICK
100
AcDbLine
 10
-60.44138336181641
 20
-27.86819458007812
 30
0.0
 11
-59.94163131713867
 21
-29.1881275177002
 31
0.0
1001
DBPROPERTIES
1002
{
1000
PbThick
1002
}
  0
LINE
  5
58C
330
1F
100
AcDbEntity
  8
THICK
100
AcDbLine
 10
-59.94163131713867
 20
-29.1881275177002
 30
0.0
 11
-59.50166320800781
 21
-30.55471801757812
 31
0.0
1001
DBPROPERTIES
1002
{
1000
PbThick
1002
}
  0
LINE
  5
58D
330
1F
100
AcDbEntity
  8
THICK
100
AcDbLine
 10
-59.50166320800781
 20
-30.55471801757812
 30
0.0
 11
-59.12438201904297
 21
-31.96207809448242
 31
0.0
1001
DBPROPERTIES
1002
{
1000
PbThick
1002
}
  0
LINE
  5
58E
330
1F
100
AcDbEntity
  8
THICK
100
AcDbLine
 10
-59.12438201904297
 20
-31.96207809448242
 30
0.0
 11
-58.81229782104492
 21
-33.40386199951172
 31
0.0
1001
DBPROPERTIES
1002
{
1000
PbThick
1002
}
  0
LINE
  5
58F
330
1F
100
AcDbEntity
  8
THICK
100
AcDbLine
 10
-58.81229782104492
 20
-33.40386199951172
 30
0.0
 11
-58.56747817993164
 21
-34.87333679199219
 31
0.0
1001
DBPROPERTIES
1002
{
1000
PbThick
1002
}
  0
LINE
  5
590
330
1F
100
AcDbEntity
  8
THICK
100
AcDbLine
 10
-58.56747817993164
 20
-34.87333679199219
 30
0.0
 11
-58.39147567749023
 21
-36.36381530761719
 31
0.0
1001
DBPROPERTIES
1002
{
1000
PbThick
1002
}
  0
LINE
  5
591
330
1F
100
AcDbEntity
  8
THICK
100
AcDbLine
 10
-58.39147567749023
 20
-36.36381530761719
 30
0.0
 11
-58.28542709350586
 21
-37.86837005615234
 31
0.0
1001
DBPROPERTIES
1002
{
1000
PbThick
1002
}
  0
LINE
  5
592
330
1F
100
AcDbEntity
  8
THICK
100
AcDbLine
 10
-58.28542709350586
 20
-37.86837005615234
 30
0.0
 11
-58.25
 21
-39.38000106811523
 31
0.0
1001
DBPROPERTIES
1002
{
1000
PbThick
1002
}
  0
LINE
  5
593
330
1F
100
AcDbEntity
  8
THICK
100
AcDbLine
 10
-82.1
 20
-23.38
 30
0.0
 11
-81.92890669539847
 21
-23.38
 31
0.0
1001
DBPROPERTIES
1002
{
1000
PbThick
1002
}
  0
LINE
  5
594
330
1F
100
AcDbEntity
  8
HIDDEN
100
AcDbLine
 10
-82.0999984741211
 20
-23.3799991607666
 30
0.0
 11
-81.82701110839844
 21
-23.37067413330078
 31
0.0
1001
DBPROPERTIES
1002
{
1000
PbHidd
1002
}
  0
LINE
  5
595
330
1F
100
AcDbEntity
  8
HIDDEN
100
AcDbLine
 10
-81.82701110839844
 20
-23.37067413330078
 30
0.0
 11
-81.55532836914062
 21
-23.34274291992188
 31
0.0
1001
DBPROPERTIES
1002
{
1000
PbHidd
1002
}
  0
LINE
  5
596
330
1F
100
AcDbEntity
  8
HIDDEN
100
AcDbLine
 10
-81.55532836914062
 20
-23.34274291992188
 30
0.0
 11
-81.28617858886719
 21
-23.29633712768555
 31
0.0
1001
DBPROPERTIES
1002
{
1000
PbHidd
1002
}
  0
LINE
  5
597
330
1F
100
AcDbEntity
  8
HIDDEN
100
AcDbLine
 10
-81.28617858886719
 20
-23.29633712768555
 30
0.0
 11
-81.02081298828125
 21
-23.23166847229004
 31
0.0
1001
DBPROPERTIES
1002
{
1000
PbHidd
1002
}
  0
LINE
  5
598
330
1F
100
AcDbEntity
  8
HIDDEN
100
AcDbLine
 10
-81.02081298828125
 20
-23.23166847229004
 30
0.0
 11
-80.76048278808594
 21
-23.14904403686523
 31
0.0
1001
DBPROPERTIES
1002
{
1000
PbHidd
1002
}
  0
LINE
  5
599
330
1F
100
AcDbEntity
  8
HIDDEN
100
AcDbLine
 10
-80.76048278808594
 20
-23.14904403686523
 30
0.0
 11
-80.50639343261719
 21
-23.0488452911377
 31
0.0
1001
DBPROPERTIES
1002
{
1000
PbHidd
1002
}
  0
LINE
  5
59A
330
1F
100
AcDbEntity
  8
HIDDEN
100
AcDbLine
 10
-80.50639343261719
 20
-23.0488452911377
 30
0.0
 11
-80.2597427368164
 21
-22.93154144287109
 31
0.0
1001
DBPROPERTIES
1002
{
1000
PbHidd
1002
}
  0
LINE
  5
59B
330
1F
100
AcDbEntity
  8
HIDDEN
100
AcDbLine
 10
-80.2597427368164
 20
-22.93154144287109
 30
0.0
 11
-80.02166748046875
 21
-22.79767799377441
 31
0.0
1001
DBPROPERTIES
1002
{
1000
PbHidd
1002
}
  0
LINE
  5
59C
330
1F
100
AcDbEntity
  8
HIDDEN
100
AcDbLine
 10
-80.02166748046875
 20
-22.79767799377441
 30
0.0
 11
-79.79328155517578
 21
-22.64787864685059
 31
0.0
1001
DBPROPERTIES
1002
{
1000
PbHidd
1002
}
  0
LINE
  5
59D
330
1F
100
AcDbEntity
  8
HIDDEN
100
AcDbLine
 10
-79.79328155517578
 20
-22.64787864685059
 30
0.0
 11
-79.57564544677734
 21
-22.48284530639648
 31
0.0
1001
DBPROPERTIES
1002
{
1000
PbHidd
1002
}
  0
LINE
  5
59E
330
1F
100
AcDbEntity
  8
HIDDEN
100
AcDbLine
 10
-79.57564544677734
 20
-22.48284530639648
 30
0.0
 11
-79.36978912353516
 21
-22.3033447265625
 31
0.0
1001
DBPROPERTIES
1002
{
1000
PbHidd
1002
}
  0
LINE
  5
59F
330
1F
100
AcDbEntity
  8
HIDDEN
100
AcDbLine
 10
-79.36978912353516
 20
-22.3033447265625
 30
0.0
 11
-79.1766586303711
 21
-22.1102123260498
 31
0.0
1001
DBPROPERTIES
1002
{
1000
PbHidd
1002
}
  0
LINE
  5
5A0
330
1F
100
AcDbEntity
  8
HIDDEN
100
AcDbLine
 10
-79.1766586303711
 20
-22.1102123260498
 30
0.0
 11
-78.99715423583984
 21
-21.90435218811035
 31
0.0
1001
DBPROPERTIES
1002
{
1000
PbHidd
1002
}
  0
LINE
  5
5A1
330
1F
100
AcDbEntity
  8
HIDDEN
100
AcDbLine
 10
-78.99715423583984
 20
-21.90435218811035
 30
0.0
 11
-78.83212280273438
 21
-21.68672180175781
 31
0.0
1001
DBPROPERTIES
1002
{
1000
PbHidd
1002
}
  0
LINE
  5
5A2
330
1F
100
AcDbEntity
  8
HIDDEN
100
AcDbLine
 10
-78.83212280273438
 20
-21.68672180175781
 30
0.0
 11
-78.68231964111328
 21
-21.45833587646484
 31
0.0
1001
DBPROPERTIES
1002
{
1000
PbHidd
1002
}
  0
LINE
  5
5A3
330
1F
100
AcDbEntity
  8
HIDDEN
100
AcDbLine
 10
-78.68231964111328
 20
-21.45833587646484
 30
0.0
 11
-78.5484619140625
 21
-21.22026062011719
 31
0.0
1001
DBPROPERTIES
1002
{
1000
PbHidd
1002
}
  0
LINE
  5
5A4
330
1F
100
AcDbEntity
  8
HIDDEN
100
AcDbLine
 10
-78.5484619140625
 20
-21.22026062011719
 30
0.0
 11
-78.43115234375
 21
-20.97360420227051
 31
0.0
1001
DBPROPERTIES
1002
{
1000
PbHidd
1002
}
  0
LINE
  5
5A5
330
1F
100
AcDbEntity
  8
HIDDEN
100
AcDbLine
 10
-78.43115234375
 20
-20.97360420227051
 30
0.0
 11
-78.3309555053711
 21
-20.71951866149902
 31
0.0
1001
DBPROPERTIES
1002
{
1000
PbHidd
1002
}
  0
LINE
  5
5A6
330
1F
100
AcDbEntity
  8
HIDDEN
100
AcDbLine
 10
-78.3309555053711
 20
-20.71951866149902
 30
0.0
 11
-78.24832916259766
 21
-20.45918655395508
 31
0.0
1001
DBPROPERTIES
1002
{
1000
PbHidd
1002
}
  0
LINE
  5
5A7
330
1F
100
AcDbEntity
  8
HIDDEN
100
AcDbLine
 10
-78.24832916259766
 20
-20.45918655395508
 30
0.0
 11
-78.18366241455078
 21
-20.19382476806641
 31
0.0
1001
DBPROPERTIES
1002
{
1000
PbHidd
1002
}
  0
LINE
  5
5A8
330
1F
100
AcDbEntity
  8
HIDDEN
100
AcDbLine
 10
-78.18366241455078
 20
-20.19382476806641
 30
0.0
 11
-78.13725280761719
 21
-19.92466735839844
 31
0.0
1001
DBPROPERTIES
1002
{
1000
PbHidd
1002
}
  0
LINE
  5
5A9
330
1F
100
AcDbEntity
  8
HIDDEN
100
AcDbLine
 10
-78.13725280761719
 20
-19.92466735839844
 30
0.0
 11
-78.10932159423828
 21
-19.65296936035156
 31
0.0
1001
DBPROPERTIES
1002
{
1000
PbHidd
1002
}
  0
LINE
  5
5AA
330
1F
100
AcDbEntity
  8
HIDDEN
100
AcDbLine
 10
-78.10932159423828
 20
-19.65296936035156
 30
0.0
 11
-78.0999984741211
 21
-19.3799991607666
 31
0.0
1001
DBPROPERTIES
1002
{
1000
PbHidd
1002
}
  0
LINE
  5
5AB
330
1F
100
AcDbEntity
  8
THICK
100
AcDbLine
 10
-86.0999984741211
 20
-19.3799991607666
 30
0.0
 11
-86.0906753540039
 21
-19.65296936035156
 31
0.0
1001
DBPROPERTIES
1002
{
1000
PbThick
1002
}
  0
LINE
  5
5AC
330
1F
100
AcDbEntity
  8
THICK
100
AcDbLine
 10
-86.0906753540039
 20
-19.65296936035156
 30
0.0
 11
-86.062744140625
 21
-19.92466735839844
 31
0.0
1001
DBPROPERTIES
1002
{
1000
PbThick
1002
}
  0
LINE
  5
5AD
330
1F
100
AcDbEntity
  8
THICK
100
AcDbLine
 10
-86.062744140625
 20
-19.92466735839844
 30
0.0
 11
-86.0163345336914
 21
-20.19382476806641
 31
0.0
1001
DBPROPERTIES
1002
{
1000
PbThick
1002
}
  0
LINE
  5
5AE
330
1F
100
AcDbEntity
  8
THICK
100
AcDbLine
 10
-86.0163345336914
 20
-20.19382476806641
 30
0.0
 11
-85.95166778564453
 21
-20.45918655395508
 31
0.0
1001
DBPROPERTIES
1002
{
1000
PbThick
1002
}
  0
LINE
  5
5AF
330
1F
100
AcDbEntity
  8
THICK
100
AcDbLine
 10
-85.95166778564453
 20
-20.45918655395508
 30
0.0
 11
-85.8690414428711
 21
-20.71951866149902
 31
0.0
1001
DBPROPERTIES
1002
{
1000
PbThick
1002
}
  0
LINE
  5
5B0
330
1F
100
AcDbEntity
  8
THICK
100
AcDbLine
 10
-85.8690414428711
 20
-20.71951866149902
 30
0.0
 11
-85.76884460449219
 21
-20.97360420227051
 31
0.0
1001
DBPROPERTIES
1002
{
1000
PbThick
1002
}
  0
LINE
  5
5B1
330
1F
100
AcDbEntity
  8
THICK
100
AcDbLine
 10
-85.76884460449219
 20
-20.97360420227051
 30
0.0
 11
-85.65154266357422
 21
-21.22026062011719
 31
0.0
1001
DBPROPERTIES
1002
{
1000
PbThick
1002
}
  0
LINE
  5
5B2
330
1F
100
AcDbEntity
  8
THICK
100
AcDbLine
 10
-85.65154266357422
 20
-21.22026062011719
 30
0.0
 11
-85.5176773071289
 21
-21.45833587646484
 31
0.0
1001
DBPROPERTIES
1002
{
1000
PbThick
1002
}
  0
LINE
  5
5B3
330
1F
100
AcDbEntity
  8
THICK
100
AcDbLine
 10
-85.5176773071289
 20
-21.45833587646484
 30
0.0
 11
-85.36788177490234
 21
-21.68672180175781
 31
0.0
1001
DBPROPERTIES
1002
{
1000
PbThick
1002
}
  0
LINE
  5
5B4
330
1F
100
AcDbEntity
  8
THICK
100
AcDbLine
 10
-85.36788177490234
 20
-21.68672180175781
 30
0.0
 11
-85.20284271240234
 21
-21.90435218811035
 31
0.0
1001
DBPROPERTIES
1002
{
1000
PbThick
1002
}
  0
LINE
  5
5B5
330
1F
100
AcDbEntity
  8
THICK
100
AcDbLine
 10
-85.20284271240234
 20
-21.90435218811035
 30
0.0
 11
-85.02334594726562
 21
-22.1102123260498
 31
0.0
1001
DBPROPERTIES
1002
{
1000
PbThick
1002
}
  0
LINE
  5
5B6
330
1F
100
AcDbEntity
  8
THICK
100
AcDbLine
 10
-85.02334594726562
 20
-22.1102123260498
 30
0.0
 11
-84.83021545410156
 21
-22.3033447265625
 31
0.0
1001
DBPROPERTIES
1002
{
1000
PbThick
1002
}
  0
LINE
  5
5B7
330
1F
100
AcDbEntity
  8
THICK
100
AcDbLine
 10
-84.83021545410156
 20
-22.3033447265625
 30
0.0
 11
-84.62435150146484
 21
-22.48284530639648
 31
0.0
1001
DBPROPERTIES
1002
{
1000
PbThick
1002
}
  0
LINE
  5
5B8
330
1F
100
AcDbEntity
  8
THICK
100
AcDbLine
 10
-84.62435150146484
 20
-22.48284530639648
 30
0.0
 11
-84.40672302246094
 21
-22.64787864685059
 31
0.0
1001
DBPROPERTIES
1002
{
1000
PbThick
1002
}
  0
LINE
  5
5B9
330
1F
100
AcDbEntity
  8
THICK
100
AcDbLine
 10
-84.40672302246094
 20
-22.64787864685059
 30
0.0
 11
-84.17833709716797
 21
-22.79767799377441
 31
0.0
1001
DBPROPERTIES
1002
{
1000
PbThick
1002
}
  0
LINE
  5
5BA
330
1F
100
AcDbEntity
  8
THICK
100
AcDbLine
 10
-84.17833709716797
 20
-22.79767799377441
 30
0.0
 11
-83.94026184082031
 21
-22.93154144287109
 31
0.0
1001
DBPROPERTIES
1002
{
1000
PbThick
1002
}
  0
LINE
  5
5BB
330
1F
100
AcDbEntity
  8
THICK
100
AcDbLine
 10
-83.94026184082031
 20
-22.93154144287109
 30
0.0
 11
-83.693603515625
 21
-23.0488452911377
 31
0.0
1001
DBPROPERTIES
1002
{
1000
PbThick
1002
}
  0
LINE
  5
5BC
330
1F
100
AcDbEntity
  8
THICK
100
AcDbLine
 10
-83.693603515625
 20
-23.0488452911377
 30
0.0
 11
-83.43952178955078
 21
-23.14904403686523
 31
0.0
1001
DBPROPERTIES
1002
{
1000
PbThick
1002
}
  0
LINE
  5
5BD
330
1F
100
AcDbEntity
  8
THICK
100
AcDbLine
 10
-83.43952178955078
 20
-23.14904403686523
 30
0.0
 11
-83.17918395996094
 21
-23.23166847229004
 31
0.0
1001
DBPROPERTIES
1002
{
1000
PbThick
1002
}
  0
LINE
  5
5BE
330
1F
100
AcDbEntity
  8
THICK
100
AcDbLine
 10
-83.17918395996094
 20
-23.23166847229004
 30
0.0
 11
-82.91382598876953
 21
-23.29633712768555
 31
0.0
1001
DBPROPERTIES
1002
{
1000
PbThick
1002
}
  0
LINE
  5
5BF
330
1F
100
AcDbEntity
  8
THICK
100
AcDbLine
 10
-82.91382598876953
 20
-23.29633712768555
 30
0.0
 11
-82.64466094970703
 21
-23.34274291992188
 31
0.0
1001
DBPROPERTIES
1002
{
1000
PbThick
1002
}
  0
LINE
  5
5C0
330
1F
100
AcDbEntity
  8
THICK
100
AcDbLine
 10
-82.64466094970703
 20
-23.34274291992188
 30
0.0
 11
-82.3729476928711
 21
-23.37067413330078
 31
0.0
1001
DBPROPERTIES
1002
{
1000
PbThick
1002
}
  0
LINE
  5
5C1
330
1F
100
AcDbEntity
  8
THICK
100
AcDbLine
 10
-82.3729476928711
 20
-23.37067413330078
 30
0.0
 11
-82.0999984741211
 21
-23.3799991607666
 31
0.0
1001
DBPROPERTIES
1002
{
1000
PbThick
1002
}
  0
LINE
  5
5C2
330
1F
100
AcDbEntity
  8
THICK
100
AcDbLine
 10
-76.36798569861482
 20
-23.38
 30
0.0
 11
-76.36690817260467
 21
-23.38
 31
0.0
1001
DBPROPERTIES
1002
{
1000
PbThick
1002
}
  0
LINE
  5
5C3
330
1F
100
AcDbEntity
  8
HIDDEN
100
AcDbLine
 10
-76.39211891180759
 20
-23.38
 30
0.0
 11
-76.38783096178894
 21
-23.38
 31
0.0
1001
DBPROPERTIES
1002
{
1000
PbHidd
1002
}
  0
LINE
  5
5C4
330
1F
100
AcDbEntity
  8
THICK
100
AcDbLine
 10
-82.09999999999906
 20
-23.38
 30
0.0
 11
-76.39211891180759
 21
-23.38
 31
0.0
1001
DBPROPERTIES
1002
{
1000
PbThick
1002
}
  0
LINE
  5
5C5
330
1F
100
AcDbEntity
  8
THICK
100
AcDbLine
 10
-31.12044525146484
 20
-23.3799991607666
 30
0.0
 11
-62.81507873535156
 21
-23.3799991607666
 31
0.0
1001
DBPROPERTIES
1002
{
1000
PbThick
1002
}
  0
LINE
  5
5C6
330
1F
100
AcDbEntity
  8
HIDDEN
100
AcDbLine
 10
-62.81507873535156
 20
-23.3799991607666
 30
0.0
 11
-76.36672973632812
 21
-23.3799991607666
 31
0.0
1001
DBPROPERTIES
1002
{
1000
PbHidd
1002
}
  0
LINE
  5
5C7
330
1F
100
AcDbEntity
  8
THICK
100
AcDbLine
 10
-16.87632832897735
 20
-15.38
 30
0.0
 11
-76.24210839044872
 21
-15.37999999999999
 31
0.0
1001
DBPROPERTIES
1002
{
1000
PbThick
1002
}
  0
ARC
  5
5C8
330
1F
100
AcDbEntity
  8
THICK
100
AcDbCircle
 10
-43.25
 20
-196.9
 30
0.0
 40
4.0
100
AcDbArc
 50
260.1206793498661
 51
270.0000187239684
1001
DBPROPERTIES
1002
{
1000
PbThick
1002
}
  0
LINE
  5
5C9
330
1F
100
AcDbEntity
  8
HIDDEN
100
AcDbLine
 10
-81.92890669539847
 20
-15.37999999999999
 30
0.0
 11
-82.1
 21
-15.37999999999999
 31
0.0
1001
DBPROPERTIES
1002
{
1000
PbHidd
1002
}
  0
LINE
  5
5CA
330
1F
100
AcDbEntity
  8
THICK
100
AcDbLine
 10
-82.0999984741211
 20
-15.38000011444092
 30
0.0
 11
-82.3729476928711
 21
-15.38932514190674
 31
0.0
1001
DBPROPERTIES
1002
{
1000
PbThick
1002
}
  0
LINE
  5
5CB
330
1F
100
AcDbEntity
  8
THICK
100
AcDbLine
 10
-82.3729476928711
 20
-15.38932514190674
 30
0.0
 11
-82.64466094970703
 21
-15.41725635528564
 31
0.0
1001
DBPROPERTIES
1002
{
1000
PbThick
1002
}
  0
LINE
  5
5CC
330
1F
100
AcDbEntity
  8
THICK
100
AcDbLine
 10
-82.64466094970703
 20
-15.41725635528564
 30
0.0
 11
-82.91382598876953
 21
-15.46366405487061
 31
0.0
1001
DBPROPERTIES
1002
{
1000
PbThick
1002
}
  0
LINE
  5
5CD
330
1F
100
AcDbEntity
  8
THICK
100
AcDbLine
 10
-82.91382598876953
 20
-15.46366405487061
 30
0.0
 11
-83.17918395996094
 21
-15.52833080291748
 31
0.0
1001
DBPROPERTIES
1002
{
1000
PbThick
1002
}
  0
LINE
  5
5CE
330
1F
100
AcDbEntity
  8
THICK
100
AcDbLine
 10
-83.17918395996094
 20
-15.52833080291748
 30
0.0
 11
-83.43952178955078
 21
-15.6109561920166
 31
0.0
1001
DBPROPERTIES
1002
{
1000
PbThick
1002
}
  0
LINE
  5
5CF
330
1F
100
AcDbEntity
  8
THICK
100
AcDbLine
 10
-83.43952178955078
 20
-15.6109561920166
 30
0.0
 11
-83.693603515625
 21
-15.71115493774414
 31
0.0
1001
DBPROPERTIES
1002
{
1000
PbThick
1002
}
  0
LINE
  5
5D0
330
1F
100
AcDbEntity
  8
THICK
100
AcDbLine
 10
-83.693603515625
 20
-15.71115493774414
 30
0.0
 11
-83.94026184082031
 21
-15.82845878601074
 31
0.0
1001
DBPROPERTIES
1002
{
1000
PbThick
1002
}
  0
LINE
  5
5D1
330
1F
100
AcDbEntity
  8
THICK
100
AcDbLine
 10
-83.94026184082031
 20
-15.82845878601074
 30
0.0
 11
-84.17833709716797
 21
-15.96232223510742
 31
0.0
1001
DBPROPERTIES
1002
{
1000
PbThick
1002
}
  0
LINE
  5
5D2
330
1F
100
AcDbEntity
  8
THICK
100
AcDbLine
 10
-84.17833709716797
 20
-15.96232223510742
 30
0.0
 11
-84.40672302246094
 21
-16.11211967468262
 31
0.0
1001
DBPROPERTIES
1002
{
1000
PbThick
1002
}
  0
LINE
  5
5D3
330
1F
100
AcDbEntity
  8
THICK
100
AcDbLine
 10
-84.40672302246094
 20
-16.11211967468262
 30
0.0
 11
-84.62435150146484
 21
-16.27715492248535
 31
0.0
1001
DBPROPERTIES
1002
{
1000
PbThick
1002
}
  0
LINE
  5
5D4
330
1F
100
AcDbEntity
  8
THICK
100
AcDbLine
 10
-84.62435150146484
 20
-16.27715492248535
 30
0.0
 11
-84.83021545410156
 21
-16.45665550231934
 31
0.0
1001
DBPROPERTIES
1002
{
1000
PbThick
1002
}
  0
LINE
  5
5D5
330
1F
100
AcDbEntity
  8
THICK
100
AcDbLine
 10
-84.83021545410156
 20
-16.45665550231934
 30
0.0
 11
-85.02334594726562
 21
-16.64978790283203
 31
0.0
1001
DBPROPERTIES
1002
{
1000
PbThick
1002
}
  0
LINE
  5
5D6
330
1F
100
AcDbEntity
  8
THICK
100
AcDbLine
 10
-85.02334594726562
 20
-16.64978790283203
 30
0.0
 11
-85.20284271240234
 21
-16.85564804077148
 31
0.0
1001
DBPROPERTIES
1002
{
1000
PbThick
1002
}
  0
LINE
  5
5D7
330
1F
100
AcDbEntity
  8
THICK
100
AcDbLine
 10
-85.20284271240234
 20
-16.85564804077148
 30
0.0
 11
-85.36788177490234
 21
-17.07327842712402
 31
0.0
1001
DBPROPERTIES
1002
{
1000
PbThick
1002
}
  0
LINE
  5
5D8
330
1F
100
AcDbEntity
  8
THICK
100
AcDbLine
 10
-85.36788177490234
 20
-17.07327842712402
 30
0.0
 11
-85.5176773071289
 21
-17.30166435241699
 31
0.0
1001
DBPROPERTIES
1002
{
1000
PbThick
1002
}
  0
LINE
  5
5D9
330
1F
100
AcDbEntity
  8
THICK
100
AcDbLine
 10
-85.5176773071289
 20
-17.30166435241699
 30
0.0
 11
-85.65154266357422
 21
-17.53973960876465
 31
0.0
1001
DBPROPERTIES
1002
{
1000
PbThick
1002
}
  0
LINE
  5
5DA
330
1F
100
AcDbEntity
  8
THICK
100
AcDbLine
 10
-85.65154266357422
 20
-17.53973960876465
 30
0.0
 11
-85.76884460449219
 21
-17.78639602661133
 31
0.0
1001
DBPROPERTIES
1002
{
1000
PbThick
1002
}
  0
LINE
  5
5DB
330
1F
100
AcDbEntity
  8
THICK
100
AcDbLine
 10
-85.76884460449219
 20
-17.78639602661133
 30
0.0
 11
-85.8690414428711
 21
-18.04048156738281
 31
0.0
1001
DBPROPERTIES
1002
{
1000
PbThick
1002
}
  0
LINE
  5
5DC
330
1F
100
AcDbEntity
  8
THICK
100
AcDbLine
 10
-85.8690414428711
 20
-18.04048156738281
 30
0.0
 11
-85.95166778564453
 21
-18.30081367492676
 31
0.0
1001
DBPROPERTIES
1002
{
1000
PbThick
1002
}
  0
LINE
  5
5DD
330
1F
100
AcDbEntity
  8
THICK
100
AcDbLine
 10
-85.95166778564453
 20
-18.30081367492676
 30
0.0
 11
-86.0163345336914
 21
-18.56617546081543
 31
0.0
1001
DBPROPERTIES
1002
{
1000
PbThick
1002
}
  0
LINE
  5
5DE
330
1F
100
AcDbEntity
  8
THICK
100
AcDbLine
 10
-86.0163345336914
 20
-18.56617546081543
 30
0.0
 11
-86.062744140625
 21
-18.8353328704834
 31
0.0
1001
DBPROPERTIES
1002
{
1000
PbThick
1002
}
  0
LINE
  5
5DF
330
1F
100
AcDbEntity
  8
THICK
100
AcDbLine
 10
-86.062744140625
 20
-18.8353328704834
 30
0.0
 11
-86.0906753540039
 21
-19.10703086853027
 31
0.0
1001
DBPROPERTIES
1002
{
1000
PbThick
1002
}
  0
LINE
  5
5E0
330
1F
100
AcDbEntity
  8
THICK
100
AcDbLine
 10
-86.0906753540039
 20
-19.10703086853027
 30
0.0
 11
-86.0999984741211
 21
-19.3799991607666
 31
0.0
1001
DBPROPERTIES
1002
{
1000
PbThick
1002
}
  0
LINE
  5
5E1
330
1F
100
AcDbEntity
  8
HIDDEN
100
AcDbLine
 10
-78.0999984741211
 20
-19.3799991607666
 30
0.0
 11
-78.10932159423828
 21
-19.10703086853027
 31
0.0
1001
DBPROPERTIES
1002
{
1000
PbHidd
1002
}
  0
LINE
  5
5E2
330
1F
100
AcDbEntity
  8
HIDDEN
100
AcDbLine
 10
-78.10932159423828
 20
-19.10703086853027
 30
0.0
 11
-78.13725280761719
 21
-18.8353328704834
 31
0.0
1001
DBPROPERTIES
1002
{
1000
PbHidd
1002
}
  0
LINE
  5
5E3
330
1F
100
AcDbEntity
  8
HIDDEN
100
AcDbLine
 10
-78.13725280761719
 20
-18.8353328704834
 30
0.0
 11
-78.18366241455078
 21
-18.56617546081543
 31
0.0
1001
DBPROPERTIES
1002
{
1000
PbHidd
1002
}
  0
LINE
  5
5E4
330
1F
100
AcDbEntity
  8
HIDDEN
100
AcDbLine
 10
-78.18366241455078
 20
-18.56617546081543
 30
0.0
 11
-78.24832916259766
 21
-18.30081367492676
 31
0.0
1001
DBPROPERTIES
1002
{
1000
PbHidd
1002
}
  0
LINE
  5
5E5
330
1F
100
AcDbEntity
  8
HIDDEN
100
AcDbLine
 10
-78.24832916259766
 20
-18.30081367492676
 30
0.0
 11
-78.3309555053711
 21
-18.04048156738281
 31
0.0
1001
DBPROPERTIES
1002
{
1000
PbHidd
1002
}
  0
LINE
  5
5E6
330
1F
100
AcDbEntity
  8
HIDDEN
100
AcDbLine
 10
-78.3309555053711
 20
-18.04048156738281
 30
0.0
 11
-78.43115234375
 21
-17.78639602661133
 31
0.0
1001
DBPROPERTIES
1002
{
1000
PbHidd
1002
}
  0
LINE
  5
5E7
330
1F
100
AcDbEntity
  8
HIDDEN
100
AcDbLine
 10
-78.43115234375
 20
-17.78639602661133
 30
0.0
 11
-78.5484619140625
 21
-17.53973960876465
 31
0.0
1001
DBPROPERTIES
1002
{
1000
PbHidd
1002
}
  0
LINE
  5
5E8
330
1F
100
AcDbEntity
  8
HIDDEN
100
AcDbLine
 10
-78.5484619140625
 20
-17.53973960876465
 30
0.0
 11
-78.68231964111328
 21
-17.30166435241699
 31
0.0
1001
DBPROPERTIES
1002
{
1000
PbHidd
1002
}
  0
LINE
  5
5E9
330
1F
100
AcDbEntity
  8
HIDDEN
100
AcDbLine
 10
-78.68231964111328
 20
-17.30166435241699
 30
0.0
 11
-78.83212280273438
 21
-17.07327842712402
 31
0.0
1001
DBPROPERTIES
1002
{
1000
PbHidd
1002
}
  0
LINE
  5
5EA
330
1F
100
AcDbEntity
  8
HIDDEN
100
AcDbLine
 10
-78.83212280273438
 20
-17.07327842712402
 30
0.0
 11
-78.99715423583984
 21
-16.85564804077148
 31
0.0
1001
DBPROPERTIES
1002
{
1000
PbHidd
1002
}
  0
LINE
  5
5EB
330
1F
100
AcDbEntity
  8
HIDDEN
100
AcDbLine
 10
-78.99715423583984
 20
-16.85564804077148
 30
0.0
 11
-79.1766586303711
 21
-16.64978790283203
 31
0.0
1001
DBPROPERTIES
1002
{
1000
PbHidd
1002
}
  0
LINE
  5
5EC
330
1F
100
AcDbEntity
  8
HIDDEN
100
AcDbLine
 10
-79.1766586303711
 20
-16.64978790283203
 30
0.0
 11
-79.36978912353516
 21
-16.45665550231934
 31
0.0
1001
DBPROPERTIES
1002
{
1000
PbHidd
1002
}
  0
LINE
  5
5ED
330
1F
100
AcDbEntity
  8
HIDDEN
100
AcDbLine
 10
-79.36978912353516
 20
-16.45665550231934
 30
0.0
 11
-79.57564544677734
 21
-16.27715492248535
 31
0.0
1001
DBPROPERTIES
1002
{
1000
PbHidd
1002
}
  0
LINE
  5
5EE
330
1F
100
AcDbEntity
  8
HIDDEN
100
AcDbLine
 10
-79.57564544677734
 20
-16.27715492248535
 30
0.0
 11
-79.79328155517578
 21
-16.11211967468262
 31
0.0
1001
DBPROPERTIES
1002
{
1000
PbHidd
1002
}
  0
LINE
  5
5EF
330
1F
100
AcDbEntity
  8
HIDDEN
100
AcDbLine
 10
-79.79328155517578
 20
-16.11211967468262
 30
0.0
 11
-80.02166748046875
 21
-15.96232223510742
 31
0.0
1001
DBPROPERTIES
1002
{
1000
PbHidd
1002
}
  0
LINE
  5
5F0
330
1F
100
AcDbEntity
  8
HIDDEN
100
AcDbLine
 10
-80.02166748046875
 20
-15.96232223510742
 30
0.0
 11
-80.2597427368164
 21
-15.82845878601074
 31
0.0
1001
DBPROPERTIES
1002
{
1000
PbHidd
1002
}
  0
LINE
  5
5F1
330
1F
100
AcDbEntity
  8
HIDDEN
100
AcDbLine
 10
-80.2597427368164
 20
-15.82845878601074
 30
0.0
 11
-80.50639343261719
 21
-15.71115493774414
 31
0.0
1001
DBPROPERTIES
1002
{
1000
PbHidd
1002
}
  0
LINE
  5
5F2
330
1F
100
AcDbEntity
  8
HIDDEN
100
AcDbLine
 10
-80.50639343261719
 20
-15.71115493774414
 30
0.0
 11
-80.76048278808594
 21
-15.6109561920166
 31
0.0
1001
DBPROPERTIES
1002
{
1000
PbHidd
1002
}
  0
LINE
  5
5F3
330
1F
100
AcDbEntity
  8
HIDDEN
100
AcDbLine
 10
-80.76048278808594
 20
-15.6109561920166
 30
0.0
 11
-81.02081298828125
 21
-15.52833080291748
 31
0.0
1001
DBPROPERTIES
1002
{
1000
PbHidd
1002
}
  0
LINE
  5
5F4
330
1F
100
AcDbEntity
  8
HIDDEN
100
AcDbLine
 10
-81.02081298828125
 20
-15.52833080291748
 30
0.0
 11
-81.28617858886719
 21
-15.46366405487061
 31
0.0
1001
DBPROPERTIES
1002
{
1000
PbHidd
1002
}
  0
LINE
  5
5F5
330
1F
100
AcDbEntity
  8
HIDDEN
100
AcDbLine
 10
-81.28617858886719
 20
-15.46366405487061
 30
0.0
 11
-81.55532836914062
 21
-15.41725635528564
 31
0.0
1001
DBPROPERTIES
1002
{
1000
PbHidd
1002
}
  0
LINE
  5
5F6
330
1F
100
AcDbEntity
  8
HIDDEN
100
AcDbLine
 10
-81.55532836914062
 20
-15.41725635528564
 30
0.0
 11
-81.82701110839844
 21
-15.38932514190674
 31
0.0
1001
DBPROPERTIES
1002
{
1000
PbHidd
1002
}
  0
LINE
  5
5F7
330
1F
100
AcDbEntity
  8
HIDDEN
100
AcDbLine
 10
-81.82701110839844
 20
-15.38932514190674
 30
0.0
 11
-82.0999984741211
 21
-15.38000011444092
 31
0.0
1001
DBPROPERTIES
1002
{
1000
PbHidd
1002
}
  0
LINE
  5
5F8
330
1F
100
AcDbEntity
  8
THICK
100
AcDbLine
 10
-76.24213562373095
 20
-15.38
 30
0.0
 11
-76.24609091713779
 21
-15.38
 31
0.0
1001
DBPROPERTIES
1002
{
1000
PbThick
1002
}
  0
LINE
  5
5F9
330
1F
100
AcDbEntity
  8
THICK
100
AcDbLine
 10
-76.26995555076276
 20
-15.38
 30
0.0
 11
-76.37167170934445
 21
-15.38
 31
0.0
1001
DBPROPERTIES
1002
{
1000
PbThick
1002
}
  0
LINE
  5
5FA
330
1F
100
AcDbEntity
  8
THICK
100
AcDbLine
 10
-76.3922287883512
 20
-15.38
 30
0.0
 11
-82.09999999999906
 21
-15.37999999999999
 31
0.0
1001
DBPROPERTIES
1002
{
1000
PbThick
1002
}
  0
LINE
  5
5FB
330
1F
100
AcDbEntity
  8
THICK
100
AcDbLine
 10
-76.39213562011719
 20
-23.3799991607666
 30
0.0
 11
-75.80865478515625
 21
-23.40838241577148
 31
0.0
1001
DBPROPERTIES
1002
{
1000
PbThick
1002
}
  0
LINE
  5
5FC
330
1F
100
AcDbEntity
  8
THICK
100
AcDbLine
 10
-75.80865478515625
 20
-23.40838241577148
 30
0.0
 11
-75.21817779541016
 21
-23.49503707885742
 31
0.0
1001
DBPROPERTIES
1002
{
1000
PbThick
1002
}
  0
LINE
  5
5FD
330
1F
100
AcDbEntity
  8
THICK
100
AcDbLine
 10
-75.21817779541016
 20
-23.49503707885742
 30
0.0
 11
-74.5967788696289
 21
-23.64969062805176
 31
0.0
1001
DBPROPERTIES
1002
{
1000
PbThick
1002
}
  0
LINE
  5
5FE
330
1F
100
AcDbEntity
  8
THICK
100
AcDbLine
 10
-74.5967788696289
 20
-23.64969062805176
 30
0.0
 11
-73.95581817626953
 21
-23.87851524353027
 31
0.0
1001
DBPROPERTIES
1002
{
1000
PbThick
1002
}
  0
LINE
  5
5FF
330
1F
100
AcDbEntity
  8
THICK
100
AcDbLine
 10
-73.95581817626953
 20
-23.87851524353027
 30
0.0
 11
-73.60285186767578
 21
-24.03524017333984
 31
0.0
1001
DBPROPERTIES
1002
{
1000
PbThick
1002
}
  0
LINE
  5
600
330
1F
100
AcDbEntity
  8
THICK
100
AcDbLine
 10
-73.60285186767578
 20
-24.03524017333984
 30
0.0
 11
-73.24313354492188
 21
-24.21799850463867
 31
0.0
1001
DBPROPERTIES
1002
{
1000
PbThick
1002
}
  0
LINE
  5
601
330
1F
100
AcDbEntity
  8
THICK
100
AcDbLine
 10
-73.24313354492188
 20
-24.21799850463867
 30
0.0
 11
-72.87623596191406
 21
-24.42898368835449
 31
0.0
1001
DBPROPERTIES
1002
{
1000
PbThick
1002
}
  0
LINE
  5
602
330
1F
100
AcDbEntity
  8
THICK
100
AcDbLine
 10
-72.87623596191406
 20
-24.42898368835449
 30
0.0
 11
-72.50276947021484
 21
-24.67008018493652
 31
0.0
1001
DBPROPERTIES
1002
{
1000
PbThick
1002
}
  0
LINE
  5
603
330
1F
100
AcDbEntity
  8
THICK
100
AcDbLine
 10
-72.50276947021484
 20
-24.67008018493652
 30
0.0
 11
-71.8509292602539
 21
-25.15784454345703
 31
0.0
1001
DBPROPERTIES
1002
{
1000
PbThick
1002
}
  0
LINE
  5
604
330
1F
100
AcDbEntity
  8
THICK
100
AcDbLine
 10
-71.8509292602539
 20
-25.15784454345703
 30
0.0
 11
-71.29283905029297
 21
-25.64812660217285
 31
0.0
1001
DBPROPERTIES
1002
{
1000
PbThick
1002
}
  0
LINE
  5
605
330
1F
100
AcDbEntity
  8
THICK
100
AcDbLine
 10
-71.29283905029297
 20
-25.64812660217285
 30
0.0
 11
-70.73085021972656
 21
-26.21663093566895
 31
0.0
1001
DBPROPERTIES
1002
{
1000
PbThick
1002
}
  0
LINE
  5
606
330
1F
100
AcDbEntity
  8
THICK
100
AcDbLine
 10
-70.73085021972656
 20
-26.21663093566895
 30
0.0
 11
-70.13709259033203
 21
-26.90926170349121
 31
0.0
1001
DBPROPERTIES
1002
{
1000
PbThick
1002
}
  0
LINE
  5
607
330
1F
100
AcDbEntity
  8
THICK
100
AcDbLine
 10
-70.13709259033203
 20
-26.90926170349121
 30
0.0
 11
-69.55355072021484
 21
-27.6971549987793
 31
0.0
1001
DBPROPERTIES
1002
{
1000
PbThick
1002
}
  0
LINE
  5
608
330
1F
100
AcDbEntity
  8
THICK
100
AcDbLine
 10
-69.55355072021484
 20
-27.6971549987793
 30
0.0
 11
-68.98970794677734
 21
-28.58047866821289
 31
0.0
1001
DBPROPERTIES
1002
{
1000
PbThick
1002
}
  0
LINE
  5
609
330
1F
100
AcDbEntity
  8
THICK
100
AcDbLine
 10
-68.98970794677734
 20
-28.58047866821289
 30
0.0
 11
-68.45521545410156
 21
-29.55743598937988
 31
0.0
1001
DBPROPERTIES
1002
{
1000
PbThick
1002
}
  0
LINE
  5
60A
330
1F
100
AcDbEntity
  8
THICK
100
AcDbLine
 10
-68.45521545410156
 20
-29.55743598937988
 30
0.0
 11
-68.1429214477539
 21
-30.20823097229004
 31
0.0
1001
DBPROPERTIES
1002
{
1000
PbThick
1002
}
  0
LINE
  5
60B
330
1F
100
AcDbEntity
  8
THICK
100
AcDbLine
 10
-68.1429214477539
 20
-30.20823097229004
 30
0.0
 11
-67.84799194335938
 21
-30.89180374145508
 31
0.0
1001
DBPROPERTIES
1002
{
1000
PbThick
1002
}
  0
LINE
  5
60C
330
1F
100
AcDbEntity
  8
THICK
100
AcDbLine
 10
-67.84799194335938
 20
-30.89180374145508
 30
0.0
 11
-67.49266815185547
 21
-31.83045768737793
 31
0.0
1001
DBPROPERTIES
1002
{
1000
PbThick
1002
}
  0
LINE
  5
60D
330
1F
100
AcDbEntity
  8
THICK
100
AcDbLine
 10
-67.49266815185547
 20
-31.83045768737793
 30
0.0
 11
-67.17532348632812
 21
-32.81633758544922
 31
0.0
1001
DBPROPERTIES
1002
{
1000
PbThick
1002
}
  0
LINE
  5
60E
330
1F
100
AcDbEntity
  8
THICK
100
AcDbLine
 10
-67.17532348632812
 20
-32.81633758544922
 30
0.0
 11
-66.89987182617188
 21
-33.84404373168945
 31
0.0
1001
DBPROPERTIES
1002
{
1000
PbThick
1002
}
  0
LINE
  5
60F
330
1F
100
AcDbEntity
  8
THICK
100
AcDbLine
 10
-66.89987182617188
 20
-33.84404373168945
 30
0.0
 11
-66.66973876953125
 21
-34.90740585327148
 31
0.0
1001
DBPROPERTIES
1002
{
1000
PbThick
1002
}
  0
LINE
  5
610
330
1F
100
AcDbEntity
  8
THICK
100
AcDbLine
 10
-66.66973876953125
 20
-34.90740585327148
 30
0.0
 11
-66.48778533935547
 21
-35.99971771240234
 31
0.0
1001
DBPROPERTIES
1002
{
1000
PbThick
1002
}
  0
LINE
  5
611
330
1F
100
AcDbEntity
  8
THICK
100
AcDbLine
 10
-66.48778533935547
 20
-35.99971771240234
 30
0.0
 11
-66.35621643066406
 21
-37.11409378051758
 31
0.0
1001
DBPROPERTIES
1002
{
1000
PbThick
1002
}
  0
LINE
  5
612
330
1F
100
AcDbEntity
  8
THICK
100
AcDbLine
 10
-66.35621643066406
 20
-37.11409378051758
 30
0.0
 11
-66.2766342163086
 21
-38.24330902099609
 31
0.0
1001
DBPROPERTIES
1002
{
1000
PbThick
1002
}
  0
LINE
  5
613
330
1F
100
AcDbEntity
  8
THICK
100
AcDbLine
 10
-66.2766342163086
 20
-38.24330902099609
 30
0.0
 11
-66.25
 21
-39.38000106811523
 31
0.0
1001
DBPROPERTIES
1002
{
1000
PbThick
1002
}
  0
ARC
  5
614
330
1F
100
AcDbEntity
  8
THICK
100
AcDbCircle
 10
-76.24999999999999
 20
-19.38
 30
0.0
 40
4.0
100
AcDbArc
 50
87.66036541539445
 51
89.99998127603165
1001
DBPROPERTIES
1002
{
1000
PbThick
1002
}
  0
LINE
  5
615
330
1F
100
AcDbEntity
  8
HIDDEN
100
AcDbLine
 10
-76.08670806884766
 20
-15.38333415985107
 30
0.0
 11
-76.04167175292969
 21
-15.3854284286499
 31
0.0
1001
DBPROPERTIES
1002
{
1000
PbHidd
1002
}
  0
LINE
  5
616
330
1F
100
AcDbEntity
  8
THICK
100
AcDbLine
 10
-58.25
 20
-39.38000106811523
 30
0.0
 11
-58.25
 21
-41.61297988891602
 31
0.0
1001
DBPROPERTIES
1002
{
1000
PbThick
1002
}
  0
LINE
  5
617
330
1F
100
AcDbEntity
  8
HIDDEN
100
AcDbLine
 10
-58.25
 20
-41.61297988891602
 30
0.0
 11
-58.25
 21
-44.75
 31
0.0
1001
DBPROPERTIES
1002
{
1000
PbHidd
1002
}
  0
LINE
  5
618
330
1F
100
AcDbEntity
  8
THICK
100
AcDbLine
 10
-58.25
 20
-44.75
 30
0.0
 11
-58.25
 21
-63.2381706237793
 31
0.0
1001
DBPROPERTIES
1002
{
1000
PbThick
1002
}
  0
LINE
  5
619
330
1F
100
AcDbEntity
  8
HIDDEN
100
AcDbLine
 10
-58.25
 20
-63.2381706237793
 30
0.0
 11
-58.25
 21
-65.3375015258789
 31
0.0
1001
DBPROPERTIES
1002
{
1000
PbHidd
1002
}
  0
LINE
  5
61A
330
1F
100
AcDbEntity
  8
THICK
100
AcDbLine
 10
-58.25
 20
-65.3375015258789
 30
0.0
 11
-58.25
 21
-85.61317443847656
 31
0.0
1001
DBPROPERTIES
1002
{
1000
PbThick
1002
}
  0
LINE
  5
61B
330
1F
100
AcDbEntity
  8
HIDDEN
100
AcDbLine
 10
-58.25
 20
-85.61317443847656
 30
0.0
 11
-58.25
 21
-87.7125015258789
 31
0.0
1001
DBPROPERTIES
1002
{
1000
PbHidd
1002
}
  0
LINE
  5
61C
330
1F
100
AcDbEntity
  8
THICK
100
AcDbLine
 10
-58.25
 20
-87.7125015258789
 30
0.0
 11
-58.25
 21
-107.9881744384766
 31
0.0
1001
DBPROPERTIES
1002
{
1000
PbThick
1002
}
  0
LINE
  5
61D
330
1F
100
AcDbEntity
  8
HIDDEN
100
AcDbLine
 10
-58.25
 20
-107.9881744384766
 30
0.0
 11
-58.25
 21
-110.0875015258789
 31
0.0
1001
DBPROPERTIES
1002
{
1000
PbHidd
1002
}
  0
LINE
  5
61E
330
1F
100
AcDbEntity
  8
THICK
100
AcDbLine
 10
-58.25
 20
-110.0875015258789
 30
0.0
 11
-58.25
 21
-130.3631744384766
 31
0.0
1001
DBPROPERTIES
1002
{
1000
PbThick
1002
}
  0
LINE
  5
61F
330
1F
100
AcDbEntity
  8
HIDDEN
100
AcDbLine
 10
-58.25
 20
-130.3631744384766
 30
0.0
 11
-58.25
 21
-132.4624938964844
 31
0.0
1001
DBPROPERTIES
1002
{
1000
PbHidd
1002
}
  0
LINE
  5
620
330
1F
100
AcDbEntity
  8
THICK
100
AcDbLine
 10
-58.25
 20
-132.4624938964844
 30
0.0
 11
-58.25
 21
-152.7381744384766
 31
0.0
1001
DBPROPERTIES
1002
{
1000
PbThick
1002
}
  0
LINE
  5
621
330
1F
100
AcDbEntity
  8
HIDDEN
100
AcDbLine
 10
-58.25
 20
-152.7381744384766
 30
0.0
 11
-58.25
 21
-154.8374938964844
 31
0.0
1001
DBPROPERTIES
1002
{
1000
PbHidd
1002
}
  0
LINE
  5
622
330
1F
100
AcDbEntity
  8
THICK
100
AcDbLine
 10
-58.25
 20
-154.8374938964844
 30
0.0
 11
-58.25
 21
-176.8999938964844
 31
0.0
1001
DBPROPERTIES
1002
{
1000
PbThick
1002
}
  0
LINE
  5
623
330
1F
100
AcDbEntity
  8
THICK
100
AcDbLine
 10
60.42500012538306
 20
-23.25278230878202
 30
0.0
 11
47.0
 21
-0.0000000000000036
 31
0.0
1001
DBPROPERTIES
1002
{
1000
PbThick
1002
}
  0
LINE
  5
624
330
1F
100
AcDbEntity
  8
HIDDEN
100
AcDbLine
 10
-57.25
 20
-41.20084381103516
 30
0.0
 11
-57.25
 21
-44.75
 31
0.0
1001
DBPROPERTIES
1002
{
1000
PbHidd
1002
}
  0
LINE
  5
625
330
1F
100
AcDbEntity
  8
HIDDEN
100
AcDbLine
 10
-57.25
 20
-61.97438430786133
 30
0.0
 11
-57.25
 21
-65.3375015258789
 31
0.0
1001
DBPROPERTIES
1002
{
1000
PbHidd
1002
}
  0
LINE
  5
626
330
1F
100
AcDbEntity
  8
HIDDEN
100
AcDbLine
 10
-57.25
 20
-84.34938049316406
 30
0.0
 11
-57.25
 21
-87.7125015258789
 31
0.0
1001
DBPROPERTIES
1002
{
1000
PbHidd
1002
}
  0
LINE
  5
627
330
1F
100
AcDbEntity
  8
HIDDEN
100
AcDbLine
 10
-57.25
 20
-106.7243804931641
 30
0.0
 11
-57.25
 21
-110.0875015258789
 31
0.0
1001
DBPROPERTIES
1002
{
1000
PbHidd
1002
}
  0
LINE
  5
628
330
1F
100
AcDbEntity
  8
HIDDEN
100
AcDbLine
 10
-57.25
 20
-129.0993804931641
 30
0.0
 11
-57.25
 21
-132.4624938964844
 31
0.0
1001
DBPROPERTIES
1002
{
1000
PbHidd
1002
}
  0
LINE
  5
629
330
1F
100
AcDbEntity
  8
HIDDEN
100
AcDbLine
 10
-57.25
 20
-151.4743804931641
 30
0.0
 11
-57.25
 21
-154.8374938964844
 31
0.0
1001
DBPROPERTIES
1002
{
1000
PbHidd
1002
}
  0
LINE
  5
62A
330
1F
100
AcDbEntity
  8
THICK
100
AcDbLine
 10
-188.0
 20
-161.1000061035156
 30
0.0
 11
-188.0
 21
-154.8374938964844
 31
0.0
1001
DBPROPERTIES
1002
{
1000
PbThick
1002
}
  0
LINE
  5
62B
330
1F
100
AcDbEntity
  8
THICK
100
AcDbLine
 10
216.1999952645137
 20
-154.8374981058055
 30
0.0
 11
192.6999973691743
 21
-145.4374989476697
 31
0.0
1001
DBPROPERTIES
1002
{
1000
PbThick
1002
}
  0
LINE
  5
62C
330
1F
100
AcDbEntity
  8
THICK
100
AcDbLine
 10
216.1999952645137
 20
-132.4624981058055
 30
0.0
 11
192.6999973691743
 21
-123.0624989476697
 31
0.0
1001
DBPROPERTIES
1002
{
1000
PbThick
1002
}
  0
LINE
  5
62D
330
1F
100
AcDbEntity
  8
THICK
100
AcDbLine
 10
-188.0
 20
-145.4375
 30
0.0
 11
-188.0
 21
-132.4624938964844
 31
0.0
1001
DBPROPERTIES
1002
{
1000
PbThick
1002
}
  0
LINE
  5
62E
330
1F
100
AcDbEntity
  8
THICK
100
AcDbLine
 10
216.1999978953394
 20
-110.0874991581358
 30
0.0
 11
192.6999973691743
 21
-100.6874989476697
 31
0.0
1001
DBPROPERTIES
1002
{
1000
PbThick
1002
}
  0
LINE
  5
62F
330
1F
100
AcDbEntity
  8
THICK
100
AcDbLine
 10
-188.0
 20
-123.0625
 30
0.0
 11
-188.0
 21
-110.0875015258789
 31
0.0
1001
DBPROPERTIES
1002
{
1000
PbThick
1002
}
  0
LINE
  5
630
330
1F
100
AcDbEntity
  8
THICK
100
AcDbLine
 10
216.1999978953394
 20
-87.71249915813576
 30
0.0
 11
192.6999973691743
 21
-78.31249894766971
 31
0.0
1001
DBPROPERTIES
1002
{
1000
PbThick
1002
}
  0
LINE
  5
631
330
1F
100
AcDbEntity
  8
THICK
100
AcDbLine
 10
-188.0
 20
-100.6875
 30
0.0
 11
-188.0
 21
-87.7125015258789
 31
0.0
1001
DBPROPERTIES
1002
{
1000
PbThick
1002
}
  0
LINE
  5
632
330
1F
100
AcDbEntity
  8
THICK
100
AcDbLine
 10
216.1999978953394
 20
-65.33749915813576
 30
0.0
 11
192.6999973691743
 21
-55.9374989476697
 31
0.0
1001
DBPROPERTIES
1002
{
1000
PbThick
1002
}
  0
LINE
  5
633
330
1F
100
AcDbEntity
  8
THICK
100
AcDbLine
 10
-188.0
 20
-78.3125
 30
0.0
 11
-188.0
 21
-65.3375015258789
 31
0.0
1001
DBPROPERTIES
1002
{
1000
PbThick
1002
}
  0
LINE
  5
634
330
1F
100
AcDbEntity
  8
THICK
100
AcDbLine
 10
235.0
 20
-44.75000000000001
 30
0.0
 11
83.92500296712029
 21
-25.0427824786629
 31
0.0
1001
DBPROPERTIES
1002
{
1000
PbThick
1002
}
  0
LINE
  5
635
330
1F
100
AcDbEntity
  8
THICK
100
AcDbLine
 10
83.92500305175781
 20
-23.25278282165527
 30
0.0
 11
83.92500305175781
 21
-25.04278182983398
 31
0.0
1001
DBPROPERTIES
1002
{
1000
PbThick
1002
}
  0
LINE
  5
636
330
1F
100
AcDbEntity
  8
THICK
100
AcDbLine
 10
-188.0
 20
-55.9375
 30
0.0
 11
-188.0
 21
-44.75
 31
0.0
1001
DBPROPERTIES
1002
{
1000
PbThick
1002
}
  0
LINE
  5
637
330
1F
100
AcDbEntity
  8
THICK
100
AcDbLine
 10
-197.3999938964844
 20
-179.0
 30
0.0
 11
-197.3999938964844
 21
-166.1000061035156
 31
0.0
1001
DBPROPERTIES
1002
{
1000
PbThick
1002
}
  0
LINE
  5
638
330
1F
100
AcDbEntity
  8
THICK
100
AcDbLine
 10
-124.5
 20
-239.8999938964844
 30
0.0
 11
-124.5
 21
-179.0
 31
0.0
1001
DBPROPERTIES
1002
{
1000
PbThick
1002
}
  0
LINE
  5
639
330
1F
100
AcDbEntity
  8
THICK
100
AcDbLine
 10
-124.5
 20
-253.1999969482422
 30
0.0
 11
-124.5
 21
-248.6000061035156
 31
0.0
1001
DBPROPERTIES
1002
{
1000
PbThick
1002
}
  0
LINE
  5
63A
330
1F
100
AcDbEntity
  8
THICK
100
AcDbLine
 10
-124.5
 20
-266.0
 30
0.0
 11
-124.5
 21
-261.8999938964844
 31
0.0
1001
DBPROPERTIES
1002
{
1000
PbThick
1002
}
  0
ENDSEC
  0
SECTION
  2
OBJECTS
  0
DICTIONARY
  5
C
330
0
100
AcDbDictionary
  3
ACAD_GROUP
350
D
  3
ACAD_LAYOUT
350
1A
  3
ACAD_MATERIAL
350
43
  3
ACAD_MLEADERSTYLE
350
6B
  3
ACAD_MLINESTYLE
350
17
  3
ACAD_PLOTSETTINGS
350
19
  3
ACAD_SCALELIST
350
47
  3
ACAD_VISUALSTYLE
350
2A
  3
ACDBVARIABLEDICTIONARY
350
63B
1001
ACAD
1000
TREAT_AS_HARD
1070
     0
  0
DICTIONARY
  5
D
102
{ACAD_REACTORS
330
C
102
}
330
C
100
AcDbDictionary
1001
ACAD
1000
TREAT_AS_HARD
1070
     0
  0
DICTIONARY
  5
1A
102
{ACAD_REACTORS
330
C
102
}
330
C
100
AcDbDictionary
1001
ACAD
1000
TREAT_AS_HARD
1070
     0
  0
DICTIONARY
  5
43
102
{ACAD_REACTORS
330
C
102
}
330
C
100
AcDbDictionary
  3
BYBLOCK
350
45
  3
BYLAYER
350
44
  3
GLOBAL
350
46
1001
ACAD
1000
TREAT_AS_HARD
1070
     0
  0
DICTIONARY
  5
6B
102
{ACAD_REACTORS
330
C
102
}
330
C
100
AcDbDictionary
  3
STANDARD
350
6C
1001
ACAD
1000
TREAT_AS_HARD
1070
     0
  0
DICTIONARY
  5
17
102
{ACAD_REACTORS
330
C
102
}
330
C
100
AcDbDictionary
  3
STANDARD
350
18
1001
ACAD
1000
TREAT_AS_HARD
1070
     0
  0
DICTIONARY
  5
19
102
{ACAD_REACTORS
330
C
102
}
330
C
100
AcDbDictionary
1001
ACAD
1000
TREAT_AS_HARD
1070
     0
  0
DICTIONARY
  5
47
102
{ACAD_REACTORS
330
C
102
}
330
C
100
AcDbDictionary
  3
A0
350
48
  3
A1
350
49
  3
A2
350
4A
  3
A3
350
4B
  3
A4
350
4C
  3
A5
350
4D
  3
A6
350
4E
  3
A7
350
4F
  3
A8
350
50
  3
A9
350
51
  3
B0
350
52
  3
B1
350
53
  3
B2
350
54
  3
B3
350
55
  3
B4
350
56
  3
B5
350
57
  3
B6
350
58
  3
B7
350
59
  3
B8
350
5A
  3
B9
350
5B
  3
C0
350
5C
  3
C1
350
5D
  3
C2
350
5E
  3
C3
350
5F
  3
C4
350
60
  3
C5
350
61
  3
C6
350
62
  3
C7
350
63
  3
C8
350
64
  3
C9
350
65
  3
D0
350
66
  3
D1
350
67
  3
D2
350
68
1001
ACAD
1000
TREAT_AS_HARD
1070
     0
  0
DICTIONARY
  5
2A
102
{ACAD_REACTORS
330
C
102
}
330
C
100
AcDbDictionary
  3
2DWIREFRAME
350
2F
  3
BASIC
350
32
  3
BRIGHTEN
350
36
  3
COLORCHANGE
350
3A
  3
CONCEPTUAL
350
34
  3
DIM
350
35
  3
EDGECOLOROFF
350
3D
  3
FACEPATTERN
350
39
  3
FLAT
350
2B
  3
FLATWITHEDGES
350
2C
  3
GOURAUD
350
2D
  3
GOURAUDWITHEDGES
350
2E
  3
HIDDEN
350
31
  3
JITTEROFF
350
3B
  3
LINEPATTERN
350
38
  3
OVERHANGOFF
350
3C
  3
REALISTIC
350
33
  3
SHADED
350
42
  3
SHADED_WITH_EDGES
350
41
  3
SHADES_OF_GRAY
350
3E
  3
SKETCHY
350
3F
  3
THICKEN
350
37
  3
WIREFRAME
350
30
  3
X-RAY
350
40
1001
ACAD
1000
TREAT_AS_HARD
1070
     0
  0
DICTIONARY
  5
63B
102
{ACAD_REACTORS
330
C
102
}
330
C
100
AcDbDictionary
  3
CANNOSCALE
350
646
  3
CENTEREXE
350
642
  3
CENTERLTYPEFILE
350
643
  3
CMLEADERSTYLE
350
63D
  3
CTABLESTYLE
350
63C
  3
DIMASSOC
350
644
  3
HIDETEXT
350
645
  3
MSLTSCALE
350
647
  3
PSOLHEIGHT
350
63F
  3
PSOLWIDTH
350
63E
1001
ACAD
1000
TREAT_AS_HARD
1070
     0
  0
MATERIAL
  5
45
102
{ACAD_REACTORS
330
43
102
}
102
{ACAD_XDICTIONARY
360
64A
102
}
330
43
100
AcDbMaterial
  1
BYBLOCK
  0
MATERIAL
  5
44
102
{ACAD_REACTORS
330
43
102
}
102
{ACAD_XDICTIONARY
360
648
102
}
330
43
100
AcDbMaterial
  1
BYLAYER
  0
MATERIAL
  5
46
102
{ACAD_REACTORS
330
43
102
}
102
{ACAD_XDICTIONARY
360
64C
102
}
330
43
100
AcDbMaterial
  1
GLOBAL
  0
ACAD_PROXY_OBJECT
  5
6C
102
{ACAD_REACTORS
330
6B
102
}
330
6B
100
AcDbZombieObject
 90
      499
 91
      505
 93
      610
310
40901902A4063FBFFFFFE0000000000000020400000000000020404214DD185B99185C990000000000000104090141901A00000000000004100000000000000041025764000000000000039000
340
14
340
0
340
11
340
0
 94
        0
1001
ACAD_MLEADERVER
1070
     2
  0
MLINESTYLE
  5
18
102
{ACAD_REACTORS
330
17
102
}
330
17
100
AcDbMlineStyle
  2
Standard
 70
     0
  3

 62
   256
 51
90.0
 52
90.0
 71
     2
 49
0.5
 62
   256
  6
BYLAYER
 49
-0.5
 62
   256
  6
BYLAYER
  0
ACAD_PROXY_OBJECT
  5
48
102
{ACAD_REACTORS
330
47
102
}
330
47
100
AcDbZombieObject
 90
      499
 91
      503
 93
       41
310
903313A31580
  0
ACAD_PROXY_OBJECT
  5
49
102
{ACAD_REACTORS
330
47
102
}
330
47
100
AcDbZombieObject
 90
      499
 91
      503
 93
      105
310
903313A324000000000000004000
  0
ACAD_PROXY_OBJECT
  5
4A
102
{ACAD_REACTORS
330
47
102
}
330
47
100
AcDbZombieObject
 90
      499
 91
      503
 93
      105
310
903313A344000000000000104000
  0
ACAD_PROXY_OBJECT
  5
4B
102
{ACAD_REACTORS
330
47
102
}
330
47
100
AcDbZombieObject
 90
      499
 91
      503
 93
      105
310
903313A354000000000000144000
  0
ACAD_PROXY_OBJECT
  5
4C
102
{ACAD_REACTORS
330
47
102
}
330
47
100
AcDbZombieObject
 90
      499
 91
      503
 93
      105
310
903313A384000000000000204000
  0
ACAD_PROXY_OBJECT
  5
4D
102
{ACAD_REACTORS
330
47
102
}
330
47
100
AcDbZombieObject
 90
      499
 91
      503
 93
      113
310
904313A31304000000000000244000
  0
ACAD_PROXY_OBJECT
  5
4E
102
{ACAD_REACTORS
330
47
102
}
330
47
100
AcDbZombieObject
 90
      499
 91
      503
 93
      113
310
904313A31364000000000000304000
  0
ACAD_PROXY_OBJECT
  5
4F
102
{ACAD_REACTORS
330
47
102
}
330
47
100
AcDbZombieObject
 90
      499
 91
      503
 93
      113
310
904313A32304000000000000344000
  0
ACAD_PROXY_OBJECT
  5
50
102
{ACAD_REACTORS
330
47
102
}
330
47
100
AcDbZombieObject
 90
      499
 91
      503
 93
      113
310
904313A333040000000000003E4000
  0
ACAD_PROXY_OBJECT
  5
51
102
{ACAD_REACTORS
330
47
102
}
330
47
100
AcDbZombieObject
 90
      499
 91
      503
 93
      113
310
904313A34304000000000000444000
  0
ACAD_PROXY_OBJECT
  5
52
102
{ACAD_REACTORS
330
47
102
}
330
47
100
AcDbZombieObject
 90
      499
 91
      503
 93
      113
310
904313A35304000000000000494000
  0
ACAD_PROXY_OBJECT
  5
53
102
{ACAD_REACTORS
330
47
102
}
330
47
100
AcDbZombieObject
 90
      499
 91
      503
 93
      121
310
905313A3130304000000000000594000
  0
ACAD_PROXY_OBJECT
  5
54
102
{ACAD_REACTORS
330
47
102
}
330
47
100
AcDbZombieObject
 90
      499
 91
      503
 93
      105
310
903323A310000000000000010100
  0
ACAD_PROXY_OBJECT
  5
55
102
{ACAD_REACTORS
330
47
102
}
330
47
100
AcDbZombieObject
 90
      499
 91
      503
 93
      105
310
903343A310000000000000410100
  0
ACAD_PROXY_OBJECT
  5
56
102
{ACAD_REACTORS
330
47
102
}
330
47
100
AcDbZombieObject
 90
      499
 91
      503
 93
      105
310
903383A310000000000000810100
  0
ACAD_PROXY_OBJECT
  5
57
102
{ACAD_REACTORS
330
47
102
}
330
47
100
AcDbZombieObject
 90
      499
 91
      503
 93
      113
310
90431303A310000000000000910100
  0
ACAD_PROXY_OBJECT
  5
58
102
{ACAD_REACTORS
330
47
102
}
330
47
100
AcDbZombieObject
 90
      499
 91
      503
 93
      121
310
9053130303A310000000000001650100
  0
ACAD_PROXY_OBJECT
  5
59
102
{ACAD_REACTORS
330
47
102
}
330
47
100
AcDbZombieObject
 90
      499
 91
      503
 93
      257
310
90E312F31323822203D2031272D3022000000000000200FC000000000000284000
  0
ACAD_PROXY_OBJECT
  5
5A
102
{ACAD_REACTORS
330
47
102
}
330
47
100
AcDbZombieObject
 90
      499
 91
      503
 93
      249
310
90D312F363422203D2031272D3022000000000000240FC000000000000284000
  0
ACAD_PROXY_OBJECT
  5
5B
102
{ACAD_REACTORS
330
47
102
}
330
47
100
AcDbZombieObject
 90
      499
 91
      503
 93
      249
310
90D312F333222203D2031272D3022000000000000280FC000000000000284000
  0
ACAD_PROXY_OBJECT
  5
5C
102
{ACAD_REACTORS
330
47
102
}
330
47
100
AcDbZombieObject
 90
      499
 91
      503
 93
      249
310
90D312F313622203D2031272D30220000000000002C0FC000000000000284000
  0
ACAD_PROXY_OBJECT
  5
5D
102
{ACAD_REACTORS
330
47
102
}
330
47
100
AcDbZombieObject
 90
      499
 91
      503
 93
      249
310
90D332F333222203D2031272D30220000000000002E0FC000000000000284000
  0
ACAD_PROXY_OBJECT
  5
5E
102
{ACAD_REACTORS
330
47
102
}
330
47
100
AcDbZombieObject
 90
      499
 91
      503
 93
      241
310
90C312F3822203D2031272D3022000000000000300FC000000000000284000
  0
ACAD_PROXY_OBJECT
  5
5F
102
{ACAD_REACTORS
330
47
102
}
330
47
100
AcDbZombieObject
 90
      499
 91
      503
 93
      249
310
90D332F313622203D2031272D3022000000000000320FC000000000000284000
  0
ACAD_PROXY_OBJECT
  5
60
102
{ACAD_REACTORS
330
47
102
}
330
47
100
AcDbZombieObject
 90
      499
 91
      503
 93
      241
310
90C312F3422203D2031272D3022000000000000340FC000000000000284000
  0
ACAD_PROXY_OBJECT
  5
61
102
{ACAD_REACTORS
330
47
102
}
330
47
100
AcDbZombieObject
 90
      499
 91
      503
 93
      241
310
90C332F3822203D2031272D3022000000000000360FC000000000000284000
  0
ACAD_PROXY_OBJECT
  5
62
102
{ACAD_REACTORS
330
47
102
}
330
47
100
AcDbZombieObject
 90
      499
 91
      503
 93
      241
310
90C312F3222203D2031272D3022000000000000380FC000000000000284000
  0
ACAD_PROXY_OBJECT
  5
63
102
{ACAD_REACTORS
330
47
102
}
330
47
100
AcDbZombieObject
 90
      499
 91
      503
 93
      241
310
90C332F3422203D2031272D30220000000000003A0FC000000000000284000
  0
ACAD_PROXY_OBJECT
  5
64
102
{ACAD_REACTORS
330
47
102
}
330
47
100
AcDbZombieObject
 90
      499
 91
      503
 93
      161
310
90A3122203D2031272D30224000000000000284000
  0
ACAD_PROXY_OBJECT
  5
65
102
{ACAD_REACTORS
330
47
102
}
330
47
100
AcDbZombieObject
 90
      499
 91
      503
 93
      257
310
90E312D312F3222203D2031272D30220000000000003E0FC000000000000284000
  0
ACAD_PROXY_OBJECT
  5
66
102
{ACAD_REACTORS
330
47
102
}
330
47
100
AcDbZombieObject
 90
      499
 91
      503
 93
      225
310
90A3322203D2031272D302200000000000002100000000000000284000
  0
ACAD_PROXY_OBJECT
  5
67
102
{ACAD_REACTORS
330
47
102
}
330
47
100
AcDbZombieObject
 90
      499
 91
      503
 93
      225
310
90A3622203D2031272D302200000000000006100000000000000284000
  0
ACAD_PROXY_OBJECT
  5
68
102
{ACAD_REACTORS
330
47
102
}
330
47
100
AcDbZombieObject
 90
      499
 91
      503
 93
      249
310
90D31272D3022203D2031272D30220000000000000A100000000000000284000
  0
ACAD_PROXY_OBJECT
  5
2F
102
{ACAD_REACTORS
330
2A
102
}
330
2A
100
AcDbZombieObject
 90
      499
 91
      501
 93
      436
310
42CC9915DA5C99599C985B595049028333333333333E33F0000000000000F90107901411070040501600405405064090741402480A0340
1001
ACAD
1000
AcDbSavedByObjectVersion
1070
     0
  0
ACAD_PROXY_OBJECT
  5
32
102
{ACAD_REACTORS
330
2A
102
}
330
2A
100
AcDbZombieObject
 90
      499
 91
      501
 93
      388
310
4150985CDA58D07406404333333333333E33F0000000000000F90107A41107004050150841D405064090741402480A0350
1001
ACAD
1000
AcDbSavedByObjectVersion
1070
     0
  0
ACAD_PROXY_OBJECT
  5
36
102
{ACAD_REACTORS
330
2A
102
}
330
2A
100
AcDbZombieObject
 90
      499
 91
      501
 93
      428
310
42109C9A59DA1D195B90C409028333333333333E33F0000000000000F9010790141107004050150841D405064090741402480A029950
1001
ACAD
1000
AcDbSavedByObjectVersion
1070
     0
  0
ACAD_PROXY_OBJECT
  5
3A
102
{ACAD_REACTORS
330
2A
102
}
330
2A
100
AcDbZombieObject
 90
      499
 91
      501
 93
      452
310
42D0DBDB1BDC90DA185B99D95104090240C333333333333E33F0000000000000F90108901411070040501508421405064090741402480A0350
1001
ACAD
1000
AcDbSavedByObjectVersion
1070
     0
  0
ACAD_PROXY_OBJECT
  5
34
102
{ACAD_REACTORS
330
2A
102
}
330
2A
100
AcDbZombieObject
 90
      499
 91
      501
 93
      500
310
4290DBDB98D95C1D1D585B10940D028333333333333E33F0000000000000F90107902409070040501000000000018199010841D405064090740C02480A0340
1001
ACAD
1000
AcDbSavedByObjectVersion
1070
     0
  0
ACAD_PROXY_OBJECT
  5
35
102
{ACAD_REACTORS
330
2A
102
}
330
2A
100
AcDbZombieObject
 90
      499
 91
      501
 93
      412
310
40D11A5B50B409028333333333333E33F0000000000000F9010790141107004050150841D405064090741402480A02677FFFFFD0
1001
ACAD
1000
AcDbSavedByObjectVersion
1070
     0
  0
ACAD_PROXY_OBJECT
  5
3D
102
{ACAD_REACTORS
330
2A
102
}
330
2A
100
AcDbZombieObject
 90
      499
 91
      501
 93
      452
310
43115919D950DBDB1BDC93D999916409028333333333333E33F0000000000000F9010790141107004050150841D405064090741402480A0350
1001
ACAD
1000
AcDbSavedByObjectVersion
1070
     0
  0
ACAD_PROXY_OBJECT
  5
39
102
{ACAD_REACTORS
330
2A
102
}
330
2A
100
AcDbZombieObject
 90
      499
 91
      501
 93
      444
310
42D19858D95C185D1D195C9B90F409028333333333333E33F0000000000000F9010790141107004050150841D405064090741402480A0350
1001
ACAD
1000
AcDbSavedByObjectVersion
1070
     0
  0
ACAD_PROXY_OBJECT
  5
2B
102
{ACAD_REACTORS
330
2A
102
}
330
2A
100
AcDbZombieObject
 90
      499
 91
      501
 93
      380
310
41119B185D240901404333333333333E33F0000000000000F9010740A907004050150841D405064090741402480A1B50
1001
ACAD
1000
AcDbSavedByObjectVersion
1070
     0
  0
ACAD_PROXY_OBJECT
  5
2C
102
{ACAD_REACTORS
330
2A
102
}
330
2A
100
AcDbZombieObject
 90
      499
 91
      501
 93
      468
310
43519B185D15DA5D1A115919D95CD0140901404333333333333E33F0000000000000F90107409019070040501600405405064090741402480A1B50
1001
ACAD
1000
AcDbSavedByObjectVersion
1070
     0
  0
ACAD_PROXY_OBJECT
  5
2D
102
{ACAD_REACTORS
330
2A
102
}
330
2A
100
AcDbZombieObject
 90
      499
 91
      501
 93
      404
310
41D1DBDD5C985D5910240902404333333333333E33F0000000000000F9010740A9070040501641D405064090741402480A1B50
1001
ACAD
1000
AcDbSavedByObjectVersion
1070
     0
  0
ACAD_PROXY_OBJECT
  5
2E
102
{ACAD_REACTORS
330
2A
102
}
330
2A
100
AcDbZombieObject
 90
      499
 91
      501
 93
      492
310
4411DBDD5C985D5915DA5D1A115919D95CD0340902404333333333333E33F0000000000000F90107409019070040501600405405064090741402480A1B50
1001
ACAD
1000
AcDbSavedByObjectVersion
1070
     0
  0
ACAD_PROXY_OBJECT
  5
31
102
{ACAD_REACTORS
330
2A
102
}
330
2A
100
AcDbZombieObject
 90
      499
 91
      501
 93
      476
310
41921A5919195B90640502408333333333333E33F0000000000000F901079024090700405020000000000001110200405405064090740C02480A0340
1001
ACAD
1000
AcDbSavedByObjectVersion
1070
     0
  0
ACAD_PROXY_OBJECT
  5
3B
102
{ACAD_REACTORS
330
2A
102
}
330
2A
100
AcDbZombieObject
 90
      499
 91
      501
 93
      428
310
42529A5D1D195C93D999914409028333333333333E33F0000000000000F9010790141107004050150A41D405064090741402480A0350
1001
ACAD
1000
AcDbSavedByObjectVersion
1070
     0
  0
ACAD_PROXY_OBJECT
  5
38
102
{ACAD_REACTORS
330
2A
102
}
330
2A
100
AcDbZombieObject
 90
      499
 91
      501
 93
      444
310
42D31A5B995C185D1D195C9B90E409028333333333333E33F0000000000000F9010790141107004050750841D405064090741402483A0350
1001
ACAD
1000
AcDbSavedByObjectVersion
1070
     0
  0
ACAD_PROXY_OBJECT
  5
3C
102
{ACAD_REACTORS
330
2A
102
}
330
2A
100
AcDbZombieObject
 90
      499
 91
      501
 93
      444
310
42D3DD995C9A185B99D3D999915409028333333333333E33F0000000000000F9010790141107004050150941D405064090741402480A0350
1001
ACAD
1000
AcDbSavedByObjectVersion
1070
     0
  0
ACAD_PROXY_OBJECT
  5
33
102
{ACAD_REACTORS
330
2A
102
}
330
2A
100
AcDbZombieObject
 90
      499
 91
      501
 93
      428
310
425499585B1A5CDD1A58D08409038333333333333E33F0000000000000F9010740A907004050150800405405064090740C02480A1B40
1001
ACAD
1000
AcDbSavedByObjectVersion
1070
     0
  0
ACAD_PROXY_OBJECT
  5
42
102
{ACAD_REACTORS
330
2A
102
}
330
2A
100
AcDbZombieObject
 90
      499
 91
      501
 93
      420
310
4194DA1859195911B40902404333333333333E33F0000000000000F9010740A41107004050150800405405064090840C02480A0B40
1001
ACAD
1000
AcDbSavedByObjectVersion
1070
     0
  0
ACAD_PROXY_OBJECT
  5
41
102
{ACAD_REACTORS
330
2A
102
}
330
2A
100
AcDbZombieObject
 90
      499
 91
      501
 93
      516
310
4454DA18591959081DDA5D1A08195919D95CD1A40902404333333333333E33F0000000000000F901074090142907004050250800405405064090740C02480A0B40
1001
ACAD
1000
AcDbSavedByObjectVersion
1070
     0
  0
ACAD_PROXY_OBJECT
  5
3E
102
{ACAD_REACTORS
330
2A
102
}
330
2A
100
AcDbZombieObject
 90
      499
 91
      501
 93
      532
310
4394DA1859195CC81BD98811DC985E5174090240C333333333333E33F0000000000000F901079024090741D01000000000000111010841D405064090740C02480A0340
1001
ACAD
1000
AcDbSavedByObjectVersion
1070
     0
  0
ACAD_PROXY_OBJECT
  5
3F
102
{ACAD_REACTORS
330
2A
102
}
330
2A
100
AcDbZombieObject
 90
      499
 91
      501
 93
      476
310
41D4DAD95D18DA1E51840502408333333333333E33F0000000000000F901079024090741D01000000000000111010B41D405064090741802480A0340
1001
ACAD
1000
AcDbSavedByObjectVersion
1070
     0
  0
ACAD_PROXY_OBJECT
  5
37
102
{ACAD_REACTORS
330
2A
102
}
330
2A
100
AcDbZombieObject
 90
      499
 91
      501
 93
      412
310
41D51A1A58DAD95B90D409028333333333333E33F0000000000000F9010790141107004050150C41D405064090741402480A0350
1001
ACAD
1000
AcDbSavedByObjectVersion
1070
     0
  0
ACAD_PROXY_OBJECT
  5
30
102
{ACAD_REACTORS
330
2A
102
}
330
2A
100
AcDbZombieObject
 90
      499
 91
      501
 93
      420
310
4255DA5C99599C985B595059028333333333333E33F0000000000000F90107901411070040501600405405064090740C02480A0340
1001
ACAD
1000
AcDbSavedByObjectVersion
1070
     0
  0
ACAD_PROXY_OBJECT
  5
40
102
{ACAD_REACTORS
330
2A
102
}
330
2A
100
AcDbZombieObject
 90
      499
 91
      501
 93
      404
310
41560B54985E51940902404000000000000E03F0000000000000F9010740501907004050150841D405064090740C02480A1B40
1001
ACAD
1000
AcDbSavedByObjectVersion
1070
     0
  0
DICTIONARYVAR
  5
646
102
{ACAD_REACTORS
330
63B
102
}
330
63B
100
DictionaryVariables
280
     0
  1
1:1
  0
DICTIONARYVAR
  5
642
102
{ACAD_REACTORS
330
63B
102
}
330
63B
100
DictionaryVariables
280
     0
  1
3.500000
  0
DICTIONARYVAR
  5
643
102
{ACAD_REACTORS
330
63B
102
}
330
63B
100
DictionaryVariables
280
     0
  1
acadiso.lin
  0
DICTIONARYVAR
  5
63D
102
{ACAD_REACTORS
330
63B
102
}
330
63B
100
DictionaryVariables
280
     0
  1
Standard
  0
DICTIONARYVAR
  5
63C
102
{ACAD_REACTORS
330
63B
102
}
330
63B
100
DictionaryVariables
280
     0
  1
Standard
  0
DICTIONARYVAR
  5
644
102
{ACAD_REACTORS
330
63B
102
}
330
63B
100
DictionaryVariables
280
     0
  1
2
  0
DICTIONARYVAR
  5
645
102
{ACAD_REACTORS
330
63B
102
}
330
63B
100
DictionaryVariables
280
     0
  1
1
  0
DICTIONARYVAR
  5
647
102
{ACAD_REACTORS
330
63B
102
}
330
63B
100
DictionaryVariables
280
     0
  1
1
  0
DICTIONARYVAR
  5
63F
102
{ACAD_REACTORS
330
63B
102
}
330
63B
100
DictionaryVariables
280
     0
  1
80.000000
  0
DICTIONARYVAR
  5
63E
102
{ACAD_REACTORS
330
63B
102
}
330
63B
100
DictionaryVariables
280
     0
  1
5.000000
  0
DICTIONARY
  5
64A
330
45
100
AcDbDictionary
  3
ACAD_XREC_ROUNDTRIP
360
64B
1001
ACAD
1000
TREAT_AS_HARD
1070
     1
  0
DICTIONARY
  5
648
330
44
100
AcDbDictionary
  3
ACAD_XREC_ROUNDTRIP
360
649
1001
ACAD
1000
TREAT_AS_HARD
1070
     1
  0
DICTIONARY
  5
64C
330
46
100
AcDbDictionary
  3
ACAD_XREC_ROUNDTRIP
360
64D
1001
ACAD
1000
TREAT_AS_HARD
1070
     1
  0
XRECORD
  5
64B
102
{ACAD_REACTORS
330
64A
102
}
330
64A
100
AcDbXrecord
102
MATERIAL
148
0.0
149
0.0
149
0.0
 93
        0
 94
      127
282
     0
 72
     1
 77
     1
171
     1
175
     1
179
     1
273
     0
  0
XRECORD
  5
649
102
{ACAD_REACTORS
330
648
102
}
330
648
100
AcDbXrecord
102
MATERIAL
148
0.0
149
0.0
149
0.0
 93
        0
 94
      127
282
     0
 72
     1
 77
     1
171
     1
175
     1
179
     1
273
     0
  0
XRECORD
  5
64D
102
{ACAD_REACTORS
330
64C
102
}
330
64C
100
AcDbXrecord
102
MATERIAL
148
0.0
149
0.0
149
0.0
 93
        0
 94
      127
282
     0
 72
     1
 77
     1
171
     1
175
     1
179
     1
273
     0
  0
ENDSEC
  0
EOF
