  0
SECTION
  2
HEADER
  9
$ACADVER
  1
AC1012
  9
$DWGCODEPAGE
  3
ansi_1252
  9
$INSBASE
 10
0.0
 20
0.0
 30
0.0
  9
$EXTMIN
 10
1.000000000000000E+20
 20
1.000000000000000E+20
 30
1.000000000000000E+20
  9
$EXTMAX
 10
-1.000000000000000E+20
 20
-1.000000000000000E+20
 30
-1.000000000000000E+20
  9
$LIMMIN
 10
0.0
 20
0.0
  9
$LIMMAX
 10
420.0
 20
297.0
  9
$ORTHOMODE
 70
     0
  9
$REGENMODE
 70
     1
  9
$FILLMODE
 70
     1
  9
$QTEXTMODE
 70
     0
  9
$MIRRTEXT
 70
     1
  9
$DRAGMODE
 70
     2
  9
$LTSCALE
 40
1.0
  9
$OSMODE
 70
    37
  9
$ATTMODE
 70
     1
  9
$TEXTSIZE
 40
2.5
  9
$TRACEWID
 40
1.0
  9
$TEXTSTYLE
  7
STANDARD
  9
$CLAYER
  8
0
  9
$CELTYPE
  6
BYLAYER
  9
$CECOLOR
 62
   256
  9
$CELTSCALE
 40
1.0
  9
$DELOBJ
 70
     1
  9
$DISPSILH
 70
     0
  9
$DIMSCALE
 40
1.0
  9
$DIMASZ
 40
2.5
  9
$DIMEXO
 40
0.625
  9
$DIMDLI
 40
3.75
  9
$DIMRND
 40
0.0
  9
$DIMDLE
 40
0.0
  9
$DIMEXE
 40
1.25
  9
$DIMTP
 40
0.0
  9
$DIMTM
 40
0.0
  9
$DIMTXT
 40
2.5
  9
$DIMCEN
 40
2.5
  9
$DIMTSZ
 40
0.0
  9
$DIMTOL
 70
     0
  9
$DIMLIM
 70
     0
  9
$DIMTIH
 70
     0
  9
$DIMTOH
 70
     0
  9
$DIMSE1
 70
     0
  9
$DIMSE2
 70
     0
  9
$DIMTAD
 70
     1
  9
$DIMZIN
 70
     8
  9
$DIMBLK
  1

  9
$DIMASO
 70
     1
  9
$DIMSHO
 70
     1
  9
$DIMPOST
  1

  9
$DIMAPOST
  1

  9
$DIMALT
 70
     0
  9
$DIMALTD
 70
     3
  9
$DIMALTF
 40
0.03937007874016
  9
$DIMLFAC
 40
1.0
  9
$DIMTOFL
 70
     1
  9
$DIMTVP
 40
0.0
  9
$DIMTIX
 70
     0
  9
$DIMSOXD
 70
     0
  9
$DIMSAH
 70
     0
  9
$DIMBLK1
  1

  9
$DIMBLK2
  1

  9
$DIMSTYLE
  2
ISO-25
  9
$DIMCLRD
 70
     0
  9
$DIMCLRE
 70
     0
  9
$DIMCLRT
 70
     0
  9
$DIMTFAC
 40
1.0
  9
$DIMGAP
 40
0.625
  9
$DIMJUST
 70
     0
  9
$DIMSD1
 70
     0
  9
$DIMSD2
 70
     0
  9
$DIMTOLJ
 70
     0
  9
$DIMTZIN
 70
     8
  9
$DIMALTZ
 70
     0
  9
$DIMALTTZ
 70
     0
  9
$DIMFIT
 70
     3
  9
$DIMUPT
 70
     0
  9
$DIMUNIT
 70
     2
  9
$DIMDEC
 70
     2
  9
$DIMTDEC
 70
     2
  9
$DIMALTU
 70
     2
  9
$DIMALTTD
 70
     3
  9
$DIMTXSTY
  7
STANDARD
  9
$DIMAUNIT
 70
     0
  9
$LUNITS
 70
     2
  9
$LUPREC
 70
     4
  9
$SKETCHINC
 40
1.0
  9
$FILLETRAD
 40
10.0
  9
$AUNITS
 70
     0
  9
$AUPREC
 70
     0
  9
$MENU
  1
.
  9
$ELEVATION
 40
0.0
  9
$PELEVATION
 40
0.0
  9
$THICKNESS
 40
0.0
  9
$LIMCHECK
 70
     0
  9
$CHAMFERA
 40
0.0
  9
$CHAMFERB
 40
0.0
  9
$CHAMFERC
 40
0.0
  9
$CHAMFERD
 40
0.0
  9
$SKPOLY
 70
     0
  9
$TDCREATE
 40
2457963.440860069
  9
$TDUPDATE
 40
2457963.440870185
  9
$TDINDWG
 40
0.0000000116
  9
$TDUSRTIMER
 40
0.0000000116
  9
$USRTIMER
 70
     1
  9
$ANGBASE
 50
0.0
  9
$ANGDIR
 70
     0
  9
$PDMODE
 70
     0
  9
$PDSIZE
 40
0.0
  9
$PLINEWID
 40
0.0
  9
$COORDS
 70
     1
  9
$SPLFRAME
 70
     0
  9
$SPLINETYPE
 70
     6
  9
$SPLINESEGS
 70
     8
  9
$ATTDIA
 70
     0
  9
$ATTREQ
 70
     1
  9
$HANDLING
 70
     1
  9
$HANDSEED
  5
354
  9
$SURFTAB1
 70
     6
  9
$SURFTAB2
 70
     6
  9
$SURFTYPE
 70
     6
  9
$SURFU
 70
     6
  9
$SURFV
 70
     6
  9
$UCSNAME
  2

  9
$UCSORG
 10
0.0
 20
0.0
 30
0.0
  9
$UCSXDIR
 10
1.0
 20
0.0
 30
0.0
  9
$UCSYDIR
 10
0.0
 20
1.0
 30
0.0
  9
$PUCSNAME
  2

  9
$PUCSORG
 10
0.0
 20
0.0
 30
0.0
  9
$PUCSXDIR
 10
1.0
 20
0.0
 30
0.0
  9
$PUCSYDIR
 10
0.0
 20
1.0
 30
0.0
  9
$USERI1
 70
     0
  9
$USERI2
 70
     0
  9
$USERI3
 70
     0
  9
$USERI4
 70
     0
  9
$USERI5
 70
     0
  9
$USERR1
 40
0.0
  9
$USERR2
 40
0.0
  9
$USERR3
 40
0.0
  9
$USERR4
 40
0.0
  9
$USERR5
 40
0.0
  9
$WORLDVIEW
 70
     1
  9
$SHADEDGE
 70
     3
  9
$SHADEDIF
 70
    70
  9
$TILEMODE
 70
     1
  9
$MAXACTVP
 70
    64
  9
$PINSBASE
 10
0.0
 20
0.0
 30
0.0
  9
$PLIMCHECK
 70
     0
  9
$PEXTMIN
 10
1.000000000000000E+20
 20
1.000000000000000E+20
 30
1.000000000000000E+20
  9
$PEXTMAX
 10
-1.000000000000000E+20
 20
-1.000000000000000E+20
 30
-1.000000000000000E+20
  9
$PLIMMIN
 10
0.0
 20
0.0
  9
$PLIMMAX
 10
420.0
 20
297.0
  9
$UNITMODE
 70
     0
  9
$VISRETAIN
 70
     1
  9
$PLINEGEN
 70
     0
  9
$PSLTSCALE
 70
     1
  9
$TREEDEPTH
 70
  3020
  9
$PICKSTYLE
 70
     1
  9
$CMLSTYLE
  2
STANDARD
  9
$CMLJUST
 70
     0
  9
$CMLSCALE
 40
20.0
  9
$SAVEIMAGES
 70
     1
  0
ENDSEC
  0
SECTION
  2
CLASSES
  0
CLASS
  1
ACDBDICTIONARYWDFLT
  2
AcDbDictionaryWithDefault
  3
ObjectDBX Classes
 90
    32768
280
     0
281
     0
  0
CLASS
  1
VISUALSTYLE
  2
AcDbVisualStyle
  3
ObjectDBX Classes
 90
     4095
280
     0
281
     0
  0
CLASS
  1
MATERIAL
  2
AcDbMaterial
  3
ObjectDBX Classes
 90
     1153
280
     0
281
     0
  0
CLASS
  1
SCALE
  2
AcDbScale
  3
ObjectDBX Classes
 90
     1153
280
     0
281
     0
  0
CLASS
  1
TABLESTYLE
  2
AcDbTableStyle
  3
ObjectDBX Classes
 90
     4095
280
     0
281
     0
  0
CLASS
  1
MLEADERSTYLE
  2
AcDbMLeaderStyle
  3
ACDB_MLEADERSTYLE_CLASS
 90
     4095
280
     0
281
     0
  0
CLASS
  1
SUN
  2
AcDbSun
  3
SCENEOE
 90
     1153
280
     0
281
     0
  0
CLASS
  1
DICTIONARYVAR
  2
AcDbDictionaryVar
  3
ObjectDBX Classes
 90
        0
280
     0
281
     0
  0
CLASS
  1
XRECORD
  2
AcDbXrecord
  3
ObjectDBX Classes
 90
    32768
280
     0
281
     0
  0
CLASS
  1
LWPOLYLINE
  2
AcDbPolyline
  3
ObjectDBX Classes
 90
    32768
280
     0
281
     1
  0
CLASS
  1
HATCH
  2
AcDbHatch
  3
ObjectDBX Classes
 90
    32768
280
     0
281
     1
  0
CLASS
  1
ACDBPLACEHOLDER
  2
AcDbPlaceHolder
  3
ObjectDBX Classes
 90
        0
280
     0
281
     0
  0
CLASS
  1
LAYOUT
  2
AcDbLayout
  3
ObjectDBX Classes
 90
        0
280
     0
281
     0
  0
ENDSEC
  0
SECTION
  2
TABLES
  0
TABLE
  2
VPORT
  5
8
330
0
100
AcDbSymbolTable
 70
     1
  0
VPORT
  5
29
330
8
100
AcDbSymbolTableRecord
100
AcDbViewportTableRecord
  2
*ACTIVE
 70
     0
 10
0.0
 20
0.0
 11
1.0
 21
1.0
 12
0.0
 22
0.0
 13
0.0
 23
0.0
 14
10.0
 24
10.0
 15
10.0
 25
10.0
 16
0.0
 26
0.0
 36
1.0
 17
0.0
 27
0.0
 37
0.0
 40
251.43
 41
1.748884381338742
 42
50.0
 43
0.0
 44
0.0
 50
0.0
 51
0.0
 71
     0
 72
   100
 73
     1
 74
     3
 75
     0
 76
     0
 77
     0
 78
     0
  0
ENDTAB
  0
TABLE
  2
LTYPE
  5
5
330
0
100
AcDbSymbolTable
 70
     1
  0
LTYPE
  5
14
330
5
100
AcDbSymbolTableRecord
100
AcDbLinetypeTableRecord
  2
BYBLOCK
 70
     0
  3

 72
    65
 73
     0
 40
0.0
  0
LTYPE
  5
15
330
5
100
AcDbSymbolTableRecord
100
AcDbLinetypeTableRecord
  2
BYLAYER
 70
     0
  3

 72
    65
 73
     0
 40
0.0
  0
LTYPE
  5
16
330
5
100
AcDbSymbolTableRecord
100
AcDbLinetypeTableRecord
  2
CONTINUOUS
 70
     0
  3
Solid line
 72
    65
 73
     0
 40
0.0
  0
ENDTAB
  0
TABLE
  2
LAYER
  5
2
330
0
100
AcDbSymbolTable
 70
     4
  0
LAYER
  5
10
330
2
100
AcDbSymbolTableRecord
100
AcDbLayerTableRecord
  2
0
 70
     0
 62
     7
  6
CONTINUOUS
  0
LAYER
  5
6E
330
2
100
AcDbSymbolTableRecord
100
AcDbLayerTableRecord
  2
THICK
 70
     0
 62
     7
  6
CONTINUOUS
  0
LAYER
  5
6F
330
2
100
AcDbSymbolTableRecord
100
AcDbLayerTableRecord
  2
HIDDEN
 70
     0
 62
     7
  6
CONTINUOUS
  0
LAYER
  5
70
330
2
100
AcDbSymbolTableRecord
100
AcDbLayerTableRecord
  2
HASHLINES
 70
     0
 62
     7
  6
CONTINUOUS
  0
ENDTAB
  0
TABLE
  2
STYLE
  5
3
330
0
100
AcDbSymbolTable
 70
     1
  0
STYLE
  5
11
330
3
100
AcDbSymbolTableRecord
100
AcDbTextStyleTableRecord
  2
STANDARD
 70
     0
 40
0.0
 41
1.0
 50
0.0
 71
     0
 42
2.5
  3
txt
  4

  0
ENDTAB
  0
TABLE
  2
VIEW
  5
6
330
0
100
AcDbSymbolTable
 70
     0
  0
ENDTAB
  0
TABLE
  2
UCS
  5
7
330
0
100
AcDbSymbolTable
 70
     0
  0
ENDTAB
  0
TABLE
  2
APPID
  5
9
330
0
100
AcDbSymbolTable
 70
     3
  0
APPID
  5
12
330
9
100
AcDbSymbolTableRecord
100
AcDbRegAppTableRecord
  2
ACAD
 70
     0
  0
APPID
  5
71
330
9
100
AcDbSymbolTableRecord
100
AcDbRegAppTableRecord
  2
DBPROPERTIES
 70
     0
  0
APPID
  5
353
330
9
100
AcDbSymbolTableRecord
100
AcDbRegAppTableRecord
  2
ACAD_MLEADERVER
 70
     0
  0
ENDTAB
  0
TABLE
  2
DIMSTYLE
  5
A
330
0
100
AcDbSymbolTable
 70
     1
  0
DIMSTYLE
105
27
330
A
100
AcDbSymbolTableRecord
100
AcDbDimStyleTableRecord
  2
ISO-25
 70
     0
  3

  4

  5

  6

  7

 40
1.0
 41
2.5
 42
0.625
 43
3.75
 44
1.25
 45
0.0
 46
0.0
 47
0.0
 48
0.0
140
2.5
141
2.5
142
0.0
143
0.03937007874016
144
1.0
145
0.0
146
1.0
147
0.625
 71
     0
 72
     0
 73
     0
 74
     0
 75
     0
 76
     0
 77
     1
 78
     8
170
     0
171
     3
172
     1
173
     0
174
     0
175
     0
176
     0
177
     0
178
     0
270
     2
271
     2
272
     2
273
     2
274
     3
340
11
275
     0
280
     0
281
     0
282
     0
283
     0
284
     8
285
     0
286
     0
287
     3
288
     0
  0
ENDTAB
  0
TABLE
  2
BLOCK_RECORD
  5
1
330
0
100
AcDbSymbolTable
 70
     0
  0
BLOCK_RECORD
  5
1F
330
1
100
AcDbSymbolTableRecord
100
AcDbBlockTableRecord
  2
*MODEL_SPACE
  0
BLOCK_RECORD
  5
1B
330
1
100
AcDbSymbolTableRecord
100
AcDbBlockTableRecord
  2
*PAPER_SPACE
  0
ENDTAB
  0
ENDSEC
  0
SECTION
  2
BLOCKS
  0
BLOCK
  5
20
330
1F
100
AcDbEntity
  8
0
100
AcDbBlockBegin
  2
*MODEL_SPACE
 70
     0
 10
0.0
 20
0.0
 30
0.0
  3
*MODEL_SPACE
  1

  0
ENDBLK
  5
21
330
1F
100
AcDbEntity
  8
0
100
AcDbBlockEnd
  0
BLOCK
  5
1C
330
1B
100
AcDbEntity
 67
     1
  8
0
100
AcDbBlockBegin
  2
*PAPER_SPACE
 70
     0
 10
0.0
 20
0.0
 30
0.0
  3
*PAPER_SPACE
  1

  0
ENDBLK
  5
1D
330
1B
100
AcDbEntity
 67
     1
  8
0
100
AcDbBlockEnd
  0
ENDSEC
  0
SECTION
  2
ENTITIES
  0
LINE
  5
72
330
1F
100
AcDbEntity
  8
HIDDEN
100
AcDbLine
 10
215.55
 20
-123.25
 30
0.0
 11
215.55
 21
-123.25
 31
0.0
1001
DBPROPERTIES
1002
{
1000
PbHidd
1002
}
  0
LINE
  5
73
330
1F
100
AcDbEntity
  8
HIDDEN
100
AcDbLine
 10
215.55
 20
115.855
 30
0.0
 11
215.55
 21
115.855
 31
0.0
1001
DBPROPERTIES
1002
{
1000
PbHidd
1002
}
  0
LINE
  5
74
330
1F
100
AcDbEntity
  8
THICK
100
AcDbLine
 10
215.55
 20
115.855
 30
0.0
 11
215.55
 21
-123.25
 31
0.0
1001
DBPROPERTIES
1002
{
1000
PbThick
1002
}
  0
ARC
  5
75
330
1F
100
AcDbEntity
  8
THICK
100
AcDbCircle
 10
-97.55000000000005
 20
-5.550000000000003
 30
0.0
 40
104.0
100
AcDbArc
 50
89.99998127603165
 51
270.0000187239684
1001
DBPROPERTIES
1002
{
1000
PbThick
1002
}
  0
LINE
  5
76
330
1F
100
AcDbEntity
  8
HIDDEN
100
AcDbLine
 10
193.2409908007366
 20
-123.25
 30
0.0
 11
193.2409908007366
 21
-119.25
 31
0.0
1001
DBPROPERTIES
1002
{
1000
PbHidd
1002
}
  0
LINE
  5
77
330
1F
100
AcDbEntity
  8
HIDDEN
100
AcDbLine
 10
193.2409908007366
 20
-119.25
 30
0.0
 11
193.2409908007366
 21
-123.25
 31
0.0
1001
DBPROPERTIES
1002
{
1000
PbHidd
1002
}
  0
LINE
  5
78
330
1F
100
AcDbEntity
  8
HIDDEN
100
AcDbLine
 10
-200.9590091992634
 20
-123.25
 30
0.0
 11
-200.9590091992634
 21
-119.25
 31
0.0
1001
DBPROPERTIES
1002
{
1000
PbHidd
1002
}
  0
LINE
  5
79
330
1F
100
AcDbEntity
  8
HIDDEN
100
AcDbLine
 10
-200.9590091992634
 20
-119.25
 30
0.0
 11
-200.9590091992634
 21
-123.25
 31
0.0
1001
DBPROPERTIES
1002
{
1000
PbHidd
1002
}
  0
LINE
  5
7A
330
1F
100
AcDbEntity
  8
HIDDEN
100
AcDbLine
 10
-193.2409908007366
 20
-123.25
 30
0.0
 11
-193.2409908007366
 21
-119.25
 31
0.0
1001
DBPROPERTIES
1002
{
1000
PbHidd
1002
}
  0
LINE
  5
7B
330
1F
100
AcDbEntity
  8
HIDDEN
100
AcDbLine
 10
-193.2409908007366
 20
-119.25
 30
0.0
 11
-193.2409908007366
 21
-123.25
 31
0.0
1001
DBPROPERTIES
1002
{
1000
PbHidd
1002
}
  0
LINE
  5
7C
330
1F
100
AcDbEntity
  8
HIDDEN
100
AcDbLine
 10
200.9590091992634
 20
-123.25
 30
0.0
 11
200.9590091992634
 21
-119.25
 31
0.0
1001
DBPROPERTIES
1002
{
1000
PbHidd
1002
}
  0
LINE
  5
7D
330
1F
100
AcDbEntity
  8
HIDDEN
100
AcDbLine
 10
200.9590091992634
 20
-119.25
 30
0.0
 11
200.9590091992634
 21
-123.25
 31
0.0
1001
DBPROPERTIES
1002
{
1000
PbHidd
1002
}
  0
ARC
  5
7E
330
1F
100
AcDbEntity
  8
THICK
100
AcDbCircle
 10
-97.55000000000005
 20
-5.550000000000003
 30
0.0
 40
100.0
100
AcDbArc
 50
89.99998127603165
 51
270.0000187239684
1001
DBPROPERTIES
1002
{
1000
PbThick
1002
}
  0
ARC
  5
7F
330
1F
100
AcDbEntity
  8
THICK
100
AcDbCircle
 10
150.885
 20
-86.27499999999998
 30
0.0
 40
6.0
100
AcDbArc
 50
0.0
 51
89.99998127603165
1001
DBPROPERTIES
1002
{
1000
PbThick
1002
}
  0
LINE
  5
80
330
1F
100
AcDbEntity
  8
THICK
100
AcDbLine
 10
158.7033081054688
 20
-80.04010009765625
 30
0.0
 11
158.7069244384766
 21
-80.05591583251953
 31
0.0
1001
DBPROPERTIES
1002
{
1000
PbThick
1002
}
  0
LINE
  5
81
330
1F
100
AcDbEntity
  8
THICK
100
AcDbLine
 10
158.7069244384766
 20
-80.05591583251953
 30
0.0
 11
158.7180023193359
 21
-80.1044692993164
 31
0.0
1001
DBPROPERTIES
1002
{
1000
PbThick
1002
}
  0
LINE
  5
82
330
1F
100
AcDbEntity
  8
THICK
100
AcDbLine
 10
158.7180023193359
 20
-80.1044692993164
 30
0.0
 11
158.7349853515625
 21
-80.17886352539062
 31
0.0
1001
DBPROPERTIES
1002
{
1000
PbThick
1002
}
  0
LINE
  5
83
330
1F
100
AcDbEntity
  8
THICK
100
AcDbLine
 10
158.7349853515625
 20
-80.17886352539062
 30
0.0
 11
158.7586822509766
 21
-80.28268432617188
 31
0.0
1001
DBPROPERTIES
1002
{
1000
PbThick
1002
}
  0
LINE
  5
84
330
1F
100
AcDbEntity
  8
THICK
100
AcDbLine
 10
158.7586822509766
 20
-80.28268432617188
 30
0.0
 11
158.7881164550781
 21
-80.41166687011719
 31
0.0
1001
DBPROPERTIES
1002
{
1000
PbThick
1002
}
  0
LINE
  5
85
330
1F
100
AcDbEntity
  8
THICK
100
AcDbLine
 10
158.7881164550781
 20
-80.41166687011719
 30
0.0
 11
158.8203125
 21
-80.55271911621094
 31
0.0
1001
DBPROPERTIES
1002
{
1000
PbThick
1002
}
  0
LINE
  5
86
330
1F
100
AcDbEntity
  8
THICK
100
AcDbLine
 10
158.8203125
 20
-80.55271911621094
 30
0.0
 11
158.8570251464844
 21
-80.71357727050781
 31
0.0
1001
DBPROPERTIES
1002
{
1000
PbThick
1002
}
  0
LINE
  5
87
330
1F
100
AcDbEntity
  8
THICK
100
AcDbLine
 10
158.8570251464844
 20
-80.71357727050781
 30
0.0
 11
158.8981018066406
 21
-80.89350128173828
 31
0.0
1001
DBPROPERTIES
1002
{
1000
PbThick
1002
}
  0
LINE
  5
88
330
1F
100
AcDbEntity
  8
THICK
100
AcDbLine
 10
158.8981018066406
 20
-80.89350128173828
 30
0.0
 11
158.9417266845703
 21
-81.08467102050781
 31
0.0
1001
DBPROPERTIES
1002
{
1000
PbThick
1002
}
  0
LINE
  5
89
330
1F
100
AcDbEntity
  8
THICK
100
AcDbLine
 10
158.9417266845703
 20
-81.08467102050781
 30
0.0
 11
158.9856262207031
 21
-81.2770004272461
 31
0.0
1001
DBPROPERTIES
1002
{
1000
PbThick
1002
}
  0
LINE
  5
8A
330
1F
100
AcDbEntity
  8
THICK
100
AcDbLine
 10
158.9856262207031
 20
-81.2770004272461
 30
0.0
 11
159.0312805175781
 21
-81.47698211669922
 31
0.0
1001
DBPROPERTIES
1002
{
1000
PbThick
1002
}
  0
LINE
  5
8B
330
1F
100
AcDbEntity
  8
THICK
100
AcDbLine
 10
159.0312805175781
 20
-81.47698211669922
 30
0.0
 11
159.0805816650391
 21
-81.69300842285156
 31
0.0
1001
DBPROPERTIES
1002
{
1000
PbThick
1002
}
  0
LINE
  5
8C
330
1F
100
AcDbEntity
  8
THICK
100
AcDbLine
 10
159.0805816650391
 20
-81.69300842285156
 30
0.0
 11
159.1305236816406
 21
-81.91181945800781
 31
0.0
1001
DBPROPERTIES
1002
{
1000
PbThick
1002
}
  0
LINE
  5
8D
330
1F
100
AcDbEntity
  8
THICK
100
AcDbLine
 10
159.1305236816406
 20
-81.91181945800781
 30
0.0
 11
159.1785430908203
 21
-82.12218475341797
 31
0.0
1001
DBPROPERTIES
1002
{
1000
PbThick
1002
}
  0
LINE
  5
8E
330
1F
100
AcDbEntity
  8
THICK
100
AcDbLine
 10
159.1785430908203
 20
-82.12218475341797
 30
0.0
 11
159.2278747558594
 21
-82.33834075927734
 31
0.0
1001
DBPROPERTIES
1002
{
1000
PbThick
1002
}
  0
LINE
  5
8F
330
1F
100
AcDbEntity
  8
THICK
100
AcDbLine
 10
159.2278747558594
 20
-82.33834075927734
 30
0.0
 11
159.279052734375
 21
-82.56257629394531
 31
0.0
1001
DBPROPERTIES
1002
{
1000
PbThick
1002
}
  0
LINE
  5
90
330
1F
100
AcDbEntity
  8
THICK
100
AcDbLine
 10
159.279052734375
 20
-82.56257629394531
 30
0.0
 11
159.3316955566406
 21
-82.79318237304688
 31
0.0
1001
DBPROPERTIES
1002
{
1000
PbThick
1002
}
  0
LINE
  5
91
330
1F
100
AcDbEntity
  8
THICK
100
AcDbLine
 10
159.3316955566406
 20
-82.79318237304688
 30
0.0
 11
159.3852844238281
 21
-83.02799987792969
 31
0.0
1001
DBPROPERTIES
1002
{
1000
PbThick
1002
}
  0
LINE
  5
92
330
1F
100
AcDbEntity
  8
THICK
100
AcDbLine
 10
159.3852844238281
 20
-83.02799987792969
 30
0.0
 11
159.4394073486328
 21
-83.2651596069336
 31
0.0
1001
DBPROPERTIES
1002
{
1000
PbThick
1002
}
  0
LINE
  5
93
330
1F
100
AcDbEntity
  8
THICK
100
AcDbLine
 10
159.4394073486328
 20
-83.2651596069336
 30
0.0
 11
159.4936218261719
 21
-83.50263977050781
 31
0.0
1001
DBPROPERTIES
1002
{
1000
PbThick
1002
}
  0
LINE
  5
94
330
1F
100
AcDbEntity
  8
THICK
100
AcDbLine
 10
159.4936218261719
 20
-83.50263977050781
 30
0.0
 11
159.5474243164062
 21
-83.7383804321289
 31
0.0
1001
DBPROPERTIES
1002
{
1000
PbThick
1002
}
  0
LINE
  5
95
330
1F
100
AcDbEntity
  8
THICK
100
AcDbLine
 10
159.5474243164062
 20
-83.7383804321289
 30
0.0
 11
159.6003570556641
 21
-83.97032928466797
 31
0.0
1001
DBPROPERTIES
1002
{
1000
PbThick
1002
}
  0
LINE
  5
96
330
1F
100
AcDbEntity
  8
THICK
100
AcDbLine
 10
159.6003570556641
 20
-83.97032928466797
 30
0.0
 11
159.6519622802734
 21
-84.1964111328125
 31
0.0
1001
DBPROPERTIES
1002
{
1000
PbThick
1002
}
  0
LINE
  5
97
330
1F
100
AcDbEntity
  8
THICK
100
AcDbLine
 10
159.6519622802734
 20
-84.1964111328125
 30
0.0
 11
159.70263671875
 21
-84.41840362548828
 31
0.0
1001
DBPROPERTIES
1002
{
1000
PbThick
1002
}
  0
LINE
  5
98
330
1F
100
AcDbEntity
  8
THICK
100
AcDbLine
 10
159.70263671875
 20
-84.41840362548828
 30
0.0
 11
159.7547302246094
 21
-84.64667510986328
 31
0.0
1001
DBPROPERTIES
1002
{
1000
PbThick
1002
}
  0
LINE
  5
99
330
1F
100
AcDbEntity
  8
THICK
100
AcDbLine
 10
159.7547302246094
 20
-84.64667510986328
 30
0.0
 11
159.8080139160156
 21
-84.88011169433594
 31
0.0
1001
DBPROPERTIES
1002
{
1000
PbThick
1002
}
  0
LINE
  5
9A
330
1F
100
AcDbEntity
  8
THICK
100
AcDbLine
 10
159.8080139160156
 20
-84.88011169433594
 30
0.0
 11
159.8619995117188
 21
-85.11666107177734
 31
0.0
1001
DBPROPERTIES
1002
{
1000
PbThick
1002
}
  0
LINE
  5
9B
330
1F
100
AcDbEntity
  8
THICK
100
AcDbLine
 10
159.8619995117188
 20
-85.11666107177734
 30
0.0
 11
159.9162445068359
 21
-85.35426330566406
 31
0.0
1001
DBPROPERTIES
1002
{
1000
PbThick
1002
}
  0
LINE
  5
9C
330
1F
100
AcDbEntity
  8
THICK
100
AcDbLine
 10
159.9162445068359
 20
-85.35426330566406
 30
0.0
 11
159.9702453613281
 21
-85.59085845947266
 31
0.0
1001
DBPROPERTIES
1002
{
1000
PbThick
1002
}
  0
LINE
  5
9D
330
1F
100
AcDbEntity
  8
THICK
100
AcDbLine
 10
159.9702453613281
 20
-85.59085845947266
 30
0.0
 11
160.0235595703125
 21
-85.824462890625
 31
0.0
1001
DBPROPERTIES
1002
{
1000
PbThick
1002
}
  0
LINE
  5
9E
330
1F
100
AcDbEntity
  8
THICK
100
AcDbLine
 10
160.0235595703125
 20
-85.824462890625
 30
0.0
 11
160.0757446289062
 21
-86.05313873291016
 31
0.0
1001
DBPROPERTIES
1002
{
1000
PbThick
1002
}
  0
LINE
  5
9F
330
1F
100
AcDbEntity
  8
THICK
100
AcDbLine
 10
160.0757446289062
 20
-86.05313873291016
 30
0.0
 11
160.1263885498047
 21
-86.2750015258789
 31
0.0
1001
DBPROPERTIES
1002
{
1000
PbThick
1002
}
  0
LINE
  5
A0
330
1F
100
AcDbEntity
  8
THICK
100
AcDbLine
 10
150.8849945068359
 20
-76.2750015258789
 30
0.0
 11
150.8954620361328
 21
-76.28003692626953
 31
0.0
1001
DBPROPERTIES
1002
{
1000
PbThick
1002
}
  0
LINE
  5
A1
330
1F
100
AcDbEntity
  8
THICK
100
AcDbLine
 10
150.8954620361328
 20
-76.28003692626953
 30
0.0
 11
150.9279174804688
 21
-76.29566192626953
 31
0.0
1001
DBPROPERTIES
1002
{
1000
PbThick
1002
}
  0
LINE
  5
A2
330
1F
100
AcDbEntity
  8
THICK
100
AcDbLine
 10
150.9279174804688
 20
-76.29566192626953
 30
0.0
 11
150.979248046875
 21
-76.32038879394531
 31
0.0
1001
DBPROPERTIES
1002
{
1000
PbThick
1002
}
  0
LINE
  5
A3
330
1F
100
AcDbEntity
  8
THICK
100
AcDbLine
 10
150.979248046875
 20
-76.32038879394531
 30
0.0
 11
151.0477447509766
 21
-76.3533706665039
 31
0.0
1001
DBPROPERTIES
1002
{
1000
PbThick
1002
}
  0
LINE
  5
A4
330
1F
100
AcDbEntity
  8
THICK
100
AcDbLine
 10
151.0477447509766
 20
-76.3533706665039
 30
0.0
 11
151.1363372802734
 21
-76.39604187011719
 31
0.0
1001
DBPROPERTIES
1002
{
1000
PbThick
1002
}
  0
LINE
  5
A5
330
1F
100
AcDbEntity
  8
THICK
100
AcDbLine
 10
151.1363372802734
 20
-76.39604187011719
 30
0.0
 11
151.2399291992188
 21
-76.4459228515625
 31
0.0
1001
DBPROPERTIES
1002
{
1000
PbThick
1002
}
  0
LINE
  5
A6
330
1F
100
AcDbEntity
  8
THICK
100
AcDbLine
 10
151.2399291992188
 20
-76.4459228515625
 30
0.0
 11
151.3504333496094
 21
-76.49913787841797
 31
0.0
1001
DBPROPERTIES
1002
{
1000
PbThick
1002
}
  0
LINE
  5
A7
330
1F
100
AcDbEntity
  8
THICK
100
AcDbLine
 10
151.3504333496094
 20
-76.49913787841797
 30
0.0
 11
151.4741821289062
 21
-76.55873107910156
 31
0.0
1001
DBPROPERTIES
1002
{
1000
PbThick
1002
}
  0
LINE
  5
A8
330
1F
100
AcDbEntity
  8
THICK
100
AcDbLine
 10
151.4741821289062
 20
-76.55873107910156
 30
0.0
 11
151.611572265625
 21
-76.62489318847656
 31
0.0
1001
DBPROPERTIES
1002
{
1000
PbThick
1002
}
  0
LINE
  5
A9
330
1F
100
AcDbEntity
  8
THICK
100
AcDbLine
 10
151.611572265625
 20
-76.62489318847656
 30
0.0
 11
151.7585906982422
 21
-76.6957015991211
 31
0.0
1001
DBPROPERTIES
1002
{
1000
PbThick
1002
}
  0
LINE
  5
AA
330
1F
100
AcDbEntity
  8
THICK
100
AcDbLine
 10
151.7585906982422
 20
-76.6957015991211
 30
0.0
 11
151.9099426269531
 21
-76.76858520507812
 31
0.0
1001
DBPROPERTIES
1002
{
1000
PbThick
1002
}
  0
LINE
  5
AB
330
1F
100
AcDbEntity
  8
THICK
100
AcDbLine
 10
151.9099426269531
 20
-76.76858520507812
 30
0.0
 11
152.0600891113281
 21
-76.84088897705078
 31
0.0
1001
DBPROPERTIES
1002
{
1000
PbThick
1002
}
  0
LINE
  5
AC
330
1F
100
AcDbEntity
  8
THICK
100
AcDbLine
 10
152.0600891113281
 20
-76.84088897705078
 30
0.0
 11
152.2187805175781
 21
-76.91732025146484
 31
0.0
1001
DBPROPERTIES
1002
{
1000
PbThick
1002
}
  0
LINE
  5
AD
330
1F
100
AcDbEntity
  8
THICK
100
AcDbLine
 10
152.2187805175781
 20
-76.91732025146484
 30
0.0
 11
152.387939453125
 21
-76.99877166748047
 31
0.0
1001
DBPROPERTIES
1002
{
1000
PbThick
1002
}
  0
LINE
  5
AE
330
1F
100
AcDbEntity
  8
THICK
100
AcDbLine
 10
152.387939453125
 20
-76.99877166748047
 30
0.0
 11
152.5601043701172
 21
-77.0816879272461
 31
0.0
1001
DBPROPERTIES
1002
{
1000
PbThick
1002
}
  0
LINE
  5
AF
330
1F
100
AcDbEntity
  8
THICK
100
AcDbLine
 10
152.5601043701172
 20
-77.0816879272461
 30
0.0
 11
152.7271118164062
 21
-77.16211700439453
 31
0.0
1001
DBPROPERTIES
1002
{
1000
PbThick
1002
}
  0
LINE
  5
B0
330
1F
100
AcDbEntity
  8
THICK
100
AcDbLine
 10
152.7271118164062
 20
-77.16211700439453
 30
0.0
 11
152.8928680419922
 21
-77.24193572998047
 31
0.0
1001
DBPROPERTIES
1002
{
1000
PbThick
1002
}
  0
LINE
  5
B1
330
1F
100
AcDbEntity
  8
THICK
100
AcDbLine
 10
152.8928680419922
 20
-77.24193572998047
 30
0.0
 11
153.0647735595703
 21
-77.3247299194336
 31
0.0
1001
DBPROPERTIES
1002
{
1000
PbThick
1002
}
  0
LINE
  5
B2
330
1F
100
AcDbEntity
  8
THICK
100
AcDbLine
 10
153.0647735595703
 20
-77.3247299194336
 30
0.0
 11
153.2417602539062
 21
-77.40995788574219
 31
0.0
1001
DBPROPERTIES
1002
{
1000
PbThick
1002
}
  0
LINE
  5
B3
330
1F
100
AcDbEntity
  8
THICK
100
AcDbLine
 10
153.2417602539062
 20
-77.40995788574219
 30
0.0
 11
153.4227294921875
 21
-77.49710845947266
 31
0.0
1001
DBPROPERTIES
1002
{
1000
PbThick
1002
}
  0
LINE
  5
B4
330
1F
100
AcDbEntity
  8
THICK
100
AcDbLine
 10
153.4227294921875
 20
-77.49710845947266
 30
0.0
 11
153.6065979003906
 21
-77.58564758300781
 31
0.0
1001
DBPROPERTIES
1002
{
1000
PbThick
1002
}
  0
LINE
  5
B5
330
1F
100
AcDbEntity
  8
THICK
100
AcDbLine
 10
153.6065979003906
 20
-77.58564758300781
 30
0.0
 11
153.7922515869141
 21
-77.67505645751953
 31
0.0
1001
DBPROPERTIES
1002
{
1000
PbThick
1002
}
  0
LINE
  5
B6
330
1F
100
AcDbEntity
  8
THICK
100
AcDbLine
 10
153.7922515869141
 20
-77.67505645751953
 30
0.0
 11
153.9785766601562
 21
-77.76478576660156
 31
0.0
1001
DBPROPERTIES
1002
{
1000
PbThick
1002
}
  0
LINE
  5
B7
330
1F
100
AcDbEntity
  8
THICK
100
AcDbLine
 10
153.9785766601562
 20
-77.76478576660156
 30
0.0
 11
154.1643981933594
 21
-77.85427856445312
 31
0.0
1001
DBPROPERTIES
1002
{
1000
PbThick
1002
}
  0
LINE
  5
B8
330
1F
100
AcDbEntity
  8
THICK
100
AcDbLine
 10
154.1643981933594
 20
-77.85427856445312
 30
0.0
 11
154.3485870361328
 21
-77.9429702758789
 31
0.0
1001
DBPROPERTIES
1002
{
1000
PbThick
1002
}
  0
LINE
  5
B9
330
1F
100
AcDbEntity
  8
THICK
100
AcDbLine
 10
154.3485870361328
 20
-77.9429702758789
 30
0.0
 11
154.5299377441406
 21
-78.03031158447266
 31
0.0
1001
DBPROPERTIES
1002
{
1000
PbThick
1002
}
  0
LINE
  5
BA
330
1F
100
AcDbEntity
  8
THICK
100
AcDbLine
 10
154.5299377441406
 20
-78.03031158447266
 30
0.0
 11
154.7073211669922
 21
-78.11573028564453
 31
0.0
1001
DBPROPERTIES
1002
{
1000
PbThick
1002
}
  0
LINE
  5
BB
330
1F
100
AcDbEntity
  8
THICK
100
AcDbLine
 10
154.7073211669922
 20
-78.11573028564453
 30
0.0
 11
154.8809967041016
 21
-78.19937133789062
 31
0.0
1001
DBPROPERTIES
1002
{
1000
PbThick
1002
}
  0
LINE
  5
BC
330
1F
100
AcDbEntity
  8
THICK
100
AcDbLine
 10
154.8809967041016
 20
-78.19937133789062
 30
0.0
 11
155.0583648681641
 21
-78.2847900390625
 31
0.0
1001
DBPROPERTIES
1002
{
1000
PbThick
1002
}
  0
LINE
  5
BD
330
1F
100
AcDbEntity
  8
THICK
100
AcDbLine
 10
155.0583648681641
 20
-78.2847900390625
 30
0.0
 11
155.2397308349609
 21
-78.37213134765625
 31
0.0
1001
DBPROPERTIES
1002
{
1000
PbThick
1002
}
  0
LINE
  5
BE
330
1F
100
AcDbEntity
  8
THICK
100
AcDbLine
 10
155.2397308349609
 20
-78.37213134765625
 30
0.0
 11
155.4239196777344
 21
-78.46082305908203
 31
0.0
1001
DBPROPERTIES
1002
{
1000
PbThick
1002
}
  0
LINE
  5
BF
330
1F
100
AcDbEntity
  8
THICK
100
AcDbLine
 10
155.4239196777344
 20
-78.46082305908203
 30
0.0
 11
155.6097412109375
 21
-78.5503158569336
 31
0.0
1001
DBPROPERTIES
1002
{
1000
PbThick
1002
}
  0
LINE
  5
C0
330
1F
100
AcDbEntity
  8
THICK
100
AcDbLine
 10
155.6097412109375
 20
-78.5503158569336
 30
0.0
 11
155.7960662841797
 21
-78.64004516601562
 31
0.0
1001
DBPROPERTIES
1002
{
1000
PbThick
1002
}
  0
LINE
  5
C1
330
1F
100
AcDbEntity
  8
THICK
100
AcDbLine
 10
155.7960662841797
 20
-78.64004516601562
 30
0.0
 11
155.9817199707031
 21
-78.72945404052734
 31
0.0
1001
DBPROPERTIES
1002
{
1000
PbThick
1002
}
  0
LINE
  5
C2
330
1F
100
AcDbEntity
  8
THICK
100
AcDbLine
 10
155.9817199707031
 20
-78.72945404052734
 30
0.0
 11
156.1655731201172
 21
-78.8179931640625
 31
0.0
1001
DBPROPERTIES
1002
{
1000
PbThick
1002
}
  0
LINE
  5
C3
330
1F
100
AcDbEntity
  8
THICK
100
AcDbLine
 10
156.1655731201172
 20
-78.8179931640625
 30
0.0
 11
156.3465423583984
 21
-78.90514373779297
 31
0.0
1001
DBPROPERTIES
1002
{
1000
PbThick
1002
}
  0
LINE
  5
C4
330
1F
100
AcDbEntity
  8
THICK
100
AcDbLine
 10
156.3465423583984
 20
-78.90514373779297
 30
0.0
 11
156.5235290527344
 21
-78.99037170410156
 31
0.0
1001
DBPROPERTIES
1002
{
1000
PbThick
1002
}
  0
LINE
  5
C5
330
1F
100
AcDbEntity
  8
THICK
100
AcDbLine
 10
156.5235290527344
 20
-78.99037170410156
 30
0.0
 11
156.6954498291016
 21
-79.07316589355469
 31
0.0
1001
DBPROPERTIES
1002
{
1000
PbThick
1002
}
  0
LINE
  5
C6
330
1F
100
AcDbEntity
  8
THICK
100
AcDbLine
 10
156.6954498291016
 20
-79.07316589355469
 30
0.0
 11
156.8611907958984
 21
-79.15298461914062
 31
0.0
1001
DBPROPERTIES
1002
{
1000
PbThick
1002
}
  0
LINE
  5
C7
330
1F
100
AcDbEntity
  8
THICK
100
AcDbLine
 10
156.8611907958984
 20
-79.15298461914062
 30
0.0
 11
157.0282135009766
 21
-79.23341369628906
 31
0.0
1001
DBPROPERTIES
1002
{
1000
PbThick
1002
}
  0
LINE
  5
C8
330
1F
100
AcDbEntity
  8
THICK
100
AcDbLine
 10
157.0282135009766
 20
-79.23341369628906
 30
0.0
 11
157.2003784179688
 21
-79.31632995605469
 31
0.0
1001
DBPROPERTIES
1002
{
1000
PbThick
1002
}
  0
LINE
  5
C9
330
1F
100
AcDbEntity
  8
THICK
100
AcDbLine
 10
157.2003784179688
 20
-79.31632995605469
 30
0.0
 11
157.3695373535156
 21
-79.39778900146484
 31
0.0
1001
DBPROPERTIES
1002
{
1000
PbThick
1002
}
  0
LINE
  5
CA
330
1F
100
AcDbEntity
  8
THICK
100
AcDbLine
 10
157.3695373535156
 20
-79.39778900146484
 30
0.0
 11
157.5282287597656
 21
-79.47421264648438
 31
0.0
1001
DBPROPERTIES
1002
{
1000
PbThick
1002
}
  0
LINE
  5
CB
330
1F
100
AcDbEntity
  8
THICK
100
AcDbLine
 10
157.5282287597656
 20
-79.47421264648438
 30
0.0
 11
157.6783752441406
 21
-79.54651641845703
 31
0.0
1001
DBPROPERTIES
1002
{
1000
PbThick
1002
}
  0
LINE
  5
CC
330
1F
100
AcDbEntity
  8
THICK
100
AcDbLine
 10
157.6783752441406
 20
-79.54651641845703
 30
0.0
 11
157.8297271728516
 21
-79.61940002441406
 31
0.0
1001
DBPROPERTIES
1002
{
1000
PbThick
1002
}
  0
LINE
  5
CD
330
1F
100
AcDbEntity
  8
THICK
100
AcDbLine
 10
157.8297271728516
 20
-79.61940002441406
 30
0.0
 11
157.9767456054688
 21
-79.6902084350586
 31
0.0
1001
DBPROPERTIES
1002
{
1000
PbThick
1002
}
  0
LINE
  5
CE
330
1F
100
AcDbEntity
  8
THICK
100
AcDbLine
 10
157.9767456054688
 20
-79.6902084350586
 30
0.0
 11
158.1141357421875
 21
-79.7563705444336
 31
0.0
1001
DBPROPERTIES
1002
{
1000
PbThick
1002
}
  0
LINE
  5
CF
330
1F
100
AcDbEntity
  8
THICK
100
AcDbLine
 10
158.1141357421875
 20
-79.7563705444336
 30
0.0
 11
158.2378845214844
 21
-79.81596374511719
 31
0.0
1001
DBPROPERTIES
1002
{
1000
PbThick
1002
}
  0
LINE
  5
D0
330
1F
100
AcDbEntity
  8
THICK
100
AcDbLine
 10
158.2378845214844
 20
-79.81596374511719
 30
0.0
 11
158.348388671875
 21
-79.86917877197266
 31
0.0
1001
DBPROPERTIES
1002
{
1000
PbThick
1002
}
  0
LINE
  5
D1
330
1F
100
AcDbEntity
  8
THICK
100
AcDbLine
 10
158.348388671875
 20
-79.86917877197266
 30
0.0
 11
158.4519653320312
 21
-79.91905975341797
 31
0.0
1001
DBPROPERTIES
1002
{
1000
PbThick
1002
}
  0
LINE
  5
D2
330
1F
100
AcDbEntity
  8
THICK
100
AcDbLine
 10
158.4519653320312
 20
-79.91905975341797
 30
0.0
 11
158.5405731201172
 21
-79.96173095703125
 31
0.0
1001
DBPROPERTIES
1002
{
1000
PbThick
1002
}
  0
LINE
  5
D3
330
1F
100
AcDbEntity
  8
THICK
100
AcDbLine
 10
158.5405731201172
 20
-79.96173095703125
 30
0.0
 11
158.6090698242188
 21
-79.99471282958984
 31
0.0
1001
DBPROPERTIES
1002
{
1000
PbThick
1002
}
  0
LINE
  5
D4
330
1F
100
AcDbEntity
  8
THICK
100
AcDbLine
 10
158.6090698242188
 20
-79.99471282958984
 30
0.0
 11
158.660400390625
 21
-80.01943969726562
 31
0.0
1001
DBPROPERTIES
1002
{
1000
PbThick
1002
}
  0
LINE
  5
D5
330
1F
100
AcDbEntity
  8
THICK
100
AcDbLine
 10
158.660400390625
 20
-80.01943969726562
 30
0.0
 11
158.6928558349609
 21
-80.03506469726562
 31
0.0
1001
DBPROPERTIES
1002
{
1000
PbThick
1002
}
  0
LINE
  5
D6
330
1F
100
AcDbEntity
  8
THICK
100
AcDbLine
 10
158.6928558349609
 20
-80.03506469726562
 30
0.0
 11
158.7033081054688
 21
-80.04010009765625
 31
0.0
1001
DBPROPERTIES
1002
{
1000
PbThick
1002
}
  0
LINE
  5
D7
330
1F
100
AcDbEntity
  8
THICK
100
AcDbLine
 10
143.0666809082031
 20
-80.04010009765625
 30
0.0
 11
143.0771484375
 21
-80.03506469726562
 31
0.0
1001
DBPROPERTIES
1002
{
1000
PbThick
1002
}
  0
LINE
  5
D8
330
1F
100
AcDbEntity
  8
THICK
100
AcDbLine
 10
143.0771484375
 20
-80.03506469726562
 30
0.0
 11
143.1095886230469
 21
-80.01943969726562
 31
0.0
1001
DBPROPERTIES
1002
{
1000
PbThick
1002
}
  0
LINE
  5
D9
330
1F
100
AcDbEntity
  8
THICK
100
AcDbLine
 10
143.1095886230469
 20
-80.01943969726562
 30
0.0
 11
143.1609344482422
 21
-79.99471282958984
 31
0.0
1001
DBPROPERTIES
1002
{
1000
PbThick
1002
}
  0
LINE
  5
DA
330
1F
100
AcDbEntity
  8
THICK
100
AcDbLine
 10
143.1609344482422
 20
-79.99471282958984
 30
0.0
 11
143.2294311523438
 21
-79.96173095703125
 31
0.0
1001
DBPROPERTIES
1002
{
1000
PbThick
1002
}
  0
LINE
  5
DB
330
1F
100
AcDbEntity
  8
THICK
100
AcDbLine
 10
143.2294311523438
 20
-79.96173095703125
 30
0.0
 11
143.3180236816406
 21
-79.91905975341797
 31
0.0
1001
DBPROPERTIES
1002
{
1000
PbThick
1002
}
  0
LINE
  5
DC
330
1F
100
AcDbEntity
  8
THICK
100
AcDbLine
 10
143.3180236816406
 20
-79.91905975341797
 30
0.0
 11
143.4216156005859
 21
-79.86917877197266
 31
0.0
1001
DBPROPERTIES
1002
{
1000
PbThick
1002
}
  0
LINE
  5
DD
330
1F
100
AcDbEntity
  8
THICK
100
AcDbLine
 10
143.4216156005859
 20
-79.86917877197266
 30
0.0
 11
143.5321197509766
 21
-79.81596374511719
 31
0.0
1001
DBPROPERTIES
1002
{
1000
PbThick
1002
}
  0
LINE
  5
DE
330
1F
100
AcDbEntity
  8
THICK
100
AcDbLine
 10
143.5321197509766
 20
-79.81596374511719
 30
0.0
 11
143.6558532714844
 21
-79.7563705444336
 31
0.0
1001
DBPROPERTIES
1002
{
1000
PbThick
1002
}
  0
LINE
  5
DF
330
1F
100
AcDbEntity
  8
THICK
100
AcDbLine
 10
143.6558532714844
 20
-79.7563705444336
 30
0.0
 11
143.7932434082031
 21
-79.6902084350586
 31
0.0
1001
DBPROPERTIES
1002
{
1000
PbThick
1002
}
  0
LINE
  5
E0
330
1F
100
AcDbEntity
  8
THICK
100
AcDbLine
 10
143.7932434082031
 20
-79.6902084350586
 30
0.0
 11
143.9402770996094
 21
-79.61940002441406
 31
0.0
1001
DBPROPERTIES
1002
{
1000
PbThick
1002
}
  0
LINE
  5
E1
330
1F
100
AcDbEntity
  8
THICK
100
AcDbLine
 10
143.9402770996094
 20
-79.61940002441406
 30
0.0
 11
144.0916290283203
 21
-79.54651641845703
 31
0.0
1001
DBPROPERTIES
1002
{
1000
PbThick
1002
}
  0
LINE
  5
E2
330
1F
100
AcDbEntity
  8
THICK
100
AcDbLine
 10
144.0916290283203
 20
-79.54651641845703
 30
0.0
 11
144.2417602539062
 21
-79.47421264648438
 31
0.0
1001
DBPROPERTIES
1002
{
1000
PbThick
1002
}
  0
LINE
  5
E3
330
1F
100
AcDbEntity
  8
THICK
100
AcDbLine
 10
144.2417602539062
 20
-79.47421264648438
 30
0.0
 11
144.4004669189453
 21
-79.39778900146484
 31
0.0
1001
DBPROPERTIES
1002
{
1000
PbThick
1002
}
  0
LINE
  5
E4
330
1F
100
AcDbEntity
  8
THICK
100
AcDbLine
 10
144.4004669189453
 20
-79.39778900146484
 30
0.0
 11
144.5696105957031
 21
-79.31632995605469
 31
0.0
1001
DBPROPERTIES
1002
{
1000
PbThick
1002
}
  0
LINE
  5
E5
330
1F
100
AcDbEntity
  8
THICK
100
AcDbLine
 10
144.5696105957031
 20
-79.31632995605469
 30
0.0
 11
144.7417907714844
 21
-79.23341369628906
 31
0.0
1001
DBPROPERTIES
1002
{
1000
PbThick
1002
}
  0
LINE
  5
E6
330
1F
100
AcDbEntity
  8
THICK
100
AcDbLine
 10
144.7417907714844
 20
-79.23341369628906
 30
0.0
 11
144.9087982177734
 21
-79.15298461914062
 31
0.0
1001
DBPROPERTIES
1002
{
1000
PbThick
1002
}
  0
LINE
  5
E7
330
1F
100
AcDbEntity
  8
THICK
100
AcDbLine
 10
144.9087982177734
 20
-79.15298461914062
 30
0.0
 11
145.0745544433594
 21
-79.07316589355469
 31
0.0
1001
DBPROPERTIES
1002
{
1000
PbThick
1002
}
  0
LINE
  5
E8
330
1F
100
AcDbEntity
  8
THICK
100
AcDbLine
 10
145.0745544433594
 20
-79.07316589355469
 30
0.0
 11
145.2464599609375
 21
-78.99037170410156
 31
0.0
1001
DBPROPERTIES
1002
{
1000
PbThick
1002
}
  0
LINE
  5
E9
330
1F
100
AcDbEntity
  8
THICK
100
AcDbLine
 10
145.2464599609375
 20
-78.99037170410156
 30
0.0
 11
145.4234466552734
 21
-78.90514373779297
 31
0.0
1001
DBPROPERTIES
1002
{
1000
PbThick
1002
}
  0
LINE
  5
EA
330
1F
100
AcDbEntity
  8
THICK
100
AcDbLine
 10
145.4234466552734
 20
-78.90514373779297
 30
0.0
 11
145.6044158935547
 21
-78.8179931640625
 31
0.0
1001
DBPROPERTIES
1002
{
1000
PbThick
1002
}
  0
LINE
  5
EB
330
1F
100
AcDbEntity
  8
THICK
100
AcDbLine
 10
145.6044158935547
 20
-78.8179931640625
 30
0.0
 11
145.7882690429688
 21
-78.72945404052734
 31
0.0
1001
DBPROPERTIES
1002
{
1000
PbThick
1002
}
  0
LINE
  5
EC
330
1F
100
AcDbEntity
  8
THICK
100
AcDbLine
 10
145.7882690429688
 20
-78.72945404052734
 30
0.0
 11
145.9739227294922
 21
-78.64004516601562
 31
0.0
1001
DBPROPERTIES
1002
{
1000
PbThick
1002
}
  0
LINE
  5
ED
330
1F
100
AcDbEntity
  8
THICK
100
AcDbLine
 10
145.9739227294922
 20
-78.64004516601562
 30
0.0
 11
146.1602478027344
 21
-78.5503158569336
 31
0.0
1001
DBPROPERTIES
1002
{
1000
PbThick
1002
}
  0
LINE
  5
EE
330
1F
100
AcDbEntity
  8
THICK
100
AcDbLine
 10
146.1602478027344
 20
-78.5503158569336
 30
0.0
 11
146.3460845947266
 21
-78.46082305908203
 31
0.0
1001
DBPROPERTIES
1002
{
1000
PbThick
1002
}
  0
LINE
  5
EF
330
1F
100
AcDbEntity
  8
THICK
100
AcDbLine
 10
146.3460845947266
 20
-78.46082305908203
 30
0.0
 11
146.5302734375
 21
-78.37213134765625
 31
0.0
1001
DBPROPERTIES
1002
{
1000
PbThick
1002
}
  0
LINE
  5
F0
330
1F
100
AcDbEntity
  8
THICK
100
AcDbLine
 10
146.5302734375
 20
-78.37213134765625
 30
0.0
 11
146.7116241455078
 21
-78.2847900390625
 31
0.0
1001
DBPROPERTIES
1002
{
1000
PbThick
1002
}
  0
LINE
  5
F1
330
1F
100
AcDbEntity
  8
THICK
100
AcDbLine
 10
146.7116241455078
 20
-78.2847900390625
 30
0.0
 11
146.8890075683594
 21
-78.19937133789062
 31
0.0
1001
DBPROPERTIES
1002
{
1000
PbThick
1002
}
  0
LINE
  5
F2
330
1F
100
AcDbEntity
  8
THICK
100
AcDbLine
 10
146.8890075683594
 20
-78.19937133789062
 30
0.0
 11
147.0626831054688
 21
-78.11573028564453
 31
0.0
1001
DBPROPERTIES
1002
{
1000
PbThick
1002
}
  0
LINE
  5
F3
330
1F
100
AcDbEntity
  8
THICK
100
AcDbLine
 10
147.0626831054688
 20
-78.11573028564453
 30
0.0
 11
147.2400512695312
 21
-78.03031158447266
 31
0.0
1001
DBPROPERTIES
1002
{
1000
PbThick
1002
}
  0
LINE
  5
F4
330
1F
100
AcDbEntity
  8
THICK
100
AcDbLine
 10
147.2400512695312
 20
-78.03031158447266
 30
0.0
 11
147.4214172363281
 21
-77.9429702758789
 31
0.0
1001
DBPROPERTIES
1002
{
1000
PbThick
1002
}
  0
LINE
  5
F5
330
1F
100
AcDbEntity
  8
THICK
100
AcDbLine
 10
147.4214172363281
 20
-77.9429702758789
 30
0.0
 11
147.6055908203125
 21
-77.85427856445312
 31
0.0
1001
DBPROPERTIES
1002
{
1000
PbThick
1002
}
  0
LINE
  5
F6
330
1F
100
AcDbEntity
  8
THICK
100
AcDbLine
 10
147.6055908203125
 20
-77.85427856445312
 30
0.0
 11
147.7914276123047
 21
-77.76478576660156
 31
0.0
1001
DBPROPERTIES
1002
{
1000
PbThick
1002
}
  0
LINE
  5
F7
330
1F
100
AcDbEntity
  8
THICK
100
AcDbLine
 10
147.7914276123047
 20
-77.76478576660156
 30
0.0
 11
147.9777526855469
 21
-77.67505645751953
 31
0.0
1001
DBPROPERTIES
1002
{
1000
PbThick
1002
}
  0
LINE
  5
F8
330
1F
100
AcDbEntity
  8
THICK
100
AcDbLine
 10
147.9777526855469
 20
-77.67505645751953
 30
0.0
 11
148.1634063720703
 21
-77.58564758300781
 31
0.0
1001
DBPROPERTIES
1002
{
1000
PbThick
1002
}
  0
LINE
  5
F9
330
1F
100
AcDbEntity
  8
THICK
100
AcDbLine
 10
148.1634063720703
 20
-77.58564758300781
 30
0.0
 11
148.3472595214844
 21
-77.49710845947266
 31
0.0
1001
DBPROPERTIES
1002
{
1000
PbThick
1002
}
  0
LINE
  5
FA
330
1F
100
AcDbEntity
  8
THICK
100
AcDbLine
 10
148.3472595214844
 20
-77.49710845947266
 30
0.0
 11
148.5282287597656
 21
-77.40995788574219
 31
0.0
1001
DBPROPERTIES
1002
{
1000
PbThick
1002
}
  0
LINE
  5
FB
330
1F
100
AcDbEntity
  8
THICK
100
AcDbLine
 10
148.5282287597656
 20
-77.40995788574219
 30
0.0
 11
148.7052154541016
 21
-77.3247299194336
 31
0.0
1001
DBPROPERTIES
1002
{
1000
PbThick
1002
}
  0
LINE
  5
FC
330
1F
100
AcDbEntity
  8
THICK
100
AcDbLine
 10
148.7052154541016
 20
-77.3247299194336
 30
0.0
 11
148.8771362304688
 21
-77.24193572998047
 31
0.0
1001
DBPROPERTIES
1002
{
1000
PbThick
1002
}
  0
LINE
  5
FD
330
1F
100
AcDbEntity
  8
THICK
100
AcDbLine
 10
148.8771362304688
 20
-77.24193572998047
 30
0.0
 11
149.0428771972656
 21
-77.16211700439453
 31
0.0
1001
DBPROPERTIES
1002
{
1000
PbThick
1002
}
  0
LINE
  5
FE
330
1F
100
AcDbEntity
  8
THICK
100
AcDbLine
 10
149.0428771972656
 20
-77.16211700439453
 30
0.0
 11
149.2098999023438
 21
-77.0816879272461
 31
0.0
1001
DBPROPERTIES
1002
{
1000
PbThick
1002
}
  0
LINE
  5
FF
330
1F
100
AcDbEntity
  8
THICK
100
AcDbLine
 10
149.2098999023438
 20
-77.0816879272461
 30
0.0
 11
149.3820648193359
 21
-76.99877166748047
 31
0.0
1001
DBPROPERTIES
1002
{
1000
PbThick
1002
}
  0
LINE
  5
100
330
1F
100
AcDbEntity
  8
THICK
100
AcDbLine
 10
149.3820648193359
 20
-76.99877166748047
 30
0.0
 11
149.5512084960938
 21
-76.91732025146484
 31
0.0
1001
DBPROPERTIES
1002
{
1000
PbThick
1002
}
  0
LINE
  5
101
330
1F
100
AcDbEntity
  8
THICK
100
AcDbLine
 10
149.5512084960938
 20
-76.91732025146484
 30
0.0
 11
149.7099151611328
 21
-76.84088897705078
 31
0.0
1001
DBPROPERTIES
1002
{
1000
PbThick
1002
}
  0
LINE
  5
102
330
1F
100
AcDbEntity
  8
THICK
100
AcDbLine
 10
149.7099151611328
 20
-76.84088897705078
 30
0.0
 11
149.8600616455078
 21
-76.76858520507812
 31
0.0
1001
DBPROPERTIES
1002
{
1000
PbThick
1002
}
  0
LINE
  5
103
330
1F
100
AcDbEntity
  8
THICK
100
AcDbLine
 10
149.8600616455078
 20
-76.76858520507812
 30
0.0
 11
150.0114135742188
 21
-76.6957015991211
 31
0.0
1001
DBPROPERTIES
1002
{
1000
PbThick
1002
}
  0
LINE
  5
104
330
1F
100
AcDbEntity
  8
THICK
100
AcDbLine
 10
150.0114135742188
 20
-76.6957015991211
 30
0.0
 11
150.1584320068359
 21
-76.62489318847656
 31
0.0
1001
DBPROPERTIES
1002
{
1000
PbThick
1002
}
  0
LINE
  5
105
330
1F
100
AcDbEntity
  8
THICK
100
AcDbLine
 10
150.1584320068359
 20
-76.62489318847656
 30
0.0
 11
150.2958221435547
 21
-76.55873107910156
 31
0.0
1001
DBPROPERTIES
1002
{
1000
PbThick
1002
}
  0
LINE
  5
106
330
1F
100
AcDbEntity
  8
THICK
100
AcDbLine
 10
150.2958221435547
 20
-76.55873107910156
 30
0.0
 11
150.4195709228516
 21
-76.49913787841797
 31
0.0
1001
DBPROPERTIES
1002
{
1000
PbThick
1002
}
  0
LINE
  5
107
330
1F
100
AcDbEntity
  8
THICK
100
AcDbLine
 10
150.4195709228516
 20
-76.49913787841797
 30
0.0
 11
150.5300750732422
 21
-76.4459228515625
 31
0.0
1001
DBPROPERTIES
1002
{
1000
PbThick
1002
}
  0
LINE
  5
108
330
1F
100
AcDbEntity
  8
THICK
100
AcDbLine
 10
150.5300750732422
 20
-76.4459228515625
 30
0.0
 11
150.6336517333984
 21
-76.39604187011719
 31
0.0
1001
DBPROPERTIES
1002
{
1000
PbThick
1002
}
  0
LINE
  5
109
330
1F
100
AcDbEntity
  8
THICK
100
AcDbLine
 10
150.6336517333984
 20
-76.39604187011719
 30
0.0
 11
150.7222595214844
 21
-76.3533706665039
 31
0.0
1001
DBPROPERTIES
1002
{
1000
PbThick
1002
}
  0
LINE
  5
10A
330
1F
100
AcDbEntity
  8
THICK
100
AcDbLine
 10
150.7222595214844
 20
-76.3533706665039
 30
0.0
 11
150.7907562255859
 21
-76.32038879394531
 31
0.0
1001
DBPROPERTIES
1002
{
1000
PbThick
1002
}
  0
LINE
  5
10B
330
1F
100
AcDbEntity
  8
THICK
100
AcDbLine
 10
150.7907562255859
 20
-76.32038879394531
 30
0.0
 11
150.8420867919922
 21
-76.29566192626953
 31
0.0
1001
DBPROPERTIES
1002
{
1000
PbThick
1002
}
  0
LINE
  5
10C
330
1F
100
AcDbEntity
  8
THICK
100
AcDbLine
 10
150.8420867919922
 20
-76.29566192626953
 30
0.0
 11
150.8745269775391
 21
-76.28003692626953
 31
0.0
1001
DBPROPERTIES
1002
{
1000
PbThick
1002
}
  0
LINE
  5
10D
330
1F
100
AcDbEntity
  8
THICK
100
AcDbLine
 10
150.8745269775391
 20
-76.28003692626953
 30
0.0
 11
150.8849945068359
 21
-76.2750015258789
 31
0.0
1001
DBPROPERTIES
1002
{
1000
PbThick
1002
}
  0
LINE
  5
10E
330
1F
100
AcDbEntity
  8
THICK
100
AcDbLine
 10
141.6436157226562
 20
-86.2750015258789
 30
0.0
 11
141.6976776123047
 21
-86.0380859375
 31
0.0
1001
DBPROPERTIES
1002
{
1000
PbThick
1002
}
  0
LINE
  5
10F
330
1F
100
AcDbEntity
  8
THICK
100
AcDbLine
 10
141.6976776123047
 20
-86.0380859375
 30
0.0
 11
141.7534942626953
 21
-85.7935562133789
 31
0.0
1001
DBPROPERTIES
1002
{
1000
PbThick
1002
}
  0
LINE
  5
110
330
1F
100
AcDbEntity
  8
THICK
100
AcDbLine
 10
141.7534942626953
 20
-85.7935562133789
 30
0.0
 11
141.8105163574219
 21
-85.54371643066406
 31
0.0
1001
DBPROPERTIES
1002
{
1000
PbThick
1002
}
  0
LINE
  5
111
330
1F
100
AcDbEntity
  8
THICK
100
AcDbLine
 10
141.8105163574219
 20
-85.54371643066406
 30
0.0
 11
141.8682250976562
 21
-85.2909164428711
 31
0.0
1001
DBPROPERTIES
1002
{
1000
PbThick
1002
}
  0
LINE
  5
112
330
1F
100
AcDbEntity
  8
THICK
100
AcDbLine
 10
141.8682250976562
 20
-85.2909164428711
 30
0.0
 11
141.9260406494141
 21
-85.03759765625
 31
0.0
1001
DBPROPERTIES
1002
{
1000
PbThick
1002
}
  0
LINE
  5
113
330
1F
100
AcDbEntity
  8
THICK
100
AcDbLine
 10
141.9260406494141
 20
-85.03759765625
 30
0.0
 11
141.9834136962891
 21
-84.78624725341797
 31
0.0
1001
DBPROPERTIES
1002
{
1000
PbThick
1002
}
  0
LINE
  5
114
330
1F
100
AcDbEntity
  8
THICK
100
AcDbLine
 10
141.9834136962891
 20
-84.78624725341797
 30
0.0
 11
142.0397491455078
 21
-84.53938293457031
 31
0.0
1001
DBPROPERTIES
1002
{
1000
PbThick
1002
}
  0
LINE
  5
115
330
1F
100
AcDbEntity
  8
THICK
100
AcDbLine
 10
142.0397491455078
 20
-84.53938293457031
 30
0.0
 11
142.0945129394531
 21
-84.29949188232422
 31
0.0
1001
DBPROPERTIES
1002
{
1000
PbThick
1002
}
  0
LINE
  5
116
330
1F
100
AcDbEntity
  8
THICK
100
AcDbLine
 10
142.0945129394531
 20
-84.29949188232422
 30
0.0
 11
142.1488037109375
 21
-84.06157684326172
 31
0.0
1001
DBPROPERTIES
1002
{
1000
PbThick
1002
}
  0
LINE
  5
117
330
1F
100
AcDbEntity
  8
THICK
100
AcDbLine
 10
142.1488037109375
 20
-84.06157684326172
 30
0.0
 11
142.2048034667969
 21
-83.81621551513672
 31
0.0
1001
DBPROPERTIES
1002
{
1000
PbThick
1002
}
  0
LINE
  5
118
330
1F
100
AcDbEntity
  8
THICK
100
AcDbLine
 10
142.2048034667969
 20
-83.81621551513672
 30
0.0
 11
142.2619781494141
 21
-83.56575775146484
 31
0.0
1001
DBPROPERTIES
1002
{
1000
PbThick
1002
}
  0
LINE
  5
119
330
1F
100
AcDbEntity
  8
THICK
100
AcDbLine
 10
142.2619781494141
 20
-83.56575775146484
 30
0.0
 11
142.3197326660156
 21
-83.31269073486328
 31
0.0
1001
DBPROPERTIES
1002
{
1000
PbThick
1002
}
  0
LINE
  5
11A
330
1F
100
AcDbEntity
  8
THICK
100
AcDbLine
 10
142.3197326660156
 20
-83.31269073486328
 30
0.0
 11
142.3775177001953
 21
-83.05952453613281
 31
0.0
1001
DBPROPERTIES
1002
{
1000
PbThick
1002
}
  0
LINE
  5
11B
330
1F
100
AcDbEntity
  8
THICK
100
AcDbLine
 10
142.3775177001953
 20
-83.05952453613281
 30
0.0
 11
142.4347686767578
 21
-82.80873107910156
 31
0.0
1001
DBPROPERTIES
1002
{
1000
PbThick
1002
}
  0
LINE
  5
11C
330
1F
100
AcDbEntity
  8
THICK
100
AcDbLine
 10
142.4347686767578
 20
-82.80873107910156
 30
0.0
 11
142.4909515380859
 21
-82.56257629394531
 31
0.0
1001
DBPROPERTIES
1002
{
1000
PbThick
1002
}
  0
LINE
  5
11D
330
1F
100
AcDbEntity
  8
THICK
100
AcDbLine
 10
142.4909515380859
 20
-82.56257629394531
 30
0.0
 11
142.5454711914062
 21
-82.32365417480469
 31
0.0
1001
DBPROPERTIES
1002
{
1000
PbThick
1002
}
  0
LINE
  5
11E
330
1F
100
AcDbEntity
  8
THICK
100
AcDbLine
 10
142.5454711914062
 20
-82.32365417480469
 30
0.0
 11
142.5978698730469
 21
-82.09408569335938
 31
0.0
1001
DBPROPERTIES
1002
{
1000
PbThick
1002
}
  0
LINE
  5
11F
330
1F
100
AcDbEntity
  8
THICK
100
AcDbLine
 10
142.5978698730469
 20
-82.09408569335938
 30
0.0
 11
142.6493530273438
 21
-81.8685302734375
 31
0.0
1001
DBPROPERTIES
1002
{
1000
PbThick
1002
}
  0
LINE
  5
120
330
1F
100
AcDbEntity
  8
THICK
100
AcDbLine
 10
142.6493530273438
 20
-81.8685302734375
 30
0.0
 11
142.7027587890625
 21
-81.6345443725586
 31
0.0
1001
DBPROPERTIES
1002
{
1000
PbThick
1002
}
  0
LINE
  5
121
330
1F
100
AcDbEntity
  8
THICK
100
AcDbLine
 10
142.7027587890625
 20
-81.6345443725586
 30
0.0
 11
142.7544860839844
 21
-81.40792846679688
 31
0.0
1001
DBPROPERTIES
1002
{
1000
PbThick
1002
}
  0
LINE
  5
122
330
1F
100
AcDbEntity
  8
THICK
100
AcDbLine
 10
142.7544860839844
 20
-81.40792846679688
 30
0.0
 11
142.8018035888672
 21
-81.20059204101562
 31
0.0
1001
DBPROPERTIES
1002
{
1000
PbThick
1002
}
  0
LINE
  5
123
330
1F
100
AcDbEntity
  8
THICK
100
AcDbLine
 10
142.8018035888672
 20
-81.20059204101562
 30
0.0
 11
142.8488006591797
 21
-80.99468231201172
 31
0.0
1001
DBPROPERTIES
1002
{
1000
PbThick
1002
}
  0
LINE
  5
124
330
1F
100
AcDbEntity
  8
THICK
100
AcDbLine
 10
142.8488006591797
 20
-80.99468231201172
 30
0.0
 11
142.8942565917969
 21
-80.79558563232422
 31
0.0
1001
DBPROPERTIES
1002
{
1000
PbThick
1002
}
  0
LINE
  5
125
330
1F
100
AcDbEntity
  8
THICK
100
AcDbLine
 10
142.8942565917969
 20
-80.79558563232422
 30
0.0
 11
142.9356231689453
 21
-80.61434173583984
 31
0.0
1001
DBPROPERTIES
1002
{
1000
PbThick
1002
}
  0
LINE
  5
126
330
1F
100
AcDbEntity
  8
THICK
100
AcDbLine
 10
142.9356231689453
 20
-80.61434173583984
 30
0.0
 11
142.9713439941406
 21
-80.45782470703125
 31
0.0
1001
DBPROPERTIES
1002
{
1000
PbThick
1002
}
  0
LINE
  5
127
330
1F
100
AcDbEntity
  8
THICK
100
AcDbLine
 10
142.9713439941406
 20
-80.45782470703125
 30
0.0
 11
143.0039215087891
 21
-80.31509399414062
 31
0.0
1001
DBPROPERTIES
1002
{
1000
PbThick
1002
}
  0
LINE
  5
128
330
1F
100
AcDbEntity
  8
THICK
100
AcDbLine
 10
143.0039215087891
 20
-80.31509399414062
 30
0.0
 11
143.0308227539062
 21
-80.19721221923828
 31
0.0
1001
DBPROPERTIES
1002
{
1000
PbThick
1002
}
  0
LINE
  5
129
330
1F
100
AcDbEntity
  8
THICK
100
AcDbLine
 10
143.0308227539062
 20
-80.19721221923828
 30
0.0
 11
143.0500335693359
 21
-80.11309051513672
 31
0.0
1001
DBPROPERTIES
1002
{
1000
PbThick
1002
}
  0
LINE
  5
12A
330
1F
100
AcDbEntity
  8
THICK
100
AcDbLine
 10
143.0500335693359
 20
-80.11309051513672
 30
0.0
 11
143.0625762939453
 21
-80.05813598632812
 31
0.0
1001
DBPROPERTIES
1002
{
1000
PbThick
1002
}
  0
LINE
  5
12B
330
1F
100
AcDbEntity
  8
THICK
100
AcDbLine
 10
143.0625762939453
 20
-80.05813598632812
 30
0.0
 11
143.0666809082031
 21
-80.04010009765625
 31
0.0
1001
DBPROPERTIES
1002
{
1000
PbThick
1002
}
  0
ARC
  5
12C
330
1F
100
AcDbEntity
  8
THICK
100
AcDbCircle
 10
150.885
 20
-86.27499999999998
 30
0.0
 40
6.0
100
AcDbArc
 50
89.99998127603165
 51
180.0000198478428
1001
DBPROPERTIES
1002
{
1000
PbThick
1002
}
  0
LINE
  5
12D
330
1F
100
AcDbEntity
  8
HIDDEN
100
AcDbLine
 10
205.55
 20
118.32
 30
0.0
 11
205.55
 21
118.32
 31
0.0
1001
DBPROPERTIES
1002
{
1000
PbHidd
1002
}
  0
LINE
  5
12E
330
1F
100
AcDbEntity
  8
HIDDEN
100
AcDbLine
 10
199.3875
 20
118.32
 30
0.0
 11
205.55
 21
118.32
 31
0.0
1001
DBPROPERTIES
1002
{
1000
PbHidd
1002
}
  0
LINE
  5
12F
330
1F
100
AcDbEntity
  8
HIDDEN
100
AcDbLine
 10
-199.3875
 20
118.32
 30
0.0
 11
199.3875
 21
118.32
 31
0.0
1001
DBPROPERTIES
1002
{
1000
PbHidd
1002
}
  0
LINE
  5
130
330
1F
100
AcDbEntity
  8
HIDDEN
100
AcDbLine
 10
-205.55
 20
118.32
 30
0.0
 11
-199.3875
 21
118.32
 31
0.0
1001
DBPROPERTIES
1002
{
1000
PbHidd
1002
}
  0
LINE
  5
131
330
1F
100
AcDbEntity
  8
HIDDEN
100
AcDbLine
 10
-205.55
 20
118.32
 30
0.0
 11
-205.55
 21
118.32
 31
0.0
1001
DBPROPERTIES
1002
{
1000
PbHidd
1002
}
  0
LINE
  5
132
330
1F
100
AcDbEntity
  8
HIDDEN
100
AcDbLine
 10
203.2250000000001
 20
123.25
 30
0.0
 11
203.2250000000001
 21
118.32
 31
0.0
1001
DBPROPERTIES
1002
{
1000
PbHidd
1002
}
  0
LINE
  5
133
330
1F
100
AcDbEntity
  8
HIDDEN
100
AcDbLine
 10
215.55
 20
123.25
 30
0.0
 11
215.55
 21
123.25
 31
0.0
1001
DBPROPERTIES
1002
{
1000
PbHidd
1002
}
  0
LINE
  5
134
330
1F
100
AcDbEntity
  8
HIDDEN
100
AcDbLine
 10
-215.55
 20
123.25
 30
0.0
 11
-215.55
 21
123.25
 31
0.0
1001
DBPROPERTIES
1002
{
1000
PbHidd
1002
}
  0
LINE
  5
135
330
1F
100
AcDbEntity
  8
THICK
100
AcDbLine
 10
-203.225
 20
123.25
 30
0.0
 11
-215.55
 21
123.25
 31
0.0
1001
DBPROPERTIES
1002
{
1000
PbThick
1002
}
  0
LINE
  5
136
330
1F
100
AcDbEntity
  8
THICK
100
AcDbLine
 10
203.225
 20
123.25
 30
0.0
 11
-203.225
 21
123.25
 31
0.0
1001
DBPROPERTIES
1002
{
1000
PbThick
1002
}
  0
LINE
  5
137
330
1F
100
AcDbEntity
  8
THICK
100
AcDbLine
 10
215.55
 20
123.25
 30
0.0
 11
203.225
 21
123.25
 31
0.0
1001
DBPROPERTIES
1002
{
1000
PbThick
1002
}
  0
LINE
  5
138
330
1F
100
AcDbEntity
  8
HIDDEN
100
AcDbLine
 10
-203.225
 20
123.25
 30
0.0
 11
-203.225
 21
118.32
 31
0.0
1001
DBPROPERTIES
1002
{
1000
PbHidd
1002
}
  0
LINE
  5
139
330
1F
100
AcDbEntity
  8
HIDDEN
100
AcDbLine
 10
-215.55
 20
118.32
 30
0.0
 11
-215.55
 21
118.32
 31
0.0
1001
DBPROPERTIES
1002
{
1000
PbHidd
1002
}
  0
LINE
  5
13A
330
1F
100
AcDbEntity
  8
THICK
100
AcDbLine
 10
-215.55
 20
123.25
 30
0.0
 11
-215.55
 21
118.32
 31
0.0
1001
DBPROPERTIES
1002
{
1000
PbThick
1002
}
  0
LINE
  5
13B
330
1F
100
AcDbEntity
  8
THICK
100
AcDbLine
 10
-203.225
 20
123.25
 30
0.0
 11
-203.225
 21
118.32
 31
0.0
1001
DBPROPERTIES
1002
{
1000
PbThick
1002
}
  0
LINE
  5
13C
330
1F
100
AcDbEntity
  8
THICK
100
AcDbLine
 10
-215.55
 20
118.32
 30
0.0
 11
-203.225
 21
118.32
 31
0.0
1001
DBPROPERTIES
1002
{
1000
PbThick
1002
}
  0
LINE
  5
13D
330
1F
100
AcDbEntity
  8
THICK
100
AcDbLine
 10
-203.225
 20
118.32
 30
0.0
 11
203.225
 21
118.32
 31
0.0
1001
DBPROPERTIES
1002
{
1000
PbThick
1002
}
  0
LINE
  5
13E
330
1F
100
AcDbEntity
  8
THICK
100
AcDbLine
 10
203.225
 20
123.25
 30
0.0
 11
203.225
 21
118.32
 31
0.0
1001
DBPROPERTIES
1002
{
1000
PbThick
1002
}
  0
LINE
  5
13F
330
1F
100
AcDbEntity
  8
THICK
100
AcDbLine
 10
215.55
 20
118.32
 30
0.0
 11
203.225
 21
118.32
 31
0.0
1001
DBPROPERTIES
1002
{
1000
PbThick
1002
}
  0
LINE
  5
140
330
1F
100
AcDbEntity
  8
THICK
100
AcDbLine
 10
215.55
 20
123.25
 30
0.0
 11
215.55
 21
118.32
 31
0.0
1001
DBPROPERTIES
1002
{
1000
PbThick
1002
}
  0
LINE
  5
141
330
1F
100
AcDbEntity
  8
HIDDEN
100
AcDbLine
 10
215.55
 20
118.32
 30
0.0
 11
215.55
 21
118.32
 31
0.0
1001
DBPROPERTIES
1002
{
1000
PbHidd
1002
}
  0
LINE
  5
142
330
1F
100
AcDbEntity
  8
HIDDEN
100
AcDbLine
 10
209.6610000000001
 20
118.32
 30
0.0
 11
209.661
 21
118.32
 31
0.0
1001
DBPROPERTIES
1002
{
1000
PbHidd
1002
}
  0
LINE
  5
143
330
1F
100
AcDbEntity
  8
HIDDEN
100
AcDbLine
 10
-209.6610000000001
 20
118.32
 30
0.0
 11
-209.661
 21
118.32
 31
0.0
1001
DBPROPERTIES
1002
{
1000
PbHidd
1002
}
  0
LINE
  5
144
330
1F
100
AcDbEntity
  8
HIDDEN
100
AcDbLine
 10
-205.55
 20
118.32
 30
0.0
 11
-205.55
 21
-113.25
 31
0.0
1001
DBPROPERTIES
1002
{
1000
PbHidd
1002
}
  0
LINE
  5
145
330
1F
100
AcDbEntity
  8
HIDDEN
100
AcDbLine
 10
-205.55
 20
-113.25
 30
0.0
 11
-205.55
 21
-113.25
 31
0.0
1001
DBPROPERTIES
1002
{
1000
PbHidd
1002
}
  0
LINE
  5
146
330
1F
100
AcDbEntity
  8
HIDDEN
100
AcDbLine
 10
-199.3875
 20
118.32
 30
0.0
 11
-199.3875
 21
-113.25
 31
0.0
1001
DBPROPERTIES
1002
{
1000
PbHidd
1002
}
  0
LINE
  5
147
330
1F
100
AcDbEntity
  8
HIDDEN
100
AcDbLine
 10
-199.3875
 20
-113.25
 30
0.0
 11
-205.55
 21
-113.25
 31
0.0
1001
DBPROPERTIES
1002
{
1000
PbHidd
1002
}
  0
LINE
  5
148
330
1F
100
AcDbEntity
  8
HIDDEN
100
AcDbLine
 10
199.3875
 20
118.32
 30
0.0
 11
199.3875
 21
-113.25
 31
0.0
1001
DBPROPERTIES
1002
{
1000
PbHidd
1002
}
  0
LINE
  5
149
330
1F
100
AcDbEntity
  8
HIDDEN
100
AcDbLine
 10
-199.3875
 20
-113.25
 30
0.0
 11
199.3875
 21
-113.25
 31
0.0
1001
DBPROPERTIES
1002
{
1000
PbHidd
1002
}
  0
LINE
  5
14A
330
1F
100
AcDbEntity
  8
HIDDEN
100
AcDbLine
 10
205.55
 20
118.32
 30
0.0
 11
205.55
 21
-113.25
 31
0.0
1001
DBPROPERTIES
1002
{
1000
PbHidd
1002
}
  0
LINE
  5
14B
330
1F
100
AcDbEntity
  8
HIDDEN
100
AcDbLine
 10
205.55
 20
-113.25
 30
0.0
 11
199.3875
 21
-113.25
 31
0.0
1001
DBPROPERTIES
1002
{
1000
PbHidd
1002
}
  0
LINE
  5
14C
330
1F
100
AcDbEntity
  8
HIDDEN
100
AcDbLine
 10
-203.37525
 20
118.32
 30
0.0
 11
-203.37525
 21
115.855
 31
0.0
1001
DBPROPERTIES
1002
{
1000
PbHidd
1002
}
  0
LINE
  5
14D
330
1F
100
AcDbEntity
  8
HIDDEN
100
AcDbLine
 10
203.3752500000001
 20
118.32
 30
0.0
 11
203.3752500000001
 21
115.855
 31
0.0
1001
DBPROPERTIES
1002
{
1000
PbHidd
1002
}
  0
LINE
  5
14E
330
1F
100
AcDbEntity
  8
THICK
100
AcDbLine
 10
209.661
 20
118.32
 30
0.0
 11
209.661
 21
115.855
 31
0.0
1001
DBPROPERTIES
1002
{
1000
PbThick
1002
}
  0
LINE
  5
14F
330
1F
100
AcDbEntity
  8
HIDDEN
100
AcDbLine
 10
209.6610000000001
 20
115.855
 30
0.0
 11
209.661
 21
115.855
 31
0.0
1001
DBPROPERTIES
1002
{
1000
PbHidd
1002
}
  0
LINE
  5
150
330
1F
100
AcDbEntity
  8
THICK
100
AcDbLine
 10
203.37525
 20
118.32
 30
0.0
 11
203.37525
 21
115.855
 31
0.0
1001
DBPROPERTIES
1002
{
1000
PbThick
1002
}
  0
LINE
  5
151
330
1F
100
AcDbEntity
  8
HIDDEN
100
AcDbLine
 10
160.6342791218182
 20
-88.50020933956311
 30
0.0
 11
160.6342791218182
 21
-88.50020933956311
 31
0.0
1001
DBPROPERTIES
1002
{
1000
PbHidd
1002
}
  0
LINE
  5
152
330
1F
100
AcDbEntity
  8
HIDDEN
100
AcDbLine
 10
158.7033148246803
 20
-80.04010198141265
 30
0.0
 11
158.7033148246803
 21
-80.04010198141265
 31
0.0
1001
DBPROPERTIES
1002
{
1000
PbHidd
1002
}
  0
LINE
  5
153
330
1F
100
AcDbEntity
  8
THICK
100
AcDbLine
 10
160.1263885498047
 20
-86.2750015258789
 30
0.0
 11
160.1590423583984
 21
-86.41806030273438
 31
0.0
1001
DBPROPERTIES
1002
{
1000
PbThick
1002
}
  0
LINE
  5
154
330
1F
100
AcDbEntity
  8
THICK
100
AcDbLine
 10
160.1590423583984
 20
-86.41806030273438
 30
0.0
 11
160.1908416748047
 21
-86.55738067626953
 31
0.0
1001
DBPROPERTIES
1002
{
1000
PbThick
1002
}
  0
LINE
  5
155
330
1F
100
AcDbEntity
  8
THICK
100
AcDbLine
 10
160.1908416748047
 20
-86.55738067626953
 30
0.0
 11
160.2235717773438
 21
-86.7007827758789
 31
0.0
1001
DBPROPERTIES
1002
{
1000
PbThick
1002
}
  0
LINE
  5
156
330
1F
100
AcDbEntity
  8
THICK
100
AcDbLine
 10
160.2235717773438
 20
-86.7007827758789
 30
0.0
 11
160.2570037841797
 21
-86.84724426269531
 31
0.0
1001
DBPROPERTIES
1002
{
1000
PbThick
1002
}
  0
LINE
  5
157
330
1F
100
AcDbEntity
  8
THICK
100
AcDbLine
 10
160.2570037841797
 20
-86.84724426269531
 30
0.0
 11
160.2901306152344
 21
-86.99242401123047
 31
0.0
1001
DBPROPERTIES
1002
{
1000
PbThick
1002
}
  0
LINE
  5
158
330
1F
100
AcDbEntity
  8
THICK
100
AcDbLine
 10
160.2901306152344
 20
-86.99242401123047
 30
0.0
 11
160.3220672607422
 21
-87.13233184814453
 31
0.0
1001
DBPROPERTIES
1002
{
1000
PbThick
1002
}
  0
LINE
  5
159
330
1F
100
AcDbEntity
  8
THICK
100
AcDbLine
 10
160.3220672607422
 20
-87.13233184814453
 30
0.0
 11
160.3519592285156
 21
-87.26326751708984
 31
0.0
1001
DBPROPERTIES
1002
{
1000
PbThick
1002
}
  0
LINE
  5
15A
330
1F
100
AcDbEntity
  8
THICK
100
AcDbLine
 10
160.3519592285156
 20
-87.26326751708984
 30
0.0
 11
160.3811340332031
 21
-87.39110565185547
 31
0.0
1001
DBPROPERTIES
1002
{
1000
PbThick
1002
}
  0
LINE
  5
15B
330
1F
100
AcDbEntity
  8
THICK
100
AcDbLine
 10
160.3811340332031
 20
-87.39110565185547
 30
0.0
 11
160.4105377197266
 21
-87.51996612548828
 31
0.0
1001
DBPROPERTIES
1002
{
1000
PbThick
1002
}
  0
LINE
  5
15C
330
1F
100
AcDbEntity
  8
THICK
100
AcDbLine
 10
160.4105377197266
 20
-87.51996612548828
 30
0.0
 11
160.4394836425781
 21
-87.64677429199219
 31
0.0
1001
DBPROPERTIES
1002
{
1000
PbThick
1002
}
  0
LINE
  5
15D
330
1F
100
AcDbEntity
  8
THICK
100
AcDbLine
 10
160.4394836425781
 20
-87.64677429199219
 30
0.0
 11
160.4672698974609
 21
-87.76850891113281
 31
0.0
1001
DBPROPERTIES
1002
{
1000
PbThick
1002
}
  0
LINE
  5
15E
330
1F
100
AcDbEntity
  8
THICK
100
AcDbLine
 10
160.4672698974609
 20
-87.76850891113281
 30
0.0
 11
160.4933624267578
 21
-87.88278198242188
 31
0.0
1001
DBPROPERTIES
1002
{
1000
PbThick
1002
}
  0
LINE
  5
15F
330
1F
100
AcDbEntity
  8
THICK
100
AcDbLine
 10
160.4933624267578
 20
-87.88278198242188
 30
0.0
 11
160.5172729492188
 21
-87.9875717163086
 31
0.0
1001
DBPROPERTIES
1002
{
1000
PbThick
1002
}
  0
LINE
  5
160
330
1F
100
AcDbEntity
  8
THICK
100
AcDbLine
 10
160.5172729492188
 20
-87.9875717163086
 30
0.0
 11
160.5389251708984
 21
-88.08246612548828
 31
0.0
1001
DBPROPERTIES
1002
{
1000
PbThick
1002
}
  0
LINE
  5
161
330
1F
100
AcDbEntity
  8
THICK
100
AcDbLine
 10
160.5389251708984
 20
-88.08246612548828
 30
0.0
 11
160.5597381591797
 21
-88.17362976074219
 31
0.0
1001
DBPROPERTIES
1002
{
1000
PbThick
1002
}
  0
LINE
  5
162
330
1F
100
AcDbEntity
  8
THICK
100
AcDbLine
 10
160.5597381591797
 20
-88.17362976074219
 30
0.0
 11
160.5789031982422
 21
-88.25761413574219
 31
0.0
1001
DBPROPERTIES
1002
{
1000
PbThick
1002
}
  0
LINE
  5
163
330
1F
100
AcDbEntity
  8
THICK
100
AcDbLine
 10
160.5789031982422
 20
-88.25761413574219
 30
0.0
 11
160.595458984375
 21
-88.33016204833984
 31
0.0
1001
DBPROPERTIES
1002
{
1000
PbThick
1002
}
  0
LINE
  5
164
330
1F
100
AcDbEntity
  8
THICK
100
AcDbLine
 10
160.595458984375
 20
-88.33016204833984
 30
0.0
 11
160.6089172363281
 21
-88.38908386230469
 31
0.0
1001
DBPROPERTIES
1002
{
1000
PbThick
1002
}
  0
LINE
  5
165
330
1F
100
AcDbEntity
  8
THICK
100
AcDbLine
 10
160.6089172363281
 20
-88.38908386230469
 30
0.0
 11
160.6195831298828
 21
-88.43583679199219
 31
0.0
1001
DBPROPERTIES
1002
{
1000
PbThick
1002
}
  0
LINE
  5
166
330
1F
100
AcDbEntity
  8
THICK
100
AcDbLine
 10
160.6195831298828
 20
-88.43583679199219
 30
0.0
 11
160.6277923583984
 21
-88.47177124023438
 31
0.0
1001
DBPROPERTIES
1002
{
1000
PbThick
1002
}
  0
LINE
  5
167
330
1F
100
AcDbEntity
  8
THICK
100
AcDbLine
 10
160.6277923583984
 20
-88.47177124023438
 30
0.0
 11
160.6326904296875
 21
-88.4932632446289
 31
0.0
1001
DBPROPERTIES
1002
{
1000
PbThick
1002
}
  0
LINE
  5
168
330
1F
100
AcDbEntity
  8
THICK
100
AcDbLine
 10
160.6326904296875
 20
-88.4932632446289
 30
0.0
 11
160.63427734375
 21
-88.50020599365234
 31
0.0
1001
DBPROPERTIES
1002
{
1000
PbThick
1002
}
  0
LINE
  5
169
330
1F
100
AcDbEntity
  8
HIDDEN
100
AcDbLine
 10
150.885
 20
-76.27499999999998
 30
0.0
 11
150.885
 21
-76.27499999999998
 31
0.0
1001
DBPROPERTIES
1002
{
1000
PbHidd
1002
}
  0
LINE
  5
16A
330
1F
100
AcDbEntity
  8
HIDDEN
100
AcDbLine
 10
143.0666851753197
 20
-80.04010198141265
 30
0.0
 11
143.0666851753197
 21
-80.04010198141265
 31
0.0
1001
DBPROPERTIES
1002
{
1000
PbHidd
1002
}
  0
LINE
  5
16B
330
1F
100
AcDbEntity
  8
HIDDEN
100
AcDbLine
 10
141.1357208781817
 20
-88.50020933956313
 30
0.0
 11
141.1357208781817
 21
-88.50020933956313
 31
0.0
1001
DBPROPERTIES
1002
{
1000
PbHidd
1002
}
  0
LINE
  5
16C
330
1F
100
AcDbEntity
  8
THICK
100
AcDbLine
 10
141.1357269287109
 20
-88.50020599365234
 30
0.0
 11
141.1373138427734
 21
-88.4932632446289
 31
0.0
1001
DBPROPERTIES
1002
{
1000
PbThick
1002
}
  0
LINE
  5
16D
330
1F
100
AcDbEntity
  8
THICK
100
AcDbLine
 10
141.1373138427734
 20
-88.4932632446289
 30
0.0
 11
141.1422119140625
 21
-88.47177124023438
 31
0.0
1001
DBPROPERTIES
1002
{
1000
PbThick
1002
}
  0
LINE
  5
16E
330
1F
100
AcDbEntity
  8
THICK
100
AcDbLine
 10
141.1422119140625
 20
-88.47177124023438
 30
0.0
 11
141.1504058837891
 21
-88.43583679199219
 31
0.0
1001
DBPROPERTIES
1002
{
1000
PbThick
1002
}
  0
LINE
  5
16F
330
1F
100
AcDbEntity
  8
THICK
100
AcDbLine
 10
141.1504058837891
 20
-88.43583679199219
 30
0.0
 11
141.1610870361328
 21
-88.38908386230469
 31
0.0
1001
DBPROPERTIES
1002
{
1000
PbThick
1002
}
  0
LINE
  5
170
330
1F
100
AcDbEntity
  8
THICK
100
AcDbLine
 10
141.1610870361328
 20
-88.38908386230469
 30
0.0
 11
141.1745300292969
 21
-88.33016204833984
 31
0.0
1001
DBPROPERTIES
1002
{
1000
PbThick
1002
}
  0
LINE
  5
171
330
1F
100
AcDbEntity
  8
THICK
100
AcDbLine
 10
141.1745300292969
 20
-88.33016204833984
 30
0.0
 11
141.1910858154297
 21
-88.25761413574219
 31
0.0
1001
DBPROPERTIES
1002
{
1000
PbThick
1002
}
  0
LINE
  5
172
330
1F
100
AcDbEntity
  8
THICK
100
AcDbLine
 10
141.1910858154297
 20
-88.25761413574219
 30
0.0
 11
141.2102661132812
 21
-88.17362976074219
 31
0.0
1001
DBPROPERTIES
1002
{
1000
PbThick
1002
}
  0
LINE
  5
173
330
1F
100
AcDbEntity
  8
THICK
100
AcDbLine
 10
141.2102661132812
 20
-88.17362976074219
 30
0.0
 11
141.2310638427734
 21
-88.08246612548828
 31
0.0
1001
DBPROPERTIES
1002
{
1000
PbThick
1002
}
  0
LINE
  5
174
330
1F
100
AcDbEntity
  8
THICK
100
AcDbLine
 10
141.2310638427734
 20
-88.08246612548828
 30
0.0
 11
141.2527313232422
 21
-87.9875717163086
 31
0.0
1001
DBPROPERTIES
1002
{
1000
PbThick
1002
}
  0
LINE
  5
175
330
1F
100
AcDbEntity
  8
THICK
100
AcDbLine
 10
141.2527313232422
 20
-87.9875717163086
 30
0.0
 11
141.2766418457031
 21
-87.88278198242188
 31
0.0
1001
DBPROPERTIES
1002
{
1000
PbThick
1002
}
  0
LINE
  5
176
330
1F
100
AcDbEntity
  8
THICK
100
AcDbLine
 10
141.2766418457031
 20
-87.88278198242188
 30
0.0
 11
141.3027038574219
 21
-87.7685775756836
 31
0.0
1001
DBPROPERTIES
1002
{
1000
PbThick
1002
}
  0
LINE
  5
177
330
1F
100
AcDbEntity
  8
THICK
100
AcDbLine
 10
141.3027038574219
 20
-87.7685775756836
 30
0.0
 11
141.3305053710938
 21
-87.64677429199219
 31
0.0
1001
DBPROPERTIES
1002
{
1000
PbThick
1002
}
  0
LINE
  5
178
330
1F
100
AcDbEntity
  8
THICK
100
AcDbLine
 10
141.3305053710938
 20
-87.64677429199219
 30
0.0
 11
141.3594512939453
 21
-87.51996612548828
 31
0.0
1001
DBPROPERTIES
1002
{
1000
PbThick
1002
}
  0
LINE
  5
179
330
1F
100
AcDbEntity
  8
THICK
100
AcDbLine
 10
141.3594512939453
 20
-87.51996612548828
 30
0.0
 11
141.3888702392578
 21
-87.39110565185547
 31
0.0
1001
DBPROPERTIES
1002
{
1000
PbThick
1002
}
  0
LINE
  5
17A
330
1F
100
AcDbEntity
  8
THICK
100
AcDbLine
 10
141.3888702392578
 20
-87.39110565185547
 30
0.0
 11
141.4180450439453
 21
-87.26326751708984
 31
0.0
1001
DBPROPERTIES
1002
{
1000
PbThick
1002
}
  0
LINE
  5
17B
330
1F
100
AcDbEntity
  8
THICK
100
AcDbLine
 10
141.4180450439453
 20
-87.26326751708984
 30
0.0
 11
141.4479217529297
 21
-87.13233184814453
 31
0.0
1001
DBPROPERTIES
1002
{
1000
PbThick
1002
}
  0
LINE
  5
17C
330
1F
100
AcDbEntity
  8
THICK
100
AcDbLine
 10
141.4479217529297
 20
-87.13233184814453
 30
0.0
 11
141.4798583984375
 21
-86.99242401123047
 31
0.0
1001
DBPROPERTIES
1002
{
1000
PbThick
1002
}
  0
LINE
  5
17D
330
1F
100
AcDbEntity
  8
THICK
100
AcDbLine
 10
141.4798583984375
 20
-86.99242401123047
 30
0.0
 11
141.5130004882812
 21
-86.84724426269531
 31
0.0
1001
DBPROPERTIES
1002
{
1000
PbThick
1002
}
  0
LINE
  5
17E
330
1F
100
AcDbEntity
  8
THICK
100
AcDbLine
 10
141.5130004882812
 20
-86.84724426269531
 30
0.0
 11
141.5464324951172
 21
-86.7007827758789
 31
0.0
1001
DBPROPERTIES
1002
{
1000
PbThick
1002
}
  0
LINE
  5
17F
330
1F
100
AcDbEntity
  8
THICK
100
AcDbLine
 10
141.5464324951172
 20
-86.7007827758789
 30
0.0
 11
141.5791625976562
 21
-86.55738067626953
 31
0.0
1001
DBPROPERTIES
1002
{
1000
PbThick
1002
}
  0
LINE
  5
180
330
1F
100
AcDbEntity
  8
THICK
100
AcDbLine
 10
141.5791625976562
 20
-86.55738067626953
 30
0.0
 11
141.6109619140625
 21
-86.41806030273438
 31
0.0
1001
DBPROPERTIES
1002
{
1000
PbThick
1002
}
  0
LINE
  5
181
330
1F
100
AcDbEntity
  8
THICK
100
AcDbLine
 10
141.6109619140625
 20
-86.41806030273438
 30
0.0
 11
141.6436157226562
 21
-86.2750015258789
 31
0.0
1001
DBPROPERTIES
1002
{
1000
PbThick
1002
}
  0
ARC
  5
182
330
1F
100
AcDbEntity
  8
THICK
100
AcDbCircle
 10
150.885
 20
-86.27499999999998
 30
0.0
 40
6.0
100
AcDbArc
 50
180.0000198478428
 51
0.0
1001
DBPROPERTIES
1002
{
1000
PbThick
1002
}
  0
LINE
  5
183
330
1F
100
AcDbEntity
  8
THICK
100
AcDbLine
 10
146.5461578369141
 20
-95.2846908569336
 30
0.0
 11
146.5389251708984
 21
-95.27560424804688
 31
0.0
1001
DBPROPERTIES
1002
{
1000
PbThick
1002
}
  0
LINE
  5
184
330
1F
100
AcDbEntity
  8
THICK
100
AcDbLine
 10
146.5389251708984
 20
-95.27560424804688
 30
0.0
 11
146.5164642333984
 21
-95.24745178222656
 31
0.0
1001
DBPROPERTIES
1002
{
1000
PbThick
1002
}
  0
LINE
  5
185
330
1F
100
AcDbEntity
  8
THICK
100
AcDbLine
 10
146.5164642333984
 20
-95.24745178222656
 30
0.0
 11
146.4809417724609
 21
-95.2029037475586
 31
0.0
1001
DBPROPERTIES
1002
{
1000
PbThick
1002
}
  0
LINE
  5
186
330
1F
100
AcDbEntity
  8
THICK
100
AcDbLine
 10
146.4809417724609
 20
-95.2029037475586
 30
0.0
 11
146.4335327148438
 21
-95.14346313476562
 31
0.0
1001
DBPROPERTIES
1002
{
1000
PbThick
1002
}
  0
LINE
  5
187
330
1F
100
AcDbEntity
  8
THICK
100
AcDbLine
 10
146.4335327148438
 20
-95.14346313476562
 30
0.0
 11
146.3722229003906
 21
-95.06658172607422
 31
0.0
1001
DBPROPERTIES
1002
{
1000
PbThick
1002
}
  0
LINE
  5
188
330
1F
100
AcDbEntity
  8
THICK
100
AcDbLine
 10
146.3722229003906
 20
-95.06658172607422
 30
0.0
 11
146.300537109375
 21
-94.97669219970703
 31
0.0
1001
DBPROPERTIES
1002
{
1000
PbThick
1002
}
  0
LINE
  5
189
330
1F
100
AcDbEntity
  8
THICK
100
AcDbLine
 10
146.300537109375
 20
-94.97669219970703
 30
0.0
 11
146.2240753173828
 21
-94.88079833984375
 31
0.0
1001
DBPROPERTIES
1002
{
1000
PbThick
1002
}
  0
LINE
  5
18A
330
1F
100
AcDbEntity
  8
THICK
100
AcDbLine
 10
146.2240753173828
 20
-94.88079833984375
 30
0.0
 11
146.1384429931641
 21
-94.77342224121094
 31
0.0
1001
DBPROPERTIES
1002
{
1000
PbThick
1002
}
  0
LINE
  5
18B
330
1F
100
AcDbEntity
  8
THICK
100
AcDbLine
 10
146.1384429931641
 20
-94.77342224121094
 30
0.0
 11
146.0433654785156
 21
-94.6541976928711
 31
0.0
1001
DBPROPERTIES
1002
{
1000
PbThick
1002
}
  0
LINE
  5
18C
330
1F
100
AcDbEntity
  8
THICK
100
AcDbLine
 10
146.0433654785156
 20
-94.6541976928711
 30
0.0
 11
145.9416198730469
 21
-94.526611328125
 31
0.0
1001
DBPROPERTIES
1002
{
1000
PbThick
1002
}
  0
LINE
  5
18D
330
1F
100
AcDbEntity
  8
THICK
100
AcDbLine
 10
145.9416198730469
 20
-94.526611328125
 30
0.0
 11
145.8368835449219
 21
-94.39527893066406
 31
0.0
1001
DBPROPERTIES
1002
{
1000
PbThick
1002
}
  0
LINE
  5
18E
330
1F
100
AcDbEntity
  8
THICK
100
AcDbLine
 10
145.8368835449219
 20
-94.39527893066406
 30
0.0
 11
145.7329864501953
 21
-94.2649917602539
 31
0.0
1001
DBPROPERTIES
1002
{
1000
PbThick
1002
}
  0
LINE
  5
18F
330
1F
100
AcDbEntity
  8
THICK
100
AcDbLine
 10
145.7329864501953
 20
-94.2649917602539
 30
0.0
 11
145.6231536865234
 21
-94.12727355957031
 31
0.0
1001
DBPROPERTIES
1002
{
1000
PbThick
1002
}
  0
LINE
  5
190
330
1F
100
AcDbEntity
  8
THICK
100
AcDbLine
 10
145.6231536865234
 20
-94.12727355957031
 30
0.0
 11
145.506103515625
 21
-93.9804916381836
 31
0.0
1001
DBPROPERTIES
1002
{
1000
PbThick
1002
}
  0
LINE
  5
191
330
1F
100
AcDbEntity
  8
THICK
100
AcDbLine
 10
145.506103515625
 20
-93.9804916381836
 30
0.0
 11
145.3869476318359
 21
-93.83108520507812
 31
0.0
1001
DBPROPERTIES
1002
{
1000
PbThick
1002
}
  0
LINE
  5
192
330
1F
100
AcDbEntity
  8
THICK
100
AcDbLine
 10
145.3869476318359
 20
-93.83108520507812
 30
0.0
 11
145.2713775634766
 21
-93.6861572265625
 31
0.0
1001
DBPROPERTIES
1002
{
1000
PbThick
1002
}
  0
LINE
  5
193
330
1F
100
AcDbEntity
  8
THICK
100
AcDbLine
 10
145.2713775634766
 20
-93.6861572265625
 30
0.0
 11
145.1566772460938
 21
-93.54232788085938
 31
0.0
1001
DBPROPERTIES
1002
{
1000
PbThick
1002
}
  0
LINE
  5
194
330
1F
100
AcDbEntity
  8
THICK
100
AcDbLine
 10
145.1566772460938
 20
-93.54232788085938
 30
0.0
 11
145.0377044677734
 21
-93.39315032958984
 31
0.0
1001
DBPROPERTIES
1002
{
1000
PbThick
1002
}
  0
LINE
  5
195
330
1F
100
AcDbEntity
  8
THICK
100
AcDbLine
 10
145.0377044677734
 20
-93.39315032958984
 30
0.0
 11
144.9152221679688
 21
-93.23956298828125
 31
0.0
1001
DBPROPERTIES
1002
{
1000
PbThick
1002
}
  0
LINE
  5
196
330
1F
100
AcDbEntity
  8
THICK
100
AcDbLine
 10
144.9152221679688
 20
-93.23956298828125
 30
0.0
 11
144.7899932861328
 21
-93.08252716064453
 31
0.0
1001
DBPROPERTIES
1002
{
1000
PbThick
1002
}
  0
LINE
  5
197
330
1F
100
AcDbEntity
  8
THICK
100
AcDbLine
 10
144.7899932861328
 20
-93.08252716064453
 30
0.0
 11
144.6627655029297
 21
-92.92298126220703
 31
0.0
1001
DBPROPERTIES
1002
{
1000
PbThick
1002
}
  0
LINE
  5
198
330
1F
100
AcDbEntity
  8
THICK
100
AcDbLine
 10
144.6627655029297
 20
-92.92298126220703
 30
0.0
 11
144.5342864990234
 21
-92.76187896728516
 31
0.0
1001
DBPROPERTIES
1002
{
1000
PbThick
1002
}
  0
LINE
  5
199
330
1F
100
AcDbEntity
  8
THICK
100
AcDbLine
 10
144.5342864990234
 20
-92.76187896728516
 30
0.0
 11
144.4053497314453
 21
-92.60018920898438
 31
0.0
1001
DBPROPERTIES
1002
{
1000
PbThick
1002
}
  0
LINE
  5
19A
330
1F
100
AcDbEntity
  8
THICK
100
AcDbLine
 10
144.4053497314453
 20
-92.60018920898438
 30
0.0
 11
144.2767486572266
 21
-92.43892669677734
 31
0.0
1001
DBPROPERTIES
1002
{
1000
PbThick
1002
}
  0
LINE
  5
19B
330
1F
100
AcDbEntity
  8
THICK
100
AcDbLine
 10
144.2767486572266
 20
-92.43892669677734
 30
0.0
 11
144.1492919921875
 21
-92.27910614013672
 31
0.0
1001
DBPROPERTIES
1002
{
1000
PbThick
1002
}
  0
LINE
  5
19C
330
1F
100
AcDbEntity
  8
THICK
100
AcDbLine
 10
144.1492919921875
 20
-92.27910614013672
 30
0.0
 11
144.0237884521484
 21
-92.1217269897461
 31
0.0
1001
DBPROPERTIES
1002
{
1000
PbThick
1002
}
  0
LINE
  5
19D
330
1F
100
AcDbEntity
  8
THICK
100
AcDbLine
 10
144.0237884521484
 20
-92.1217269897461
 30
0.0
 11
143.9010314941406
 21
-91.96780395507812
 31
0.0
1001
DBPROPERTIES
1002
{
1000
PbThick
1002
}
  0
LINE
  5
19E
330
1F
100
AcDbEntity
  8
THICK
100
AcDbLine
 10
143.9010314941406
 20
-91.96780395507812
 30
0.0
 11
143.7808532714844
 21
-91.81710052490234
 31
0.0
1001
DBPROPERTIES
1002
{
1000
PbThick
1002
}
  0
LINE
  5
19F
330
1F
100
AcDbEntity
  8
THICK
100
AcDbLine
 10
143.7808532714844
 20
-91.81710052490234
 30
0.0
 11
143.6580963134766
 21
-91.66316986083984
 31
0.0
1001
DBPROPERTIES
1002
{
1000
PbThick
1002
}
  0
LINE
  5
1A0
330
1F
100
AcDbEntity
  8
THICK
100
AcDbLine
 10
143.6580963134766
 20
-91.66316986083984
 30
0.0
 11
143.5325927734375
 21
-91.50579071044922
 31
0.0
1001
DBPROPERTIES
1002
{
1000
PbThick
1002
}
  0
LINE
  5
1A1
330
1F
100
AcDbEntity
  8
THICK
100
AcDbLine
 10
143.5325927734375
 20
-91.50579071044922
 30
0.0
 11
143.4051361083984
 21
-91.3459701538086
 31
0.0
1001
DBPROPERTIES
1002
{
1000
PbThick
1002
}
  0
LINE
  5
1A2
330
1F
100
AcDbEntity
  8
THICK
100
AcDbLine
 10
143.4051361083984
 20
-91.3459701538086
 30
0.0
 11
143.2765350341797
 21
-91.18470764160156
 31
0.0
1001
DBPROPERTIES
1002
{
1000
PbThick
1002
}
  0
LINE
  5
1A3
330
1F
100
AcDbEntity
  8
THICK
100
AcDbLine
 10
143.2765350341797
 20
-91.18470764160156
 30
0.0
 11
143.1475982666016
 21
-91.02302551269531
 31
0.0
1001
DBPROPERTIES
1002
{
1000
PbThick
1002
}
  0
LINE
  5
1A4
330
1F
100
AcDbEntity
  8
THICK
100
AcDbLine
 10
143.1475982666016
 20
-91.02302551269531
 30
0.0
 11
143.0191192626953
 21
-90.8619155883789
 31
0.0
1001
DBPROPERTIES
1002
{
1000
PbThick
1002
}
  0
LINE
  5
1A5
330
1F
100
AcDbEntity
  8
THICK
100
AcDbLine
 10
143.0191192626953
 20
-90.8619155883789
 30
0.0
 11
142.8918914794922
 21
-90.7023696899414
 31
0.0
1001
DBPROPERTIES
1002
{
1000
PbThick
1002
}
  0
LINE
  5
1A6
330
1F
100
AcDbEntity
  8
THICK
100
AcDbLine
 10
142.8918914794922
 20
-90.7023696899414
 30
0.0
 11
142.7666473388672
 21
-90.54533386230469
 31
0.0
1001
DBPROPERTIES
1002
{
1000
PbThick
1002
}
  0
LINE
  5
1A7
330
1F
100
AcDbEntity
  8
THICK
100
AcDbLine
 10
142.7666473388672
 20
-90.54533386230469
 30
0.0
 11
142.6441802978516
 21
-90.39175415039062
 31
0.0
1001
DBPROPERTIES
1002
{
1000
PbThick
1002
}
  0
LINE
  5
1A8
330
1F
100
AcDbEntity
  8
THICK
100
AcDbLine
 10
142.6441802978516
 20
-90.39175415039062
 30
0.0
 11
142.5252075195312
 21
-90.24256896972656
 31
0.0
1001
DBPROPERTIES
1002
{
1000
PbThick
1002
}
  0
LINE
  5
1A9
330
1F
100
AcDbEntity
  8
THICK
100
AcDbLine
 10
142.5252075195312
 20
-90.24256896972656
 30
0.0
 11
142.4105072021484
 21
-90.09873962402344
 31
0.0
1001
DBPROPERTIES
1002
{
1000
PbThick
1002
}
  0
LINE
  5
1AA
330
1F
100
AcDbEntity
  8
THICK
100
AcDbLine
 10
142.4105072021484
 20
-90.09873962402344
 30
0.0
 11
142.2949371337891
 21
-89.95381164550781
 31
0.0
1001
DBPROPERTIES
1002
{
1000
PbThick
1002
}
  0
LINE
  5
1AB
330
1F
100
AcDbEntity
  8
THICK
100
AcDbLine
 10
142.2949371337891
 20
-89.95381164550781
 30
0.0
 11
142.17578125
 21
-89.80440521240234
 31
0.0
1001
DBPROPERTIES
1002
{
1000
PbThick
1002
}
  0
LINE
  5
1AC
330
1F
100
AcDbEntity
  8
THICK
100
AcDbLine
 10
142.17578125
 20
-89.80440521240234
 30
0.0
 11
142.0587310791016
 21
-89.65762329101562
 31
0.0
1001
DBPROPERTIES
1002
{
1000
PbThick
1002
}
  0
LINE
  5
1AD
330
1F
100
AcDbEntity
  8
THICK
100
AcDbLine
 10
142.0587310791016
 20
-89.65762329101562
 30
0.0
 11
141.9488983154297
 21
-89.51990509033203
 31
0.0
1001
DBPROPERTIES
1002
{
1000
PbThick
1002
}
  0
LINE
  5
1AE
330
1F
100
AcDbEntity
  8
THICK
100
AcDbLine
 10
141.9488983154297
 20
-89.51990509033203
 30
0.0
 11
141.8450012207031
 21
-89.38961791992188
 31
0.0
1001
DBPROPERTIES
1002
{
1000
PbThick
1002
}
  0
LINE
  5
1AF
330
1F
100
AcDbEntity
  8
THICK
100
AcDbLine
 10
141.8450012207031
 20
-89.38961791992188
 30
0.0
 11
141.7402648925781
 21
-89.25828552246094
 31
0.0
1001
DBPROPERTIES
1002
{
1000
PbThick
1002
}
  0
LINE
  5
1B0
330
1F
100
AcDbEntity
  8
THICK
100
AcDbLine
 10
141.7402648925781
 20
-89.25828552246094
 30
0.0
 11
141.6385192871094
 21
-89.13069915771484
 31
0.0
1001
DBPROPERTIES
1002
{
1000
PbThick
1002
}
  0
LINE
  5
1B1
330
1F
100
AcDbEntity
  8
THICK
100
AcDbLine
 10
141.6385192871094
 20
-89.13069915771484
 30
0.0
 11
141.5434417724609
 21
-89.011474609375
 31
0.0
1001
DBPROPERTIES
1002
{
1000
PbThick
1002
}
  0
LINE
  5
1B2
330
1F
100
AcDbEntity
  8
THICK
100
AcDbLine
 10
141.5434417724609
 20
-89.011474609375
 30
0.0
 11
141.4578094482422
 21
-88.90409851074219
 31
0.0
1001
DBPROPERTIES
1002
{
1000
PbThick
1002
}
  0
LINE
  5
1B3
330
1F
100
AcDbEntity
  8
THICK
100
AcDbLine
 10
141.4578094482422
 20
-88.90409851074219
 30
0.0
 11
141.38134765625
 21
-88.8082046508789
 31
0.0
1001
DBPROPERTIES
1002
{
1000
PbThick
1002
}
  0
LINE
  5
1B4
330
1F
100
AcDbEntity
  8
THICK
100
AcDbLine
 10
141.38134765625
 20
-88.8082046508789
 30
0.0
 11
141.3096618652344
 21
-88.71831512451172
 31
0.0
1001
DBPROPERTIES
1002
{
1000
PbThick
1002
}
  0
LINE
  5
1B5
330
1F
100
AcDbEntity
  8
THICK
100
AcDbLine
 10
141.3096618652344
 20
-88.71831512451172
 30
0.0
 11
141.2483367919922
 21
-88.64143371582031
 31
0.0
1001
DBPROPERTIES
1002
{
1000
PbThick
1002
}
  0
LINE
  5
1B6
330
1F
100
AcDbEntity
  8
THICK
100
AcDbLine
 10
141.2483367919922
 20
-88.64143371582031
 30
0.0
 11
141.2009429931641
 21
-88.58200073242188
 31
0.0
1001
DBPROPERTIES
1002
{
1000
PbThick
1002
}
  0
LINE
  5
1B7
330
1F
100
AcDbEntity
  8
THICK
100
AcDbLine
 10
141.2009429931641
 20
-88.58200073242188
 30
0.0
 11
141.1654205322266
 21
-88.53744506835938
 31
0.0
1001
DBPROPERTIES
1002
{
1000
PbThick
1002
}
  0
LINE
  5
1B8
330
1F
100
AcDbEntity
  8
THICK
100
AcDbLine
 10
141.1654205322266
 20
-88.53744506835938
 30
0.0
 11
141.1429595947266
 21
-88.50929260253906
 31
0.0
1001
DBPROPERTIES
1002
{
1000
PbThick
1002
}
  0
LINE
  5
1B9
330
1F
100
AcDbEntity
  8
THICK
100
AcDbLine
 10
141.1429595947266
 20
-88.50929260253906
 30
0.0
 11
141.1357269287109
 21
-88.50020599365234
 31
0.0
1001
DBPROPERTIES
1002
{
1000
PbThick
1002
}
  0
LINE
  5
1BA
330
1F
100
AcDbEntity
  8
THICK
100
AcDbLine
 10
155.2238311767578
 20
-95.2846908569336
 30
0.0
 11
155.2122192382812
 21
-95.2846908569336
 31
0.0
1001
DBPROPERTIES
1002
{
1000
PbThick
1002
}
  0
LINE
  5
1BB
330
1F
100
AcDbEntity
  8
THICK
100
AcDbLine
 10
155.2122192382812
 20
-95.2846908569336
 30
0.0
 11
155.1762084960938
 21
-95.2846908569336
 31
0.0
1001
DBPROPERTIES
1002
{
1000
PbThick
1002
}
  0
LINE
  5
1BC
330
1F
100
AcDbEntity
  8
THICK
100
AcDbLine
 10
155.1762084960938
 20
-95.2846908569336
 30
0.0
 11
155.1192321777344
 21
-95.2846908569336
 31
0.0
1001
DBPROPERTIES
1002
{
1000
PbThick
1002
}
  0
LINE
  5
1BD
330
1F
100
AcDbEntity
  8
THICK
100
AcDbLine
 10
155.1192321777344
 20
-95.2846908569336
 30
0.0
 11
155.0431976318359
 21
-95.2846908569336
 31
0.0
1001
DBPROPERTIES
1002
{
1000
PbThick
1002
}
  0
LINE
  5
1BE
330
1F
100
AcDbEntity
  8
THICK
100
AcDbLine
 10
155.0431976318359
 20
-95.2846908569336
 30
0.0
 11
154.9448699951172
 21
-95.2846908569336
 31
0.0
1001
DBPROPERTIES
1002
{
1000
PbThick
1002
}
  0
LINE
  5
1BF
330
1F
100
AcDbEntity
  8
THICK
100
AcDbLine
 10
154.9448699951172
 20
-95.2846908569336
 30
0.0
 11
154.8298950195312
 21
-95.2846908569336
 31
0.0
1001
DBPROPERTIES
1002
{
1000
PbThick
1002
}
  0
LINE
  5
1C0
330
1F
100
AcDbEntity
  8
THICK
100
AcDbLine
 10
154.8298950195312
 20
-95.2846908569336
 30
0.0
 11
154.7072448730469
 21
-95.2846908569336
 31
0.0
1001
DBPROPERTIES
1002
{
1000
PbThick
1002
}
  0
LINE
  5
1C1
330
1F
100
AcDbEntity
  8
THICK
100
AcDbLine
 10
154.7072448730469
 20
-95.2846908569336
 30
0.0
 11
154.5699005126953
 21
-95.2846908569336
 31
0.0
1001
DBPROPERTIES
1002
{
1000
PbThick
1002
}
  0
LINE
  5
1C2
330
1F
100
AcDbEntity
  8
THICK
100
AcDbLine
 10
154.5699005126953
 20
-95.2846908569336
 30
0.0
 11
154.4174041748047
 21
-95.2846908569336
 31
0.0
1001
DBPROPERTIES
1002
{
1000
PbThick
1002
}
  0
LINE
  5
1C3
330
1F
100
AcDbEntity
  8
THICK
100
AcDbLine
 10
154.4174041748047
 20
-95.2846908569336
 30
0.0
 11
154.2542266845703
 21
-95.2846908569336
 31
0.0
1001
DBPROPERTIES
1002
{
1000
PbThick
1002
}
  0
LINE
  5
1C4
330
1F
100
AcDbEntity
  8
THICK
100
AcDbLine
 10
154.2542266845703
 20
-95.2846908569336
 30
0.0
 11
154.0862426757812
 21
-95.2846908569336
 31
0.0
1001
DBPROPERTIES
1002
{
1000
PbThick
1002
}
  0
LINE
  5
1C5
330
1F
100
AcDbEntity
  8
THICK
100
AcDbLine
 10
154.0862426757812
 20
-95.2846908569336
 30
0.0
 11
153.9196014404297
 21
-95.2846908569336
 31
0.0
1001
DBPROPERTIES
1002
{
1000
PbThick
1002
}
  0
LINE
  5
1C6
330
1F
100
AcDbEntity
  8
THICK
100
AcDbLine
 10
153.9196014404297
 20
-95.2846908569336
 30
0.0
 11
153.7434539794922
 21
-95.2846908569336
 31
0.0
1001
DBPROPERTIES
1002
{
1000
PbThick
1002
}
  0
LINE
  5
1C7
330
1F
100
AcDbEntity
  8
THICK
100
AcDbLine
 10
153.7434539794922
 20
-95.2846908569336
 30
0.0
 11
153.5557098388672
 21
-95.2846908569336
 31
0.0
1001
DBPROPERTIES
1002
{
1000
PbThick
1002
}
  0
LINE
  5
1C8
330
1F
100
AcDbEntity
  8
THICK
100
AcDbLine
 10
153.5557098388672
 20
-95.2846908569336
 30
0.0
 11
153.3646087646484
 21
-95.2846908569336
 31
0.0
1001
DBPROPERTIES
1002
{
1000
PbThick
1002
}
  0
LINE
  5
1C9
330
1F
100
AcDbEntity
  8
THICK
100
AcDbLine
 10
153.3646087646484
 20
-95.2846908569336
 30
0.0
 11
153.1792449951172
 21
-95.2846908569336
 31
0.0
1001
DBPROPERTIES
1002
{
1000
PbThick
1002
}
  0
LINE
  5
1CA
330
1F
100
AcDbEntity
  8
THICK
100
AcDbLine
 10
153.1792449951172
 20
-95.2846908569336
 30
0.0
 11
152.9952697753906
 21
-95.2846908569336
 31
0.0
1001
DBPROPERTIES
1002
{
1000
PbThick
1002
}
  0
LINE
  5
1CB
330
1F
100
AcDbEntity
  8
THICK
100
AcDbLine
 10
152.9952697753906
 20
-95.2846908569336
 30
0.0
 11
152.8044586181641
 21
-95.2846908569336
 31
0.0
1001
DBPROPERTIES
1002
{
1000
PbThick
1002
}
  0
LINE
  5
1CC
330
1F
100
AcDbEntity
  8
THICK
100
AcDbLine
 10
152.8044586181641
 20
-95.2846908569336
 30
0.0
 11
152.6080169677734
 21
-95.2846908569336
 31
0.0
1001
DBPROPERTIES
1002
{
1000
PbThick
1002
}
  0
LINE
  5
1CD
330
1F
100
AcDbEntity
  8
THICK
100
AcDbLine
 10
152.6080169677734
 20
-95.2846908569336
 30
0.0
 11
152.4071655273438
 21
-95.2846908569336
 31
0.0
1001
DBPROPERTIES
1002
{
1000
PbThick
1002
}
  0
LINE
  5
1CE
330
1F
100
AcDbEntity
  8
THICK
100
AcDbLine
 10
152.4071655273438
 20
-95.2846908569336
 30
0.0
 11
152.2030944824219
 21
-95.2846908569336
 31
0.0
1001
DBPROPERTIES
1002
{
1000
PbThick
1002
}
  0
LINE
  5
1CF
330
1F
100
AcDbEntity
  8
THICK
100
AcDbLine
 10
152.2030944824219
 20
-95.2846908569336
 30
0.0
 11
151.9970397949219
 21
-95.2846908569336
 31
0.0
1001
DBPROPERTIES
1002
{
1000
PbThick
1002
}
  0
LINE
  5
1D0
330
1F
100
AcDbEntity
  8
THICK
100
AcDbLine
 10
151.9970397949219
 20
-95.2846908569336
 30
0.0
 11
151.7902374267578
 21
-95.2846908569336
 31
0.0
1001
DBPROPERTIES
1002
{
1000
PbThick
1002
}
  0
LINE
  5
1D1
330
1F
100
AcDbEntity
  8
THICK
100
AcDbLine
 10
151.7902374267578
 20
-95.2846908569336
 30
0.0
 11
151.5839691162109
 21
-95.2846908569336
 31
0.0
1001
DBPROPERTIES
1002
{
1000
PbThick
1002
}
  0
LINE
  5
1D2
330
1F
100
AcDbEntity
  8
THICK
100
AcDbLine
 10
151.5839691162109
 20
-95.2846908569336
 30
0.0
 11
151.3795471191406
 21
-95.2846908569336
 31
0.0
1001
DBPROPERTIES
1002
{
1000
PbThick
1002
}
  0
LINE
  5
1D3
330
1F
100
AcDbEntity
  8
THICK
100
AcDbLine
 10
151.3795471191406
 20
-95.2846908569336
 30
0.0
 11
151.1782531738281
 21
-95.2846908569336
 31
0.0
1001
DBPROPERTIES
1002
{
1000
PbThick
1002
}
  0
LINE
  5
1D4
330
1F
100
AcDbEntity
  8
THICK
100
AcDbLine
 10
151.1782531738281
 20
-95.2846908569336
 30
0.0
 11
150.9813842773438
 21
-95.2846908569336
 31
0.0
1001
DBPROPERTIES
1002
{
1000
PbThick
1002
}
  0
LINE
  5
1D5
330
1F
100
AcDbEntity
  8
THICK
100
AcDbLine
 10
150.9813842773438
 20
-95.2846908569336
 30
0.0
 11
150.7886199951172
 21
-95.2846908569336
 31
0.0
1001
DBPROPERTIES
1002
{
1000
PbThick
1002
}
  0
LINE
  5
1D6
330
1F
100
AcDbEntity
  8
THICK
100
AcDbLine
 10
150.7886199951172
 20
-95.2846908569336
 30
0.0
 11
150.5917510986328
 21
-95.2846908569336
 31
0.0
1001
DBPROPERTIES
1002
{
1000
PbThick
1002
}
  0
LINE
  5
1D7
330
1F
100
AcDbEntity
  8
THICK
100
AcDbLine
 10
150.5917510986328
 20
-95.2846908569336
 30
0.0
 11
150.3904418945312
 21
-95.2846908569336
 31
0.0
1001
DBPROPERTIES
1002
{
1000
PbThick
1002
}
  0
LINE
  5
1D8
330
1F
100
AcDbEntity
  8
THICK
100
AcDbLine
 10
150.3904418945312
 20
-95.2846908569336
 30
0.0
 11
150.1860198974609
 21
-95.2846908569336
 31
0.0
1001
DBPROPERTIES
1002
{
1000
PbThick
1002
}
  0
LINE
  5
1D9
330
1F
100
AcDbEntity
  8
THICK
100
AcDbLine
 10
150.1860198974609
 20
-95.2846908569336
 30
0.0
 11
149.9797668457031
 21
-95.2846908569336
 31
0.0
1001
DBPROPERTIES
1002
{
1000
PbThick
1002
}
  0
LINE
  5
1DA
330
1F
100
AcDbEntity
  8
THICK
100
AcDbLine
 10
149.9797668457031
 20
-95.2846908569336
 30
0.0
 11
149.7729644775391
 21
-95.2846908569336
 31
0.0
1001
DBPROPERTIES
1002
{
1000
PbThick
1002
}
  0
LINE
  5
1DB
330
1F
100
AcDbEntity
  8
THICK
100
AcDbLine
 10
149.7729644775391
 20
-95.2846908569336
 30
0.0
 11
149.56689453125
 21
-95.2846908569336
 31
0.0
1001
DBPROPERTIES
1002
{
1000
PbThick
1002
}
  0
LINE
  5
1DC
330
1F
100
AcDbEntity
  8
THICK
100
AcDbLine
 10
149.56689453125
 20
-95.2846908569336
 30
0.0
 11
149.3628387451172
 21
-95.2846908569336
 31
0.0
1001
DBPROPERTIES
1002
{
1000
PbThick
1002
}
  0
LINE
  5
1DD
330
1F
100
AcDbEntity
  8
THICK
100
AcDbLine
 10
149.3628387451172
 20
-95.2846908569336
 30
0.0
 11
149.1619720458984
 21
-95.2846908569336
 31
0.0
1001
DBPROPERTIES
1002
{
1000
PbThick
1002
}
  0
LINE
  5
1DE
330
1F
100
AcDbEntity
  8
THICK
100
AcDbLine
 10
149.1619720458984
 20
-95.2846908569336
 30
0.0
 11
148.9655303955078
 21
-95.2846908569336
 31
0.0
1001
DBPROPERTIES
1002
{
1000
PbThick
1002
}
  0
LINE
  5
1DF
330
1F
100
AcDbEntity
  8
THICK
100
AcDbLine
 10
148.9655303955078
 20
-95.2846908569336
 30
0.0
 11
148.7747192382812
 21
-95.2846908569336
 31
0.0
1001
DBPROPERTIES
1002
{
1000
PbThick
1002
}
  0
LINE
  5
1E0
330
1F
100
AcDbEntity
  8
THICK
100
AcDbLine
 10
148.7747192382812
 20
-95.2846908569336
 30
0.0
 11
148.5907592773438
 21
-95.2846908569336
 31
0.0
1001
DBPROPERTIES
1002
{
1000
PbThick
1002
}
  0
LINE
  5
1E1
330
1F
100
AcDbEntity
  8
THICK
100
AcDbLine
 10
148.5907592773438
 20
-95.2846908569336
 30
0.0
 11
148.4053955078125
 21
-95.2846908569336
 31
0.0
1001
DBPROPERTIES
1002
{
1000
PbThick
1002
}
  0
LINE
  5
1E2
330
1F
100
AcDbEntity
  8
THICK
100
AcDbLine
 10
148.4053955078125
 20
-95.2846908569336
 30
0.0
 11
148.2142944335938
 21
-95.2846908569336
 31
0.0
1001
DBPROPERTIES
1002
{
1000
PbThick
1002
}
  0
LINE
  5
1E3
330
1F
100
AcDbEntity
  8
THICK
100
AcDbLine
 10
148.2142944335938
 20
-95.2846908569336
 30
0.0
 11
148.0265502929688
 21
-95.2846908569336
 31
0.0
1001
DBPROPERTIES
1002
{
1000
PbThick
1002
}
  0
LINE
  5
1E4
330
1F
100
AcDbEntity
  8
THICK
100
AcDbLine
 10
148.0265502929688
 20
-95.2846908569336
 30
0.0
 11
147.8504028320312
 21
-95.2846908569336
 31
0.0
1001
DBPROPERTIES
1002
{
1000
PbThick
1002
}
  0
LINE
  5
1E5
330
1F
100
AcDbEntity
  8
THICK
100
AcDbLine
 10
147.8504028320312
 20
-95.2846908569336
 30
0.0
 11
147.6837615966797
 21
-95.2846908569336
 31
0.0
1001
DBPROPERTIES
1002
{
1000
PbThick
1002
}
  0
LINE
  5
1E6
330
1F
100
AcDbEntity
  8
THICK
100
AcDbLine
 10
147.6837615966797
 20
-95.2846908569336
 30
0.0
 11
147.5157775878906
 21
-95.2846908569336
 31
0.0
1001
DBPROPERTIES
1002
{
1000
PbThick
1002
}
  0
LINE
  5
1E7
330
1F
100
AcDbEntity
  8
THICK
100
AcDbLine
 10
147.5157775878906
 20
-95.2846908569336
 30
0.0
 11
147.3525848388672
 21
-95.2846908569336
 31
0.0
1001
DBPROPERTIES
1002
{
1000
PbThick
1002
}
  0
LINE
  5
1E8
330
1F
100
AcDbEntity
  8
THICK
100
AcDbLine
 10
147.3525848388672
 20
-95.2846908569336
 30
0.0
 11
147.2001037597656
 21
-95.2846908569336
 31
0.0
1001
DBPROPERTIES
1002
{
1000
PbThick
1002
}
  0
LINE
  5
1E9
330
1F
100
AcDbEntity
  8
THICK
100
AcDbLine
 10
147.2001037597656
 20
-95.2846908569336
 30
0.0
 11
147.0627593994141
 21
-95.2846908569336
 31
0.0
1001
DBPROPERTIES
1002
{
1000
PbThick
1002
}
  0
LINE
  5
1EA
330
1F
100
AcDbEntity
  8
THICK
100
AcDbLine
 10
147.0627593994141
 20
-95.2846908569336
 30
0.0
 11
146.9401092529297
 21
-95.2846908569336
 31
0.0
1001
DBPROPERTIES
1002
{
1000
PbThick
1002
}
  0
LINE
  5
1EB
330
1F
100
AcDbEntity
  8
THICK
100
AcDbLine
 10
146.9401092529297
 20
-95.2846908569336
 30
0.0
 11
146.8251342773438
 21
-95.2846908569336
 31
0.0
1001
DBPROPERTIES
1002
{
1000
PbThick
1002
}
  0
LINE
  5
1EC
330
1F
100
AcDbEntity
  8
THICK
100
AcDbLine
 10
146.8251342773438
 20
-95.2846908569336
 30
0.0
 11
146.7267913818359
 21
-95.2846908569336
 31
0.0
1001
DBPROPERTIES
1002
{
1000
PbThick
1002
}
  0
LINE
  5
1ED
330
1F
100
AcDbEntity
  8
THICK
100
AcDbLine
 10
146.7267913818359
 20
-95.2846908569336
 30
0.0
 11
146.6507720947266
 21
-95.2846908569336
 31
0.0
1001
DBPROPERTIES
1002
{
1000
PbThick
1002
}
  0
LINE
  5
1EE
330
1F
100
AcDbEntity
  8
THICK
100
AcDbLine
 10
146.6507720947266
 20
-95.2846908569336
 30
0.0
 11
146.5937957763672
 21
-95.2846908569336
 31
0.0
1001
DBPROPERTIES
1002
{
1000
PbThick
1002
}
  0
LINE
  5
1EF
330
1F
100
AcDbEntity
  8
THICK
100
AcDbLine
 10
146.5937957763672
 20
-95.2846908569336
 30
0.0
 11
146.5577850341797
 21
-95.2846908569336
 31
0.0
1001
DBPROPERTIES
1002
{
1000
PbThick
1002
}
  0
LINE
  5
1F0
330
1F
100
AcDbEntity
  8
THICK
100
AcDbLine
 10
146.5577850341797
 20
-95.2846908569336
 30
0.0
 11
146.5461578369141
 21
-95.2846908569336
 31
0.0
1001
DBPROPERTIES
1002
{
1000
PbThick
1002
}
  0
LINE
  5
1F1
330
1F
100
AcDbEntity
  8
THICK
100
AcDbLine
 10
160.63427734375
 20
-88.50020599365234
 30
0.0
 11
160.6270294189453
 21
-88.50929260253906
 31
0.0
1001
DBPROPERTIES
1002
{
1000
PbThick
1002
}
  0
LINE
  5
1F2
330
1F
100
AcDbEntity
  8
THICK
100
AcDbLine
 10
160.6270294189453
 20
-88.50929260253906
 30
0.0
 11
160.6045837402344
 21
-88.53744506835938
 31
0.0
1001
DBPROPERTIES
1002
{
1000
PbThick
1002
}
  0
LINE
  5
1F3
330
1F
100
AcDbEntity
  8
THICK
100
AcDbLine
 10
160.6045837402344
 20
-88.53744506835938
 30
0.0
 11
160.5690612792969
 21
-88.58200073242188
 31
0.0
1001
DBPROPERTIES
1002
{
1000
PbThick
1002
}
  0
LINE
  5
1F4
330
1F
100
AcDbEntity
  8
THICK
100
AcDbLine
 10
160.5690612792969
 20
-88.58200073242188
 30
0.0
 11
160.5216522216797
 21
-88.64143371582031
 31
0.0
1001
DBPROPERTIES
1002
{
1000
PbThick
1002
}
  0
LINE
  5
1F5
330
1F
100
AcDbEntity
  8
THICK
100
AcDbLine
 10
160.5216522216797
 20
-88.64143371582031
 30
0.0
 11
160.4603424072266
 21
-88.71831512451172
 31
0.0
1001
DBPROPERTIES
1002
{
1000
PbThick
1002
}
  0
LINE
  5
1F6
330
1F
100
AcDbEntity
  8
THICK
100
AcDbLine
 10
160.4603424072266
 20
-88.71831512451172
 30
0.0
 11
160.3886566162109
 21
-88.8082046508789
 31
0.0
1001
DBPROPERTIES
1002
{
1000
PbThick
1002
}
  0
LINE
  5
1F7
330
1F
100
AcDbEntity
  8
THICK
100
AcDbLine
 10
160.3886566162109
 20
-88.8082046508789
 30
0.0
 11
160.3121948242188
 21
-88.90409851074219
 31
0.0
1001
DBPROPERTIES
1002
{
1000
PbThick
1002
}
  0
LINE
  5
1F8
330
1F
100
AcDbEntity
  8
THICK
100
AcDbLine
 10
160.3121948242188
 20
-88.90409851074219
 30
0.0
 11
160.2265625
 21
-89.011474609375
 31
0.0
1001
DBPROPERTIES
1002
{
1000
PbThick
1002
}
  0
LINE
  5
1F9
330
1F
100
AcDbEntity
  8
THICK
100
AcDbLine
 10
160.2265625
 20
-89.011474609375
 30
0.0
 11
160.1314849853516
 21
-89.13069915771484
 31
0.0
1001
DBPROPERTIES
1002
{
1000
PbThick
1002
}
  0
LINE
  5
1FA
330
1F
100
AcDbEntity
  8
THICK
100
AcDbLine
 10
160.1314849853516
 20
-89.13069915771484
 30
0.0
 11
160.0297393798828
 21
-89.25828552246094
 31
0.0
1001
DBPROPERTIES
1002
{
1000
PbThick
1002
}
  0
LINE
  5
1FB
330
1F
100
AcDbEntity
  8
THICK
100
AcDbLine
 10
160.0297393798828
 20
-89.25828552246094
 30
0.0
 11
159.9250030517578
 21
-89.38961791992188
 31
0.0
1001
DBPROPERTIES
1002
{
1000
PbThick
1002
}
  0
LINE
  5
1FC
330
1F
100
AcDbEntity
  8
THICK
100
AcDbLine
 10
159.9250030517578
 20
-89.38961791992188
 30
0.0
 11
159.8210906982422
 21
-89.51990509033203
 31
0.0
1001
DBPROPERTIES
1002
{
1000
PbThick
1002
}
  0
LINE
  5
1FD
330
1F
100
AcDbEntity
  8
THICK
100
AcDbLine
 10
159.8210906982422
 20
-89.51990509033203
 30
0.0
 11
159.7112731933594
 21
-89.65762329101562
 31
0.0
1001
DBPROPERTIES
1002
{
1000
PbThick
1002
}
  0
LINE
  5
1FE
330
1F
100
AcDbEntity
  8
THICK
100
AcDbLine
 10
159.7112731933594
 20
-89.65762329101562
 30
0.0
 11
159.5942230224609
 21
-89.80440521240234
 31
0.0
1001
DBPROPERTIES
1002
{
1000
PbThick
1002
}
  0
LINE
  5
1FF
330
1F
100
AcDbEntity
  8
THICK
100
AcDbLine
 10
159.5942230224609
 20
-89.80440521240234
 30
0.0
 11
159.4750671386719
 21
-89.95381164550781
 31
0.0
1001
DBPROPERTIES
1002
{
1000
PbThick
1002
}
  0
LINE
  5
200
330
1F
100
AcDbEntity
  8
THICK
100
AcDbLine
 10
159.4750671386719
 20
-89.95381164550781
 30
0.0
 11
159.3594970703125
 21
-90.09873962402344
 31
0.0
1001
DBPROPERTIES
1002
{
1000
PbThick
1002
}
  0
LINE
  5
201
330
1F
100
AcDbEntity
  8
THICK
100
AcDbLine
 10
159.3594970703125
 20
-90.09873962402344
 30
0.0
 11
159.2447967529297
 21
-90.24256896972656
 31
0.0
1001
DBPROPERTIES
1002
{
1000
PbThick
1002
}
  0
LINE
  5
202
330
1F
100
AcDbEntity
  8
THICK
100
AcDbLine
 10
159.2447967529297
 20
-90.24256896972656
 30
0.0
 11
159.1258239746094
 21
-90.39175415039062
 31
0.0
1001
DBPROPERTIES
1002
{
1000
PbThick
1002
}
  0
LINE
  5
203
330
1F
100
AcDbEntity
  8
THICK
100
AcDbLine
 10
159.1258239746094
 20
-90.39175415039062
 30
0.0
 11
159.0033416748047
 21
-90.54533386230469
 31
0.0
1001
DBPROPERTIES
1002
{
1000
PbThick
1002
}
  0
LINE
  5
204
330
1F
100
AcDbEntity
  8
THICK
100
AcDbLine
 10
159.0033416748047
 20
-90.54533386230469
 30
0.0
 11
158.8781127929688
 21
-90.7023696899414
 31
0.0
1001
DBPROPERTIES
1002
{
1000
PbThick
1002
}
  0
LINE
  5
205
330
1F
100
AcDbEntity
  8
THICK
100
AcDbLine
 10
158.8781127929688
 20
-90.7023696899414
 30
0.0
 11
158.7508850097656
 21
-90.8619155883789
 31
0.0
1001
DBPROPERTIES
1002
{
1000
PbThick
1002
}
  0
LINE
  5
206
330
1F
100
AcDbEntity
  8
THICK
100
AcDbLine
 10
158.7508850097656
 20
-90.8619155883789
 30
0.0
 11
158.6224060058594
 21
-91.02302551269531
 31
0.0
1001
DBPROPERTIES
1002
{
1000
PbThick
1002
}
  0
LINE
  5
207
330
1F
100
AcDbEntity
  8
THICK
100
AcDbLine
 10
158.6224060058594
 20
-91.02302551269531
 30
0.0
 11
158.4934692382812
 21
-91.18470764160156
 31
0.0
1001
DBPROPERTIES
1002
{
1000
PbThick
1002
}
  0
LINE
  5
208
330
1F
100
AcDbEntity
  8
THICK
100
AcDbLine
 10
158.4934692382812
 20
-91.18470764160156
 30
0.0
 11
158.3648681640625
 21
-91.3459701538086
 31
0.0
1001
DBPROPERTIES
1002
{
1000
PbThick
1002
}
  0
LINE
  5
209
330
1F
100
AcDbEntity
  8
THICK
100
AcDbLine
 10
158.3648681640625
 20
-91.3459701538086
 30
0.0
 11
158.2374114990234
 21
-91.50579071044922
 31
0.0
1001
DBPROPERTIES
1002
{
1000
PbThick
1002
}
  0
LINE
  5
20A
330
1F
100
AcDbEntity
  8
THICK
100
AcDbLine
 10
158.2374114990234
 20
-91.50579071044922
 30
0.0
 11
158.1119079589844
 21
-91.66316986083984
 31
0.0
1001
DBPROPERTIES
1002
{
1000
PbThick
1002
}
  0
LINE
  5
20B
330
1F
100
AcDbEntity
  8
THICK
100
AcDbLine
 10
158.1119079589844
 20
-91.66316986083984
 30
0.0
 11
157.9891510009766
 21
-91.81710052490234
 31
0.0
1001
DBPROPERTIES
1002
{
1000
PbThick
1002
}
  0
LINE
  5
20C
330
1F
100
AcDbEntity
  8
THICK
100
AcDbLine
 10
157.9891510009766
 20
-91.81710052490234
 30
0.0
 11
157.8689727783203
 21
-91.96780395507812
 31
0.0
1001
DBPROPERTIES
1002
{
1000
PbThick
1002
}
  0
LINE
  5
20D
330
1F
100
AcDbEntity
  8
THICK
100
AcDbLine
 10
157.8689727783203
 20
-91.96780395507812
 30
0.0
 11
157.7462158203125
 21
-92.1217269897461
 31
0.0
1001
DBPROPERTIES
1002
{
1000
PbThick
1002
}
  0
LINE
  5
20E
330
1F
100
AcDbEntity
  8
THICK
100
AcDbLine
 10
157.7462158203125
 20
-92.1217269897461
 30
0.0
 11
157.6207122802734
 21
-92.27910614013672
 31
0.0
1001
DBPROPERTIES
1002
{
1000
PbThick
1002
}
  0
LINE
  5
20F
330
1F
100
AcDbEntity
  8
THICK
100
AcDbLine
 10
157.6207122802734
 20
-92.27910614013672
 30
0.0
 11
157.4932556152344
 21
-92.43892669677734
 31
0.0
1001
DBPROPERTIES
1002
{
1000
PbThick
1002
}
  0
LINE
  5
210
330
1F
100
AcDbEntity
  8
THICK
100
AcDbLine
 10
157.4932556152344
 20
-92.43892669677734
 30
0.0
 11
157.3646545410156
 21
-92.60018920898438
 31
0.0
1001
DBPROPERTIES
1002
{
1000
PbThick
1002
}
  0
LINE
  5
211
330
1F
100
AcDbEntity
  8
THICK
100
AcDbLine
 10
157.3646545410156
 20
-92.60018920898438
 30
0.0
 11
157.2357177734375
 21
-92.76187896728516
 31
0.0
1001
DBPROPERTIES
1002
{
1000
PbThick
1002
}
  0
LINE
  5
212
330
1F
100
AcDbEntity
  8
THICK
100
AcDbLine
 10
157.2357177734375
 20
-92.76187896728516
 30
0.0
 11
157.1072387695312
 21
-92.92298126220703
 31
0.0
1001
DBPROPERTIES
1002
{
1000
PbThick
1002
}
  0
LINE
  5
213
330
1F
100
AcDbEntity
  8
THICK
100
AcDbLine
 10
157.1072387695312
 20
-92.92298126220703
 30
0.0
 11
156.9800109863281
 21
-93.08252716064453
 31
0.0
1001
DBPROPERTIES
1002
{
1000
PbThick
1002
}
  0
LINE
  5
214
330
1F
100
AcDbEntity
  8
THICK
100
AcDbLine
 10
156.9800109863281
 20
-93.08252716064453
 30
0.0
 11
156.8547668457031
 21
-93.23956298828125
 31
0.0
1001
DBPROPERTIES
1002
{
1000
PbThick
1002
}
  0
LINE
  5
215
330
1F
100
AcDbEntity
  8
THICK
100
AcDbLine
 10
156.8547668457031
 20
-93.23956298828125
 30
0.0
 11
156.7322845458984
 21
-93.39315032958984
 31
0.0
1001
DBPROPERTIES
1002
{
1000
PbThick
1002
}
  0
LINE
  5
216
330
1F
100
AcDbEntity
  8
THICK
100
AcDbLine
 10
156.7322845458984
 20
-93.39315032958984
 30
0.0
 11
156.6133270263672
 21
-93.54232788085938
 31
0.0
1001
DBPROPERTIES
1002
{
1000
PbThick
1002
}
  0
LINE
  5
217
330
1F
100
AcDbEntity
  8
THICK
100
AcDbLine
 10
156.6133270263672
 20
-93.54232788085938
 30
0.0
 11
156.4986267089844
 21
-93.6861572265625
 31
0.0
1001
DBPROPERTIES
1002
{
1000
PbThick
1002
}
  0
LINE
  5
218
330
1F
100
AcDbEntity
  8
THICK
100
AcDbLine
 10
156.4986267089844
 20
-93.6861572265625
 30
0.0
 11
156.3830413818359
 21
-93.83108520507812
 31
0.0
1001
DBPROPERTIES
1002
{
1000
PbThick
1002
}
  0
LINE
  5
219
330
1F
100
AcDbEntity
  8
THICK
100
AcDbLine
 10
156.3830413818359
 20
-93.83108520507812
 30
0.0
 11
156.2639007568359
 21
-93.9804916381836
 31
0.0
1001
DBPROPERTIES
1002
{
1000
PbThick
1002
}
  0
LINE
  5
21A
330
1F
100
AcDbEntity
  8
THICK
100
AcDbLine
 10
156.2639007568359
 20
-93.9804916381836
 30
0.0
 11
156.1468505859375
 21
-94.12727355957031
 31
0.0
1001
DBPROPERTIES
1002
{
1000
PbThick
1002
}
  0
LINE
  5
21B
330
1F
100
AcDbEntity
  8
THICK
100
AcDbLine
 10
156.1468505859375
 20
-94.12727355957031
 30
0.0
 11
156.0370178222656
 21
-94.2649917602539
 31
0.0
1001
DBPROPERTIES
1002
{
1000
PbThick
1002
}
  0
LINE
  5
21C
330
1F
100
AcDbEntity
  8
THICK
100
AcDbLine
 10
156.0370178222656
 20
-94.2649917602539
 30
0.0
 11
155.9331207275391
 21
-94.39527893066406
 31
0.0
1001
DBPROPERTIES
1002
{
1000
PbThick
1002
}
  0
LINE
  5
21D
330
1F
100
AcDbEntity
  8
THICK
100
AcDbLine
 10
155.9331207275391
 20
-94.39527893066406
 30
0.0
 11
155.8283843994141
 21
-94.526611328125
 31
0.0
1001
DBPROPERTIES
1002
{
1000
PbThick
1002
}
  0
LINE
  5
21E
330
1F
100
AcDbEntity
  8
THICK
100
AcDbLine
 10
155.8283843994141
 20
-94.526611328125
 30
0.0
 11
155.7266387939453
 21
-94.6541976928711
 31
0.0
1001
DBPROPERTIES
1002
{
1000
PbThick
1002
}
  0
LINE
  5
21F
330
1F
100
AcDbEntity
  8
THICK
100
AcDbLine
 10
155.7266387939453
 20
-94.6541976928711
 30
0.0
 11
155.6315612792969
 21
-94.77342224121094
 31
0.0
1001
DBPROPERTIES
1002
{
1000
PbThick
1002
}
  0
LINE
  5
220
330
1F
100
AcDbEntity
  8
THICK
100
AcDbLine
 10
155.6315612792969
 20
-94.77342224121094
 30
0.0
 11
155.5459289550781
 21
-94.88079833984375
 31
0.0
1001
DBPROPERTIES
1002
{
1000
PbThick
1002
}
  0
LINE
  5
221
330
1F
100
AcDbEntity
  8
THICK
100
AcDbLine
 10
155.5459289550781
 20
-94.88079833984375
 30
0.0
 11
155.4694519042969
 21
-94.97669219970703
 31
0.0
1001
DBPROPERTIES
1002
{
1000
PbThick
1002
}
  0
LINE
  5
222
330
1F
100
AcDbEntity
  8
THICK
100
AcDbLine
 10
155.4694519042969
 20
-94.97669219970703
 30
0.0
 11
155.3977661132812
 21
-95.06658172607422
 31
0.0
1001
DBPROPERTIES
1002
{
1000
PbThick
1002
}
  0
LINE
  5
223
330
1F
100
AcDbEntity
  8
THICK
100
AcDbLine
 10
155.3977661132812
 20
-95.06658172607422
 30
0.0
 11
155.3364562988281
 21
-95.14346313476562
 31
0.0
1001
DBPROPERTIES
1002
{
1000
PbThick
1002
}
  0
LINE
  5
224
330
1F
100
AcDbEntity
  8
THICK
100
AcDbLine
 10
155.3364562988281
 20
-95.14346313476562
 30
0.0
 11
155.2890625
 21
-95.2029037475586
 31
0.0
1001
DBPROPERTIES
1002
{
1000
PbThick
1002
}
  0
LINE
  5
225
330
1F
100
AcDbEntity
  8
THICK
100
AcDbLine
 10
155.2890625
 20
-95.2029037475586
 30
0.0
 11
155.2535400390625
 21
-95.24745178222656
 31
0.0
1001
DBPROPERTIES
1002
{
1000
PbThick
1002
}
  0
LINE
  5
226
330
1F
100
AcDbEntity
  8
THICK
100
AcDbLine
 10
155.2535400390625
 20
-95.24745178222656
 30
0.0
 11
155.2310791015625
 21
-95.27560424804688
 31
0.0
1001
DBPROPERTIES
1002
{
1000
PbThick
1002
}
  0
LINE
  5
227
330
1F
100
AcDbEntity
  8
THICK
100
AcDbLine
 10
155.2310791015625
 20
-95.27560424804688
 30
0.0
 11
155.2238311767578
 21
-95.2846908569336
 31
0.0
1001
DBPROPERTIES
1002
{
1000
PbThick
1002
}
  0
LINE
  5
228
330
1F
100
AcDbEntity
  8
HIDDEN
100
AcDbLine
 10
155.2238373911756
 20
-95.28468867902417
 30
0.0
 11
155.2238373911756
 21
-95.28468867902417
 31
0.0
1001
DBPROPERTIES
1002
{
1000
PbHidd
1002
}
  0
LINE
  5
229
330
1F
100
AcDbEntity
  8
HIDDEN
100
AcDbLine
 10
146.5461626088244
 20
-95.28468867902417
 30
0.0
 11
146.5461626088244
 21
-95.28468867902417
 31
0.0
1001
DBPROPERTIES
1002
{
1000
PbHidd
1002
}
  0
LINE
  5
22A
330
1F
100
AcDbEntity
  8
HIDDEN
100
AcDbLine
 10
-197.659
 20
95.32999999999998
 30
0.0
 11
-197.659
 21
95.32999999999998
 31
0.0
1001
DBPROPERTIES
1002
{
1000
PbHidd
1002
}
  0
LINE
  5
22B
330
1F
100
AcDbEntity
  8
HIDDEN
100
AcDbLine
 10
4.101000000000007
 20
95.33
 30
0.0
 11
4.100999999999972
 21
95.33
 31
0.0
1001
DBPROPERTIES
1002
{
1000
PbHidd
1002
}
  0
LINE
  5
22C
330
1F
100
AcDbEntity
  8
HIDDEN
100
AcDbLine
 10
-197.4700413229043
 20
95.32999999999998
 30
0.0
 11
4.100999999999947
 21
95.33
 31
0.0
1001
DBPROPERTIES
1002
{
1000
PbHidd
1002
}
  0
LINE
  5
22D
330
1F
100
AcDbEntity
  8
HIDDEN
100
AcDbLine
 10
-197.4700413229043
 20
95.33
 30
0.0
 11
-197.659
 21
95.33
 31
0.0
1001
DBPROPERTIES
1002
{
1000
PbHidd
1002
}
  0
LINE
  5
22E
330
1F
100
AcDbEntity
  8
HIDDEN
100
AcDbLine
 10
4.101000000000019
 20
-106.43
 30
0.0
 11
4.100999999999983
 21
-106.43
 31
0.0
1001
DBPROPERTIES
1002
{
1000
PbHidd
1002
}
  0
LINE
  5
22F
330
1F
100
AcDbEntity
  8
HIDDEN
100
AcDbLine
 10
4.100999999999972
 20
95.33
 30
0.0
 11
4.100999999999984
 21
-106.43
 31
0.0
1001
DBPROPERTIES
1002
{
1000
PbHidd
1002
}
  0
LINE
  5
230
330
1F
100
AcDbEntity
  8
HIDDEN
100
AcDbLine
 10
4.100999999999974
 20
84.45
 30
0.0
 11
4.100999999999973
 21
84.45
 31
0.0
1001
DBPROPERTIES
1002
{
1000
PbHidd
1002
}
  0
LINE
  5
231
330
1F
100
AcDbEntity
  8
HIDDEN
100
AcDbLine
 10
4.100999999999985
 20
-95.55
 30
0.0
 11
4.100999999999986
 21
-95.55
 31
0.0
1001
DBPROPERTIES
1002
{
1000
PbHidd
1002
}
  0
LINE
  5
232
330
1F
100
AcDbEntity
  8
HIDDEN
100
AcDbLine
 10
4.100999999999976
 20
84.45
 30
0.0
 11
4.100999999999975
 21
84.45
 31
0.0
1001
DBPROPERTIES
1002
{
1000
PbHidd
1002
}
  0
LINE
  5
233
330
1F
100
AcDbEntity
  8
HIDDEN
100
AcDbLine
 10
4.100999999999987
 20
-95.55
 30
0.0
 11
4.100999999999988
 21
-95.55
 31
0.0
1001
DBPROPERTIES
1002
{
1000
PbHidd
1002
}
  0
LINE
  5
234
330
1F
100
AcDbEntity
  8
HIDDEN
100
AcDbLine
 10
4.100999999999979
 20
84.45
 30
0.0
 11
4.100999999999977
 21
84.45
 31
0.0
1001
DBPROPERTIES
1002
{
1000
PbHidd
1002
}
  0
LINE
  5
235
330
1F
100
AcDbEntity
  8
HIDDEN
100
AcDbLine
 10
4.100999999999988
 20
-95.55
 30
0.0
 11
4.10099999999999
 21
-95.55
 31
0.0
1001
DBPROPERTIES
1002
{
1000
PbHidd
1002
}
  0
LINE
  5
236
330
1F
100
AcDbEntity
  8
HIDDEN
100
AcDbLine
 10
4.100999999999981
 20
84.45
 30
0.0
 11
4.10099999999998
 21
84.45
 31
0.0
1001
DBPROPERTIES
1002
{
1000
PbHidd
1002
}
  0
LINE
  5
237
330
1F
100
AcDbEntity
  8
HIDDEN
100
AcDbLine
 10
4.100999999999992
 20
-95.55
 30
0.0
 11
4.100999999999993
 21
-95.55
 31
0.0
1001
DBPROPERTIES
1002
{
1000
PbHidd
1002
}
  0
LINE
  5
238
330
1F
100
AcDbEntity
  8
HIDDEN
100
AcDbLine
 10
4.100999999999984
 20
84.45
 30
0.0
 11
4.100999999999982
 21
84.45
 31
0.0
1001
DBPROPERTIES
1002
{
1000
PbHidd
1002
}
  0
LINE
  5
239
330
1F
100
AcDbEntity
  8
HIDDEN
100
AcDbLine
 10
4.100999999999994
 20
-95.55
 30
0.0
 11
4.100999999999996
 21
-95.55
 31
0.0
1001
DBPROPERTIES
1002
{
1000
PbHidd
1002
}
  0
LINE
  5
23A
330
1F
100
AcDbEntity
  8
HIDDEN
100
AcDbLine
 10
4.100999999999987
 20
84.45
 30
0.0
 11
4.100999999999985
 21
84.45
 31
0.0
1001
DBPROPERTIES
1002
{
1000
PbHidd
1002
}
  0
LINE
  5
23B
330
1F
100
AcDbEntity
  8
HIDDEN
100
AcDbLine
 10
4.100999999999996
 20
-95.55
 30
0.0
 11
4.100999999999998
 21
-95.55
 31
0.0
1001
DBPROPERTIES
1002
{
1000
PbHidd
1002
}
  0
LINE
  5
23C
330
1F
100
AcDbEntity
  8
HIDDEN
100
AcDbLine
 10
4.100999999999988
 20
84.45
 30
0.0
 11
4.100999999999988
 21
84.45
 31
0.0
1001
DBPROPERTIES
1002
{
1000
PbHidd
1002
}
  0
LINE
  5
23D
330
1F
100
AcDbEntity
  8
HIDDEN
100
AcDbLine
 10
4.100999999999999
 20
-95.55
 30
0.0
 11
4.101
 21
-95.55
 31
0.0
1001
DBPROPERTIES
1002
{
1000
PbHidd
1002
}
  0
LINE
  5
23E
330
1F
100
AcDbEntity
  8
HIDDEN
100
AcDbLine
 10
4.100999999999991
 20
84.45
 30
0.0
 11
4.100999999999989
 21
84.45
 31
0.0
1001
DBPROPERTIES
1002
{
1000
PbHidd
1002
}
  0
LINE
  5
23F
330
1F
100
AcDbEntity
  8
HIDDEN
100
AcDbLine
 10
4.101000000000001
 20
-95.55
 30
0.0
 11
4.101000000000003
 21
-95.55
 31
0.0
1001
DBPROPERTIES
1002
{
1000
PbHidd
1002
}
  0
LINE
  5
240
330
1F
100
AcDbEntity
  8
HIDDEN
100
AcDbLine
 10
6.450000000000007
 20
98.45
 30
0.0
 11
6.44999999999997
 21
98.45
 31
0.0
1001
DBPROPERTIES
1002
{
1000
PbHidd
1002
}
  0
LINE
  5
241
330
1F
100
AcDbEntity
  8
HIDDEN
100
AcDbLine
 10
-201.55
 20
98.44999999999999
 30
0.0
 11
-201.55
 21
98.44999999999999
 31
0.0
1001
DBPROPERTIES
1002
{
1000
PbHidd
1002
}
  0
LINE
  5
242
330
1F
100
AcDbEntity
  8
HIDDEN
100
AcDbLine
 10
-201.3551972401075
 20
98.45
 30
0.0
 11
-201.55
 21
98.45
 31
0.0
1001
DBPROPERTIES
1002
{
1000
PbHidd
1002
}
  0
LINE
  5
243
330
1F
100
AcDbEntity
  8
HIDDEN
100
AcDbLine
 10
-201.3551972401075
 20
98.44999999999999
 30
0.0
 11
6.449999999999944
 21
98.45
 31
0.0
1001
DBPROPERTIES
1002
{
1000
PbHidd
1002
}
  0
LINE
  5
244
330
1F
100
AcDbEntity
  8
HIDDEN
100
AcDbLine
 10
-201.55
 20
-109.55
 30
0.0
 11
-201.55
 21
-109.55
 31
0.0
1001
DBPROPERTIES
1002
{
1000
PbHidd
1002
}
  0
LINE
  5
245
330
1F
100
AcDbEntity
  8
HIDDEN
100
AcDbLine
 10
-201.55
 20
98.44999999999999
 30
0.0
 11
-201.55
 21
-109.55
 31
0.0
1001
DBPROPERTIES
1002
{
1000
PbHidd
1002
}
  0
LINE
  5
246
330
1F
100
AcDbEntity
  8
HIDDEN
100
AcDbLine
 10
6.44999999999999
 20
84.45
 30
0.0
 11
6.449999999999991
 21
84.45
 31
0.0
1001
DBPROPERTIES
1002
{
1000
PbHidd
1002
}
  0
LINE
  5
247
330
1F
100
AcDbEntity
  8
HIDDEN
100
AcDbLine
 10
6.450000000000003
 20
-95.55
 30
0.0
 11
6.450000000000002
 21
-95.55
 31
0.0
1001
DBPROPERTIES
1002
{
1000
PbHidd
1002
}
  0
LINE
  5
248
330
1F
100
AcDbEntity
  8
HIDDEN
100
AcDbLine
 10
6.449999999999988
 20
84.45
 30
0.0
 11
6.449999999999989
 21
84.45
 31
0.0
1001
DBPROPERTIES
1002
{
1000
PbHidd
1002
}
  0
LINE
  5
249
330
1F
100
AcDbEntity
  8
HIDDEN
100
AcDbLine
 10
6.45
 20
-95.55
 30
0.0
 11
6.449999999999999
 21
-95.55
 31
0.0
1001
DBPROPERTIES
1002
{
1000
PbHidd
1002
}
  0
LINE
  5
24A
330
1F
100
AcDbEntity
  8
HIDDEN
100
AcDbLine
 10
6.449999999999985
 20
84.45
 30
0.0
 11
6.449999999999987
 21
84.45
 31
0.0
1001
DBPROPERTIES
1002
{
1000
PbHidd
1002
}
  0
LINE
  5
24B
330
1F
100
AcDbEntity
  8
HIDDEN
100
AcDbLine
 10
6.449999999999998
 20
-95.55
 30
0.0
 11
6.449999999999997
 21
-95.55
 31
0.0
1001
DBPROPERTIES
1002
{
1000
PbHidd
1002
}
  0
LINE
  5
24C
330
1F
100
AcDbEntity
  8
HIDDEN
100
AcDbLine
 10
6.449999999999982
 20
84.45
 30
0.0
 11
6.449999999999983
 21
84.45
 31
0.0
1001
DBPROPERTIES
1002
{
1000
PbHidd
1002
}
  0
LINE
  5
24D
330
1F
100
AcDbEntity
  8
HIDDEN
100
AcDbLine
 10
6.449999999999995
 20
-95.55
 30
0.0
 11
6.449999999999994
 21
-95.55
 31
0.0
1001
DBPROPERTIES
1002
{
1000
PbHidd
1002
}
  0
LINE
  5
24E
330
1F
100
AcDbEntity
  8
HIDDEN
100
AcDbLine
 10
6.44999999999998
 20
84.45
 30
0.0
 11
6.449999999999982
 21
84.45
 31
0.0
1001
DBPROPERTIES
1002
{
1000
PbHidd
1002
}
  0
LINE
  5
24F
330
1F
100
AcDbEntity
  8
HIDDEN
100
AcDbLine
 10
6.449999999999993
 20
-95.55
 30
0.0
 11
6.449999999999991
 21
-95.55
 31
0.0
1001
DBPROPERTIES
1002
{
1000
PbHidd
1002
}
  0
LINE
  5
250
330
1F
100
AcDbEntity
  8
HIDDEN
100
AcDbLine
 10
6.449999999999978
 20
84.45
 30
0.0
 11
6.44999999999998
 21
84.45
 31
0.0
1001
DBPROPERTIES
1002
{
1000
PbHidd
1002
}
  0
LINE
  5
251
330
1F
100
AcDbEntity
  8
HIDDEN
100
AcDbLine
 10
6.449999999999991
 20
-95.55
 30
0.0
 11
6.44999999999999
 21
-95.55
 31
0.0
1001
DBPROPERTIES
1002
{
1000
PbHidd
1002
}
  0
LINE
  5
252
330
1F
100
AcDbEntity
  8
HIDDEN
100
AcDbLine
 10
6.449999999999975
 20
84.45
 30
0.0
 11
6.449999999999976
 21
84.45
 31
0.0
1001
DBPROPERTIES
1002
{
1000
PbHidd
1002
}
  0
LINE
  5
253
330
1F
100
AcDbEntity
  8
HIDDEN
100
AcDbLine
 10
6.449999999999988
 20
-95.55
 30
0.0
 11
6.449999999999987
 21
-95.55
 31
0.0
1001
DBPROPERTIES
1002
{
1000
PbHidd
1002
}
  0
LINE
  5
254
330
1F
100
AcDbEntity
  8
HIDDEN
100
AcDbLine
 10
6.449999999999973
 20
84.45
 30
0.0
 11
4.100999999999972
 21
84.45
 31
0.0
1001
DBPROPERTIES
1002
{
1000
PbHidd
1002
}
  0
LINE
  5
255
330
1F
100
AcDbEntity
  8
HIDDEN
100
AcDbLine
 10
6.449999999999973
 20
84.45
 30
0.0
 11
6.449999999999974
 21
84.45
 31
0.0
1001
DBPROPERTIES
1002
{
1000
PbHidd
1002
}
  0
LINE
  5
256
330
1F
100
AcDbEntity
  8
HIDDEN
100
AcDbLine
 10
4.100999999999984
 20
-95.55
 30
0.0
 11
6.449999999999984
 21
-95.55
 31
0.0
1001
DBPROPERTIES
1002
{
1000
PbHidd
1002
}
  0
LINE
  5
257
330
1F
100
AcDbEntity
  8
HIDDEN
100
AcDbLine
 10
6.449999999999986
 20
-95.55
 30
0.0
 11
6.449999999999984
 21
-95.55
 31
0.0
1001
DBPROPERTIES
1002
{
1000
PbHidd
1002
}
  0
LINE
  5
258
330
1F
100
AcDbEntity
  8
HIDDEN
100
AcDbLine
 10
-197.4700413229043
 20
95.32999999999998
 30
0.0
 11
-197.4700413229043
 21
-106.43
 31
0.0
1001
DBPROPERTIES
1002
{
1000
PbHidd
1002
}
  0
LINE
  5
259
330
1F
100
AcDbEntity
  8
HIDDEN
100
AcDbLine
 10
-197.659
 20
-106.43
 30
0.0
 11
-197.4700413229043
 21
-106.43
 31
0.0
1001
DBPROPERTIES
1002
{
1000
PbHidd
1002
}
  0
LINE
  5
25A
330
1F
100
AcDbEntity
  8
HIDDEN
100
AcDbLine
 10
-197.659
 20
95.32999999999998
 30
0.0
 11
-197.659
 21
-106.43
 31
0.0
1001
DBPROPERTIES
1002
{
1000
PbHidd
1002
}
  0
LINE
  5
25B
330
1F
100
AcDbEntity
  8
HIDDEN
100
AcDbLine
 10
-197.659
 20
-106.43
 30
0.0
 11
-197.659
 21
-106.43
 31
0.0
1001
DBPROPERTIES
1002
{
1000
PbHidd
1002
}
  0
LINE
  5
25C
330
1F
100
AcDbEntity
  8
HIDDEN
100
AcDbLine
 10
4.101000000000009
 20
-106.43
 30
0.0
 11
-197.4700413229043
 21
-106.43
 31
0.0
1001
DBPROPERTIES
1002
{
1000
PbHidd
1002
}
  0
LINE
  5
25D
330
1F
100
AcDbEntity
  8
HIDDEN
100
AcDbLine
 10
-201.55
 20
-109.55
 30
0.0
 11
-201.3551972401075
 21
-109.55
 31
0.0
1001
DBPROPERTIES
1002
{
1000
PbHidd
1002
}
  0
LINE
  5
25E
330
1F
100
AcDbEntity
  8
HIDDEN
100
AcDbLine
 10
-201.3551972401075
 20
98.44999999999999
 30
0.0
 11
-201.3551972401075
 21
-109.55
 31
0.0
1001
DBPROPERTIES
1002
{
1000
PbHidd
1002
}
  0
LINE
  5
25F
330
1F
100
AcDbEntity
  8
HIDDEN
100
AcDbLine
 10
6.450000000000009
 20
-109.55
 30
0.0
 11
-201.3551972401075
 21
-109.55
 31
0.0
1001
DBPROPERTIES
1002
{
1000
PbHidd
1002
}
  0
LINE
  5
260
330
1F
100
AcDbEntity
  8
HIDDEN
100
AcDbLine
 10
6.44999999999997
 20
98.45
 30
0.0
 11
6.449999999999982
 21
-109.55
 31
0.0
1001
DBPROPERTIES
1002
{
1000
PbHidd
1002
}
  0
LINE
  5
261
330
1F
100
AcDbEntity
  8
HIDDEN
100
AcDbLine
 10
6.450000000000021
 20
-109.55
 30
0.0
 11
6.449999999999983
 21
-109.55
 31
0.0
1001
DBPROPERTIES
1002
{
1000
PbHidd
1002
}
  0
LINE
  5
262
330
1F
100
AcDbEntity
  8
HIDDEN
100
AcDbLine
 10
199.3875000000001
 20
118.32
 30
0.0
 11
199.3875000000001
 21
-113.25
 31
0.0
1001
DBPROPERTIES
1002
{
1000
PbHidd
1002
}
  0
LINE
  5
263
330
1F
100
AcDbEntity
  8
HIDDEN
100
AcDbLine
 10
-199.3875
 20
118.32
 30
0.0
 11
-199.3875
 21
98.44999999999999
 31
0.0
1001
DBPROPERTIES
1002
{
1000
PbHidd
1002
}
  0
LINE
  5
264
330
1F
100
AcDbEntity
  8
HIDDEN
100
AcDbLine
 10
-199.3875
 20
-109.55
 30
0.0
 11
-199.3875
 21
-113.25
 31
0.0
1001
DBPROPERTIES
1002
{
1000
PbHidd
1002
}
  0
ARC
  5
265
330
1F
100
AcDbEntity
  8
THICK
100
AcDbCircle
 10
-97.55000000000005
 20
-5.550000000000003
 30
0.0
 40
100.0
100
AcDbArc
 50
270.0000187239684
 51
89.99998127603165
1001
DBPROPERTIES
1002
{
1000
PbThick
1002
}
  0
LINE
  5
266
330
1F
100
AcDbEntity
  8
HIDDEN
100
AcDbLine
 10
205.55
 20
-113.25
 30
0.0
 11
205.55
 21
-113.25
 31
0.0
1001
DBPROPERTIES
1002
{
1000
PbHidd
1002
}
  0
LINE
  5
267
330
1F
100
AcDbEntity
  8
THICK
100
AcDbLine
 10
-203.3752500000001
 20
118.32
 30
0.0
 11
-203.3752500000001
 21
115.855
 31
0.0
1001
DBPROPERTIES
1002
{
1000
PbThick
1002
}
  0
LINE
  5
268
330
1F
100
AcDbEntity
  8
THICK
100
AcDbLine
 10
-209.6610000000001
 20
118.32
 30
0.0
 11
-209.6610000000001
 21
115.855
 31
0.0
1001
DBPROPERTIES
1002
{
1000
PbThick
1002
}
  0
LINE
  5
269
330
1F
100
AcDbEntity
  8
HIDDEN
100
AcDbLine
 10
-209.6610000000001
 20
115.855
 30
0.0
 11
-209.661
 21
115.855
 31
0.0
1001
DBPROPERTIES
1002
{
1000
PbHidd
1002
}
  0
LINE
  5
26A
330
1F
100
AcDbEntity
  8
HIDDEN
100
AcDbLine
 10
-215.55
 20
115.855
 30
0.0
 11
-215.55
 21
115.855
 31
0.0
1001
DBPROPERTIES
1002
{
1000
PbHidd
1002
}
  0
LINE
  5
26B
330
1F
100
AcDbEntity
  8
THICK
100
AcDbLine
 10
-215.55
 20
115.855
 30
0.0
 11
-209.3875
 21
115.855
 31
0.0
1001
DBPROPERTIES
1002
{
1000
PbThick
1002
}
  0
LINE
  5
26C
330
1F
100
AcDbEntity
  8
THICK
100
AcDbLine
 10
209.3875
 20
115.855
 30
0.0
 11
-209.3875
 21
115.855
 31
0.0
1001
DBPROPERTIES
1002
{
1000
PbThick
1002
}
  0
LINE
  5
26D
330
1F
100
AcDbEntity
  8
THICK
100
AcDbLine
 10
215.55
 20
115.855
 30
0.0
 11
209.3875
 21
115.855
 31
0.0
1001
DBPROPERTIES
1002
{
1000
PbThick
1002
}
  0
LINE
  5
26E
330
1F
100
AcDbEntity
  8
HIDDEN
100
AcDbLine
 10
182.3399999999999
 20
-119.25
 30
0.0
 11
182.3399999999999
 21
-119.25
 31
0.0
1001
DBPROPERTIES
1002
{
1000
PbHidd
1002
}
  0
LINE
  5
26F
330
1F
100
AcDbEntity
  8
HIDDEN
100
AcDbLine
 10
182.3399999999999
 20
-123.25
 30
0.0
 11
182.3399999999999
 21
-123.25
 31
0.0
1001
DBPROPERTIES
1002
{
1000
PbHidd
1002
}
  0
LINE
  5
270
330
1F
100
AcDbEntity
  8
THICK
100
AcDbLine
 10
182.3399999999999
 20
-123.25
 30
0.0
 11
182.3399999999999
 21
-119.25
 31
0.0
1001
DBPROPERTIES
1002
{
1000
PbThick
1002
}
  0
LINE
  5
271
330
1F
100
AcDbEntity
  8
HIDDEN
100
AcDbLine
 10
204.3756
 20
-123.25
 30
0.0
 11
204.3756
 21
-123.25
 31
0.0
1001
DBPROPERTIES
1002
{
1000
PbHidd
1002
}
  0
LINE
  5
272
330
1F
100
AcDbEntity
  8
HIDDEN
100
AcDbLine
 10
204.3756
 20
-119.25
 30
0.0
 11
204.3756
 21
-119.25
 31
0.0
1001
DBPROPERTIES
1002
{
1000
PbHidd
1002
}
  0
LINE
  5
273
330
1F
100
AcDbEntity
  8
HIDDEN
100
AcDbLine
 10
193.2409908007365
 20
-123.25
 30
0.0
 11
193.2409908007365
 21
-119.25
 31
0.0
1001
DBPROPERTIES
1002
{
1000
PbHidd
1002
}
  0
LINE
  5
274
330
1F
100
AcDbEntity
  8
HIDDEN
100
AcDbLine
 10
190.3384
 20
-123.25
 30
0.0
 11
190.3384
 21
-123.25
 31
0.0
1001
DBPROPERTIES
1002
{
1000
PbHidd
1002
}
  0
LINE
  5
275
330
1F
100
AcDbEntity
  8
HIDDEN
100
AcDbLine
 10
190.3384
 20
-119.25
 30
0.0
 11
190.3384
 21
-119.25
 31
0.0
1001
DBPROPERTIES
1002
{
1000
PbHidd
1002
}
  0
LINE
  5
276
330
1F
100
AcDbEntity
  8
HIDDEN
100
AcDbLine
 10
185.8823999999999
 20
-119.25
 30
0.0
 11
185.8823999999999
 21
-123.25
 31
0.0
1001
DBPROPERTIES
1002
{
1000
PbHidd
1002
}
  0
LINE
  5
277
330
1F
100
AcDbEntity
  8
HIDDEN
100
AcDbLine
 10
185.8823999999999
 20
-123.25
 30
0.0
 11
185.8823999999999
 21
-123.25
 31
0.0
1001
DBPROPERTIES
1002
{
1000
PbHidd
1002
}
  0
LINE
  5
278
330
1F
100
AcDbEntity
  8
HIDDEN
100
AcDbLine
 10
185.8823999999999
 20
-119.25
 30
0.0
 11
185.8823999999999
 21
-119.25
 31
0.0
1001
DBPROPERTIES
1002
{
1000
PbHidd
1002
}
  0
LINE
  5
279
330
1F
100
AcDbEntity
  8
HIDDEN
100
AcDbLine
 10
204.3756
 20
-119.25
 30
0.0
 11
204.3756
 21
-123.25
 31
0.0
1001
DBPROPERTIES
1002
{
1000
PbHidd
1002
}
  0
LINE
  5
27A
330
1F
100
AcDbEntity
  8
HIDDEN
100
AcDbLine
 10
204.3756
 20
-123.25
 30
0.0
 11
204.3756
 21
-123.25
 31
0.0
1001
DBPROPERTIES
1002
{
1000
PbHidd
1002
}
  0
LINE
  5
27B
330
1F
100
AcDbEntity
  8
HIDDEN
100
AcDbLine
 10
204.3756
 20
-119.25
 30
0.0
 11
204.3756
 21
-119.25
 31
0.0
1001
DBPROPERTIES
1002
{
1000
PbHidd
1002
}
  0
LINE
  5
27C
330
1F
100
AcDbEntity
  8
HIDDEN
100
AcDbLine
 10
208.8316
 20
-123.25
 30
0.0
 11
208.8316
 21
-119.25
 31
0.0
1001
DBPROPERTIES
1002
{
1000
PbHidd
1002
}
  0
LINE
  5
27D
330
1F
100
AcDbEntity
  8
HIDDEN
100
AcDbLine
 10
208.8316
 20
-123.25
 30
0.0
 11
208.8316
 21
-123.25
 31
0.0
1001
DBPROPERTIES
1002
{
1000
PbHidd
1002
}
  0
LINE
  5
27E
330
1F
100
AcDbEntity
  8
HIDDEN
100
AcDbLine
 10
208.8316
 20
-119.25
 30
0.0
 11
208.8316
 21
-119.25
 31
0.0
1001
DBPROPERTIES
1002
{
1000
PbHidd
1002
}
  0
LINE
  5
27F
330
1F
100
AcDbEntity
  8
HIDDEN
100
AcDbLine
 10
190.3384
 20
-123.25
 30
0.0
 11
190.3384
 21
-119.25
 31
0.0
1001
DBPROPERTIES
1002
{
1000
PbHidd
1002
}
  0
LINE
  5
280
330
1F
100
AcDbEntity
  8
HIDDEN
100
AcDbLine
 10
190.3384
 20
-123.25
 30
0.0
 11
190.3384
 21
-123.25
 31
0.0
1001
DBPROPERTIES
1002
{
1000
PbHidd
1002
}
  0
LINE
  5
281
330
1F
100
AcDbEntity
  8
HIDDEN
100
AcDbLine
 10
190.3384
 20
-119.25
 30
0.0
 11
190.3384
 21
-119.25
 31
0.0
1001
DBPROPERTIES
1002
{
1000
PbHidd
1002
}
  0
LINE
  5
282
330
1F
100
AcDbEntity
  8
HIDDEN
100
AcDbLine
 10
193.2409908007365
 20
-119.25
 30
0.0
 11
193.2409908007365
 21
-123.25
 31
0.0
1001
DBPROPERTIES
1002
{
1000
PbHidd
1002
}
  0
LINE
  5
283
330
1F
100
AcDbEntity
  8
THICK
100
AcDbLine
 10
208.908
 20
-123.25
 30
0.0
 11
208.908
 21
-119.25
 31
0.0
1001
DBPROPERTIES
1002
{
1000
PbThick
1002
}
  0
LINE
  5
284
330
1F
100
AcDbEntity
  8
THICK
100
AcDbLine
 10
211.86
 20
-123.25
 30
0.0
 11
208.908
 21
-123.25
 31
0.0
1001
DBPROPERTIES
1002
{
1000
PbThick
1002
}
  0
LINE
  5
285
330
1F
100
AcDbEntity
  8
THICK
100
AcDbLine
 10
211.86
 20
-123.25
 30
0.0
 11
211.86
 21
-119.25
 31
0.0
1001
DBPROPERTIES
1002
{
1000
PbThick
1002
}
  0
LINE
  5
286
330
1F
100
AcDbEntity
  8
THICK
100
AcDbLine
 10
211.86
 20
-119.25
 30
0.0
 11
208.908
 21
-119.25
 31
0.0
1001
DBPROPERTIES
1002
{
1000
PbThick
1002
}
  0
LINE
  5
287
330
1F
100
AcDbEntity
  8
THICK
100
AcDbLine
 10
185.2919999999999
 20
-123.25
 30
0.0
 11
208.908
 21
-123.25
 31
0.0
1001
DBPROPERTIES
1002
{
1000
PbThick
1002
}
  0
LINE
  5
288
330
1F
100
AcDbEntity
  8
THICK
100
AcDbLine
 10
208.908
 20
-119.25
 30
0.0
 11
185.2919999999999
 21
-119.25
 31
0.0
1001
DBPROPERTIES
1002
{
1000
PbThick
1002
}
  0
LINE
  5
289
330
1F
100
AcDbEntity
  8
THICK
100
AcDbLine
 10
185.2919999999999
 20
-123.25
 30
0.0
 11
185.2919999999999
 21
-119.25
 31
0.0
1001
DBPROPERTIES
1002
{
1000
PbThick
1002
}
  0
LINE
  5
28A
330
1F
100
AcDbEntity
  8
THICK
100
AcDbLine
 10
182.3399999999999
 20
-119.25
 30
0.0
 11
185.2919999999999
 21
-119.25
 31
0.0
1001
DBPROPERTIES
1002
{
1000
PbThick
1002
}
  0
LINE
  5
28B
330
1F
100
AcDbEntity
  8
THICK
100
AcDbLine
 10
185.2919999999999
 20
-123.25
 30
0.0
 11
182.3399999999999
 21
-123.25
 31
0.0
1001
DBPROPERTIES
1002
{
1000
PbThick
1002
}
  0
LINE
  5
28C
330
1F
100
AcDbEntity
  8
HIDDEN
100
AcDbLine
 10
211.86
 20
-119.25
 30
0.0
 11
211.86
 21
-119.25
 31
0.0
1001
DBPROPERTIES
1002
{
1000
PbHidd
1002
}
  0
LINE
  5
28D
330
1F
100
AcDbEntity
  8
HIDDEN
100
AcDbLine
 10
211.86
 20
-123.25
 30
0.0
 11
211.86
 21
-123.25
 31
0.0
1001
DBPROPERTIES
1002
{
1000
PbHidd
1002
}
  0
LINE
  5
28E
330
1F
100
AcDbEntity
  8
THICK
100
AcDbLine
 10
209.3875
 20
115.855
 30
0.0
 11
209.3875
 21
-119.25
 31
0.0
1001
DBPROPERTIES
1002
{
1000
PbThick
1002
}
  0
LINE
  5
28F
330
1F
100
AcDbEntity
  8
THICK
100
AcDbLine
 10
215.55
 20
-123.25
 30
0.0
 11
211.86
 21
-123.25
 31
0.0
1001
DBPROPERTIES
1002
{
1000
PbThick
1002
}
  0
LINE
  5
290
330
1F
100
AcDbEntity
  8
HIDDEN
100
AcDbLine
 10
-211.8600000000001
 20
-119.25
 30
0.0
 11
-211.8600000000001
 21
-119.25
 31
0.0
1001
DBPROPERTIES
1002
{
1000
PbHidd
1002
}
  0
LINE
  5
291
330
1F
100
AcDbEntity
  8
HIDDEN
100
AcDbLine
 10
-211.8600000000001
 20
-123.25
 30
0.0
 11
-211.8600000000001
 21
-123.25
 31
0.0
1001
DBPROPERTIES
1002
{
1000
PbHidd
1002
}
  0
LINE
  5
292
330
1F
100
AcDbEntity
  8
THICK
100
AcDbLine
 10
-211.8600000000001
 20
-123.25
 30
0.0
 11
-211.8600000000001
 21
-119.25
 31
0.0
1001
DBPROPERTIES
1002
{
1000
PbThick
1002
}
  0
LINE
  5
293
330
1F
100
AcDbEntity
  8
HIDDEN
100
AcDbLine
 10
-189.8244
 20
-123.25
 30
0.0
 11
-189.8244
 21
-123.25
 31
0.0
1001
DBPROPERTIES
1002
{
1000
PbHidd
1002
}
  0
LINE
  5
294
330
1F
100
AcDbEntity
  8
HIDDEN
100
AcDbLine
 10
-189.8244
 20
-119.25
 30
0.0
 11
-189.8244
 21
-119.25
 31
0.0
1001
DBPROPERTIES
1002
{
1000
PbHidd
1002
}
  0
LINE
  5
295
330
1F
100
AcDbEntity
  8
HIDDEN
100
AcDbLine
 10
-200.9590091992635
 20
-123.25
 30
0.0
 11
-200.9590091992635
 21
-119.25
 31
0.0
1001
DBPROPERTIES
1002
{
1000
PbHidd
1002
}
  0
LINE
  5
296
330
1F
100
AcDbEntity
  8
HIDDEN
100
AcDbLine
 10
-203.8616
 20
-123.25
 30
0.0
 11
-203.8616
 21
-123.25
 31
0.0
1001
DBPROPERTIES
1002
{
1000
PbHidd
1002
}
  0
LINE
  5
297
330
1F
100
AcDbEntity
  8
HIDDEN
100
AcDbLine
 10
-203.8616
 20
-119.25
 30
0.0
 11
-203.8616
 21
-119.25
 31
0.0
1001
DBPROPERTIES
1002
{
1000
PbHidd
1002
}
  0
LINE
  5
298
330
1F
100
AcDbEntity
  8
HIDDEN
100
AcDbLine
 10
-208.3176000000001
 20
-119.25
 30
0.0
 11
-208.3176000000001
 21
-123.25
 31
0.0
1001
DBPROPERTIES
1002
{
1000
PbHidd
1002
}
  0
LINE
  5
299
330
1F
100
AcDbEntity
  8
HIDDEN
100
AcDbLine
 10
-208.3176000000001
 20
-123.25
 30
0.0
 11
-208.3176000000001
 21
-123.25
 31
0.0
1001
DBPROPERTIES
1002
{
1000
PbHidd
1002
}
  0
LINE
  5
29A
330
1F
100
AcDbEntity
  8
HIDDEN
100
AcDbLine
 10
-208.3176000000001
 20
-119.25
 30
0.0
 11
-208.3176000000001
 21
-119.25
 31
0.0
1001
DBPROPERTIES
1002
{
1000
PbHidd
1002
}
  0
LINE
  5
29B
330
1F
100
AcDbEntity
  8
HIDDEN
100
AcDbLine
 10
-189.8244
 20
-119.25
 30
0.0
 11
-189.8244
 21
-123.25
 31
0.0
1001
DBPROPERTIES
1002
{
1000
PbHidd
1002
}
  0
LINE
  5
29C
330
1F
100
AcDbEntity
  8
HIDDEN
100
AcDbLine
 10
-189.8244
 20
-123.25
 30
0.0
 11
-189.8244
 21
-123.25
 31
0.0
1001
DBPROPERTIES
1002
{
1000
PbHidd
1002
}
  0
LINE
  5
29D
330
1F
100
AcDbEntity
  8
HIDDEN
100
AcDbLine
 10
-189.8244
 20
-119.25
 30
0.0
 11
-189.8244
 21
-119.25
 31
0.0
1001
DBPROPERTIES
1002
{
1000
PbHidd
1002
}
  0
LINE
  5
29E
330
1F
100
AcDbEntity
  8
HIDDEN
100
AcDbLine
 10
-185.3684
 20
-123.25
 30
0.0
 11
-185.3684
 21
-119.25
 31
0.0
1001
DBPROPERTIES
1002
{
1000
PbHidd
1002
}
  0
LINE
  5
29F
330
1F
100
AcDbEntity
  8
HIDDEN
100
AcDbLine
 10
-185.3684
 20
-123.25
 30
0.0
 11
-185.3684
 21
-123.25
 31
0.0
1001
DBPROPERTIES
1002
{
1000
PbHidd
1002
}
  0
LINE
  5
2A0
330
1F
100
AcDbEntity
  8
HIDDEN
100
AcDbLine
 10
-185.3684
 20
-119.25
 30
0.0
 11
-185.3684
 21
-119.25
 31
0.0
1001
DBPROPERTIES
1002
{
1000
PbHidd
1002
}
  0
LINE
  5
2A1
330
1F
100
AcDbEntity
  8
HIDDEN
100
AcDbLine
 10
-203.8616
 20
-123.25
 30
0.0
 11
-203.8616
 21
-119.25
 31
0.0
1001
DBPROPERTIES
1002
{
1000
PbHidd
1002
}
  0
LINE
  5
2A2
330
1F
100
AcDbEntity
  8
HIDDEN
100
AcDbLine
 10
-203.8616
 20
-123.25
 30
0.0
 11
-203.8616
 21
-123.25
 31
0.0
1001
DBPROPERTIES
1002
{
1000
PbHidd
1002
}
  0
LINE
  5
2A3
330
1F
100
AcDbEntity
  8
HIDDEN
100
AcDbLine
 10
-203.8616
 20
-119.25
 30
0.0
 11
-203.8616
 21
-119.25
 31
0.0
1001
DBPROPERTIES
1002
{
1000
PbHidd
1002
}
  0
LINE
  5
2A4
330
1F
100
AcDbEntity
  8
HIDDEN
100
AcDbLine
 10
-200.9590091992635
 20
-119.25
 30
0.0
 11
-200.9590091992635
 21
-123.25
 31
0.0
1001
DBPROPERTIES
1002
{
1000
PbHidd
1002
}
  0
LINE
  5
2A5
330
1F
100
AcDbEntity
  8
THICK
100
AcDbLine
 10
-185.292
 20
-123.25
 30
0.0
 11
-185.292
 21
-119.25
 31
0.0
1001
DBPROPERTIES
1002
{
1000
PbThick
1002
}
  0
LINE
  5
2A6
330
1F
100
AcDbEntity
  8
THICK
100
AcDbLine
 10
-182.34
 20
-123.25
 30
0.0
 11
-185.292
 21
-123.25
 31
0.0
1001
DBPROPERTIES
1002
{
1000
PbThick
1002
}
  0
LINE
  5
2A7
330
1F
100
AcDbEntity
  8
THICK
100
AcDbLine
 10
-182.34
 20
-123.25
 30
0.0
 11
-182.34
 21
-119.25
 31
0.0
1001
DBPROPERTIES
1002
{
1000
PbThick
1002
}
  0
LINE
  5
2A8
330
1F
100
AcDbEntity
  8
THICK
100
AcDbLine
 10
-182.34
 20
-119.25
 30
0.0
 11
-185.292
 21
-119.25
 31
0.0
1001
DBPROPERTIES
1002
{
1000
PbThick
1002
}
  0
LINE
  5
2A9
330
1F
100
AcDbEntity
  8
THICK
100
AcDbLine
 10
-208.9080000000001
 20
-123.25
 30
0.0
 11
-185.292
 21
-123.25
 31
0.0
1001
DBPROPERTIES
1002
{
1000
PbThick
1002
}
  0
LINE
  5
2AA
330
1F
100
AcDbEntity
  8
THICK
100
AcDbLine
 10
-185.292
 20
-119.25
 30
0.0
 11
-208.9080000000001
 21
-119.25
 31
0.0
1001
DBPROPERTIES
1002
{
1000
PbThick
1002
}
  0
LINE
  5
2AB
330
1F
100
AcDbEntity
  8
THICK
100
AcDbLine
 10
-208.9080000000001
 20
-123.25
 30
0.0
 11
-208.9080000000001
 21
-119.25
 31
0.0
1001
DBPROPERTIES
1002
{
1000
PbThick
1002
}
  0
LINE
  5
2AC
330
1F
100
AcDbEntity
  8
THICK
100
AcDbLine
 10
-211.8600000000001
 20
-119.25
 30
0.0
 11
-208.9080000000001
 21
-119.25
 31
0.0
1001
DBPROPERTIES
1002
{
1000
PbThick
1002
}
  0
LINE
  5
2AD
330
1F
100
AcDbEntity
  8
THICK
100
AcDbLine
 10
-208.9080000000001
 20
-123.25
 30
0.0
 11
-211.8600000000001
 21
-123.25
 31
0.0
1001
DBPROPERTIES
1002
{
1000
PbThick
1002
}
  0
LINE
  5
2AE
330
1F
100
AcDbEntity
  8
HIDDEN
100
AcDbLine
 10
-182.34
 20
-119.25
 30
0.0
 11
-182.34
 21
-119.25
 31
0.0
1001
DBPROPERTIES
1002
{
1000
PbHidd
1002
}
  0
LINE
  5
2AF
330
1F
100
AcDbEntity
  8
HIDDEN
100
AcDbLine
 10
-182.34
 20
-123.25
 30
0.0
 11
-182.34
 21
-123.25
 31
0.0
1001
DBPROPERTIES
1002
{
1000
PbHidd
1002
}
  0
LINE
  5
2B0
330
1F
100
AcDbEntity
  8
THICK
100
AcDbLine
 10
-209.3875
 20
115.855
 30
0.0
 11
-209.3875
 21
-119.25
 31
0.0
1001
DBPROPERTIES
1002
{
1000
PbThick
1002
}
  0
LINE
  5
2B1
330
1F
100
AcDbEntity
  8
THICK
100
AcDbLine
 10
-182.34
 20
-123.25
 30
0.0
 11
182.3399999999999
 21
-123.25
 31
0.0
1001
DBPROPERTIES
1002
{
1000
PbThick
1002
}
  0
LINE
  5
2B2
330
1F
100
AcDbEntity
  8
HIDDEN
100
AcDbLine
 10
-182.3399999999999
 20
-119.25
 30
0.0
 11
-182.3399999999999
 21
-119.25
 31
0.0
1001
DBPROPERTIES
1002
{
1000
PbHidd
1002
}
  0
LINE
  5
2B3
330
1F
100
AcDbEntity
  8
HIDDEN
100
AcDbLine
 10
-182.3399999999999
 20
-123.25
 30
0.0
 11
-182.3399999999999
 21
-123.25
 31
0.0
1001
DBPROPERTIES
1002
{
1000
PbHidd
1002
}
  0
LINE
  5
2B4
330
1F
100
AcDbEntity
  8
HIDDEN
100
AcDbLine
 10
-204.3756
 20
-123.25
 30
0.0
 11
-204.3756
 21
-119.25
 31
0.0
1001
DBPROPERTIES
1002
{
1000
PbHidd
1002
}
  0
LINE
  5
2B5
330
1F
100
AcDbEntity
  8
HIDDEN
100
AcDbLine
 10
-208.8316
 20
-119.25
 30
0.0
 11
-208.8316
 21
-123.25
 31
0.0
1001
DBPROPERTIES
1002
{
1000
PbHidd
1002
}
  0
LINE
  5
2B6
330
1F
100
AcDbEntity
  8
HIDDEN
100
AcDbLine
 10
-204.3756
 20
-123.25
 30
0.0
 11
-204.3756
 21
-123.25
 31
0.0
1001
DBPROPERTIES
1002
{
1000
PbHidd
1002
}
  0
LINE
  5
2B7
330
1F
100
AcDbEntity
  8
HIDDEN
100
AcDbLine
 10
-204.3756
 20
-119.25
 30
0.0
 11
-204.3756
 21
-119.25
 31
0.0
1001
DBPROPERTIES
1002
{
1000
PbHidd
1002
}
  0
LINE
  5
2B8
330
1F
100
AcDbEntity
  8
HIDDEN
100
AcDbLine
 10
-193.2409908007365
 20
-123.25
 30
0.0
 11
-193.2409908007365
 21
-119.25
 31
0.0
1001
DBPROPERTIES
1002
{
1000
PbHidd
1002
}
  0
LINE
  5
2B9
330
1F
100
AcDbEntity
  8
HIDDEN
100
AcDbLine
 10
-190.3384
 20
-119.25
 30
0.0
 11
-190.3384
 21
-123.25
 31
0.0
1001
DBPROPERTIES
1002
{
1000
PbHidd
1002
}
  0
LINE
  5
2BA
330
1F
100
AcDbEntity
  8
HIDDEN
100
AcDbLine
 10
-190.3384
 20
-123.25
 30
0.0
 11
-190.3384
 21
-123.25
 31
0.0
1001
DBPROPERTIES
1002
{
1000
PbHidd
1002
}
  0
LINE
  5
2BB
330
1F
100
AcDbEntity
  8
HIDDEN
100
AcDbLine
 10
-190.3384
 20
-119.25
 30
0.0
 11
-190.3384
 21
-119.25
 31
0.0
1001
DBPROPERTIES
1002
{
1000
PbHidd
1002
}
  0
LINE
  5
2BC
330
1F
100
AcDbEntity
  8
HIDDEN
100
AcDbLine
 10
-185.8824
 20
-123.25
 30
0.0
 11
-185.8824
 21
-119.25
 31
0.0
1001
DBPROPERTIES
1002
{
1000
PbHidd
1002
}
  0
LINE
  5
2BD
330
1F
100
AcDbEntity
  8
HIDDEN
100
AcDbLine
 10
-185.8824
 20
-123.25
 30
0.0
 11
-185.8824
 21
-123.25
 31
0.0
1001
DBPROPERTIES
1002
{
1000
PbHidd
1002
}
  0
LINE
  5
2BE
330
1F
100
AcDbEntity
  8
HIDDEN
100
AcDbLine
 10
-185.8824
 20
-119.25
 30
0.0
 11
-185.8824
 21
-119.25
 31
0.0
1001
DBPROPERTIES
1002
{
1000
PbHidd
1002
}
  0
LINE
  5
2BF
330
1F
100
AcDbEntity
  8
HIDDEN
100
AcDbLine
 10
-204.3756
 20
-123.25
 30
0.0
 11
-204.3756
 21
-123.25
 31
0.0
1001
DBPROPERTIES
1002
{
1000
PbHidd
1002
}
  0
LINE
  5
2C0
330
1F
100
AcDbEntity
  8
HIDDEN
100
AcDbLine
 10
-204.3756
 20
-119.25
 30
0.0
 11
-204.3756
 21
-119.25
 31
0.0
1001
DBPROPERTIES
1002
{
1000
PbHidd
1002
}
  0
LINE
  5
2C1
330
1F
100
AcDbEntity
  8
HIDDEN
100
AcDbLine
 10
-208.8316
 20
-123.25
 30
0.0
 11
-208.8316
 21
-123.25
 31
0.0
1001
DBPROPERTIES
1002
{
1000
PbHidd
1002
}
  0
LINE
  5
2C2
330
1F
100
AcDbEntity
  8
HIDDEN
100
AcDbLine
 10
-208.8316
 20
-119.25
 30
0.0
 11
-208.8316
 21
-119.25
 31
0.0
1001
DBPROPERTIES
1002
{
1000
PbHidd
1002
}
  0
LINE
  5
2C3
330
1F
100
AcDbEntity
  8
HIDDEN
100
AcDbLine
 10
-190.3384
 20
-123.25
 30
0.0
 11
-190.3384
 21
-123.25
 31
0.0
1001
DBPROPERTIES
1002
{
1000
PbHidd
1002
}
  0
LINE
  5
2C4
330
1F
100
AcDbEntity
  8
HIDDEN
100
AcDbLine
 10
-190.3384
 20
-119.25
 30
0.0
 11
-190.3384
 21
-119.25
 31
0.0
1001
DBPROPERTIES
1002
{
1000
PbHidd
1002
}
  0
LINE
  5
2C5
330
1F
100
AcDbEntity
  8
HIDDEN
100
AcDbLine
 10
-193.2409908007365
 20
-119.25
 30
0.0
 11
-193.2409908007365
 21
-123.25
 31
0.0
1001
DBPROPERTIES
1002
{
1000
PbHidd
1002
}
  0
LINE
  5
2C6
330
1F
100
AcDbEntity
  8
HIDDEN
100
AcDbLine
 10
-208.908
 20
-123.25
 30
0.0
 11
-208.908
 21
-119.25
 31
0.0
1001
DBPROPERTIES
1002
{
1000
PbHidd
1002
}
  0
LINE
  5
2C7
330
1F
100
AcDbEntity
  8
HIDDEN
100
AcDbLine
 10
-185.2919999999999
 20
-123.25
 30
0.0
 11
-185.2919999999999
 21
-119.25
 31
0.0
1001
DBPROPERTIES
1002
{
1000
PbHidd
1002
}
  0
LINE
  5
2C8
330
1F
100
AcDbEntity
  8
HIDDEN
100
AcDbLine
 10
-211.86
 20
-119.25
 30
0.0
 11
-211.86
 21
-119.25
 31
0.0
1001
DBPROPERTIES
1002
{
1000
PbHidd
1002
}
  0
LINE
  5
2C9
330
1F
100
AcDbEntity
  8
HIDDEN
100
AcDbLine
 10
-211.86
 20
-123.25
 30
0.0
 11
-211.86
 21
-123.25
 31
0.0
1001
DBPROPERTIES
1002
{
1000
PbHidd
1002
}
  0
LINE
  5
2CA
330
1F
100
AcDbEntity
  8
HIDDEN
100
AcDbLine
 10
-209.3875
 20
115.855
 30
0.0
 11
-209.3875
 21
-119.25
 31
0.0
1001
DBPROPERTIES
1002
{
1000
PbHidd
1002
}
  0
LINE
  5
2CB
330
1F
100
AcDbEntity
  8
HIDDEN
100
AcDbLine
 10
211.86
 20
-119.25
 30
0.0
 11
211.86
 21
-119.25
 31
0.0
1001
DBPROPERTIES
1002
{
1000
PbHidd
1002
}
  0
LINE
  5
2CC
330
1F
100
AcDbEntity
  8
HIDDEN
100
AcDbLine
 10
211.86
 20
-123.25
 30
0.0
 11
211.86
 21
-123.25
 31
0.0
1001
DBPROPERTIES
1002
{
1000
PbHidd
1002
}
  0
LINE
  5
2CD
330
1F
100
AcDbEntity
  8
HIDDEN
100
AcDbLine
 10
189.8244
 20
-123.25
 30
0.0
 11
189.8244
 21
-119.25
 31
0.0
1001
DBPROPERTIES
1002
{
1000
PbHidd
1002
}
  0
LINE
  5
2CE
330
1F
100
AcDbEntity
  8
HIDDEN
100
AcDbLine
 10
185.3684
 20
-119.25
 30
0.0
 11
185.3684
 21
-123.25
 31
0.0
1001
DBPROPERTIES
1002
{
1000
PbHidd
1002
}
  0
LINE
  5
2CF
330
1F
100
AcDbEntity
  8
HIDDEN
100
AcDbLine
 10
189.8244
 20
-123.25
 30
0.0
 11
189.8244
 21
-123.25
 31
0.0
1001
DBPROPERTIES
1002
{
1000
PbHidd
1002
}
  0
LINE
  5
2D0
330
1F
100
AcDbEntity
  8
HIDDEN
100
AcDbLine
 10
189.8244
 20
-119.25
 30
0.0
 11
189.8244
 21
-119.25
 31
0.0
1001
DBPROPERTIES
1002
{
1000
PbHidd
1002
}
  0
LINE
  5
2D1
330
1F
100
AcDbEntity
  8
HIDDEN
100
AcDbLine
 10
200.9590091992635
 20
-123.25
 30
0.0
 11
200.9590091992635
 21
-119.25
 31
0.0
1001
DBPROPERTIES
1002
{
1000
PbHidd
1002
}
  0
LINE
  5
2D2
330
1F
100
AcDbEntity
  8
HIDDEN
100
AcDbLine
 10
203.8616
 20
-119.25
 30
0.0
 11
203.8616
 21
-123.25
 31
0.0
1001
DBPROPERTIES
1002
{
1000
PbHidd
1002
}
  0
LINE
  5
2D3
330
1F
100
AcDbEntity
  8
HIDDEN
100
AcDbLine
 10
203.8616
 20
-123.25
 30
0.0
 11
203.8616
 21
-123.25
 31
0.0
1001
DBPROPERTIES
1002
{
1000
PbHidd
1002
}
  0
LINE
  5
2D4
330
1F
100
AcDbEntity
  8
HIDDEN
100
AcDbLine
 10
203.8616
 20
-119.25
 30
0.0
 11
203.8616
 21
-119.25
 31
0.0
1001
DBPROPERTIES
1002
{
1000
PbHidd
1002
}
  0
LINE
  5
2D5
330
1F
100
AcDbEntity
  8
HIDDEN
100
AcDbLine
 10
208.3176
 20
-123.25
 30
0.0
 11
208.3176
 21
-119.25
 31
0.0
1001
DBPROPERTIES
1002
{
1000
PbHidd
1002
}
  0
LINE
  5
2D6
330
1F
100
AcDbEntity
  8
HIDDEN
100
AcDbLine
 10
208.3176
 20
-123.25
 30
0.0
 11
208.3176
 21
-123.25
 31
0.0
1001
DBPROPERTIES
1002
{
1000
PbHidd
1002
}
  0
LINE
  5
2D7
330
1F
100
AcDbEntity
  8
HIDDEN
100
AcDbLine
 10
208.3176
 20
-119.25
 30
0.0
 11
208.3176
 21
-119.25
 31
0.0
1001
DBPROPERTIES
1002
{
1000
PbHidd
1002
}
  0
LINE
  5
2D8
330
1F
100
AcDbEntity
  8
HIDDEN
100
AcDbLine
 10
189.8244
 20
-123.25
 30
0.0
 11
189.8244
 21
-123.25
 31
0.0
1001
DBPROPERTIES
1002
{
1000
PbHidd
1002
}
  0
LINE
  5
2D9
330
1F
100
AcDbEntity
  8
HIDDEN
100
AcDbLine
 10
189.8244
 20
-119.25
 30
0.0
 11
189.8244
 21
-119.25
 31
0.0
1001
DBPROPERTIES
1002
{
1000
PbHidd
1002
}
  0
LINE
  5
2DA
330
1F
100
AcDbEntity
  8
HIDDEN
100
AcDbLine
 10
185.3684
 20
-123.25
 30
0.0
 11
185.3684
 21
-123.25
 31
0.0
1001
DBPROPERTIES
1002
{
1000
PbHidd
1002
}
  0
LINE
  5
2DB
330
1F
100
AcDbEntity
  8
HIDDEN
100
AcDbLine
 10
185.3684
 20
-119.25
 30
0.0
 11
185.3684
 21
-119.25
 31
0.0
1001
DBPROPERTIES
1002
{
1000
PbHidd
1002
}
  0
LINE
  5
2DC
330
1F
100
AcDbEntity
  8
HIDDEN
100
AcDbLine
 10
203.8616
 20
-123.25
 30
0.0
 11
203.8616
 21
-123.25
 31
0.0
1001
DBPROPERTIES
1002
{
1000
PbHidd
1002
}
  0
LINE
  5
2DD
330
1F
100
AcDbEntity
  8
HIDDEN
100
AcDbLine
 10
203.8616
 20
-119.25
 30
0.0
 11
203.8616
 21
-119.25
 31
0.0
1001
DBPROPERTIES
1002
{
1000
PbHidd
1002
}
  0
LINE
  5
2DE
330
1F
100
AcDbEntity
  8
HIDDEN
100
AcDbLine
 10
200.9590091992635
 20
-119.25
 30
0.0
 11
200.9590091992635
 21
-123.25
 31
0.0
1001
DBPROPERTIES
1002
{
1000
PbHidd
1002
}
  0
LINE
  5
2DF
330
1F
100
AcDbEntity
  8
HIDDEN
100
AcDbLine
 10
185.292
 20
-123.25
 30
0.0
 11
185.292
 21
-119.25
 31
0.0
1001
DBPROPERTIES
1002
{
1000
PbHidd
1002
}
  0
LINE
  5
2E0
330
1F
100
AcDbEntity
  8
HIDDEN
100
AcDbLine
 10
208.908
 20
-123.25
 30
0.0
 11
208.908
 21
-119.25
 31
0.0
1001
DBPROPERTIES
1002
{
1000
PbHidd
1002
}
  0
LINE
  5
2E1
330
1F
100
AcDbEntity
  8
HIDDEN
100
AcDbLine
 10
182.34
 20
-119.25
 30
0.0
 11
182.34
 21
-119.25
 31
0.0
1001
DBPROPERTIES
1002
{
1000
PbHidd
1002
}
  0
LINE
  5
2E2
330
1F
100
AcDbEntity
  8
HIDDEN
100
AcDbLine
 10
182.34
 20
-123.25
 30
0.0
 11
182.34
 21
-123.25
 31
0.0
1001
DBPROPERTIES
1002
{
1000
PbHidd
1002
}
  0
LINE
  5
2E3
330
1F
100
AcDbEntity
  8
HIDDEN
100
AcDbLine
 10
209.3875
 20
115.855
 30
0.0
 11
209.3875000000001
 21
-119.25
 31
0.0
1001
DBPROPERTIES
1002
{
1000
PbHidd
1002
}
  0
ARC
  5
2E4
330
1F
100
AcDbEntity
  8
THICK
100
AcDbCircle
 10
-97.55000000000005
 20
-5.550000000000003
 30
0.0
 40
104.0
100
AcDbArc
 50
270.0000187239684
 51
89.99998127603165
1001
DBPROPERTIES
1002
{
1000
PbThick
1002
}
  0
LINE
  5
2E5
330
1F
100
AcDbEntity
  8
HIDDEN
100
AcDbLine
 10
-215.55
 20
-123.25
 30
0.0
 11
-215.55
 21
-123.25
 31
0.0
1001
DBPROPERTIES
1002
{
1000
PbHidd
1002
}
  0
LINE
  5
2E6
330
1F
100
AcDbEntity
  8
THICK
100
AcDbLine
 10
-215.55
 20
115.855
 30
0.0
 11
-215.55
 21
-123.25
 31
0.0
1001
DBPROPERTIES
1002
{
1000
PbThick
1002
}
  0
LINE
  5
2E7
330
1F
100
AcDbEntity
  8
THICK
100
AcDbLine
 10
-211.8600000000001
 20
-123.25
 30
0.0
 11
-215.55
 21
-123.25
 31
0.0
1001
DBPROPERTIES
1002
{
1000
PbThick
1002
}
  0
LINE
  5
2E8
330
1F
100
AcDbEntity
  8
THICK
100
AcDbLine
 10
-97.55000305175781
 20
-111.5500030517578
 30
0.0
 11
-105.1119537353516
 21
-111.2799224853516
 31
0.0
1001
DBPROPERTIES
1002
{
1000
PbThick
1002
}
  0
LINE
  5
2E9
330
1F
100
AcDbEntity
  8
THICK
100
AcDbLine
 10
-105.1119537353516
 20
-111.2799224853516
 30
0.0
 11
-112.6353759765625
 21
-110.4710693359375
 31
0.0
1001
DBPROPERTIES
1002
{
1000
PbThick
1002
}
  0
LINE
  5
2EA
330
1F
100
AcDbEntity
  8
THICK
100
AcDbLine
 10
-112.6353759765625
 20
-110.4710693359375
 30
0.0
 11
-120.0819244384766
 21
-109.127571105957
 31
0.0
1001
DBPROPERTIES
1002
{
1000
PbThick
1002
}
  0
LINE
  5
2EB
330
1F
100
AcDbEntity
  8
THICK
100
AcDbLine
 10
-120.0819244384766
 20
-109.127571105957
 30
0.0
 11
-127.4136505126953
 21
-107.2562561035156
 31
0.0
1001
DBPROPERTIES
1002
{
1000
PbThick
1002
}
  0
LINE
  5
2EC
330
1F
100
AcDbEntity
  8
THICK
100
AcDbLine
 10
-127.4136505126953
 20
-107.2562561035156
 30
0.0
 11
-134.5932006835938
 21
-104.8666687011719
 31
0.0
1001
DBPROPERTIES
1002
{
1000
PbThick
1002
}
  0
LINE
  5
2ED
330
1F
100
AcDbEntity
  8
THICK
100
AcDbLine
 10
-134.5932006835938
 20
-104.8666687011719
 30
0.0
 11
-141.583984375
 21
-101.9709930419922
 31
0.0
1001
DBPROPERTIES
1002
{
1000
PbThick
1002
}
  0
LINE
  5
2EE
330
1F
100
AcDbEntity
  8
THICK
100
AcDbLine
 10
-141.583984375
 20
-101.9709930419922
 30
0.0
 11
-148.3503875732422
 21
-98.58396911621094
 31
0.0
1001
DBPROPERTIES
1002
{
1000
PbThick
1002
}
  0
LINE
  5
2EF
330
1F
100
AcDbEntity
  8
THICK
100
AcDbLine
 10
-148.3503875732422
 20
-98.58396911621094
 30
0.0
 11
-154.8579254150391
 21
-94.7228775024414
 31
0.0
1001
DBPROPERTIES
1002
{
1000
PbThick
1002
}
  0
LINE
  5
2F0
330
1F
100
AcDbEntity
  8
THICK
100
AcDbLine
 10
-154.8579254150391
 20
-94.7228775024414
 30
0.0
 11
-161.0734252929688
 21
-90.4073715209961
 31
0.0
1001
DBPROPERTIES
1002
{
1000
PbThick
1002
}
  0
LINE
  5
2F1
330
1F
100
AcDbEntity
  8
THICK
100
AcDbLine
 10
-161.0734252929688
 20
-90.4073715209961
 30
0.0
 11
-166.9652404785156
 21
-85.65945434570312
 31
0.0
1001
DBPROPERTIES
1002
{
1000
PbThick
1002
}
  0
LINE
  5
2F2
330
1F
100
AcDbEntity
  8
THICK
100
AcDbLine
 10
-166.9652404785156
 20
-85.65945434570312
 30
0.0
 11
-172.5033264160156
 21
-80.5033187866211
 31
0.0
1001
DBPROPERTIES
1002
{
1000
PbThick
1002
}
  0
LINE
  5
2F3
330
1F
100
AcDbEntity
  8
THICK
100
AcDbLine
 10
-172.5033264160156
 20
-80.5033187866211
 30
0.0
 11
-177.6594543457031
 21
-74.96524047851562
 31
0.0
1001
DBPROPERTIES
1002
{
1000
PbThick
1002
}
  0
LINE
  5
2F4
330
1F
100
AcDbEntity
  8
THICK
100
AcDbLine
 10
-177.6594543457031
 20
-74.96524047851562
 30
0.0
 11
-182.4073791503906
 21
-69.07343292236328
 31
0.0
1001
DBPROPERTIES
1002
{
1000
PbThick
1002
}
  0
LINE
  5
2F5
330
1F
100
AcDbEntity
  8
THICK
100
AcDbLine
 10
-182.4073791503906
 20
-69.07343292236328
 30
0.0
 11
-186.7228698730469
 21
-62.85792541503906
 31
0.0
1001
DBPROPERTIES
1002
{
1000
PbThick
1002
}
  0
LINE
  5
2F6
330
1F
100
AcDbEntity
  8
THICK
100
AcDbLine
 10
-186.7228698730469
 20
-62.85792541503906
 30
0.0
 11
-190.5839691162109
 21
-56.35039138793945
 31
0.0
1001
DBPROPERTIES
1002
{
1000
PbThick
1002
}
  0
LINE
  5
2F7
330
1F
100
AcDbEntity
  8
THICK
100
AcDbLine
 10
-190.5839691162109
 20
-56.35039138793945
 30
0.0
 11
-193.9709930419922
 21
-49.58399200439453
 31
0.0
1001
DBPROPERTIES
1002
{
1000
PbThick
1002
}
  0
LINE
  5
2F8
330
1F
100
AcDbEntity
  8
THICK
100
AcDbLine
 10
-193.9709930419922
 20
-49.58399200439453
 30
0.0
 11
-196.8666687011719
 21
-42.59320449829102
 31
0.0
1001
DBPROPERTIES
1002
{
1000
PbThick
1002
}
  0
LINE
  5
2F9
330
1F
100
AcDbEntity
  8
THICK
100
AcDbLine
 10
-196.8666687011719
 20
-42.59320449829102
 30
0.0
 11
-199.2562561035156
 21
-35.41365051269531
 31
0.0
1001
DBPROPERTIES
1002
{
1000
PbThick
1002
}
  0
LINE
  5
2FA
330
1F
100
AcDbEntity
  8
THICK
100
AcDbLine
 10
-199.2562561035156
 20
-35.41365051269531
 30
0.0
 11
-201.1275634765625
 21
-28.0819206237793
 31
0.0
1001
DBPROPERTIES
1002
{
1000
PbThick
1002
}
  0
LINE
  5
2FB
330
1F
100
AcDbEntity
  8
THICK
100
AcDbLine
 10
-201.1275634765625
 20
-28.0819206237793
 30
0.0
 11
-202.4710693359375
 21
-20.63537216186523
 31
0.0
1001
DBPROPERTIES
1002
{
1000
PbThick
1002
}
  0
LINE
  5
2FC
330
1F
100
AcDbEntity
  8
THICK
100
AcDbLine
 10
-202.4710693359375
 20
-20.63537216186523
 30
0.0
 11
-203.2799224853516
 21
-13.11195373535156
 31
0.0
1001
DBPROPERTIES
1002
{
1000
PbThick
1002
}
  0
LINE
  5
2FD
330
1F
100
AcDbEntity
  8
THICK
100
AcDbLine
 10
-203.2799224853516
 20
-13.11195373535156
 30
0.0
 11
-203.5500030517578
 21
-5.550000190734863
 31
0.0
1001
DBPROPERTIES
1002
{
1000
PbThick
1002
}
  0
LINE
  5
2FE
330
1F
100
AcDbEntity
  8
THICK
100
AcDbLine
 10
-203.5500030517578
 20
-5.550000190734863
 30
0.0
 11
-203.2799224853516
 21
2.011953353881836
 31
0.0
1001
DBPROPERTIES
1002
{
1000
PbThick
1002
}
  0
LINE
  5
2FF
330
1F
100
AcDbEntity
  8
THICK
100
AcDbLine
 10
-203.2799224853516
 20
2.011953353881836
 30
0.0
 11
-202.4710693359375
 21
9.535372734069824
 31
0.0
1001
DBPROPERTIES
1002
{
1000
PbThick
1002
}
  0
LINE
  5
300
330
1F
100
AcDbEntity
  8
THICK
100
AcDbLine
 10
-202.4710693359375
 20
9.535372734069824
 30
0.0
 11
-201.1275634765625
 21
16.98192024230957
 31
0.0
1001
DBPROPERTIES
1002
{
1000
PbThick
1002
}
  0
LINE
  5
301
330
1F
100
AcDbEntity
  8
THICK
100
AcDbLine
 10
-201.1275634765625
 20
16.98192024230957
 30
0.0
 11
-199.2562561035156
 21
24.31365013122559
 31
0.0
1001
DBPROPERTIES
1002
{
1000
PbThick
1002
}
  0
LINE
  5
302
330
1F
100
AcDbEntity
  8
THICK
100
AcDbLine
 10
-199.2562561035156
 20
24.31365013122559
 30
0.0
 11
-196.8666687011719
 21
31.49320220947266
 31
0.0
1001
DBPROPERTIES
1002
{
1000
PbThick
1002
}
  0
LINE
  5
303
330
1F
100
AcDbEntity
  8
THICK
100
AcDbLine
 10
-196.8666687011719
 20
31.49320220947266
 30
0.0
 11
-193.9709930419922
 21
38.48398971557617
 31
0.0
1001
DBPROPERTIES
1002
{
1000
PbThick
1002
}
  0
LINE
  5
304
330
1F
100
AcDbEntity
  8
THICK
100
AcDbLine
 10
-193.9709930419922
 20
38.48398971557617
 30
0.0
 11
-190.5839691162109
 21
45.25039291381836
 31
0.0
1001
DBPROPERTIES
1002
{
1000
PbThick
1002
}
  0
LINE
  5
305
330
1F
100
AcDbEntity
  8
THICK
100
AcDbLine
 10
-190.5839691162109
 20
45.25039291381836
 30
0.0
 11
-186.7228698730469
 21
51.75792694091797
 31
0.0
1001
DBPROPERTIES
1002
{
1000
PbThick
1002
}
  0
LINE
  5
306
330
1F
100
AcDbEntity
  8
THICK
100
AcDbLine
 10
-186.7228698730469
 20
51.75792694091797
 30
0.0
 11
-182.4073791503906
 21
57.97343444824219
 31
0.0
1001
DBPROPERTIES
1002
{
1000
PbThick
1002
}
  0
LINE
  5
307
330
1F
100
AcDbEntity
  8
THICK
100
AcDbLine
 10
-182.4073791503906
 20
57.97343444824219
 30
0.0
 11
-177.6594543457031
 21
63.86523818969727
 31
0.0
1001
DBPROPERTIES
1002
{
1000
PbThick
1002
}
  0
LINE
  5
308
330
1F
100
AcDbEntity
  8
THICK
100
AcDbLine
 10
-177.6594543457031
 20
63.86523818969727
 30
0.0
 11
-172.5033264160156
 21
69.4033203125
 31
0.0
1001
DBPROPERTIES
1002
{
1000
PbThick
1002
}
  0
LINE
  5
309
330
1F
100
AcDbEntity
  8
THICK
100
AcDbLine
 10
-172.5033264160156
 20
69.4033203125
 30
0.0
 11
-166.9652404785156
 21
74.55945587158203
 31
0.0
1001
DBPROPERTIES
1002
{
1000
PbThick
1002
}
  0
LINE
  5
30A
330
1F
100
AcDbEntity
  8
THICK
100
AcDbLine
 10
-166.9652404785156
 20
74.55945587158203
 30
0.0
 11
-161.0734252929688
 21
79.307373046875
 31
0.0
1001
DBPROPERTIES
1002
{
1000
PbThick
1002
}
  0
LINE
  5
30B
330
1F
100
AcDbEntity
  8
THICK
100
AcDbLine
 10
-161.0734252929688
 20
79.307373046875
 30
0.0
 11
-154.8579254150391
 21
83.62287139892578
 31
0.0
1001
DBPROPERTIES
1002
{
1000
PbThick
1002
}
  0
LINE
  5
30C
330
1F
100
AcDbEntity
  8
THICK
100
AcDbLine
 10
-154.8579254150391
 20
83.62287139892578
 30
0.0
 11
-148.3503875732422
 21
87.48397064208984
 31
0.0
1001
DBPROPERTIES
1002
{
1000
PbThick
1002
}
  0
LINE
  5
30D
330
1F
100
AcDbEntity
  8
THICK
100
AcDbLine
 10
-148.3503875732422
 20
87.48397064208984
 30
0.0
 11
-141.583984375
 21
90.8709945678711
 31
0.0
1001
DBPROPERTIES
1002
{
1000
PbThick
1002
}
  0
LINE
  5
30E
330
1F
100
AcDbEntity
  8
THICK
100
AcDbLine
 10
-141.583984375
 20
90.8709945678711
 30
0.0
 11
-134.5932006835938
 21
93.76667022705078
 31
0.0
1001
DBPROPERTIES
1002
{
1000
PbThick
1002
}
  0
LINE
  5
30F
330
1F
100
AcDbEntity
  8
THICK
100
AcDbLine
 10
-134.5932006835938
 20
93.76667022705078
 30
0.0
 11
-127.4136505126953
 21
96.15625762939453
 31
0.0
1001
DBPROPERTIES
1002
{
1000
PbThick
1002
}
  0
LINE
  5
310
330
1F
100
AcDbEntity
  8
THICK
100
AcDbLine
 10
-127.4136505126953
 20
96.15625762939453
 30
0.0
 11
-120.0819244384766
 21
98.0275650024414
 31
0.0
1001
DBPROPERTIES
1002
{
1000
PbThick
1002
}
  0
LINE
  5
311
330
1F
100
AcDbEntity
  8
THICK
100
AcDbLine
 10
-120.0819244384766
 20
98.0275650024414
 30
0.0
 11
-112.6353759765625
 21
99.3710708618164
 31
0.0
1001
DBPROPERTIES
1002
{
1000
PbThick
1002
}
  0
LINE
  5
312
330
1F
100
AcDbEntity
  8
THICK
100
AcDbLine
 10
-112.6353759765625
 20
99.3710708618164
 30
0.0
 11
-105.1119537353516
 21
100.1799240112305
 31
0.0
1001
DBPROPERTIES
1002
{
1000
PbThick
1002
}
  0
LINE
  5
313
330
1F
100
AcDbEntity
  8
THICK
100
AcDbLine
 10
-105.1119537353516
 20
100.1799240112305
 30
0.0
 11
-97.55000305175781
 21
100.4499969482422
 31
0.0
1001
DBPROPERTIES
1002
{
1000
PbThick
1002
}
  0
LINE
  5
314
330
1F
100
AcDbEntity
  8
THICK
100
AcDbLine
 10
-97.55000305175781
 20
100.4499969482422
 30
0.0
 11
-89.98804473876953
 21
100.1799240112305
 31
0.0
1001
DBPROPERTIES
1002
{
1000
PbThick
1002
}
  0
LINE
  5
315
330
1F
100
AcDbEntity
  8
THICK
100
AcDbLine
 10
-89.98804473876953
 20
100.1799240112305
 30
0.0
 11
-82.46463012695312
 21
99.3710708618164
 31
0.0
1001
DBPROPERTIES
1002
{
1000
PbThick
1002
}
  0
LINE
  5
316
330
1F
100
AcDbEntity
  8
THICK
100
AcDbLine
 10
-82.46463012695312
 20
99.3710708618164
 30
0.0
 11
-75.01808166503906
 21
98.0275650024414
 31
0.0
1001
DBPROPERTIES
1002
{
1000
PbThick
1002
}
  0
LINE
  5
317
330
1F
100
AcDbEntity
  8
THICK
100
AcDbLine
 10
-75.01808166503906
 20
98.0275650024414
 30
0.0
 11
-67.68634796142578
 21
96.15625762939453
 31
0.0
1001
DBPROPERTIES
1002
{
1000
PbThick
1002
}
  0
LINE
  5
318
330
1F
100
AcDbEntity
  8
THICK
100
AcDbLine
 10
-67.68634796142578
 20
96.15625762939453
 30
0.0
 11
-60.50679779052734
 21
93.76667022705078
 31
0.0
1001
DBPROPERTIES
1002
{
1000
PbThick
1002
}
  0
LINE
  5
319
330
1F
100
AcDbEntity
  8
THICK
100
AcDbLine
 10
-60.50679779052734
 20
93.76667022705078
 30
0.0
 11
-53.51601028442383
 21
90.8709945678711
 31
0.0
1001
DBPROPERTIES
1002
{
1000
PbThick
1002
}
  0
LINE
  5
31A
330
1F
100
AcDbEntity
  8
THICK
100
AcDbLine
 10
-53.51601028442383
 20
90.8709945678711
 30
0.0
 11
-46.74960708618164
 21
87.48397064208984
 31
0.0
1001
DBPROPERTIES
1002
{
1000
PbThick
1002
}
  0
LINE
  5
31B
330
1F
100
AcDbEntity
  8
THICK
100
AcDbLine
 10
-46.74960708618164
 20
87.48397064208984
 30
0.0
 11
-40.24207305908203
 21
83.62287139892578
 31
0.0
1001
DBPROPERTIES
1002
{
1000
PbThick
1002
}
  0
LINE
  5
31C
330
1F
100
AcDbEntity
  8
THICK
100
AcDbLine
 10
-40.24207305908203
 20
83.62287139892578
 30
0.0
 11
-34.02656555175781
 21
79.307373046875
 31
0.0
1001
DBPROPERTIES
1002
{
1000
PbThick
1002
}
  0
LINE
  5
31D
330
1F
100
AcDbEntity
  8
THICK
100
AcDbLine
 10
-34.02656555175781
 20
79.307373046875
 30
0.0
 11
-28.13476181030273
 21
74.55945587158203
 31
0.0
1001
DBPROPERTIES
1002
{
1000
PbThick
1002
}
  0
LINE
  5
31E
330
1F
100
AcDbEntity
  8
THICK
100
AcDbLine
 10
-28.13476181030273
 20
74.55945587158203
 30
0.0
 11
-22.59668159484863
 21
69.4033203125
 31
0.0
1001
DBPROPERTIES
1002
{
1000
PbThick
1002
}
  0
LINE
  5
31F
330
1F
100
AcDbEntity
  8
THICK
100
AcDbLine
 10
-22.59668159484863
 20
69.4033203125
 30
0.0
 11
-17.4405460357666
 21
63.86523818969727
 31
0.0
1001
DBPROPERTIES
1002
{
1000
PbThick
1002
}
  0
LINE
  5
320
330
1F
100
AcDbEntity
  8
THICK
100
AcDbLine
 10
-17.4405460357666
 20
63.86523818969727
 30
0.0
 11
-12.69262886047363
 21
57.97343444824219
 31
0.0
1001
DBPROPERTIES
1002
{
1000
PbThick
1002
}
  0
LINE
  5
321
330
1F
100
AcDbEntity
  8
THICK
100
AcDbLine
 10
-12.69262886047363
 20
57.97343444824219
 30
0.0
 11
-8.37712574005127
 21
51.75792694091797
 31
0.0
1001
DBPROPERTIES
1002
{
1000
PbThick
1002
}
  0
LINE
  5
322
330
1F
100
AcDbEntity
  8
THICK
100
AcDbLine
 10
-8.37712574005127
 20
51.75792694091797
 30
0.0
 11
-4.516026973724365
 21
45.25039291381836
 31
0.0
1001
DBPROPERTIES
1002
{
1000
PbThick
1002
}
  0
LINE
  5
323
330
1F
100
AcDbEntity
  8
THICK
100
AcDbLine
 10
-4.516026973724365
 20
45.25039291381836
 30
0.0
 11
-1.129008531570435
 21
38.48398971557617
 31
0.0
1001
DBPROPERTIES
1002
{
1000
PbThick
1002
}
  0
LINE
  5
324
330
1F
100
AcDbEntity
  8
THICK
100
AcDbLine
 10
-1.129008531570435
 20
38.48398971557617
 30
0.0
 11
1.766670823097229
 21
31.49320220947266
 31
0.0
1001
DBPROPERTIES
1002
{
1000
PbThick
1002
}
  0
LINE
  5
325
330
1F
100
AcDbEntity
  8
THICK
100
AcDbLine
 10
1.766670823097229
 20
31.49320220947266
 30
0.0
 11
4.15625524520874
 21
24.31365013122559
 31
0.0
1001
DBPROPERTIES
1002
{
1000
PbThick
1002
}
  0
LINE
  5
326
330
1F
100
AcDbEntity
  8
THICK
100
AcDbLine
 10
4.15625524520874
 20
24.31365013122559
 30
0.0
 11
6.027567863464355
 21
16.98192024230957
 31
0.0
1001
DBPROPERTIES
1002
{
1000
PbThick
1002
}
  0
LINE
  5
327
330
1F
100
AcDbEntity
  8
THICK
100
AcDbLine
 10
6.027567863464355
 20
16.98192024230957
 30
0.0
 11
7.371072769165039
 21
9.535372734069824
 31
0.0
1001
DBPROPERTIES
1002
{
1000
PbThick
1002
}
  0
LINE
  5
328
330
1F
100
AcDbEntity
  8
THICK
100
AcDbLine
 10
7.371072769165039
 20
9.535372734069824
 30
0.0
 11
8.179924011230469
 21
2.011953353881836
 31
0.0
1001
DBPROPERTIES
1002
{
1000
PbThick
1002
}
  0
LINE
  5
329
330
1F
100
AcDbEntity
  8
THICK
100
AcDbLine
 10
8.179924011230469
 20
2.011953353881836
 30
0.0
 11
8.449999809265137
 21
-5.550000190734863
 31
0.0
1001
DBPROPERTIES
1002
{
1000
PbThick
1002
}
  0
LINE
  5
32A
330
1F
100
AcDbEntity
  8
THICK
100
AcDbLine
 10
8.449999809265137
 20
-5.550000190734863
 30
0.0
 11
8.179924011230469
 21
-13.11195373535156
 31
0.0
1001
DBPROPERTIES
1002
{
1000
PbThick
1002
}
  0
LINE
  5
32B
330
1F
100
AcDbEntity
  8
THICK
100
AcDbLine
 10
8.179924011230469
 20
-13.11195373535156
 30
0.0
 11
7.371072769165039
 21
-20.63537216186523
 31
0.0
1001
DBPROPERTIES
1002
{
1000
PbThick
1002
}
  0
LINE
  5
32C
330
1F
100
AcDbEntity
  8
THICK
100
AcDbLine
 10
7.371072769165039
 20
-20.63537216186523
 30
0.0
 11
6.027567863464355
 21
-28.0819206237793
 31
0.0
1001
DBPROPERTIES
1002
{
1000
PbThick
1002
}
  0
LINE
  5
32D
330
1F
100
AcDbEntity
  8
THICK
100
AcDbLine
 10
6.027567863464355
 20
-28.0819206237793
 30
0.0
 11
4.15625524520874
 21
-35.41365051269531
 31
0.0
1001
DBPROPERTIES
1002
{
1000
PbThick
1002
}
  0
LINE
  5
32E
330
1F
100
AcDbEntity
  8
THICK
100
AcDbLine
 10
4.15625524520874
 20
-35.41365051269531
 30
0.0
 11
1.766670823097229
 21
-42.59320449829102
 31
0.0
1001
DBPROPERTIES
1002
{
1000
PbThick
1002
}
  0
LINE
  5
32F
330
1F
100
AcDbEntity
  8
THICK
100
AcDbLine
 10
1.766670823097229
 20
-42.59320449829102
 30
0.0
 11
-1.129008531570435
 21
-49.58399200439453
 31
0.0
1001
DBPROPERTIES
1002
{
1000
PbThick
1002
}
  0
LINE
  5
330
330
1F
100
AcDbEntity
  8
THICK
100
AcDbLine
 10
-1.129008531570435
 20
-49.58399200439453
 30
0.0
 11
-4.516026973724365
 21
-56.35039138793945
 31
0.0
1001
DBPROPERTIES
1002
{
1000
PbThick
1002
}
  0
LINE
  5
331
330
1F
100
AcDbEntity
  8
THICK
100
AcDbLine
 10
-4.516026973724365
 20
-56.35039138793945
 30
0.0
 11
-8.37712574005127
 21
-62.85792541503906
 31
0.0
1001
DBPROPERTIES
1002
{
1000
PbThick
1002
}
  0
LINE
  5
332
330
1F
100
AcDbEntity
  8
THICK
100
AcDbLine
 10
-8.37712574005127
 20
-62.85792541503906
 30
0.0
 11
-12.69262886047363
 21
-69.07343292236328
 31
0.0
1001
DBPROPERTIES
1002
{
1000
PbThick
1002
}
  0
LINE
  5
333
330
1F
100
AcDbEntity
  8
THICK
100
AcDbLine
 10
-12.69262886047363
 20
-69.07343292236328
 30
0.0
 11
-17.4405460357666
 21
-74.96524047851562
 31
0.0
1001
DBPROPERTIES
1002
{
1000
PbThick
1002
}
  0
LINE
  5
334
330
1F
100
AcDbEntity
  8
THICK
100
AcDbLine
 10
-17.4405460357666
 20
-74.96524047851562
 30
0.0
 11
-22.59668159484863
 21
-80.5033187866211
 31
0.0
1001
DBPROPERTIES
1002
{
1000
PbThick
1002
}
  0
LINE
  5
335
330
1F
100
AcDbEntity
  8
THICK
100
AcDbLine
 10
-22.59668159484863
 20
-80.5033187866211
 30
0.0
 11
-28.13476181030273
 21
-85.65945434570312
 31
0.0
1001
DBPROPERTIES
1002
{
1000
PbThick
1002
}
  0
LINE
  5
336
330
1F
100
AcDbEntity
  8
THICK
100
AcDbLine
 10
-28.13476181030273
 20
-85.65945434570312
 30
0.0
 11
-34.02656555175781
 21
-90.4073715209961
 31
0.0
1001
DBPROPERTIES
1002
{
1000
PbThick
1002
}
  0
LINE
  5
337
330
1F
100
AcDbEntity
  8
THICK
100
AcDbLine
 10
-34.02656555175781
 20
-90.4073715209961
 30
0.0
 11
-40.24207305908203
 21
-94.7228775024414
 31
0.0
1001
DBPROPERTIES
1002
{
1000
PbThick
1002
}
  0
LINE
  5
338
330
1F
100
AcDbEntity
  8
THICK
100
AcDbLine
 10
-40.24207305908203
 20
-94.7228775024414
 30
0.0
 11
-46.74960708618164
 21
-98.58396911621094
 31
0.0
1001
DBPROPERTIES
1002
{
1000
PbThick
1002
}
  0
LINE
  5
339
330
1F
100
AcDbEntity
  8
THICK
100
AcDbLine
 10
-46.74960708618164
 20
-98.58396911621094
 30
0.0
 11
-53.51601028442383
 21
-101.9709930419922
 31
0.0
1001
DBPROPERTIES
1002
{
1000
PbThick
1002
}
  0
LINE
  5
33A
330
1F
100
AcDbEntity
  8
THICK
100
AcDbLine
 10
-53.51601028442383
 20
-101.9709930419922
 30
0.0
 11
-60.50679779052734
 21
-104.8666687011719
 31
0.0
1001
DBPROPERTIES
1002
{
1000
PbThick
1002
}
  0
LINE
  5
33B
330
1F
100
AcDbEntity
  8
THICK
100
AcDbLine
 10
-60.50679779052734
 20
-104.8666687011719
 30
0.0
 11
-67.68634796142578
 21
-107.2562561035156
 31
0.0
1001
DBPROPERTIES
1002
{
1000
PbThick
1002
}
  0
LINE
  5
33C
330
1F
100
AcDbEntity
  8
THICK
100
AcDbLine
 10
-67.68634796142578
 20
-107.2562561035156
 30
0.0
 11
-75.01808166503906
 21
-109.127571105957
 31
0.0
1001
DBPROPERTIES
1002
{
1000
PbThick
1002
}
  0
LINE
  5
33D
330
1F
100
AcDbEntity
  8
THICK
100
AcDbLine
 10
-75.01808166503906
 20
-109.127571105957
 30
0.0
 11
-82.46463012695312
 21
-110.4710693359375
 31
0.0
1001
DBPROPERTIES
1002
{
1000
PbThick
1002
}
  0
LINE
  5
33E
330
1F
100
AcDbEntity
  8
THICK
100
AcDbLine
 10
-82.46463012695312
 20
-110.4710693359375
 30
0.0
 11
-89.98804473876953
 21
-111.2799224853516
 31
0.0
1001
DBPROPERTIES
1002
{
1000
PbThick
1002
}
  0
LINE
  5
33F
330
1F
100
AcDbEntity
  8
THICK
100
AcDbLine
 10
-89.98804473876953
 20
-111.2799224853516
 30
0.0
 11
-97.55000305175781
 21
-111.5500030517578
 31
0.0
1001
DBPROPERTIES
1002
{
1000
PbThick
1002
}
  0
ENDSEC
  0
SECTION
  2
OBJECTS
  0
DICTIONARY
  5
C
330
0
100
AcDbDictionary
  3
ACAD_GROUP
350
D
  3
ACAD_LAYOUT
350
1A
  3
ACAD_MATERIAL
350
43
  3
ACAD_MLEADERSTYLE
350
6B
  3
ACAD_MLINESTYLE
350
17
  3
ACAD_PLOTSETTINGS
350
19
  3
ACAD_SCALELIST
350
47
  3
ACAD_VISUALSTYLE
350
2A
  3
ACDBVARIABLEDICTIONARY
350
340
1001
ACAD
1000
TREAT_AS_HARD
1070
     0
  0
DICTIONARY
  5
D
102
{ACAD_REACTORS
330
C
102
}
330
C
100
AcDbDictionary
1001
ACAD
1000
TREAT_AS_HARD
1070
     0
  0
DICTIONARY
  5
1A
102
{ACAD_REACTORS
330
C
102
}
330
C
100
AcDbDictionary
1001
ACAD
1000
TREAT_AS_HARD
1070
     0
  0
DICTIONARY
  5
43
102
{ACAD_REACTORS
330
C
102
}
330
C
100
AcDbDictionary
  3
BYBLOCK
350
45
  3
BYLAYER
350
44
  3
GLOBAL
350
46
1001
ACAD
1000
TREAT_AS_HARD
1070
     0
  0
DICTIONARY
  5
6B
102
{ACAD_REACTORS
330
C
102
}
330
C
100
AcDbDictionary
  3
STANDARD
350
6C
1001
ACAD
1000
TREAT_AS_HARD
1070
     0
  0
DICTIONARY
  5
17
102
{ACAD_REACTORS
330
C
102
}
330
C
100
AcDbDictionary
  3
STANDARD
350
18
1001
ACAD
1000
TREAT_AS_HARD
1070
     0
  0
DICTIONARY
  5
19
102
{ACAD_REACTORS
330
C
102
}
330
C
100
AcDbDictionary
1001
ACAD
1000
TREAT_AS_HARD
1070
     0
  0
DICTIONARY
  5
47
102
{ACAD_REACTORS
330
C
102
}
330
C
100
AcDbDictionary
  3
A0
350
48
  3
A1
350
49
  3
A2
350
4A
  3
A3
350
4B
  3
A4
350
4C
  3
A5
350
4D
  3
A6
350
4E
  3
A7
350
4F
  3
A8
350
50
  3
A9
350
51
  3
B0
350
52
  3
B1
350
53
  3
B2
350
54
  3
B3
350
55
  3
B4
350
56
  3
B5
350
57
  3
B6
350
58
  3
B7
350
59
  3
B8
350
5A
  3
B9
350
5B
  3
C0
350
5C
  3
C1
350
5D
  3
C2
350
5E
  3
C3
350
5F
  3
C4
350
60
  3
C5
350
61
  3
C6
350
62
  3
C7
350
63
  3
C8
350
64
  3
C9
350
65
  3
D0
350
66
  3
D1
350
67
  3
D2
350
68
1001
ACAD
1000
TREAT_AS_HARD
1070
     0
  0
DICTIONARY
  5
2A
102
{ACAD_REACTORS
330
C
102
}
330
C
100
AcDbDictionary
  3
2DWIREFRAME
350
2F
  3
BASIC
350
32
  3
BRIGHTEN
350
36
  3
COLORCHANGE
350
3A
  3
CONCEPTUAL
350
34
  3
DIM
350
35
  3
EDGECOLOROFF
350
3D
  3
FACEPATTERN
350
39
  3
FLAT
350
2B
  3
FLATWITHEDGES
350
2C
  3
GOURAUD
350
2D
  3
GOURAUDWITHEDGES
350
2E
  3
HIDDEN
350
31
  3
JITTEROFF
350
3B
  3
LINEPATTERN
350
38
  3
OVERHANGOFF
350
3C
  3
REALISTIC
350
33
  3
SHADED
350
42
  3
SHADED_WITH_EDGES
350
41
  3
SHADES_OF_GRAY
350
3E
  3
SKETCHY
350
3F
  3
THICKEN
350
37
  3
WIREFRAME
350
30
  3
X-RAY
350
40
1001
ACAD
1000
TREAT_AS_HARD
1070
     0
  0
DICTIONARY
  5
340
102
{ACAD_REACTORS
330
C
102
}
330
C
100
AcDbDictionary
  3
CANNOSCALE
350
34B
  3
CENTEREXE
350
347
  3
CENTERLTYPEFILE
350
348
  3
CMLEADERSTYLE
350
342
  3
CTABLESTYLE
350
341
  3
DIMASSOC
350
349
  3
HIDETEXT
350
34A
  3
MSLTSCALE
350
34C
  3
PSOLHEIGHT
350
344
  3
PSOLWIDTH
350
343
1001
ACAD
1000
TREAT_AS_HARD
1070
     0
  0
MATERIAL
  5
45
102
{ACAD_REACTORS
330
43
102
}
102
{ACAD_XDICTIONARY
360
34F
102
}
330
43
100
AcDbMaterial
  1
BYBLOCK
  0
MATERIAL
  5
44
102
{ACAD_REACTORS
330
43
102
}
102
{ACAD_XDICTIONARY
360
34D
102
}
330
43
100
AcDbMaterial
  1
BYLAYER
  0
MATERIAL
  5
46
102
{ACAD_REACTORS
330
43
102
}
102
{ACAD_XDICTIONARY
360
351
102
}
330
43
100
AcDbMaterial
  1
GLOBAL
  0
ACAD_PROXY_OBJECT
  5
6C
102
{ACAD_REACTORS
330
6B
102
}
330
6B
100
AcDbZombieObject
 90
      499
 91
      505
 93
      610
310
40901902A4063FBFFFFFE0000000000000020400000000000020404214DD185B99185C990000000000000104090141901A00000000000004100000000000000041025764000000000000039000
340
14
340
0
340
11
340
0
 94
        0
1001
ACAD_MLEADERVER
1070
     2
  0
MLINESTYLE
  5
18
102
{ACAD_REACTORS
330
17
102
}
330
17
100
AcDbMlineStyle
  2
Standard
 70
     0
  3

 62
   256
 51
90.0
 52
90.0
 71
     2
 49
0.5
 62
   256
  6
BYLAYER
 49
-0.5
 62
   256
  6
BYLAYER
  0
ACAD_PROXY_OBJECT
  5
48
102
{ACAD_REACTORS
330
47
102
}
330
47
100
AcDbZombieObject
 90
      499
 91
      503
 93
       41
310
903313A31580
  0
ACAD_PROXY_OBJECT
  5
49
102
{ACAD_REACTORS
330
47
102
}
330
47
100
AcDbZombieObject
 90
      499
 91
      503
 93
      105
310
903313A324000000000000004000
  0
ACAD_PROXY_OBJECT
  5
4A
102
{ACAD_REACTORS
330
47
102
}
330
47
100
AcDbZombieObject
 90
      499
 91
      503
 93
      105
310
903313A344000000000000104000
  0
ACAD_PROXY_OBJECT
  5
4B
102
{ACAD_REACTORS
330
47
102
}
330
47
100
AcDbZombieObject
 90
      499
 91
      503
 93
      105
310
903313A354000000000000144000
  0
ACAD_PROXY_OBJECT
  5
4C
102
{ACAD_REACTORS
330
47
102
}
330
47
100
AcDbZombieObject
 90
      499
 91
      503
 93
      105
310
903313A384000000000000204000
  0
ACAD_PROXY_OBJECT
  5
4D
102
{ACAD_REACTORS
330
47
102
}
330
47
100
AcDbZombieObject
 90
      499
 91
      503
 93
      113
310
904313A31304000000000000244000
  0
ACAD_PROXY_OBJECT
  5
4E
102
{ACAD_REACTORS
330
47
102
}
330
47
100
AcDbZombieObject
 90
      499
 91
      503
 93
      113
310
904313A31364000000000000304000
  0
ACAD_PROXY_OBJECT
  5
4F
102
{ACAD_REACTORS
330
47
102
}
330
47
100
AcDbZombieObject
 90
      499
 91
      503
 93
      113
310
904313A32304000000000000344000
  0
ACAD_PROXY_OBJECT
  5
50
102
{ACAD_REACTORS
330
47
102
}
330
47
100
AcDbZombieObject
 90
      499
 91
      503
 93
      113
310
904313A333040000000000003E4000
  0
ACAD_PROXY_OBJECT
  5
51
102
{ACAD_REACTORS
330
47
102
}
330
47
100
AcDbZombieObject
 90
      499
 91
      503
 93
      113
310
904313A34304000000000000444000
  0
ACAD_PROXY_OBJECT
  5
52
102
{ACAD_REACTORS
330
47
102
}
330
47
100
AcDbZombieObject
 90
      499
 91
      503
 93
      113
310
904313A35304000000000000494000
  0
ACAD_PROXY_OBJECT
  5
53
102
{ACAD_REACTORS
330
47
102
}
330
47
100
AcDbZombieObject
 90
      499
 91
      503
 93
      121
310
905313A3130304000000000000594000
  0
ACAD_PROXY_OBJECT
  5
54
102
{ACAD_REACTORS
330
47
102
}
330
47
100
AcDbZombieObject
 90
      499
 91
      503
 93
      105
310
903323A310000000000000010100
  0
ACAD_PROXY_OBJECT
  5
55
102
{ACAD_REACTORS
330
47
102
}
330
47
100
AcDbZombieObject
 90
      499
 91
      503
 93
      105
310
903343A310000000000000410100
  0
ACAD_PROXY_OBJECT
  5
56
102
{ACAD_REACTORS
330
47
102
}
330
47
100
AcDbZombieObject
 90
      499
 91
      503
 93
      105
310
903383A310000000000000810100
  0
ACAD_PROXY_OBJECT
  5
57
102
{ACAD_REACTORS
330
47
102
}
330
47
100
AcDbZombieObject
 90
      499
 91
      503
 93
      113
310
90431303A310000000000000910100
  0
ACAD_PROXY_OBJECT
  5
58
102
{ACAD_REACTORS
330
47
102
}
330
47
100
AcDbZombieObject
 90
      499
 91
      503
 93
      121
310
9053130303A310000000000001650100
  0
ACAD_PROXY_OBJECT
  5
59
102
{ACAD_REACTORS
330
47
102
}
330
47
100
AcDbZombieObject
 90
      499
 91
      503
 93
      257
310
90E312F31323822203D2031272D3022000000000000200FC000000000000284000
  0
ACAD_PROXY_OBJECT
  5
5A
102
{ACAD_REACTORS
330
47
102
}
330
47
100
AcDbZombieObject
 90
      499
 91
      503
 93
      249
310
90D312F363422203D2031272D3022000000000000240FC000000000000284000
  0
ACAD_PROXY_OBJECT
  5
5B
102
{ACAD_REACTORS
330
47
102
}
330
47
100
AcDbZombieObject
 90
      499
 91
      503
 93
      249
310
90D312F333222203D2031272D3022000000000000280FC000000000000284000
  0
ACAD_PROXY_OBJECT
  5
5C
102
{ACAD_REACTORS
330
47
102
}
330
47
100
AcDbZombieObject
 90
      499
 91
      503
 93
      249
310
90D312F313622203D2031272D30220000000000002C0FC000000000000284000
  0
ACAD_PROXY_OBJECT
  5
5D
102
{ACAD_REACTORS
330
47
102
}
330
47
100
AcDbZombieObject
 90
      499
 91
      503
 93
      249
310
90D332F333222203D2031272D30220000000000002E0FC000000000000284000
  0
ACAD_PROXY_OBJECT
  5
5E
102
{ACAD_REACTORS
330
47
102
}
330
47
100
AcDbZombieObject
 90
      499
 91
      503
 93
      241
310
90C312F3822203D2031272D3022000000000000300FC000000000000284000
  0
ACAD_PROXY_OBJECT
  5
5F
102
{ACAD_REACTORS
330
47
102
}
330
47
100
AcDbZombieObject
 90
      499
 91
      503
 93
      249
310
90D332F313622203D2031272D3022000000000000320FC000000000000284000
  0
ACAD_PROXY_OBJECT
  5
60
102
{ACAD_REACTORS
330
47
102
}
330
47
100
AcDbZombieObject
 90
      499
 91
      503
 93
      241
310
90C312F3422203D2031272D3022000000000000340FC000000000000284000
  0
ACAD_PROXY_OBJECT
  5
61
102
{ACAD_REACTORS
330
47
102
}
330
47
100
AcDbZombieObject
 90
      499
 91
      503
 93
      241
310
90C332F3822203D2031272D3022000000000000360FC000000000000284000
  0
ACAD_PROXY_OBJECT
  5
62
102
{ACAD_REACTORS
330
47
102
}
330
47
100
AcDbZombieObject
 90
      499
 91
      503
 93
      241
310
90C312F3222203D2031272D3022000000000000380FC000000000000284000
  0
ACAD_PROXY_OBJECT
  5
63
102
{ACAD_REACTORS
330
47
102
}
330
47
100
AcDbZombieObject
 90
      499
 91
      503
 93
      241
310
90C332F3422203D2031272D30220000000000003A0FC000000000000284000
  0
ACAD_PROXY_OBJECT
  5
64
102
{ACAD_REACTORS
330
47
102
}
330
47
100
AcDbZombieObject
 90
      499
 91
      503
 93
      161
310
90A3122203D2031272D30224000000000000284000
  0
ACAD_PROXY_OBJECT
  5
65
102
{ACAD_REACTORS
330
47
102
}
330
47
100
AcDbZombieObject
 90
      499
 91
      503
 93
      257
310
90E312D312F3222203D2031272D30220000000000003E0FC000000000000284000
  0
ACAD_PROXY_OBJECT
  5
66
102
{ACAD_REACTORS
330
47
102
}
330
47
100
AcDbZombieObject
 90
      499
 91
      503
 93
      225
310
90A3322203D2031272D302200000000000002100000000000000284000
  0
ACAD_PROXY_OBJECT
  5
67
102
{ACAD_REACTORS
330
47
102
}
330
47
100
AcDbZombieObject
 90
      499
 91
      503
 93
      225
310
90A3622203D2031272D302200000000000006100000000000000284000
  0
ACAD_PROXY_OBJECT
  5
68
102
{ACAD_REACTORS
330
47
102
}
330
47
100
AcDbZombieObject
 90
      499
 91
      503
 93
      249
310
90D31272D3022203D2031272D30220000000000000A100000000000000284000
  0
ACAD_PROXY_OBJECT
  5
2F
102
{ACAD_REACTORS
330
2A
102
}
330
2A
100
AcDbZombieObject
 90
      499
 91
      501
 93
      436
310
42CC9915DA5C99599C985B595049028333333333333E33F0000000000000F90107901411070040501600405405064090741402480A0340
1001
ACAD
1000
AcDbSavedByObjectVersion
1070
     0
  0
ACAD_PROXY_OBJECT
  5
32
102
{ACAD_REACTORS
330
2A
102
}
330
2A
100
AcDbZombieObject
 90
      499
 91
      501
 93
      388
310
4150985CDA58D07406404333333333333E33F0000000000000F90107A41107004050150841D405064090741402480A0350
1001
ACAD
1000
AcDbSavedByObjectVersion
1070
     0
  0
ACAD_PROXY_OBJECT
  5
36
102
{ACAD_REACTORS
330
2A
102
}
330
2A
100
AcDbZombieObject
 90
      499
 91
      501
 93
      428
310
42109C9A59DA1D195B90C409028333333333333E33F0000000000000F9010790141107004050150841D405064090741402480A029950
1001
ACAD
1000
AcDbSavedByObjectVersion
1070
     0
  0
ACAD_PROXY_OBJECT
  5
3A
102
{ACAD_REACTORS
330
2A
102
}
330
2A
100
AcDbZombieObject
 90
      499
 91
      501
 93
      452
310
42D0DBDB1BDC90DA185B99D95104090240C333333333333E33F0000000000000F90108901411070040501508421405064090741402480A0350
1001
ACAD
1000
AcDbSavedByObjectVersion
1070
     0
  0
ACAD_PROXY_OBJECT
  5
34
102
{ACAD_REACTORS
330
2A
102
}
330
2A
100
AcDbZombieObject
 90
      499
 91
      501
 93
      500
310
4290DBDB98D95C1D1D585B10940D028333333333333E33F0000000000000F90107902409070040501000000000018199010841D405064090740C02480A0340
1001
ACAD
1000
AcDbSavedByObjectVersion
1070
     0
  0
ACAD_PROXY_OBJECT
  5
35
102
{ACAD_REACTORS
330
2A
102
}
330
2A
100
AcDbZombieObject
 90
      499
 91
      501
 93
      412
310
40D11A5B50B409028333333333333E33F0000000000000F9010790141107004050150841D405064090741402480A02677FFFFFD0
1001
ACAD
1000
AcDbSavedByObjectVersion
1070
     0
  0
ACAD_PROXY_OBJECT
  5
3D
102
{ACAD_REACTORS
330
2A
102
}
330
2A
100
AcDbZombieObject
 90
      499
 91
      501
 93
      452
310
43115919D950DBDB1BDC93D999916409028333333333333E33F0000000000000F9010790141107004050150841D405064090741402480A0350
1001
ACAD
1000
AcDbSavedByObjectVersion
1070
     0
  0
ACAD_PROXY_OBJECT
  5
39
102
{ACAD_REACTORS
330
2A
102
}
330
2A
100
AcDbZombieObject
 90
      499
 91
      501
 93
      444
310
42D19858D95C185D1D195C9B90F409028333333333333E33F0000000000000F9010790141107004050150841D405064090741402480A0350
1001
ACAD
1000
AcDbSavedByObjectVersion
1070
     0
  0
ACAD_PROXY_OBJECT
  5
2B
102
{ACAD_REACTORS
330
2A
102
}
330
2A
100
AcDbZombieObject
 90
      499
 91
      501
 93
      380
310
41119B185D240901404333333333333E33F0000000000000F9010740A907004050150841D405064090741402480A1B50
1001
ACAD
1000
AcDbSavedByObjectVersion
1070
     0
  0
ACAD_PROXY_OBJECT
  5
2C
102
{ACAD_REACTORS
330
2A
102
}
330
2A
100
AcDbZombieObject
 90
      499
 91
      501
 93
      468
310
43519B185D15DA5D1A115919D95CD0140901404333333333333E33F0000000000000F90107409019070040501600405405064090741402480A1B50
1001
ACAD
1000
AcDbSavedByObjectVersion
1070
     0
  0
ACAD_PROXY_OBJECT
  5
2D
102
{ACAD_REACTORS
330
2A
102
}
330
2A
100
AcDbZombieObject
 90
      499
 91
      501
 93
      404
310
41D1DBDD5C985D5910240902404333333333333E33F0000000000000F9010740A9070040501641D405064090741402480A1B50
1001
ACAD
1000
AcDbSavedByObjectVersion
1070
     0
  0
ACAD_PROXY_OBJECT
  5
2E
102
{ACAD_REACTORS
330
2A
102
}
330
2A
100
AcDbZombieObject
 90
      499
 91
      501
 93
      492
310
4411DBDD5C985D5915DA5D1A115919D95CD0340902404333333333333E33F0000000000000F90107409019070040501600405405064090741402480A1B50
1001
ACAD
1000
AcDbSavedByObjectVersion
1070
     0
  0
ACAD_PROXY_OBJECT
  5
31
102
{ACAD_REACTORS
330
2A
102
}
330
2A
100
AcDbZombieObject
 90
      499
 91
      501
 93
      476
310
41921A5919195B90640502408333333333333E33F0000000000000F901079024090700405020000000000001110200405405064090740C02480A0340
1001
ACAD
1000
AcDbSavedByObjectVersion
1070
     0
  0
ACAD_PROXY_OBJECT
  5
3B
102
{ACAD_REACTORS
330
2A
102
}
330
2A
100
AcDbZombieObject
 90
      499
 91
      501
 93
      428
310
42529A5D1D195C93D999914409028333333333333E33F0000000000000F9010790141107004050150A41D405064090741402480A0350
1001
ACAD
1000
AcDbSavedByObjectVersion
1070
     0
  0
ACAD_PROXY_OBJECT
  5
38
102
{ACAD_REACTORS
330
2A
102
}
330
2A
100
AcDbZombieObject
 90
      499
 91
      501
 93
      444
310
42D31A5B995C185D1D195C9B90E409028333333333333E33F0000000000000F9010790141107004050750841D405064090741402483A0350
1001
ACAD
1000
AcDbSavedByObjectVersion
1070
     0
  0
ACAD_PROXY_OBJECT
  5
3C
102
{ACAD_REACTORS
330
2A
102
}
330
2A
100
AcDbZombieObject
 90
      499
 91
      501
 93
      444
310
42D3DD995C9A185B99D3D999915409028333333333333E33F0000000000000F9010790141107004050150941D405064090741402480A0350
1001
ACAD
1000
AcDbSavedByObjectVersion
1070
     0
  0
ACAD_PROXY_OBJECT
  5
33
102
{ACAD_REACTORS
330
2A
102
}
330
2A
100
AcDbZombieObject
 90
      499
 91
      501
 93
      428
310
425499585B1A5CDD1A58D08409038333333333333E33F0000000000000F9010740A907004050150800405405064090740C02480A1B40
1001
ACAD
1000
AcDbSavedByObjectVersion
1070
     0
  0
ACAD_PROXY_OBJECT
  5
42
102
{ACAD_REACTORS
330
2A
102
}
330
2A
100
AcDbZombieObject
 90
      499
 91
      501
 93
      420
310
4194DA1859195911B40902404333333333333E33F0000000000000F9010740A41107004050150800405405064090840C02480A0B40
1001
ACAD
1000
AcDbSavedByObjectVersion
1070
     0
  0
ACAD_PROXY_OBJECT
  5
41
102
{ACAD_REACTORS
330
2A
102
}
330
2A
100
AcDbZombieObject
 90
      499
 91
      501
 93
      516
310
4454DA18591959081DDA5D1A08195919D95CD1A40902404333333333333E33F0000000000000F901074090142907004050250800405405064090740C02480A0B40
1001
ACAD
1000
AcDbSavedByObjectVersion
1070
     0
  0
ACAD_PROXY_OBJECT
  5
3E
102
{ACAD_REACTORS
330
2A
102
}
330
2A
100
AcDbZombieObject
 90
      499
 91
      501
 93
      532
310
4394DA1859195CC81BD98811DC985E5174090240C333333333333E33F0000000000000F901079024090741D01000000000000111010841D405064090740C02480A0340
1001
ACAD
1000
AcDbSavedByObjectVersion
1070
     0
  0
ACAD_PROXY_OBJECT
  5
3F
102
{ACAD_REACTORS
330
2A
102
}
330
2A
100
AcDbZombieObject
 90
      499
 91
      501
 93
      476
310
41D4DAD95D18DA1E51840502408333333333333E33F0000000000000F901079024090741D01000000000000111010B41D405064090741802480A0340
1001
ACAD
1000
AcDbSavedByObjectVersion
1070
     0
  0
ACAD_PROXY_OBJECT
  5
37
102
{ACAD_REACTORS
330
2A
102
}
330
2A
100
AcDbZombieObject
 90
      499
 91
      501
 93
      412
310
41D51A1A58DAD95B90D409028333333333333E33F0000000000000F9010790141107004050150C41D405064090741402480A0350
1001
ACAD
1000
AcDbSavedByObjectVersion
1070
     0
  0
ACAD_PROXY_OBJECT
  5
30
102
{ACAD_REACTORS
330
2A
102
}
330
2A
100
AcDbZombieObject
 90
      499
 91
      501
 93
      420
310
4255DA5C99599C985B595059028333333333333E33F0000000000000F90107901411070040501600405405064090740C02480A0340
1001
ACAD
1000
AcDbSavedByObjectVersion
1070
     0
  0
ACAD_PROXY_OBJECT
  5
40
102
{ACAD_REACTORS
330
2A
102
}
330
2A
100
AcDbZombieObject
 90
      499
 91
      501
 93
      404
310
41560B54985E51940902404000000000000E03F0000000000000F9010740501907004050150841D405064090740C02480A1B40
1001
ACAD
1000
AcDbSavedByObjectVersion
1070
     0
  0
DICTIONARYVAR
  5
34B
102
{ACAD_REACTORS
330
340
102
}
330
340
100
DictionaryVariables
280
     0
  1
1:1
  0
DICTIONARYVAR
  5
347
102
{ACAD_REACTORS
330
340
102
}
330
340
100
DictionaryVariables
280
     0
  1
3.500000
  0
DICTIONARYVAR
  5
348
102
{ACAD_REACTORS
330
340
102
}
330
340
100
DictionaryVariables
280
     0
  1
acadiso.lin
  0
DICTIONARYVAR
  5
342
102
{ACAD_REACTORS
330
340
102
}
330
340
100
DictionaryVariables
280
     0
  1
Standard
  0
DICTIONARYVAR
  5
341
102
{ACAD_REACTORS
330
340
102
}
330
340
100
DictionaryVariables
280
     0
  1
Standard
  0
DICTIONARYVAR
  5
349
102
{ACAD_REACTORS
330
340
102
}
330
340
100
DictionaryVariables
280
     0
  1
2
  0
DICTIONARYVAR
  5
34A
102
{ACAD_REACTORS
330
340
102
}
330
340
100
DictionaryVariables
280
     0
  1
1
  0
DICTIONARYVAR
  5
34C
102
{ACAD_REACTORS
330
340
102
}
330
340
100
DictionaryVariables
280
     0
  1
1
  0
DICTIONARYVAR
  5
344
102
{ACAD_REACTORS
330
340
102
}
330
340
100
DictionaryVariables
280
     0
  1
80.000000
  0
DICTIONARYVAR
  5
343
102
{ACAD_REACTORS
330
340
102
}
330
340
100
DictionaryVariables
280
     0
  1
5.000000
  0
DICTIONARY
  5
34F
330
45
100
AcDbDictionary
  3
ACAD_XREC_ROUNDTRIP
360
350
1001
ACAD
1000
TREAT_AS_HARD
1070
     1
  0
DICTIONARY
  5
34D
330
44
100
AcDbDictionary
  3
ACAD_XREC_ROUNDTRIP
360
34E
1001
ACAD
1000
TREAT_AS_HARD
1070
     1
  0
DICTIONARY
  5
351
330
46
100
AcDbDictionary
  3
ACAD_XREC_ROUNDTRIP
360
352
1001
ACAD
1000
TREAT_AS_HARD
1070
     1
  0
XRECORD
  5
350
102
{ACAD_REACTORS
330
34F
102
}
330
34F
100
AcDbXrecord
102
MATERIAL
148
0.0
149
0.0
149
0.0
 93
        0
 94
      127
282
     0
 72
     1
 77
     1
171
     1
175
     1
179
     1
273
     0
  0
XRECORD
  5
34E
102
{ACAD_REACTORS
330
34D
102
}
330
34D
100
AcDbXrecord
102
MATERIAL
148
0.0
149
0.0
149
0.0
 93
        0
 94
      127
282
     0
 72
     1
 77
     1
171
     1
175
     1
179
     1
273
     0
  0
XRECORD
  5
352
102
{ACAD_REACTORS
330
351
102
}
330
351
100
AcDbXrecord
102
MATERIAL
148
0.0
149
0.0
149
0.0
 93
        0
 94
      127
282
     0
 72
     1
 77
     1
171
     1
175
     1
179
     1
273
     0
  0
ENDSEC
  0
EOF
