  0
SECTION
  2
HEADER
  9
$ACADVER
  1
AC1012
  9
$DWGCODEPAGE
  3
ansi_1252
  9
$INSBASE
 10
0.0
 20
0.0
 30
0.0
  9
$EXTMIN
 10
1.000000000000000E+20
 20
1.000000000000000E+20
 30
1.000000000000000E+20
  9
$EXTMAX
 10
-1.000000000000000E+20
 20
-1.000000000000000E+20
 30
-1.000000000000000E+20
  9
$LIMMIN
 10
0.0
 20
0.0
  9
$LIMMAX
 10
420.0
 20
297.0
  9
$ORTHOMODE
 70
     0
  9
$REGENMODE
 70
     1
  9
$FILLMODE
 70
     1
  9
$QTEXTMODE
 70
     0
  9
$MIRRTEXT
 70
     1
  9
$DRAGMODE
 70
     2
  9
$LTSCALE
 40
1.0
  9
$OSMODE
 70
    37
  9
$ATTMODE
 70
     1
  9
$TEXTSIZE
 40
2.5
  9
$TRACEWID
 40
1.0
  9
$TEXTSTYLE
  7
STANDARD
  9
$CLAYER
  8
0
  9
$CELTYPE
  6
BYLAYER
  9
$CECOLOR
 62
   256
  9
$CELTSCALE
 40
1.0
  9
$DELOBJ
 70
     1
  9
$DISPSILH
 70
     0
  9
$DIMSCALE
 40
1.0
  9
$DIMASZ
 40
2.5
  9
$DIMEXO
 40
0.625
  9
$DIMDLI
 40
3.75
  9
$DIMRND
 40
0.0
  9
$DIMDLE
 40
0.0
  9
$DIMEXE
 40
1.25
  9
$DIMTP
 40
0.0
  9
$DIMTM
 40
0.0
  9
$DIMTXT
 40
2.5
  9
$DIMCEN
 40
2.5
  9
$DIMTSZ
 40
0.0
  9
$DIMTOL
 70
     0
  9
$DIMLIM
 70
     0
  9
$DIMTIH
 70
     0
  9
$DIMTOH
 70
     0
  9
$DIMSE1
 70
     0
  9
$DIMSE2
 70
     0
  9
$DIMTAD
 70
     1
  9
$DIMZIN
 70
     8
  9
$DIMBLK
  1

  9
$DIMASO
 70
     1
  9
$DIMSHO
 70
     1
  9
$DIMPOST
  1

  9
$DIMAPOST
  1

  9
$DIMALT
 70
     0
  9
$DIMALTD
 70
     3
  9
$DIMALTF
 40
0.03937007874016
  9
$DIMLFAC
 40
1.0
  9
$DIMTOFL
 70
     1
  9
$DIMTVP
 40
0.0
  9
$DIMTIX
 70
     0
  9
$DIMSOXD
 70
     0
  9
$DIMSAH
 70
     0
  9
$DIMBLK1
  1

  9
$DIMBLK2
  1

  9
$DIMSTYLE
  2
ISO-25
  9
$DIMCLRD
 70
     0
  9
$DIMCLRE
 70
     0
  9
$DIMCLRT
 70
     0
  9
$DIMTFAC
 40
1.0
  9
$DIMGAP
 40
0.625
  9
$DIMJUST
 70
     0
  9
$DIMSD1
 70
     0
  9
$DIMSD2
 70
     0
  9
$DIMTOLJ
 70
     0
  9
$DIMTZIN
 70
     8
  9
$DIMALTZ
 70
     0
  9
$DIMALTTZ
 70
     0
  9
$DIMFIT
 70
     3
  9
$DIMUPT
 70
     0
  9
$DIMUNIT
 70
     2
  9
$DIMDEC
 70
     2
  9
$DIMTDEC
 70
     2
  9
$DIMALTU
 70
     2
  9
$DIMALTTD
 70
     3
  9
$DIMTXSTY
  7
STANDARD
  9
$DIMAUNIT
 70
     0
  9
$LUNITS
 70
     2
  9
$LUPREC
 70
     4
  9
$SKETCHINC
 40
1.0
  9
$FILLETRAD
 40
10.0
  9
$AUNITS
 70
     0
  9
$AUPREC
 70
     0
  9
$MENU
  1
.
  9
$ELEVATION
 40
0.0
  9
$PELEVATION
 40
0.0
  9
$THICKNESS
 40
0.0
  9
$LIMCHECK
 70
     0
  9
$CHAMFERA
 40
0.0
  9
$CHAMFERB
 40
0.0
  9
$CHAMFERC
 40
0.0
  9
$CHAMFERD
 40
0.0
  9
$SKPOLY
 70
     0
  9
$TDCREATE
 40
2458047.661817049
  9
$TDUPDATE
 40
2458047.661822465
  9
$TDINDWG
 40
0.0000000116
  9
$TDUSRTIMER
 40
0.0000000116
  9
$USRTIMER
 70
     1
  9
$ANGBASE
 50
0.0
  9
$ANGDIR
 70
     0
  9
$PDMODE
 70
     0
  9
$PDSIZE
 40
0.0
  9
$PLINEWID
 40
0.0
  9
$COORDS
 70
     1
  9
$SPLFRAME
 70
     0
  9
$SPLINETYPE
 70
     6
  9
$SPLINESEGS
 70
     8
  9
$ATTDIA
 70
     0
  9
$ATTREQ
 70
     1
  9
$HANDLING
 70
     1
  9
$HANDSEED
  5
617
  9
$SURFTAB1
 70
     6
  9
$SURFTAB2
 70
     6
  9
$SURFTYPE
 70
     6
  9
$SURFU
 70
     6
  9
$SURFV
 70
     6
  9
$UCSNAME
  2

  9
$UCSORG
 10
0.0
 20
0.0
 30
0.0
  9
$UCSXDIR
 10
1.0
 20
0.0
 30
0.0
  9
$UCSYDIR
 10
0.0
 20
1.0
 30
0.0
  9
$PUCSNAME
  2

  9
$PUCSORG
 10
0.0
 20
0.0
 30
0.0
  9
$PUCSXDIR
 10
1.0
 20
0.0
 30
0.0
  9
$PUCSYDIR
 10
0.0
 20
1.0
 30
0.0
  9
$USERI1
 70
     0
  9
$USERI2
 70
     0
  9
$USERI3
 70
     0
  9
$USERI4
 70
     0
  9
$USERI5
 70
     0
  9
$USERR1
 40
0.0
  9
$USERR2
 40
0.0
  9
$USERR3
 40
0.0
  9
$USERR4
 40
0.0
  9
$USERR5
 40
0.0
  9
$WORLDVIEW
 70
     1
  9
$SHADEDGE
 70
     3
  9
$SHADEDIF
 70
    70
  9
$TILEMODE
 70
     1
  9
$MAXACTVP
 70
    64
  9
$PINSBASE
 10
0.0
 20
0.0
 30
0.0
  9
$PLIMCHECK
 70
     0
  9
$PEXTMIN
 10
1.000000000000000E+20
 20
1.000000000000000E+20
 30
1.000000000000000E+20
  9
$PEXTMAX
 10
-1.000000000000000E+20
 20
-1.000000000000000E+20
 30
-1.000000000000000E+20
  9
$PLIMMIN
 10
0.0
 20
0.0
  9
$PLIMMAX
 10
420.0
 20
297.0
  9
$UNITMODE
 70
     0
  9
$VISRETAIN
 70
     1
  9
$PLINEGEN
 70
     0
  9
$PSLTSCALE
 70
     1
  9
$TREEDEPTH
 70
  3020
  9
$PICKSTYLE
 70
     1
  9
$CMLSTYLE
  2
STANDARD
  9
$CMLJUST
 70
     0
  9
$CMLSCALE
 40
20.0
  9
$SAVEIMAGES
 70
     1
  0
ENDSEC
  0
SECTION
  2
CLASSES
  0
CLASS
  1
ACDBDICTIONARYWDFLT
  2
AcDbDictionaryWithDefault
  3
ObjectDBX Classes
 90
    32768
280
     0
281
     0
  0
CLASS
  1
VISUALSTYLE
  2
AcDbVisualStyle
  3
ObjectDBX Classes
 90
     4095
280
     0
281
     0
  0
CLASS
  1
MATERIAL
  2
AcDbMaterial
  3
ObjectDBX Classes
 90
     1153
280
     0
281
     0
  0
CLASS
  1
SCALE
  2
AcDbScale
  3
ObjectDBX Classes
 90
     1153
280
     0
281
     0
  0
CLASS
  1
TABLESTYLE
  2
AcDbTableStyle
  3
ObjectDBX Classes
 90
     4095
280
     0
281
     0
  0
CLASS
  1
MLEADERSTYLE
  2
AcDbMLeaderStyle
  3
ACDB_MLEADERSTYLE_CLASS
 90
     4095
280
     0
281
     0
  0
CLASS
  1
SUN
  2
AcDbSun
  3
SCENEOE
 90
     1153
280
     0
281
     0
  0
CLASS
  1
DICTIONARYVAR
  2
AcDbDictionaryVar
  3
ObjectDBX Classes
 90
        0
280
     0
281
     0
  0
CLASS
  1
XRECORD
  2
AcDbXrecord
  3
ObjectDBX Classes
 90
    32768
280
     0
281
     0
  0
CLASS
  1
LWPOLYLINE
  2
AcDbPolyline
  3
ObjectDBX Classes
 90
    32768
280
     0
281
     1
  0
CLASS
  1
HATCH
  2
AcDbHatch
  3
ObjectDBX Classes
 90
    32768
280
     0
281
     1
  0
CLASS
  1
ACDBPLACEHOLDER
  2
AcDbPlaceHolder
  3
ObjectDBX Classes
 90
        0
280
     0
281
     0
  0
CLASS
  1
LAYOUT
  2
AcDbLayout
  3
ObjectDBX Classes
 90
        0
280
     0
281
     0
  0
ENDSEC
  0
SECTION
  2
TABLES
  0
TABLE
  2
VPORT
  5
8
330
0
100
AcDbSymbolTable
 70
     1
  0
VPORT
  5
29
330
8
100
AcDbSymbolTableRecord
100
AcDbViewportTableRecord
  2
*ACTIVE
 70
     0
 10
0.0
 20
0.0
 11
1.0
 21
1.0
 12
0.0
 22
6.5
 13
0.0
 23
0.0
 14
10.0
 24
10.0
 15
10.0
 25
10.0
 16
0.0
 26
0.0
 36
1.0
 17
0.0
 27
0.0
 37
0.0
 40
620.16
 41
0.9786184210526317
 42
50.0
 43
0.0
 44
0.0
 50
0.0
 51
0.0
 71
     0
 72
   100
 73
     1
 74
     3
 75
     0
 76
     0
 77
     0
 78
     0
  0
ENDTAB
  0
TABLE
  2
LTYPE
  5
5
330
0
100
AcDbSymbolTable
 70
     1
  0
LTYPE
  5
14
330
5
100
AcDbSymbolTableRecord
100
AcDbLinetypeTableRecord
  2
BYBLOCK
 70
     0
  3

 72
    65
 73
     0
 40
0.0
  0
LTYPE
  5
15
330
5
100
AcDbSymbolTableRecord
100
AcDbLinetypeTableRecord
  2
BYLAYER
 70
     0
  3

 72
    65
 73
     0
 40
0.0
  0
LTYPE
  5
16
330
5
100
AcDbSymbolTableRecord
100
AcDbLinetypeTableRecord
  2
CONTINUOUS
 70
     0
  3
Solid line
 72
    65
 73
     0
 40
0.0
  0
ENDTAB
  0
TABLE
  2
LAYER
  5
2
330
0
100
AcDbSymbolTable
 70
     4
  0
LAYER
  5
10
330
2
100
AcDbSymbolTableRecord
100
AcDbLayerTableRecord
  2
0
 70
     0
 62
     7
  6
CONTINUOUS
  0
LAYER
  5
6E
330
2
100
AcDbSymbolTableRecord
100
AcDbLayerTableRecord
  2
THICK
 70
     0
 62
     7
  6
CONTINUOUS
  0
LAYER
  5
6F
330
2
100
AcDbSymbolTableRecord
100
AcDbLayerTableRecord
  2
HIDDEN
 70
     0
 62
     7
  6
CONTINUOUS
  0
LAYER
  5
70
330
2
100
AcDbSymbolTableRecord
100
AcDbLayerTableRecord
  2
HASHLINES
 70
     0
 62
     7
  6
CONTINUOUS
  0
ENDTAB
  0
TABLE
  2
STYLE
  5
3
330
0
100
AcDbSymbolTable
 70
     1
  0
STYLE
  5
11
330
3
100
AcDbSymbolTableRecord
100
AcDbTextStyleTableRecord
  2
STANDARD
 70
     0
 40
0.0
 41
1.0
 50
0.0
 71
     0
 42
2.5
  3
txt
  4

  0
ENDTAB
  0
TABLE
  2
VIEW
  5
6
330
0
100
AcDbSymbolTable
 70
     0
  0
ENDTAB
  0
TABLE
  2
UCS
  5
7
330
0
100
AcDbSymbolTable
 70
     0
  0
ENDTAB
  0
TABLE
  2
APPID
  5
9
330
0
100
AcDbSymbolTable
 70
     3
  0
APPID
  5
12
330
9
100
AcDbSymbolTableRecord
100
AcDbRegAppTableRecord
  2
ACAD
 70
     0
  0
APPID
  5
71
330
9
100
AcDbSymbolTableRecord
100
AcDbRegAppTableRecord
  2
DBPROPERTIES
 70
     0
  0
APPID
  5
616
330
9
100
AcDbSymbolTableRecord
100
AcDbRegAppTableRecord
  2
ACAD_MLEADERVER
 70
     0
  0
ENDTAB
  0
TABLE
  2
DIMSTYLE
  5
A
330
0
100
AcDbSymbolTable
 70
     1
  0
DIMSTYLE
105
27
330
A
100
AcDbSymbolTableRecord
100
AcDbDimStyleTableRecord
  2
ISO-25
 70
     0
  3

  4

  5

  6

  7

 40
1.0
 41
2.5
 42
0.625
 43
3.75
 44
1.25
 45
0.0
 46
0.0
 47
0.0
 48
0.0
140
2.5
141
2.5
142
0.0
143
0.03937007874016
144
1.0
145
0.0
146
1.0
147
0.625
 71
     0
 72
     0
 73
     0
 74
     0
 75
     0
 76
     0
 77
     1
 78
     8
170
     0
171
     3
172
     1
173
     0
174
     0
175
     0
176
     0
177
     0
178
     0
270
     2
271
     2
272
     2
273
     2
274
     3
340
11
275
     0
280
     0
281
     0
282
     0
283
     0
284
     8
285
     0
286
     0
287
     3
288
     0
  0
ENDTAB
  0
TABLE
  2
BLOCK_RECORD
  5
1
330
0
100
AcDbSymbolTable
 70
     0
  0
BLOCK_RECORD
  5
1F
330
1
100
AcDbSymbolTableRecord
100
AcDbBlockTableRecord
  2
*MODEL_SPACE
  0
BLOCK_RECORD
  5
1B
330
1
100
AcDbSymbolTableRecord
100
AcDbBlockTableRecord
  2
*PAPER_SPACE
  0
ENDTAB
  0
ENDSEC
  0
SECTION
  2
BLOCKS
  0
BLOCK
  5
20
330
1F
100
AcDbEntity
  8
0
100
AcDbBlockBegin
  2
*MODEL_SPACE
 70
     0
 10
0.0
 20
0.0
 30
0.0
  3
*MODEL_SPACE
  1

  0
ENDBLK
  5
21
330
1F
100
AcDbEntity
  8
0
100
AcDbBlockEnd
  0
BLOCK
  5
1C
330
1B
100
AcDbEntity
 67
     1
  8
0
100
AcDbBlockBegin
  2
*PAPER_SPACE
 70
     0
 10
0.0
 20
0.0
 30
0.0
  3
*PAPER_SPACE
  1

  0
ENDBLK
  5
1D
330
1B
100
AcDbEntity
 67
     1
  8
0
100
AcDbBlockEnd
  0
ENDSEC
  0
SECTION
  2
ENTITIES
  0
ARC
  5
72
330
1F
100
AcDbEntity
  8
THICK
100
AcDbCircle
 10
0.0
 20
0.0
 30
0.0
 40
71.33333333333333
100
AcDbArc
 50
270.0000187239684
 51
0.0
1001
DBPROPERTIES
1002
{
1000
PbThick
1002
}
  0
ARC
  5
73
330
1F
100
AcDbEntity
  8
THICK
100
AcDbCircle
 10
0.0
 20
0.0
 30
0.0
 40
71.33333333333333
100
AcDbArc
 50
0.0
 51
89.99998127603165
1001
DBPROPERTIES
1002
{
1000
PbThick
1002
}
  0
ARC
  5
74
330
1F
100
AcDbEntity
  8
THICK
100
AcDbCircle
 10
0.0
 20
0.0
 30
0.0
 40
71.33333333333333
100
AcDbArc
 50
89.99998127603165
 51
270.0000187239684
1001
DBPROPERTIES
1002
{
1000
PbThick
1002
}
  0
ARC
  5
75
330
1F
100
AcDbEntity
  8
THICK
100
AcDbCircle
 10
0.0
 20
-0.0000000000000007
 30
0.0
 40
83.33333333333333
100
AcDbArc
 50
270.0000187239684
 51
0.0
1001
DBPROPERTIES
1002
{
1000
PbThick
1002
}
  0
ARC
  5
76
330
1F
100
AcDbEntity
  8
THICK
100
AcDbCircle
 10
0.0
 20
-0.0000000000000007
 30
0.0
 40
83.33333333333333
100
AcDbArc
 50
180.0000198478428
 51
270.0000187239684
1001
DBPROPERTIES
1002
{
1000
PbThick
1002
}
  0
ARC
  5
77
330
1F
100
AcDbEntity
  8
THICK
100
AcDbCircle
 10
0.0
 20
-0.0000000000000007
 30
0.0
 40
83.33333333333333
100
AcDbArc
 50
0.0
 51
89.99998127603165
1001
DBPROPERTIES
1002
{
1000
PbThick
1002
}
  0
ARC
  5
78
330
1F
100
AcDbEntity
  8
HIDDEN
100
AcDbCircle
 10
0.0
 20
0.0
 30
0.0
 40
16.66666666666667
100
AcDbArc
 50
0.0
 51
180.0000198478428
1001
DBPROPERTIES
1002
{
1000
PbHidd
1002
}
  0
ARC
  5
79
330
1F
100
AcDbEntity
  8
HIDDEN
100
AcDbCircle
 10
0.0000000000000573
 20
0.0
 30
0.0
 40
88.0
100
AcDbArc
 50
89.99998127603165
 51
92.99998829133665
1001
DBPROPERTIES
1002
{
1000
PbHidd
1002
}
  0
ARC
  5
7A
330
1F
100
AcDbEntity
  8
HIDDEN
100
AcDbCircle
 10
0.0000000000000573
 20
0.0
 30
0.0
 40
88.0
100
AcDbArc
 50
267.0000117086634
 51
270.0000187239684
1001
DBPROPERTIES
1002
{
1000
PbHidd
1002
}
  0
ARC
  5
7B
330
1F
100
AcDbEntity
  8
HIDDEN
100
AcDbCircle
 10
0.0000000000000528
 20
0.0
 30
0.0
 40
100.0
100
AcDbArc
 50
350.9999789540851
 51
0.0
1001
DBPROPERTIES
1002
{
1000
PbHidd
1002
}
  0
LINE
  5
7C
330
1F
100
AcDbEntity
  8
HIDDEN
100
AcDbLine
 10
98.76883405951381
 20
-15.64344650402318
 30
0.0
 11
98.76883405951381
 21
-15.64344650402318
 31
0.0
1001
DBPROPERTIES
1002
{
1000
PbHidd
1002
}
  0
ARC
  5
7D
330
1F
100
AcDbEntity
  8
HIDDEN
100
AcDbCircle
 10
0.0000000000000478
 20
0.0
 30
0.0
 40
102.0408163265306
100
AcDbArc
 50
180.0000198478428
 51
211.0280511812308
1001
DBPROPERTIES
1002
{
1000
PbHidd
1002
}
  0
ARC
  5
7E
330
1F
100
AcDbEntity
  8
THICK
100
AcDbCircle
 10
0.0000000000000478
 20
0.0
 30
0.0
 40
102.0408163265306
100
AcDbArc
 50
211.0280511812308
 51
225.5773976561058
1001
DBPROPERTIES
1002
{
1000
PbThick
1002
}
  0
ARC
  5
7F
330
1F
100
AcDbEntity
  8
HIDDEN
100
AcDbCircle
 10
0.0000000000000478
 20
0.0
 30
0.0
 40
102.0408163265306
100
AcDbArc
 50
225.5773976561058
 51
262.4566282806144
1001
DBPROPERTIES
1002
{
1000
PbHidd
1002
}
  0
ARC
  5
80
330
1F
100
AcDbEntity
  8
THICK
100
AcDbCircle
 10
0.0000000000000478
 20
0.0
 30
0.0
 40
102.0408163265306
100
AcDbArc
 50
262.4566282806144
 51
277.0059747554895
1001
DBPROPERTIES
1002
{
1000
PbThick
1002
}
  0
ARC
  5
81
330
1F
100
AcDbEntity
  8
HIDDEN
100
AcDbCircle
 10
0.0000000000000478
 20
0.0
 30
0.0
 40
102.0408163265306
100
AcDbArc
 50
277.0059747554895
 51
313.8852053799981
1001
DBPROPERTIES
1002
{
1000
PbHidd
1002
}
  0
ARC
  5
82
330
1F
100
AcDbEntity
  8
THICK
100
AcDbCircle
 10
0.0000000000000478
 20
0.0
 30
0.0
 40
102.0408163265306
100
AcDbArc
 50
313.8852053799981
 51
328.4345518548732
1001
DBPROPERTIES
1002
{
1000
PbThick
1002
}
  0
ARC
  5
83
330
1F
100
AcDbEntity
  8
HIDDEN
100
AcDbCircle
 10
0.0000000000000478
 20
0.0
 30
0.0
 40
102.0408163265306
100
AcDbArc
 50
328.4345518548732
 51
0.0
1001
DBPROPERTIES
1002
{
1000
PbHidd
1002
}
  0
LINE
  5
84
330
1F
100
AcDbEntity
  8
HIDDEN
100
AcDbLine
 10
-101.6713884829413
 20
-8.67507697577201
 30
0.0
 11
-101.6713884829413
 21
-8.67507697577201
 31
0.0
1001
DBPROPERTIES
1002
{
1000
PbHidd
1002
}
  0
LINE
  5
85
330
1F
100
AcDbEntity
  8
HIDDEN
100
AcDbLine
 10
-101.2532746298707
 20
-12.65316455724511
 30
0.0
 11
-101.2532746298707
 21
-12.65316455724511
 31
0.0
1001
DBPROPERTIES
1002
{
1000
PbHidd
1002
}
  0
LINE
  5
86
330
1F
100
AcDbEntity
  8
HIDDEN
100
AcDbLine
 10
8.67507697577201
 20
-101.6713884829414
 30
0.0
 11
8.67507697577201
 21
-101.6713884829414
 31
0.0
1001
DBPROPERTIES
1002
{
1000
PbHidd
1002
}
  0
LINE
  5
87
330
1F
100
AcDbEntity
  8
HIDDEN
100
AcDbLine
 10
12.65316455724511
 20
-101.2532746298708
 30
0.0
 11
12.65316455724511
 21
-101.2532746298708
 31
0.0
1001
DBPROPERTIES
1002
{
1000
PbHidd
1002
}
  0
LINE
  5
88
330
1F
100
AcDbEntity
  8
HIDDEN
100
AcDbLine
 10
-12.65316455724513
 20
-101.2532746298708
 30
0.0
 11
-12.65316455724513
 21
-101.2532746298708
 31
0.0
1001
DBPROPERTIES
1002
{
1000
PbHidd
1002
}
  0
LINE
  5
89
330
1F
100
AcDbEntity
  8
HIDDEN
100
AcDbLine
 10
-8.675076975772035
 20
-101.6713884829414
 30
0.0
 11
-8.675076975772035
 21
-101.6713884829414
 31
0.0
1001
DBPROPERTIES
1002
{
1000
PbHidd
1002
}
  0
LINE
  5
8A
330
1F
100
AcDbEntity
  8
HIDDEN
100
AcDbLine
 10
101.2532746298708
 20
-12.65316455724514
 30
0.0
 11
101.2532746298708
 21
-12.65316455724514
 31
0.0
1001
DBPROPERTIES
1002
{
1000
PbHidd
1002
}
  0
LINE
  5
8B
330
1F
100
AcDbEntity
  8
HIDDEN
100
AcDbLine
 10
101.6713884829414
 20
-8.675076975772045
 30
0.0
 11
101.6713884829414
 21
-8.675076975772045
 31
0.0
1001
DBPROPERTIES
1002
{
1000
PbHidd
1002
}
  0
ARC
  5
8C
330
1F
100
AcDbEntity
  8
HIDDEN
100
AcDbCircle
 10
0.0000000000000478
 20
0.0
 30
0.0
 40
62.5
100
AcDbArc
 50
180.0000198478428
 51
182.9999871674622
1001
DBPROPERTIES
1002
{
1000
PbHidd
1002
}
  0
LINE
  5
8D
330
1F
100
AcDbEntity
  8
HIDDEN
100
AcDbLine
 10
-62.41434592216081
 20
-3.270997265183957
 30
0.0
 11
-62.41434592216083
 21
-3.270997265183957
 31
0.0
1001
DBPROPERTIES
1002
{
1000
PbHidd
1002
}
  0
ARC
  5
8E
330
1F
100
AcDbEntity
  8
HIDDEN
100
AcDbCircle
 10
0.0000000000000528
 20
0.0
 30
0.0
 40
71.42857142857143
100
AcDbArc
 50
180.0000198478428
 51
182.9999871674622
1001
DBPROPERTIES
1002
{
1000
PbHidd
1002
}
  0
LINE
  5
8F
330
1F
100
AcDbEntity
  8
HIDDEN
100
AcDbLine
 10
-71.33068105389808
 20
-3.738282588781665
 30
0.0
 11
-71.33068105389808
 21
-3.738282588781665
 31
0.0
1001
DBPROPERTIES
1002
{
1000
PbHidd
1002
}
  0
ARC
  5
90
330
1F
100
AcDbEntity
  8
THICK
100
AcDbCircle
 10
0.0000000000000023
 20
0.0
 30
0.0
 40
152.9199925980745
100
AcDbArc
 50
256.2963579547064
 51
270.0000187239684
1001
DBPROPERTIES
1002
{
1000
PbThick
1002
}
  0
ARC
  5
91
330
1F
100
AcDbEntity
  8
HIDDEN
100
AcDbCircle
 10
0.0000000000000023
 20
0.0
 30
0.0
 40
152.9199925980745
100
AcDbArc
 50
231.9270305333047
 51
256.2963579547064
1001
DBPROPERTIES
1002
{
1000
PbHidd
1002
}
  0
ARC
  5
92
330
1F
100
AcDbEntity
  8
THICK
100
AcDbCircle
 10
0.0000000000000023
 20
0.0
 30
0.0
 40
152.9199925980745
100
AcDbArc
 50
204.8677808553227
 51
231.9270305333047
1001
DBPROPERTIES
1002
{
1000
PbThick
1002
}
  0
ARC
  5
93
330
1F
100
AcDbEntity
  8
HIDDEN
100
AcDbCircle
 10
0.0000000000000023
 20
0.0
 30
0.0
 40
152.9199925980745
100
AcDbArc
 50
180.498453433921
 51
204.8677808553227
1001
DBPROPERTIES
1002
{
1000
PbHidd
1002
}
  0
ARC
  5
94
330
1F
100
AcDbEntity
  8
THICK
100
AcDbCircle
 10
0.0000000000000023
 20
0.0
 30
0.0
 40
152.9199925980745
100
AcDbArc
 50
153.4392434516247
 51
180.498453433921
1001
DBPROPERTIES
1002
{
1000
PbThick
1002
}
  0
ARC
  5
95
330
1F
100
AcDbEntity
  8
HIDDEN
100
AcDbCircle
 10
0.0000000000000023
 20
0.0
 30
0.0
 40
152.9199925980745
100
AcDbArc
 50
129.0698587344435
 51
153.4392434516247
1001
DBPROPERTIES
1002
{
1000
PbHidd
1002
}
  0
ARC
  5
96
330
1F
100
AcDbEntity
  8
THICK
100
AcDbCircle
 10
0.0000000000000023
 20
0.0
 30
0.0
 40
152.9199925980745
100
AcDbArc
 50
102.010666352241
 51
129.0698587344435
1001
DBPROPERTIES
1002
{
1000
PbThick
1002
}
  0
ARC
  5
97
330
1F
100
AcDbEntity
  8
HIDDEN
100
AcDbCircle
 10
0.0000000000000023
 20
0.0
 30
0.0
 40
152.9199925980745
100
AcDbArc
 50
89.99998127603165
 51
102.010666352241
1001
DBPROPERTIES
1002
{
1000
PbHidd
1002
}
  0
ARC
  5
98
330
1F
100
AcDbEntity
  8
HIDDEN
100
AcDbCircle
 10
0.0000000000000029
 20
0.0
 30
0.0
 40
158.1199925980745
100
AcDbArc
 50
89.99998127603165
 51
95.27526099158065
1001
DBPROPERTIES
1002
{
1000
PbHidd
1002
}
  0
ARC
  5
99
330
1F
100
AcDbEntity
  8
HIDDEN
100
AcDbCircle
 10
0.0000000000000029
 20
0.0
 30
0.0
 40
158.1199925980745
100
AcDbArc
 50
95.27526099158065
 51
96.72472962170262
1001
DBPROPERTIES
1002
{
1000
PbHidd
1002
}
  0
ARC
  5
9A
330
1F
100
AcDbEntity
  8
THICK
100
AcDbCircle
 10
0.0000000000000029
 20
0.0
 30
0.0
 40
158.1199925980745
100
AcDbArc
 50
153.0386313612692
 51
173.2752715021719
1001
DBPROPERTIES
1002
{
1000
PbThick
1002
}
  0
ARC
  5
9B
330
1F
100
AcDbEntity
  8
HIDDEN
100
AcDbCircle
 10
0.0000000000000029
 20
0.0
 30
0.0
 40
158.1199925980745
100
AcDbArc
 50
129.4823883469377
 51
153.0386313612692
1001
DBPROPERTIES
1002
{
1000
PbHidd
1002
}
  0
ARC
  5
9C
330
1F
100
AcDbEntity
  8
THICK
100
AcDbCircle
 10
0.0000000000000029
 20
0.0
 30
0.0
 40
158.1199925980745
100
AcDbArc
 50
101.6100542618856
 51
129.4823883469377
1001
DBPROPERTIES
1002
{
1000
PbThick
1002
}
  0
ARC
  5
9D
330
1F
100
AcDbEntity
  8
HIDDEN
100
AcDbCircle
 10
0.0000000000000029
 20
0.0
 30
0.0
 40
158.1199925980745
100
AcDbArc
 50
96.72472962170262
 51
101.6100542618856
1001
DBPROPERTIES
1002
{
1000
PbHidd
1002
}
  0
ARC
  5
9E
330
1F
100
AcDbEntity
  8
THICK
100
AcDbCircle
 10
0.0000000000000029
 20
0.0
 30
0.0
 40
158.1199925980745
100
AcDbArc
 50
173.2752715021719
 51
174.7247401322938
1001
DBPROPERTIES
1002
{
1000
PbThick
1002
}
  0
ARC
  5
9F
330
1F
100
AcDbEntity
  8
HIDDEN
100
AcDbCircle
 10
0.0000000000000029
 20
0.0
 30
0.0
 40
158.1199925980745
100
AcDbArc
 50
180.9109830464152
 51
185.2752598677062
1001
DBPROPERTIES
1002
{
1000
PbHidd
1002
}
  0
ARC
  5
A0
330
1F
100
AcDbEntity
  8
THICK
100
AcDbCircle
 10
0.0000000000000029
 20
0.0
 30
0.0
 40
158.1199925980745
100
AcDbArc
 50
174.7247401322938
 51
180.9109830464152
1001
DBPROPERTIES
1002
{
1000
PbThick
1002
}
  0
ARC
  5
A1
330
1F
100
AcDbEntity
  8
HIDDEN
100
AcDbCircle
 10
0.0000000000000029
 20
0.0
 30
0.0
 40
158.1199925980745
100
AcDbArc
 50
185.2752598677062
 51
186.7247284978282
1001
DBPROPERTIES
1002
{
1000
PbHidd
1002
}
  0
ARC
  5
A2
330
1F
100
AcDbEntity
  8
THICK
100
AcDbCircle
 10
0.0000000000000029
 20
0.0
 30
0.0
 40
158.1199925980745
100
AcDbArc
 50
255.8958031601304
 51
263.2752703782974
1001
DBPROPERTIES
1002
{
1000
PbThick
1002
}
  0
ARC
  5
A3
330
1F
100
AcDbEntity
  8
HIDDEN
100
AcDbCircle
 10
0.0000000000000029
 20
0.0
 30
0.0
 40
158.1199925980745
100
AcDbArc
 50
232.3395601457989
 51
255.8958031601304
1001
DBPROPERTIES
1002
{
1000
PbHidd
1002
}
  0
ARC
  5
A4
330
1F
100
AcDbEntity
  8
THICK
100
AcDbCircle
 10
0.0000000000000029
 20
0.0
 30
0.0
 40
158.1199925980745
100
AcDbArc
 50
204.4672260607468
 51
232.3395601457989
1001
DBPROPERTIES
1002
{
1000
PbThick
1002
}
  0
ARC
  5
A5
330
1F
100
AcDbEntity
  8
HIDDEN
100
AcDbCircle
 10
0.0000000000000029
 20
0.0
 30
0.0
 40
158.1199925980745
100
AcDbArc
 50
186.7247284978282
 51
204.4672260607468
1001
DBPROPERTIES
1002
{
1000
PbHidd
1002
}
  0
ARC
  5
A6
330
1F
100
AcDbEntity
  8
THICK
100
AcDbCircle
 10
0.0000000000000029
 20
0.0
 30
0.0
 40
158.1199925980745
100
AcDbArc
 50
263.2752703782974
 51
264.7247390084193
1001
DBPROPERTIES
1002
{
1000
PbThick
1002
}
  0
ARC
  5
A7
330
1F
100
AcDbEntity
  8
THICK
100
AcDbCircle
 10
0.0000000000000029
 20
0.0
 30
0.0
 40
158.1199925980745
100
AcDbArc
 50
264.7247390084193
 51
270.0000187239684
1001
DBPROPERTIES
1002
{
1000
PbThick
1002
}
  0
ARC
  5
A8
330
1F
100
AcDbEntity
  8
HIDDEN
100
AcDbCircle
 10
0.0000000000000029
 20
0.0
 30
0.0
 40
146.9155497985024
100
AcDbArc
 50
270.0000187239684
 51
275.2200080122872
1001
DBPROPERTIES
1002
{
1000
PbHidd
1002
}
  0
ARC
  5
A9
330
1F
100
AcDbEntity
  8
THICK
100
AcDbCircle
 10
0.0000000000000023
 20
0.0
 30
0.0
 40
141.7155497985024
100
AcDbArc
 50
270.0000187239684
 51
275.1913601225307
1001
DBPROPERTIES
1002
{
1000
PbThick
1002
}
  0
ARC
  5
AA
330
1F
100
AcDbEntity
  8
HIDDEN
100
AcDbCircle
 10
0.0000000000000023
 20
0.0
 30
0.0
 40
141.7155497985024
100
AcDbArc
 50
84.80863987746932
 51
89.99998127603165
1001
DBPROPERTIES
1002
{
1000
PbHidd
1002
}
  0
ARC
  5
AB
330
1F
100
AcDbEntity
  8
HIDDEN
100
AcDbCircle
 10
0.0000000000000029
 20
0.0
 30
0.0
 40
146.9155497985024
100
AcDbArc
 50
84.77999198771278
 51
89.99998127603165
1001
DBPROPERTIES
1002
{
1000
PbHidd
1002
}
  0
ARC
  5
AC
330
1F
100
AcDbEntity
  8
THICK
100
AcDbCircle
 10
0.0
 20
0.0
 30
0.0
 40
250.0
100
AcDbArc
 50
179.9999801521572
 51
0.0
1001
DBPROPERTIES
1002
{
1000
PbThick
1002
}
  0
ARC
  5
AD
330
1F
100
AcDbEntity
  8
HIDDEN
100
AcDbCircle
 10
0.0
 20
0.0
 30
0.0
 40
287.5
100
AcDbArc
 50
0.0
 51
89.99998127603165
1001
DBPROPERTIES
1002
{
1000
PbHidd
1002
}
  0
ARC
  5
AE
330
1F
100
AcDbEntity
  8
HIDDEN
100
AcDbCircle
 10
0.0
 20
0.0
 30
0.0
 40
287.5
100
AcDbArc
 50
270.0000187239684
 51
0.0
1001
DBPROPERTIES
1002
{
1000
PbHidd
1002
}
  0
ARC
  5
AF
330
1F
100
AcDbEntity
  8
THICK
100
AcDbCircle
 10
0.0
 20
0.0
 30
0.0
 40
287.5
100
AcDbArc
 50
89.99998127603165
 51
180.0000198478428
1001
DBPROPERTIES
1002
{
1000
PbThick
1002
}
  0
ARC
  5
B0
330
1F
100
AcDbEntity
  8
THICK
100
AcDbCircle
 10
0.0000000000000012
 20
-0.0000000000000006
 30
0.0
 40
297.5
100
AcDbArc
 50
89.99998127603165
 51
180.0000198478428
1001
DBPROPERTIES
1002
{
1000
PbThick
1002
}
  0
ARC
  5
B1
330
1F
100
AcDbEntity
  8
THICK
100
AcDbCircle
 10
0.0000000000000012
 20
-0.0000000000000006
 30
0.0
 40
297.5
100
AcDbArc
 50
179.9999801521572
 51
270.0000187239684
1001
DBPROPERTIES
1002
{
1000
PbThick
1002
}
  0
ARC
  5
B2
330
1F
100
AcDbEntity
  8
THICK
100
AcDbCircle
 10
0.0
 20
0.0
 30
0.0
 40
287.5
100
AcDbArc
 50
180.0000198478428
 51
270.0000187239684
1001
DBPROPERTIES
1002
{
1000
PbThick
1002
}
  0
ARC
  5
B3
330
1F
100
AcDbEntity
  8
THICK
100
AcDbCircle
 10
0.0000000000000012
 20
-0.0000000000000006
 30
0.0
 40
297.5
100
AcDbArc
 50
270.0000187239684
 51
0.0
1001
DBPROPERTIES
1002
{
1000
PbThick
1002
}
  0
ARC
  5
B4
330
1F
100
AcDbEntity
  8
THICK
100
AcDbCircle
 10
280.0
 20
0.0
 30
0.0
 40
6.0
100
AcDbArc
 50
179.9999801521572
 51
0.0
1001
DBPROPERTIES
1002
{
1000
PbThick
1002
}
  0
ARC
  5
B5
330
1F
100
AcDbEntity
  8
THICK
100
AcDbCircle
 10
242.4871130596428
 20
140.0
 30
0.0
 40
5.999999999999999
100
AcDbArc
 50
209.9999930094276
 51
30.00001285727039
1001
DBPROPERTIES
1002
{
1000
PbThick
1002
}
  0
ARC
  5
B6
330
1F
100
AcDbEntity
  8
THICK
100
AcDbCircle
 10
140.0
 20
242.4871130596428
 30
0.0
 40
6.0
100
AcDbArc
 50
240.0000058666979
 51
60.00002571454078
1001
DBPROPERTIES
1002
{
1000
PbThick
1002
}
  0
ARC
  5
B7
330
1F
100
AcDbEntity
  8
THICK
100
AcDbCircle
 10
0.0000000000000171
 20
280.0
 30
0.0
 40
6.0
100
AcDbArc
 50
270.0000187239684
 51
89.99998127603165
1001
DBPROPERTIES
1002
{
1000
PbThick
1002
}
  0
ARC
  5
B8
330
1F
100
AcDbEntity
  8
THICK
100
AcDbCircle
 10
-139.9999999999999
 20
242.4871130596428
 30
0.0
 40
5.999999999999999
100
AcDbArc
 50
299.9999742854592
 51
119.999994133302
1001
DBPROPERTIES
1002
{
1000
PbThick
1002
}
  0
ARC
  5
B9
330
1F
100
AcDbEntity
  8
THICK
100
AcDbCircle
 10
-242.4871130596428
 20
140.0000000000001
 30
0.0
 40
5.999999999999999
100
AcDbArc
 50
329.9999871427296
 51
150.0000069905724
1001
DBPROPERTIES
1002
{
1000
PbThick
1002
}
  0
ARC
  5
BA
330
1F
100
AcDbEntity
  8
THICK
100
AcDbCircle
 10
-280.0
 20
0.0000000000000343
 30
0.0
 40
6.0
100
AcDbArc
 50
0.0
 51
180.0000198478428
1001
DBPROPERTIES
1002
{
1000
PbThick
1002
}
  0
ARC
  5
BB
330
1F
100
AcDbEntity
  8
THICK
100
AcDbCircle
 10
-242.4871130596429
 20
-139.9999999999999
 30
0.0
 40
6.0
100
AcDbArc
 50
30.00001285727039
 51
209.9999930094276
1001
DBPROPERTIES
1002
{
1000
PbThick
1002
}
  0
ARC
  5
BC
330
1F
100
AcDbEntity
  8
THICK
100
AcDbCircle
 10
-140.0000000000001
 20
-242.4871130596428
 30
0.0
 40
6.0
100
AcDbArc
 50
60.00002571454078
 51
240.0000058666979
1001
DBPROPERTIES
1002
{
1000
PbThick
1002
}
  0
ARC
  5
BD
330
1F
100
AcDbEntity
  8
THICK
100
AcDbCircle
 10
-0.0000000000000514
 20
-280.0
 30
0.0
 40
6.0
100
AcDbArc
 50
89.99998127603165
 51
270.0000187239684
1001
DBPROPERTIES
1002
{
1000
PbThick
1002
}
  0
ARC
  5
BE
330
1F
100
AcDbEntity
  8
THICK
100
AcDbCircle
 10
139.9999999999998
 20
-242.4871130596429
 30
0.0
 40
6.0
100
AcDbArc
 50
119.999994133302
 51
299.9999742854592
1001
DBPROPERTIES
1002
{
1000
PbThick
1002
}
  0
ARC
  5
BF
330
1F
100
AcDbEntity
  8
THICK
100
AcDbCircle
 10
242.4871130596428
 20
-140.0000000000001
 30
0.0
 40
6.0
100
AcDbArc
 50
150.0000069905724
 51
329.9999871427296
1001
DBPROPERTIES
1002
{
1000
PbThick
1002
}
  0
ARC
  5
C0
330
1F
100
AcDbEntity
  8
HIDDEN
100
AcDbCircle
 10
0.0
 20
0.0
 30
0.0
 40
252.0
100
AcDbArc
 50
179.9999801521572
 51
0.0
1001
DBPROPERTIES
1002
{
1000
PbHidd
1002
}
  0
ARC
  5
C1
330
1F
100
AcDbEntity
  8
HIDDEN
100
AcDbCircle
 10
0.0
 20
-0.0000000000000573
 30
0.0
 40
71.33333333333333
100
AcDbArc
 50
0.0
 51
89.99998127603165
1001
DBPROPERTIES
1002
{
1000
PbHidd
1002
}
  0
ARC
  5
C2
330
1F
100
AcDbEntity
  8
HIDDEN
100
AcDbCircle
 10
0.0
 20
-0.0000000000000573
 30
0.0
 40
71.33333333333333
100
AcDbArc
 50
270.0000187239684
 51
0.0
1001
DBPROPERTIES
1002
{
1000
PbHidd
1002
}
  0
ARC
  5
C3
330
1F
100
AcDbEntity
  8
HIDDEN
100
AcDbCircle
 10
0.0000000000000573
 20
-0.0000000000000366
 30
0.0
 40
88.0
100
AcDbArc
 50
267.0000117086634
 51
270.0000187239684
1001
DBPROPERTIES
1002
{
1000
PbHidd
1002
}
  0
ARC
  5
C4
330
1F
100
AcDbEntity
  8
HIDDEN
100
AcDbCircle
 10
0.0000000000000573
 20
-0.0000000000000366
 30
0.0
 40
88.0
100
AcDbArc
 50
89.99998127603165
 51
92.99998829133665
1001
DBPROPERTIES
1002
{
1000
PbHidd
1002
}
  0
LINE
  5
C5
330
1F
100
AcDbEntity
  8
HIDDEN
100
AcDbLine
 10
98.76883405951381
 20
15.64344650402314
 30
0.0
 11
98.76883405951381
 21
15.64344650402314
 31
0.0
1001
DBPROPERTIES
1002
{
1000
PbHidd
1002
}
  0
LINE
  5
C6
330
1F
100
AcDbEntity
  8
HIDDEN
100
AcDbLine
 10
-101.6713884829413
 20
8.675076975771963
 30
0.0
 11
-101.6713884829413
 21
8.675076975771963
 31
0.0
1001
DBPROPERTIES
1002
{
1000
PbHidd
1002
}
  0
LINE
  5
C7
330
1F
100
AcDbEntity
  8
HIDDEN
100
AcDbLine
 10
-101.2532746298707
 20
12.65316455724506
 30
0.0
 11
-101.2532746298707
 21
12.65316455724506
 31
0.0
1001
DBPROPERTIES
1002
{
1000
PbHidd
1002
}
  0
LINE
  5
C8
330
1F
100
AcDbEntity
  8
HIDDEN
100
AcDbLine
 10
8.67507697577201
 20
101.6713884829413
 30
0.0
 11
8.67507697577201
 21
101.6713884829413
 31
0.0
1001
DBPROPERTIES
1002
{
1000
PbHidd
1002
}
  0
LINE
  5
C9
330
1F
100
AcDbEntity
  8
HIDDEN
100
AcDbLine
 10
12.65316455724511
 20
101.2532746298707
 30
0.0
 11
12.65316455724511
 21
101.2532746298707
 31
0.0
1001
DBPROPERTIES
1002
{
1000
PbHidd
1002
}
  0
LINE
  5
CA
330
1F
100
AcDbEntity
  8
HIDDEN
100
AcDbLine
 10
-12.65316455724513
 20
101.2532746298707
 30
0.0
 11
-12.65316455724513
 21
101.2532746298707
 31
0.0
1001
DBPROPERTIES
1002
{
1000
PbHidd
1002
}
  0
LINE
  5
CB
330
1F
100
AcDbEntity
  8
HIDDEN
100
AcDbLine
 10
-8.675076975772035
 20
101.6713884829413
 30
0.0
 11
-8.675076975772035
 21
101.6713884829413
 31
0.0
1001
DBPROPERTIES
1002
{
1000
PbHidd
1002
}
  0
LINE
  5
CC
330
1F
100
AcDbEntity
  8
HIDDEN
100
AcDbLine
 10
101.2532746298708
 20
12.6531645572451
 30
0.0
 11
101.2532746298708
 21
12.6531645572451
 31
0.0
1001
DBPROPERTIES
1002
{
1000
PbHidd
1002
}
  0
LINE
  5
CD
330
1F
100
AcDbEntity
  8
HIDDEN
100
AcDbLine
 10
101.6713884829414
 20
8.675076975771999
 30
0.0
 11
101.6713884829414
 21
8.675076975771999
 31
0.0
1001
DBPROPERTIES
1002
{
1000
PbHidd
1002
}
  0
LINE
  5
CE
330
1F
100
AcDbEntity
  8
HIDDEN
100
AcDbLine
 10
-62.41434592216081
 20
3.270997265183921
 30
0.0
 11
-62.41434592216083
 21
3.270997265183911
 31
0.0
1001
DBPROPERTIES
1002
{
1000
PbHidd
1002
}
  0
LINE
  5
CF
330
1F
100
AcDbEntity
  8
HIDDEN
100
AcDbLine
 10
-71.33068105389808
 20
3.738282588781624
 30
0.0
 11
-71.33068105389808
 21
3.738282588781629
 31
0.0
1001
DBPROPERTIES
1002
{
1000
PbHidd
1002
}
  0
ARC
  5
D0
330
1F
100
AcDbEntity
  8
HIDDEN
100
AcDbCircle
 10
0.0000000000000023
 20
-0.0000000000000414
 30
0.0
 40
152.9199925980745
100
AcDbArc
 50
89.99998127603165
 51
270.0000187239684
1001
DBPROPERTIES
1002
{
1000
PbHidd
1002
}
  0
ARC
  5
D1
330
1F
100
AcDbEntity
  8
HIDDEN
100
AcDbCircle
 10
0.0000000000000029
 20
-0.0000000000000403
 30
0.0
 40
158.1199925980745
100
AcDbArc
 50
263.2752703782974
 51
264.7247390084193
1001
DBPROPERTIES
1002
{
1000
PbHidd
1002
}
  0
ARC
  5
D2
330
1F
100
AcDbEntity
  8
HIDDEN
100
AcDbCircle
 10
0.0000000000000029
 20
-0.0000000000000403
 30
0.0
 40
158.1199925980745
100
AcDbArc
 50
185.2752598677062
 51
186.7247284978282
1001
DBPROPERTIES
1002
{
1000
PbHidd
1002
}
  0
ARC
  5
D3
330
1F
100
AcDbEntity
  8
HIDDEN
100
AcDbCircle
 10
0.0000000000000029
 20
-0.0000000000000403
 30
0.0
 40
158.1199925980745
100
AcDbArc
 50
173.2752715021719
 51
174.7247401322938
1001
DBPROPERTIES
1002
{
1000
PbHidd
1002
}
  0
ARC
  5
D4
330
1F
100
AcDbEntity
  8
HIDDEN
100
AcDbCircle
 10
0.0000000000000029
 20
-0.0000000000000403
 30
0.0
 40
158.1199925980745
100
AcDbArc
 50
95.27526099158065
 51
96.72472962170262
1001
DBPROPERTIES
1002
{
1000
PbHidd
1002
}
  0
ARC
  5
D5
330
1F
100
AcDbEntity
  8
HIDDEN
100
AcDbCircle
 10
0.0000000000000029
 20
-0.0000000000000403
 30
0.0
 40
158.1199925980745
100
AcDbArc
 50
89.99998127603165
 51
95.27526099158065
1001
DBPROPERTIES
1002
{
1000
PbHidd
1002
}
  0
ARC
  5
D6
330
1F
100
AcDbEntity
  8
HIDDEN
100
AcDbCircle
 10
0.0000000000000029
 20
-0.0000000000000403
 30
0.0
 40
146.9155497985024
100
AcDbArc
 50
84.77999198771278
 51
89.99998127603165
1001
DBPROPERTIES
1002
{
1000
PbHidd
1002
}
  0
ARC
  5
D7
330
1F
100
AcDbEntity
  8
HIDDEN
100
AcDbCircle
 10
0.0000000000000023
 20
-0.0000000000000414
 30
0.0
 40
141.7155497985024
100
AcDbArc
 50
84.80863987746932
 51
89.99998127603165
1001
DBPROPERTIES
1002
{
1000
PbHidd
1002
}
  0
ARC
  5
D8
330
1F
100
AcDbEntity
  8
HIDDEN
100
AcDbCircle
 10
0.0000000000000029
 20
-0.0000000000000403
 30
0.0
 40
146.9155497985024
100
AcDbArc
 50
270.0000187239684
 51
275.2200080122872
1001
DBPROPERTIES
1002
{
1000
PbHidd
1002
}
  0
LINE
  5
D9
330
1F
100
AcDbEntity
  8
HIDDEN
100
AcDbLine
 10
-13.62936621749841
 20
148.8083019403601
 30
0.0
 11
-17.6074537989715
 21
148.3901880872894
 31
0.0
1001
DBPROPERTIES
1002
{
1000
PbHidd
1002
}
  0
LINE
  5
DA
330
1F
100
AcDbEntity
  8
HIDDEN
100
AcDbLine
 10
24.09080779454296
 20
248.3422698209194
 30
0.0
 11
24.09080779454296
 21
248.3422698209194
 31
0.0
1001
DBPROPERTIES
1002
{
1000
PbHidd
1002
}
  0
LINE
  5
DB
330
1F
100
AcDbEntity
  8
HIDDEN
100
AcDbLine
 10
27.34728761245206
 20
248.0
 30
0.0
 11
27.34728761245205
 21
248.0
 31
0.0
1001
DBPROPERTIES
1002
{
1000
PbHidd
1002
}
  0
LINE
  5
DC
330
1F
100
AcDbEntity
  8
HIDDEN
100
AcDbLine
 10
28.06889537601605
 20
247.9241559678488
 30
0.0
 11
28.06889537601605
 21
247.9241559678488
 31
0.0
1001
DBPROPERTIES
1002
{
1000
PbHidd
1002
}
  0
ARC
  5
DD
330
1F
100
AcDbEntity
  8
HIDDEN
100
AcDbCircle
 10
0.0000000000000029
 20
-0.0000000000000403
 30
0.0
 40
146.9155497985024
100
AcDbArc
 50
186.7800189250582
 51
263.2199799510672
1001
DBPROPERTIES
1002
{
1000
PbHidd
1002
}
  0
ARC
  5
DE
330
1F
100
AcDbEntity
  8
HIDDEN
100
AcDbCircle
 10
0.0000000000000029
 20
-0.0000000000000403
 30
0.0
 40
146.9155497985024
100
AcDbArc
 50
174.7800305595239
 51
185.219969440476
1001
DBPROPERTIES
1002
{
1000
PbHidd
1002
}
  0
ARC
  5
DF
330
1F
100
AcDbEntity
  8
HIDDEN
100
AcDbCircle
 10
0.0000000000000029
 20
-0.0000000000000403
 30
0.0
 40
146.9155497985024
100
AcDbArc
 50
264.7800294356495
 51
270.0000187239684
1001
DBPROPERTIES
1002
{
1000
PbHidd
1002
}
  0
ARC
  5
E0
330
1F
100
AcDbEntity
  8
HIDDEN
100
AcDbCircle
 10
0.0000000000000029
 20
-0.0000000000000403
 30
0.0
 40
146.9155497985024
100
AcDbArc
 50
96.78002004893274
 51
173.2199810749418
1001
DBPROPERTIES
1002
{
1000
PbHidd
1002
}
  0
ARC
  5
E1
330
1F
100
AcDbEntity
  8
HIDDEN
100
AcDbCircle
 10
0.0000000000000029
 20
-0.0000000000000403
 30
0.0
 40
146.9155497985024
100
AcDbArc
 50
276.7800002010899
 51
353.2200185228784
1001
DBPROPERTIES
1002
{
1000
PbHidd
1002
}
  0
ARC
  5
E2
330
1F
100
AcDbEntity
  8
HIDDEN
100
AcDbCircle
 10
0.0000000000000029
 20
-0.0000000000000403
 30
0.0
 40
146.9155497985024
100
AcDbArc
 50
89.99998127603165
 51
95.21997056435055
1001
DBPROPERTIES
1002
{
1000
PbHidd
1002
}
  0
ARC
  5
E3
330
1F
100
AcDbEntity
  8
HIDDEN
100
AcDbCircle
 10
0.0000000000000029
 20
-0.0000000000000403
 30
0.0
 40
158.1199925980745
100
AcDbArc
 50
84.72475885626217
 51
89.99998127603165
1001
DBPROPERTIES
1002
{
1000
PbHidd
1002
}
  0
ARC
  5
E4
330
1F
100
AcDbEntity
  8
HIDDEN
100
AcDbCircle
 10
0.0000000000000029
 20
-0.0000000000000403
 30
0.0
 40
146.9155497985024
100
AcDbArc
 50
354.7800107116811
 51
5.219989288318877
1001
DBPROPERTIES
1002
{
1000
PbHidd
1002
}
  0
ARC
  5
E5
330
1F
100
AcDbEntity
  8
HIDDEN
100
AcDbCircle
 10
0.0000000000000023
 20
-0.0000000000000414
 30
0.0
 40
141.7155497985024
100
AcDbArc
 50
89.99998127603165
 51
95.1913799703735
1001
DBPROPERTIES
1002
{
1000
PbHidd
1002
}
  0
ARC
  5
E6
330
1F
100
AcDbEntity
  8
HIDDEN
100
AcDbCircle
 10
0.0000000000000029
 20
-0.0000000000000403
 30
0.0
 40
146.9155497985024
100
AcDbArc
 50
6.77998147712157
 51
83.21999979891008
1001
DBPROPERTIES
1002
{
1000
PbHidd
1002
}
  0
ARC
  5
E7
330
1F
100
AcDbEntity
  8
HIDDEN
100
AcDbCircle
 10
0.0000000000000023
 20
-0.0000000000000414
 30
0.0
 40
152.9199925980745
100
AcDbArc
 50
270.0000187239684
 51
89.99998127603165
1001
DBPROPERTIES
1002
{
1000
PbHidd
1002
}
  0
ARC
  5
E8
330
1F
100
AcDbEntity
  8
HIDDEN
100
AcDbCircle
 10
0.0000000000000029
 20
-0.0000000000000403
 30
0.0
 40
158.1199925980745
100
AcDbArc
 50
83.27529022614021
 51
84.72475885626217
1001
DBPROPERTIES
1002
{
1000
PbHidd
1002
}
  0
ARC
  5
E9
330
1F
100
AcDbEntity
  8
HIDDEN
100
AcDbCircle
 10
0.0000000000000029
 20
-0.0000000000000403
 30
0.0
 40
158.1199925980745
100
AcDbArc
 50
5.275279715549003
 51
6.724748345670959
1001
DBPROPERTIES
1002
{
1000
PbHidd
1002
}
  0
ARC
  5
EA
330
1F
100
AcDbEntity
  8
HIDDEN
100
AcDbCircle
 10
0.0000000000000029
 20
-0.0000000000000403
 30
0.0
 40
158.1199925980745
100
AcDbArc
 50
353.2752516543291
 51
354.724720284451
1001
DBPROPERTIES
1002
{
1000
PbHidd
1002
}
  0
ARC
  5
EB
330
1F
100
AcDbEntity
  8
HIDDEN
100
AcDbCircle
 10
0.0000000000000029
 20
-0.0000000000000403
 30
0.0
 40
158.1199925980745
100
AcDbArc
 50
275.2752411437378
 51
276.7247097738598
1001
DBPROPERTIES
1002
{
1000
PbHidd
1002
}
  0
LINE
  5
EC
330
1F
100
AcDbEntity
  8
HIDDEN
100
AcDbLine
 10
151.3759630041199
 20
17.9212713882803
 30
0.0
 11
151.7940768571905
 21
13.94318380680721
 31
0.0
1001
DBPROPERTIES
1002
{
1000
PbHidd
1002
}
  0
LINE
  5
ED
330
1F
100
AcDbEntity
  8
HIDDEN
100
AcDbLine
 10
13.94318380680729
 20
151.7940768571905
 30
0.0
 11
17.92127138828037
 21
151.3759630041199
 31
0.0
1001
DBPROPERTIES
1002
{
1000
PbHidd
1002
}
  0
LINE
  5
EE
330
1F
100
AcDbEntity
  8
HIDDEN
100
AcDbLine
 10
-17.92127138828041
 20
151.3759630041199
 30
0.0
 11
-13.94318380680732
 21
151.7940768571905
 31
0.0
1001
DBPROPERTIES
1002
{
1000
PbHidd
1002
}
  0
LINE
  5
EF
330
1F
100
AcDbEntity
  8
HIDDEN
100
AcDbLine
 10
-151.7940768571905
 20
13.94318380680718
 30
0.0
 11
-151.3759630041199
 21
17.92127138828026
 31
0.0
1001
DBPROPERTIES
1002
{
1000
PbHidd
1002
}
  0
LINE
  5
F0
330
1F
100
AcDbEntity
  8
HIDDEN
100
AcDbLine
 10
-151.3759630041199
 20
-17.9212713882805
 30
0.0
 11
-151.7940768571905
 21
-13.94318380680741
 31
0.0
1001
DBPROPERTIES
1002
{
1000
PbHidd
1002
}
  0
LINE
  5
F1
330
1F
100
AcDbEntity
  8
HIDDEN
100
AcDbLine
 10
-13.94318380680729
 20
-151.7940768571906
 30
0.0
 11
-17.92127138828038
 21
-151.37596300412
 31
0.0
1001
DBPROPERTIES
1002
{
1000
PbHidd
1002
}
  0
LINE
  5
F2
330
1F
100
AcDbEntity
  8
HIDDEN
100
AcDbLine
 10
17.92127138828037
 20
-151.37596300412
 30
0.0
 11
13.94318380680729
 21
-151.7940768571906
 31
0.0
1001
DBPROPERTIES
1002
{
1000
PbHidd
1002
}
  0
LINE
  5
F3
330
1F
100
AcDbEntity
  8
HIDDEN
100
AcDbLine
 10
151.7940768571905
 20
-13.94318380680738
 30
0.0
 11
151.3759630041199
 21
-17.92127138828047
 31
0.0
1001
DBPROPERTIES
1002
{
1000
PbHidd
1002
}
  0
LINE
  5
F4
330
1F
100
AcDbEntity
  8
HIDDEN
100
AcDbLine
 10
130.0936164616318
 20
11.66237351201897
 30
0.0
 11
129.6755026085612
 21
15.64046109349206
 31
0.0
1001
DBPROPERTIES
1002
{
1000
PbHidd
1002
}
  0
LINE
  5
F5
330
1F
100
AcDbEntity
  8
HIDDEN
100
AcDbLine
 10
237.9992421090894
 20
23.00371177655939
 30
0.0
 11
237.9992421090894
 21
23.00371177655939
 31
0.0
1001
DBPROPERTIES
1002
{
1000
PbHidd
1002
}
  0
LINE
  5
F6
330
1F
100
AcDbEntity
  8
HIDDEN
100
AcDbLine
 10
248.3422698209195
 20
24.09080779454298
 30
0.0
 11
248.3422698209195
 21
24.09080779454298
 31
0.0
1001
DBPROPERTIES
1002
{
1000
PbHidd
1002
}
  0
LINE
  5
F7
330
1F
100
AcDbEntity
  8
HIDDEN
100
AcDbLine
 10
129.6755026085612
 20
-15.64046109349211
 30
0.0
 11
130.0936164616318
 21
-11.66237351201902
 31
0.0
1001
DBPROPERTIES
1002
{
1000
PbHidd
1002
}
  0
LINE
  5
F8
330
1F
100
AcDbEntity
  8
HIDDEN
100
AcDbLine
 10
237.5811282560188
 20
-26.98179935803248
 30
0.0
 11
237.5811282560188
 21
-26.98179935803248
 31
0.0
1001
DBPROPERTIES
1002
{
1000
PbHidd
1002
}
  0
LINE
  5
F9
330
1F
100
AcDbEntity
  8
HIDDEN
100
AcDbLine
 10
247.9241559678489
 20
-28.06889537601608
 30
0.0
 11
247.9241559678489
 21
-28.06889537601608
 31
0.0
1001
DBPROPERTIES
1002
{
1000
PbHidd
1002
}
  0
LINE
  5
FA
330
1F
100
AcDbEntity
  8
HIDDEN
100
AcDbLine
 10
101.2532746298708
 20
-12.65316455724515
 30
0.0
 11
101.2532746298708
 21
-12.65316455724515
 31
0.0
1001
DBPROPERTIES
1002
{
1000
PbHidd
1002
}
  0
LINE
  5
FB
330
1F
100
AcDbEntity
  8
HIDDEN
100
AcDbLine
 10
-11.66237351201901
 20
130.0936164616318
 30
0.0
 11
-15.6404610934921
 21
129.6755026085611
 31
0.0
1001
DBPROPERTIES
1002
{
1000
PbHidd
1002
}
  0
LINE
  5
FC
330
1F
100
AcDbEntity
  8
HIDDEN
100
AcDbLine
 10
-24.05483378676075
 20
248.0
 30
0.0
 11
-24.05483378676075
 21
248.0
 31
0.0
1001
DBPROPERTIES
1002
{
1000
PbHidd
1002
}
  0
LINE
  5
FD
330
1F
100
AcDbEntity
  8
HIDDEN
100
AcDbLine
 10
-23.00371177655942
 20
237.9992421090894
 30
0.0
 11
-23.00371177655942
 21
237.9992421090894
 31
0.0
1001
DBPROPERTIES
1002
{
1000
PbHidd
1002
}
  0
LINE
  5
FE
330
1F
100
AcDbEntity
  8
HIDDEN
100
AcDbLine
 10
-24.09080779454301
 20
248.3422698209194
 30
0.0
 11
-24.09080779454301
 21
248.3422698209194
 31
0.0
1001
DBPROPERTIES
1002
{
1000
PbHidd
1002
}
  0
LINE
  5
FF
330
1F
100
AcDbEntity
  8
HIDDEN
100
AcDbLine
 10
15.64046109349207
 20
129.6755026085611
 30
0.0
 11
11.66237351201898
 21
130.0936164616318
 31
0.0
1001
DBPROPERTIES
1002
{
1000
PbHidd
1002
}
  0
LINE
  5
100
330
1F
100
AcDbEntity
  8
HIDDEN
100
AcDbLine
 10
26.98179935803245
 20
237.5811282560188
 30
0.0
 11
26.98179935803245
 21
237.5811282560188
 31
0.0
1001
DBPROPERTIES
1002
{
1000
PbHidd
1002
}
  0
LINE
  5
101
330
1F
100
AcDbEntity
  8
HIDDEN
100
AcDbLine
 10
-130.0936164616318
 20
-11.66237351201904
 30
0.0
 11
-129.6755026085612
 21
-15.64046109349214
 31
0.0
1001
DBPROPERTIES
1002
{
1000
PbHidd
1002
}
  0
LINE
  5
102
330
1F
100
AcDbEntity
  8
HIDDEN
100
AcDbLine
 10
-237.9992421090894
 20
-23.00371177655945
 30
0.0
 11
-237.9992421090894
 21
-23.00371177655945
 31
0.0
1001
DBPROPERTIES
1002
{
1000
PbHidd
1002
}
  0
LINE
  5
103
330
1F
100
AcDbEntity
  8
HIDDEN
100
AcDbLine
 10
-248.3422698209195
 20
-24.09080779454303
 30
0.0
 11
-248.3422698209195
 21
-24.09080779454303
 31
0.0
1001
DBPROPERTIES
1002
{
1000
PbHidd
1002
}
  0
LINE
  5
104
330
1F
100
AcDbEntity
  8
HIDDEN
100
AcDbLine
 10
-101.6713884829413
 20
-8.675076975772065
 30
0.0
 11
-101.6713884829413
 21
-8.675076975772065
 31
0.0
1001
DBPROPERTIES
1002
{
1000
PbHidd
1002
}
  0
LINE
  5
105
330
1F
100
AcDbEntity
  8
HIDDEN
100
AcDbLine
 10
-129.6755026085612
 20
15.64046109349204
 30
0.0
 11
-130.0936164616318
 21
11.66237351201895
 31
0.0
1001
DBPROPERTIES
1002
{
1000
PbHidd
1002
}
  0
LINE
  5
106
330
1F
100
AcDbEntity
  8
HIDDEN
100
AcDbLine
 10
-237.5811282560188
 20
26.98179935803243
 30
0.0
 11
-237.5811282560188
 21
26.98179935803243
 31
0.0
1001
DBPROPERTIES
1002
{
1000
PbHidd
1002
}
  0
LINE
  5
107
330
1F
100
AcDbEntity
  8
HIDDEN
100
AcDbLine
 10
-247.9241559678489
 20
28.06889537601603
 30
0.0
 11
-247.9241559678489
 21
28.06889537601603
 31
0.0
1001
DBPROPERTIES
1002
{
1000
PbHidd
1002
}
  0
LINE
  5
108
330
1F
100
AcDbEntity
  8
HIDDEN
100
AcDbLine
 10
11.66237351201899
 20
-130.0936164616319
 30
0.0
 11
15.64046109349208
 21
-129.6755026085613
 31
0.0
1001
DBPROPERTIES
1002
{
1000
PbHidd
1002
}
  0
LINE
  5
109
330
1F
100
AcDbEntity
  8
HIDDEN
100
AcDbLine
 10
23.00371177655939
 20
-237.9992421090895
 30
0.0
 11
23.00371177655939
 21
-237.9992421090895
 31
0.0
1001
DBPROPERTIES
1002
{
1000
PbHidd
1002
}
  0
LINE
  5
10A
330
1F
100
AcDbEntity
  8
HIDDEN
100
AcDbLine
 10
24.09080779454298
 20
-248.3422698209195
 30
0.0
 11
24.09080779454298
 21
-248.3422698209195
 31
0.0
1001
DBPROPERTIES
1002
{
1000
PbHidd
1002
}
  0
LINE
  5
10B
330
1F
100
AcDbEntity
  8
HIDDEN
100
AcDbLine
 10
8.675076975772019
 20
-101.6713884829414
 30
0.0
 11
8.675076975772019
 21
-101.6713884829414
 31
0.0
1001
DBPROPERTIES
1002
{
1000
PbHidd
1002
}
  0
LINE
  5
10C
330
1F
100
AcDbEntity
  8
HIDDEN
100
AcDbLine
 10
-15.64046109349209
 20
-129.6755026085613
 30
0.0
 11
-11.662373512019
 21
-130.0936164616319
 31
0.0
1001
DBPROPERTIES
1002
{
1000
PbHidd
1002
}
  0
LINE
  5
10D
330
1F
100
AcDbEntity
  8
HIDDEN
100
AcDbLine
 10
-26.98179935803248
 20
-237.5811282560189
 30
0.0
 11
-26.98179935803248
 21
-237.5811282560189
 31
0.0
1001
DBPROPERTIES
1002
{
1000
PbHidd
1002
}
  0
LINE
  5
10E
330
1F
100
AcDbEntity
  8
HIDDEN
100
AcDbLine
 10
-28.06889537601608
 20
-247.9241559678489
 30
0.0
 11
-28.06889537601608
 21
-247.9241559678489
 31
0.0
1001
DBPROPERTIES
1002
{
1000
PbHidd
1002
}
  0
LINE
  5
10F
330
1F
100
AcDbEntity
  8
HIDDEN
100
AcDbLine
 10
-12.65316455724512
 20
-101.2532746298708
 30
0.0
 11
-12.65316455724512
 21
-101.2532746298708
 31
0.0
1001
DBPROPERTIES
1002
{
1000
PbHidd
1002
}
  0
LINE
  5
110
330
1F
100
AcDbEntity
  8
HIDDEN
100
AcDbLine
 10
237.5811282560188
 20
26.98179935803249
 30
0.0
 11
237.5811282560188
 21
26.98179935803248
 31
0.0
1001
DBPROPERTIES
1002
{
1000
PbHidd
1002
}
  0
LINE
  5
111
330
1F
100
AcDbEntity
  8
HIDDEN
100
AcDbLine
 10
247.9241559678489
 20
28.06889537601608
 30
0.0
 11
247.9241559678489
 21
28.06889537601608
 31
0.0
1001
DBPROPERTIES
1002
{
1000
PbHidd
1002
}
  0
LINE
  5
112
330
1F
100
AcDbEntity
  8
HIDDEN
100
AcDbLine
 10
148.8083019403601
 20
13.62936621749838
 30
0.0
 11
148.3901880872895
 21
17.60745379897147
 31
0.0
1001
DBPROPERTIES
1002
{
1000
PbHidd
1002
}
  0
LINE
  5
113
330
1F
100
AcDbEntity
  8
HIDDEN
100
AcDbLine
 10
124.9221026057168
 20
11.11882550302717
 30
0.0
 11
124.5039887526462
 21
15.09691308450026
 31
0.0
1001
DBPROPERTIES
1002
{
1000
PbHidd
1002
}
  0
LINE
  5
114
330
1F
100
AcDbEntity
  8
HIDDEN
100
AcDbLine
 10
237.9992421090894
 20
-23.00371177655938
 30
0.0
 11
237.9992421090894
 21
-23.00371177655939
 31
0.0
1001
DBPROPERTIES
1002
{
1000
PbHidd
1002
}
  0
LINE
  5
115
330
1F
100
AcDbEntity
  8
HIDDEN
100
AcDbLine
 10
248.3422698209195
 20
-24.09080779454299
 30
0.0
 11
248.3422698209195
 21
-24.09080779454298
 31
0.0
1001
DBPROPERTIES
1002
{
1000
PbHidd
1002
}
  0
LINE
  5
116
330
1F
100
AcDbEntity
  8
HIDDEN
100
AcDbLine
 10
148.3901880872895
 20
-17.60745379897149
 30
0.0
 11
148.8083019403601
 21
-13.6293662174984
 31
0.0
1001
DBPROPERTIES
1002
{
1000
PbHidd
1002
}
  0
LINE
  5
117
330
1F
100
AcDbEntity
  8
HIDDEN
100
AcDbLine
 10
124.5039887526462
 20
-15.09691308450031
 30
0.0
 11
124.9221026057168
 21
-11.11882550302722
 31
0.0
1001
DBPROPERTIES
1002
{
1000
PbHidd
1002
}
  0
LINE
  5
118
330
1F
100
AcDbEntity
  8
HIDDEN
100
AcDbLine
 10
101.6713884829414
 20
-8.675076975772054
 30
0.0
 11
101.6713884829414
 21
-8.675076975772054
 31
0.0
1001
DBPROPERTIES
1002
{
1000
PbHidd
1002
}
  0
LINE
  5
119
330
1F
100
AcDbEntity
  8
HIDDEN
100
AcDbLine
 10
-26.98179935803251
 20
237.5811282560188
 30
0.0
 11
-26.98179935803251
 21
237.5811282560188
 31
0.0
1001
DBPROPERTIES
1002
{
1000
PbHidd
1002
}
  0
LINE
  5
11A
330
1F
100
AcDbEntity
  8
HIDDEN
100
AcDbLine
 10
-27.34728761245209
 20
248.0
 30
0.0
 11
-27.3472876124521
 21
248.0
 31
0.0
1001
DBPROPERTIES
1002
{
1000
PbHidd
1002
}
  0
LINE
  5
11B
330
1F
100
AcDbEntity
  8
HIDDEN
100
AcDbLine
 10
-28.06889537601611
 20
247.9241559678488
 30
0.0
 11
-28.06889537601611
 21
247.9241559678488
 31
0.0
1001
DBPROPERTIES
1002
{
1000
PbHidd
1002
}
  0
LINE
  5
11C
330
1F
100
AcDbEntity
  8
HIDDEN
100
AcDbLine
 10
-11.11882550302721
 20
124.9221026057167
 30
0.0
 11
-15.0969130845003
 21
124.5039887526461
 31
0.0
1001
DBPROPERTIES
1002
{
1000
PbHidd
1002
}
  0
LINE
  5
11D
330
1F
100
AcDbEntity
  8
HIDDEN
100
AcDbLine
 10
23.00371177655936
 20
237.9992421090894
 30
0.0
 11
23.00371177655936
 21
237.9992421090894
 31
0.0
1001
DBPROPERTIES
1002
{
1000
PbHidd
1002
}
  0
LINE
  5
11E
330
1F
100
AcDbEntity
  8
HIDDEN
100
AcDbLine
 10
17.60745379897146
 20
148.3901880872894
 30
0.0
 11
13.62936621749837
 21
148.8083019403601
 31
0.0
1001
DBPROPERTIES
1002
{
1000
PbHidd
1002
}
  0
LINE
  5
11F
330
1F
100
AcDbEntity
  8
HIDDEN
100
AcDbLine
 10
15.09691308450027
 20
124.5039887526461
 30
0.0
 11
11.11882550302718
 21
124.9221026057167
 31
0.0
1001
DBPROPERTIES
1002
{
1000
PbHidd
1002
}
  0
LINE
  5
120
330
1F
100
AcDbEntity
  8
HIDDEN
100
AcDbLine
 10
24.0548337867607
 20
248.0
 30
0.0
 11
24.05483378676069
 21
248.0
 31
0.0
1001
DBPROPERTIES
1002
{
1000
PbHidd
1002
}
  0
LINE
  5
121
330
1F
100
AcDbEntity
  8
HIDDEN
100
AcDbLine
 10
-237.5811282560188
 20
-26.98179935803254
 30
0.0
 11
-237.5811282560188
 21
-26.98179935803254
 31
0.0
1001
DBPROPERTIES
1002
{
1000
PbHidd
1002
}
  0
LINE
  5
122
330
1F
100
AcDbEntity
  8
HIDDEN
100
AcDbLine
 10
-247.9241559678489
 20
-28.06889537601613
 30
0.0
 11
-247.9241559678489
 21
-28.06889537601613
 31
0.0
1001
DBPROPERTIES
1002
{
1000
PbHidd
1002
}
  0
LINE
  5
123
330
1F
100
AcDbEntity
  8
HIDDEN
100
AcDbLine
 10
-148.8083019403601
 20
-13.62936621749844
 30
0.0
 11
-148.3901880872895
 21
-17.60745379897153
 31
0.0
1001
DBPROPERTIES
1002
{
1000
PbHidd
1002
}
  0
LINE
  5
124
330
1F
100
AcDbEntity
  8
HIDDEN
100
AcDbLine
 10
-124.9221026057168
 20
-11.11882550302725
 30
0.0
 11
-124.5039887526462
 21
-15.09691308450034
 31
0.0
1001
DBPROPERTIES
1002
{
1000
PbHidd
1002
}
  0
LINE
  5
125
330
1F
100
AcDbEntity
  8
HIDDEN
100
AcDbLine
 10
-101.2532746298707
 20
-12.65316455724516
 30
0.0
 11
-101.2532746298707
 21
-12.65316455724516
 31
0.0
1001
DBPROPERTIES
1002
{
1000
PbHidd
1002
}
  0
LINE
  5
126
330
1F
100
AcDbEntity
  8
HIDDEN
100
AcDbLine
 10
-237.9992421090894
 20
23.00371177655933
 30
0.0
 11
-237.9992421090894
 21
23.00371177655933
 31
0.0
1001
DBPROPERTIES
1002
{
1000
PbHidd
1002
}
  0
LINE
  5
127
330
1F
100
AcDbEntity
  8
HIDDEN
100
AcDbLine
 10
-248.3422698209195
 20
24.09080779454293
 30
0.0
 11
-248.3422698209195
 21
24.09080779454293
 31
0.0
1001
DBPROPERTIES
1002
{
1000
PbHidd
1002
}
  0
LINE
  5
128
330
1F
100
AcDbEntity
  8
HIDDEN
100
AcDbLine
 10
-148.3901880872895
 20
17.60745379897143
 30
0.0
 11
-148.8083019403601
 21
13.62936621749834
 31
0.0
1001
DBPROPERTIES
1002
{
1000
PbHidd
1002
}
  0
LINE
  5
129
330
1F
100
AcDbEntity
  8
HIDDEN
100
AcDbLine
 10
-124.5039887526462
 20
15.09691308450024
 30
0.0
 11
-124.9221026057168
 21
11.11882550302714
 31
0.0
1001
DBPROPERTIES
1002
{
1000
PbHidd
1002
}
  0
LINE
  5
12A
330
1F
100
AcDbEntity
  8
HIDDEN
100
AcDbLine
 10
26.98179935803248
 20
-237.5811282560189
 30
0.0
 11
26.98179935803248
 21
-237.5811282560189
 31
0.0
1001
DBPROPERTIES
1002
{
1000
PbHidd
1002
}
  0
LINE
  5
12B
330
1F
100
AcDbEntity
  8
HIDDEN
100
AcDbLine
 10
28.06889537601608
 20
-247.9241559678489
 30
0.0
 11
28.06889537601608
 21
-247.9241559678489
 31
0.0
1001
DBPROPERTIES
1002
{
1000
PbHidd
1002
}
  0
LINE
  5
12C
330
1F
100
AcDbEntity
  8
HIDDEN
100
AcDbLine
 10
13.62936621749839
 20
-148.8083019403602
 30
0.0
 11
17.60745379897148
 21
-148.3901880872895
 31
0.0
1001
DBPROPERTIES
1002
{
1000
PbHidd
1002
}
  0
LINE
  5
12D
330
1F
100
AcDbEntity
  8
HIDDEN
100
AcDbLine
 10
11.11882550302719
 20
-124.9221026057168
 30
0.0
 11
15.09691308450028
 21
-124.5039887526462
 31
0.0
1001
DBPROPERTIES
1002
{
1000
PbHidd
1002
}
  0
LINE
  5
12E
330
1F
100
AcDbEntity
  8
HIDDEN
100
AcDbLine
 10
12.65316455724511
 20
-101.2532746298708
 30
0.0
 11
12.65316455724511
 21
-101.2532746298708
 31
0.0
1001
DBPROPERTIES
1002
{
1000
PbHidd
1002
}
  0
LINE
  5
12F
330
1F
100
AcDbEntity
  8
HIDDEN
100
AcDbLine
 10
-23.00371177655939
 20
-237.9992421090895
 30
0.0
 11
-23.00371177655939
 21
-237.9992421090895
 31
0.0
1001
DBPROPERTIES
1002
{
1000
PbHidd
1002
}
  0
LINE
  5
130
330
1F
100
AcDbEntity
  8
HIDDEN
100
AcDbLine
 10
-24.09080779454299
 20
-248.3422698209195
 30
0.0
 11
-24.09080779454299
 21
-248.3422698209195
 31
0.0
1001
DBPROPERTIES
1002
{
1000
PbHidd
1002
}
  0
LINE
  5
131
330
1F
100
AcDbEntity
  8
HIDDEN
100
AcDbLine
 10
-17.60745379897148
 20
-148.3901880872895
 30
0.0
 11
-13.62936621749839
 21
-148.8083019403602
 31
0.0
1001
DBPROPERTIES
1002
{
1000
PbHidd
1002
}
  0
LINE
  5
132
330
1F
100
AcDbEntity
  8
HIDDEN
100
AcDbLine
 10
-15.09691308450029
 20
-124.5039887526462
 30
0.0
 11
-11.1188255030272
 21
-124.9221026057168
 31
0.0
1001
DBPROPERTIES
1002
{
1000
PbHidd
1002
}
  0
LINE
  5
133
330
1F
100
AcDbEntity
  8
HIDDEN
100
AcDbLine
 10
-8.675076975772024
 20
-101.6713884829414
 30
0.0
 11
-8.675076975772024
 21
-101.6713884829414
 31
0.0
1001
DBPROPERTIES
1002
{
1000
PbHidd
1002
}
  0
LINE
  5
134
330
1F
100
AcDbEntity
  8
HIDDEN
100
AcDbLine
 10
-71.33068105389808
 20
-3.73828258878177
 30
0.0
 11
-71.33068105389808
 21
-3.738282588781774
 31
0.0
1001
DBPROPERTIES
1002
{
1000
PbHidd
1002
}
  0
LINE
  5
135
330
1F
100
AcDbEntity
  8
HIDDEN
100
AcDbLine
 10
-68.99470187779056
 20
18.48707465017999
 30
0.0
 11
-68.99470187779056
 21
18.48707465018
 31
0.0
1001
DBPROPERTIES
1002
{
1000
PbHidd
1002
}
  0
LINE
  5
136
330
1F
100
AcDbEntity
  8
HIDDEN
100
AcDbLine
 10
-70.54916718536694
 20
11.17389036001643
 30
0.0
 11
-70.54916718536694
 21
11.17389036001643
 31
0.0
1001
DBPROPERTIES
1002
{
1000
PbHidd
1002
}
  0
LINE
  5
137
330
1F
100
AcDbEntity
  8
HIDDEN
100
AcDbLine
 10
-70.54916718536693
 20
-11.17389036001654
 30
0.0
 11
-70.54916718536693
 21
-11.17389036001654
 31
0.0
1001
DBPROPERTIES
1002
{
1000
PbHidd
1002
}
  0
LINE
  5
138
330
1F
100
AcDbEntity
  8
HIDDEN
100
AcDbLine
 10
-68.99470187779055
 20
-18.48707465018009
 30
0.0
 11
-68.99470187779055
 21
-18.4870746501801
 31
0.0
1001
DBPROPERTIES
1002
{
1000
PbHidd
1002
}
  0
LINE
  5
139
330
1F
100
AcDbEntity
  8
HIDDEN
100
AcDbLine
 10
-63.64332315631196
 20
32.42789283853897
 30
0.0
 11
-63.64332315631196
 21
32.42789283853897
 31
0.0
1001
DBPROPERTIES
1002
{
1000
PbHidd
1002
}
  0
LINE
  5
13A
330
1F
100
AcDbEntity
  8
HIDDEN
100
AcDbLine
 10
-66.68431617837152
 20
25.59771068180709
 30
0.0
 11
-66.68431617837152
 21
25.59771068180708
 31
0.0
1001
DBPROPERTIES
1002
{
1000
PbHidd
1002
}
  0
LINE
  5
13B
330
1F
100
AcDbEntity
  8
HIDDEN
100
AcDbLine
 10
-66.6843161783715
 20
-25.5977106818072
 30
0.0
 11
-66.6843161783715
 21
-25.59771068180719
 31
0.0
1001
DBPROPERTIES
1002
{
1000
PbHidd
1002
}
  0
LINE
  5
13C
330
1F
100
AcDbEntity
  8
HIDDEN
100
AcDbLine
 10
-63.64332315631194
 20
-32.42789283853909
 30
0.0
 11
-63.64332315631194
 21
-32.42789283853909
 31
0.0
1001
DBPROPERTIES
1002
{
1000
PbHidd
1002
}
  0
LINE
  5
13D
330
1F
100
AcDbEntity
  8
HIDDEN
100
AcDbLine
 10
-55.51042581835505
 20
44.95145650355973
 30
0.0
 11
-55.51042581835505
 21
44.95145650355973
 31
0.0
1001
DBPROPERTIES
1002
{
1000
PbHidd
1002
}
  0
LINE
  5
13E
330
1F
100
AcDbEntity
  8
HIDDEN
100
AcDbLine
 10
-59.90504056753027
 20
38.90278821535899
 30
0.0
 11
-59.90504056753027
 21
38.90278821535899
 31
0.0
1001
DBPROPERTIES
1002
{
1000
PbHidd
1002
}
  0
LINE
  5
13F
330
1F
100
AcDbEntity
  8
HIDDEN
100
AcDbLine
 10
-59.90504056753022
 20
-38.90278821535912
 30
0.0
 11
-59.90504056753022
 21
-38.90278821535912
 31
0.0
1001
DBPROPERTIES
1002
{
1000
PbHidd
1002
}
  0
LINE
  5
140
330
1F
100
AcDbEntity
  8
HIDDEN
100
AcDbLine
 10
-55.51042581835501
 20
-44.95145650355986
 30
0.0
 11
-55.51042581835501
 21
-44.95145650355986
 31
0.0
1001
DBPROPERTIES
1002
{
1000
PbHidd
1002
}
  0
LINE
  5
141
330
1F
100
AcDbEntity
  8
HIDDEN
100
AcDbLine
 10
-44.95145650355982
 20
55.51042581835499
 30
0.0
 11
-44.95145650355982
 21
55.51042581835499
 31
0.0
1001
DBPROPERTIES
1002
{
1000
PbHidd
1002
}
  0
LINE
  5
142
330
1F
100
AcDbEntity
  8
HIDDEN
100
AcDbLine
 10
-50.50762722761053
 20
50.50762722761046
 30
0.0
 11
-50.50762722761053
 21
50.50762722761046
 31
0.0
1001
DBPROPERTIES
1002
{
1000
PbHidd
1002
}
  0
LINE
  5
143
330
1F
100
AcDbEntity
  8
HIDDEN
100
AcDbLine
 10
-50.50762722761051
 20
-50.50762722761056
 30
0.0
 11
-50.50762722761051
 21
-50.50762722761056
 31
0.0
1001
DBPROPERTIES
1002
{
1000
PbHidd
1002
}
  0
LINE
  5
144
330
1F
100
AcDbEntity
  8
HIDDEN
100
AcDbLine
 10
-44.95145650355978
 20
-55.51042581835508
 30
0.0
 11
-44.95145650355978
 21
-55.51042581835508
 31
0.0
1001
DBPROPERTIES
1002
{
1000
PbHidd
1002
}
  0
LINE
  5
145
330
1F
100
AcDbEntity
  8
HIDDEN
100
AcDbLine
 10
-32.42789283853907
 20
63.64332315631192
 30
0.0
 11
-32.42789283853907
 21
63.64332315631192
 31
0.0
1001
DBPROPERTIES
1002
{
1000
PbHidd
1002
}
  0
LINE
  5
146
330
1F
100
AcDbEntity
  8
HIDDEN
100
AcDbLine
 10
-38.9027882153591
 20
59.90504056753021
 30
0.0
 11
-38.9027882153591
 21
59.90504056753021
 31
0.0
1001
DBPROPERTIES
1002
{
1000
PbHidd
1002
}
  0
LINE
  5
147
330
1F
100
AcDbEntity
  8
HIDDEN
100
AcDbLine
 10
-38.90278821535906
 20
-59.90504056753031
 30
0.0
 11
-38.90278821535906
 21
-59.90504056753031
 31
0.0
1001
DBPROPERTIES
1002
{
1000
PbHidd
1002
}
  0
LINE
  5
148
330
1F
100
AcDbEntity
  8
HIDDEN
100
AcDbLine
 10
-32.42789283853904
 20
-63.643323156312
 30
0.0
 11
-32.42789283853904
 21
-63.643323156312
 31
0.0
1001
DBPROPERTIES
1002
{
1000
PbHidd
1002
}
  0
LINE
  5
149
330
1F
100
AcDbEntity
  8
HIDDEN
100
AcDbLine
 10
-18.48707465018009
 20
68.99470187779052
 30
0.0
 11
-18.48707465018009
 21
68.99470187779052
 31
0.0
1001
DBPROPERTIES
1002
{
1000
PbHidd
1002
}
  0
LINE
  5
14A
330
1F
100
AcDbEntity
  8
HIDDEN
100
AcDbLine
 10
-25.59771068180719
 20
66.68431617837147
 30
0.0
 11
-25.59771068180719
 21
66.68431617837147
 31
0.0
1001
DBPROPERTIES
1002
{
1000
PbHidd
1002
}
  0
LINE
  5
14B
330
1F
100
AcDbEntity
  8
HIDDEN
100
AcDbLine
 10
-25.59771068180715
 20
-66.68431617837159
 30
0.0
 11
-25.59771068180714
 21
-66.68431617837159
 31
0.0
1001
DBPROPERTIES
1002
{
1000
PbHidd
1002
}
  0
LINE
  5
14C
330
1F
100
AcDbEntity
  8
HIDDEN
100
AcDbLine
 10
-18.48707465018003
 20
-68.99470187779063
 30
0.0
 11
-18.48707465018004
 21
-68.99470187779063
 31
0.0
1001
DBPROPERTIES
1002
{
1000
PbHidd
1002
}
  0
LINE
  5
14D
330
1F
100
AcDbEntity
  8
HIDDEN
100
AcDbLine
 10
-3.738282588781723
 20
71.33068105389809
 30
0.0
 11
-3.738282588781718
 21
71.33068105389809
 31
0.0
1001
DBPROPERTIES
1002
{
1000
PbHidd
1002
}
  0
LINE
  5
14E
330
1F
100
AcDbEntity
  8
HIDDEN
100
AcDbLine
 10
-11.17389036001651
 20
70.54916718536693
 30
0.0
 11
-11.17389036001651
 21
70.54916718536693
 31
0.0
1001
DBPROPERTIES
1002
{
1000
PbHidd
1002
}
  0
LINE
  5
14F
330
1F
100
AcDbEntity
  8
HIDDEN
100
AcDbLine
 10
-11.17389036001648
 20
-70.54916718536703
 30
0.0
 11
-11.17389036001647
 21
-70.54916718536703
 31
0.0
1001
DBPROPERTIES
1002
{
1000
PbHidd
1002
}
  0
LINE
  5
150
330
1F
100
AcDbEntity
  8
HIDDEN
100
AcDbLine
 10
-3.738282588781682
 20
-71.33068105389818
 30
0.0
 11
-3.738282588781686
 21
-71.33068105389818
 31
0.0
1001
DBPROPERTIES
1002
{
1000
PbHidd
1002
}
  0
LINE
  5
151
330
1F
100
AcDbEntity
  8
HIDDEN
100
AcDbLine
 10
11.17389036001643
 20
70.54916718536695
 30
0.0
 11
11.17389036001644
 21
70.54916718536695
 31
0.0
1001
DBPROPERTIES
1002
{
1000
PbHidd
1002
}
  0
LINE
  5
152
330
1F
100
AcDbEntity
  8
HIDDEN
100
AcDbLine
 10
3.738282588781647
 20
71.33068105389809
 30
0.0
 11
3.738282588781642
 21
71.33068105389809
 31
0.0
1001
DBPROPERTIES
1002
{
1000
PbHidd
1002
}
  0
LINE
  5
153
330
1F
100
AcDbEntity
  8
HIDDEN
100
AcDbLine
 10
3.738282588781709
 20
-71.33068105389818
 30
0.0
 11
3.738282588781713
 21
-71.33068105389818
 31
0.0
1001
DBPROPERTIES
1002
{
1000
PbHidd
1002
}
  0
LINE
  5
154
330
1F
100
AcDbEntity
  8
HIDDEN
100
AcDbLine
 10
11.17389036001651
 20
-70.54916718536704
 30
0.0
 11
11.1738903600165
 21
-70.54916718536704
 31
0.0
1001
DBPROPERTIES
1002
{
1000
PbHidd
1002
}
  0
LINE
  5
155
330
1F
100
AcDbEntity
  8
HIDDEN
100
AcDbLine
 10
25.59771068180713
 20
66.68431617837155
 30
0.0
 11
25.59771068180714
 21
66.68431617837155
 31
0.0
1001
DBPROPERTIES
1002
{
1000
PbHidd
1002
}
  0
LINE
  5
156
330
1F
100
AcDbEntity
  8
HIDDEN
100
AcDbLine
 10
18.48707465018002
 20
68.99470187779058
 30
0.0
 11
18.48707465018001
 21
68.99470187779058
 31
0.0
1001
DBPROPERTIES
1002
{
1000
PbHidd
1002
}
  0
LINE
  5
157
330
1F
100
AcDbEntity
  8
HIDDEN
100
AcDbLine
 10
18.48707465018006
 20
-68.99470187779066
 30
0.0
 11
18.48707465018007
 21
-68.99470187779066
 31
0.0
1001
DBPROPERTIES
1002
{
1000
PbHidd
1002
}
  0
LINE
  5
158
330
1F
100
AcDbEntity
  8
HIDDEN
100
AcDbLine
 10
25.59771068180718
 20
-66.68431617837162
 30
0.0
 11
25.59771068180717
 21
-66.68431617837162
 31
0.0
1001
DBPROPERTIES
1002
{
1000
PbHidd
1002
}
  0
LINE
  5
159
330
1F
100
AcDbEntity
  8
HIDDEN
100
AcDbLine
 10
38.90278821535908
 20
59.90504056753029
 30
0.0
 11
38.90278821535908
 21
59.90504056753029
 31
0.0
1001
DBPROPERTIES
1002
{
1000
PbHidd
1002
}
  0
LINE
  5
15A
330
1F
100
AcDbEntity
  8
HIDDEN
100
AcDbLine
 10
32.42789283853906
 20
63.64332315631199
 30
0.0
 11
32.42789283853906
 21
63.64332315631199
 31
0.0
1001
DBPROPERTIES
1002
{
1000
PbHidd
1002
}
  0
LINE
  5
15B
330
1F
100
AcDbEntity
  8
HIDDEN
100
AcDbLine
 10
32.42789283853909
 20
-63.64332315631204
 30
0.0
 11
32.42789283853909
 21
-63.64332315631204
 31
0.0
1001
DBPROPERTIES
1002
{
1000
PbHidd
1002
}
  0
LINE
  5
15C
330
1F
100
AcDbEntity
  8
HIDDEN
100
AcDbLine
 10
38.9027882153591
 20
-59.90504056753034
 30
0.0
 11
38.9027882153591
 21
-59.90504056753034
 31
0.0
1001
DBPROPERTIES
1002
{
1000
PbHidd
1002
}
  0
LINE
  5
15D
330
1F
100
AcDbEntity
  8
HIDDEN
100
AcDbLine
 10
50.50762722761053
 20
50.50762722761058
 30
0.0
 11
50.50762722761053
 21
50.50762722761058
 31
0.0
1001
DBPROPERTIES
1002
{
1000
PbHidd
1002
}
  0
LINE
  5
15E
330
1F
100
AcDbEntity
  8
HIDDEN
100
AcDbLine
 10
44.9514565035598
 20
55.5104258183551
 30
0.0
 11
44.9514565035598
 21
55.5104258183551
 31
0.0
1001
DBPROPERTIES
1002
{
1000
PbHidd
1002
}
  0
LINE
  5
15F
330
1F
100
AcDbEntity
  8
HIDDEN
100
AcDbLine
 10
44.95145650355984
 20
-55.51042581835512
 30
0.0
 11
44.95145650355984
 21
-55.51042581835512
 31
0.0
1001
DBPROPERTIES
1002
{
1000
PbHidd
1002
}
  0
LINE
  5
160
330
1F
100
AcDbEntity
  8
HIDDEN
100
AcDbLine
 10
50.50762722761057
 20
-50.50762722761059
 30
0.0
 11
50.50762722761057
 21
-50.50762722761059
 31
0.0
1001
DBPROPERTIES
1002
{
1000
PbHidd
1002
}
  0
LINE
  5
161
330
1F
100
AcDbEntity
  8
HIDDEN
100
AcDbLine
 10
59.90504056753031
 20
38.9027882153591
 30
0.0
 11
59.90504056753031
 21
38.9027882153591
 31
0.0
1001
DBPROPERTIES
1002
{
1000
PbHidd
1002
}
  0
LINE
  5
162
330
1F
100
AcDbEntity
  8
HIDDEN
100
AcDbLine
 10
55.51042581835507
 20
44.95145650355985
 30
0.0
 11
55.51042581835507
 21
44.95145650355985
 31
0.0
1001
DBPROPERTIES
1002
{
1000
PbHidd
1002
}
  0
LINE
  5
163
330
1F
100
AcDbEntity
  8
HIDDEN
100
AcDbLine
 10
55.5104258183551
 20
-44.95145650355987
 30
0.0
 11
55.5104258183551
 21
-44.95145650355987
 31
0.0
1001
DBPROPERTIES
1002
{
1000
PbHidd
1002
}
  0
LINE
  5
164
330
1F
100
AcDbEntity
  8
HIDDEN
100
AcDbLine
 10
59.90504056753034
 20
-38.90278821535913
 30
0.0
 11
59.90504056753034
 21
-38.90278821535913
 31
0.0
1001
DBPROPERTIES
1002
{
1000
PbHidd
1002
}
  0
LINE
  5
165
330
1F
100
AcDbEntity
  8
HIDDEN
100
AcDbLine
 10
66.68431617837159
 20
25.59771068180716
 30
0.0
 11
66.68431617837159
 21
25.59771068180717
 31
0.0
1001
DBPROPERTIES
1002
{
1000
PbHidd
1002
}
  0
LINE
  5
166
330
1F
100
AcDbEntity
  8
HIDDEN
100
AcDbLine
 10
63.64332315631203
 20
32.42789283853907
 30
0.0
 11
63.64332315631203
 21
32.42789283853907
 31
0.0
1001
DBPROPERTIES
1002
{
1000
PbHidd
1002
}
  0
LINE
  5
167
330
1F
100
AcDbEntity
  8
HIDDEN
100
AcDbLine
 10
63.64332315631204
 20
-32.42789283853911
 30
0.0
 11
63.64332315631204
 21
-32.42789283853911
 31
0.0
1001
DBPROPERTIES
1002
{
1000
PbHidd
1002
}
  0
LINE
  5
168
330
1F
100
AcDbEntity
  8
HIDDEN
100
AcDbLine
 10
66.6843161783716
 20
-25.59771068180721
 30
0.0
 11
66.6843161783716
 21
-25.59771068180722
 31
0.0
1001
DBPROPERTIES
1002
{
1000
PbHidd
1002
}
  0
LINE
  5
169
330
1F
100
AcDbEntity
  8
HIDDEN
100
AcDbLine
 10
70.54916718536703
 20
11.17389036001652
 30
0.0
 11
70.54916718536703
 21
11.17389036001652
 31
0.0
1001
DBPROPERTIES
1002
{
1000
PbHidd
1002
}
  0
LINE
  5
16A
330
1F
100
AcDbEntity
  8
HIDDEN
100
AcDbLine
 10
68.99470187779063
 20
18.48707465018009
 30
0.0
 11
68.99470187779063
 21
18.48707465018008
 31
0.0
1001
DBPROPERTIES
1002
{
1000
PbHidd
1002
}
  0
LINE
  5
16B
330
1F
100
AcDbEntity
  8
HIDDEN
100
AcDbLine
 10
70.54916718536704
 20
-11.17389036001653
 30
0.0
 11
70.54916718536704
 21
-11.17389036001654
 31
0.0
1001
DBPROPERTIES
1002
{
1000
PbHidd
1002
}
  0
LINE
  5
16C
330
1F
100
AcDbEntity
  8
HIDDEN
100
AcDbLine
 10
68.99470187779065
 20
-18.48707465018011
 30
0.0
 11
68.99470187779065
 21
-18.4870746501801
 31
0.0
1001
DBPROPERTIES
1002
{
1000
PbHidd
1002
}
  0
LINE
  5
16D
330
1F
100
AcDbEntity
  8
HIDDEN
100
AcDbLine
 10
-62.41434592216082
 20
-3.270997265184063
 30
0.0
 11
-62.41434592216081
 21
-3.270997265184053
 31
0.0
1001
DBPROPERTIES
1002
{
1000
PbHidd
1002
}
  0
LINE
  5
16E
330
1F
100
AcDbEntity
  8
HIDDEN
100
AcDbLine
 10
-60.37036414306673
 20
16.17619031890749
 30
0.0
 11
-60.37036414306674
 21
16.17619031890748
 31
0.0
1001
DBPROPERTIES
1002
{
1000
PbHidd
1002
}
  0
LINE
  5
16F
330
1F
100
AcDbEntity
  8
HIDDEN
100
AcDbLine
 10
-61.73052128719608
 20
9.777154065014363
 30
0.0
 11
-61.73052128719606
 21
9.777154065014374
 31
0.0
1001
DBPROPERTIES
1002
{
1000
PbHidd
1002
}
  0
LINE
  5
170
330
1F
100
AcDbEntity
  8
HIDDEN
100
AcDbLine
 10
-61.73052128719605
 20
-9.777154065014477
 30
0.0
 11
-61.73052128719607
 21
-9.777154065014487
 31
0.0
1001
DBPROPERTIES
1002
{
1000
PbHidd
1002
}
  0
LINE
  5
171
330
1F
100
AcDbEntity
  8
HIDDEN
100
AcDbLine
 10
-60.37036414306674
 20
-16.1761903189076
 30
0.0
 11
-60.37036414306672
 21
-16.17619031890759
 31
0.0
1001
DBPROPERTIES
1002
{
1000
PbHidd
1002
}
  0
LINE
  5
172
330
1F
100
AcDbEntity
  8
HIDDEN
100
AcDbLine
 10
-55.68790776177295
 20
28.37440623372159
 30
0.0
 11
-55.68790776177296
 21
28.37440623372159
 31
0.0
1001
DBPROPERTIES
1002
{
1000
PbHidd
1002
}
  0
LINE
  5
173
330
1F
100
AcDbEntity
  8
HIDDEN
100
AcDbLine
 10
-58.34877665607508
 20
22.39799684658119
 30
0.0
 11
-58.34877665607507
 21
22.3979968465812
 31
0.0
1001
DBPROPERTIES
1002
{
1000
PbHidd
1002
}
  0
LINE
  5
174
330
1F
100
AcDbEntity
  8
HIDDEN
100
AcDbLine
 10
-58.34877665607505
 20
-22.3979968465813
 30
0.0
 11
-58.34877665607507
 21
-22.39799684658131
 31
0.0
1001
DBPROPERTIES
1002
{
1000
PbHidd
1002
}
  0
LINE
  5
175
330
1F
100
AcDbEntity
  8
HIDDEN
100
AcDbLine
 10
-55.68790776177296
 20
-28.37440623372171
 30
0.0
 11
-55.68790776177295
 21
-28.3744062337217
 31
0.0
1001
DBPROPERTIES
1002
{
1000
PbHidd
1002
}
  0
LINE
  5
176
330
1F
100
AcDbEntity
  8
HIDDEN
100
AcDbLine
 10
-48.57162259106066
 20
39.33252444061476
 30
0.0
 11
-48.57162259106067
 21
39.33252444061475
 31
0.0
1001
DBPROPERTIES
1002
{
1000
PbHidd
1002
}
  0
LINE
  5
177
330
1F
100
AcDbEntity
  8
HIDDEN
100
AcDbLine
 10
-52.41691049658899
 20
34.0399396884391
 30
0.0
 11
-52.41691049658898
 21
34.03993968843911
 31
0.0
1001
DBPROPERTIES
1002
{
1000
PbHidd
1002
}
  0
LINE
  5
178
330
1F
100
AcDbEntity
  8
HIDDEN
100
AcDbLine
 10
-52.41691049658894
 20
-34.03993968843922
 30
0.0
 11
-52.41691049658895
 21
-34.03993968843923
 31
0.0
1001
DBPROPERTIES
1002
{
1000
PbHidd
1002
}
  0
LINE
  5
179
330
1F
100
AcDbEntity
  8
HIDDEN
100
AcDbLine
 10
-48.57162259106063
 20
-39.33252444061489
 30
0.0
 11
-48.57162259106062
 21
-39.33252444061488
 31
0.0
1001
DBPROPERTIES
1002
{
1000
PbHidd
1002
}
  0
LINE
  5
17A
330
1F
100
AcDbEntity
  8
HIDDEN
100
AcDbLine
 10
-39.33252444061483
 20
48.57162259106062
 30
0.0
 11
-39.33252444061485
 21
48.5716225910606
 31
0.0
1001
DBPROPERTIES
1002
{
1000
PbHidd
1002
}
  0
LINE
  5
17B
330
1F
100
AcDbEntity
  8
HIDDEN
100
AcDbLine
 10
-44.19417382415922
 20
44.19417382415914
 30
0.0
 11
-44.19417382415921
 21
44.19417382415915
 31
0.0
1001
DBPROPERTIES
1002
{
1000
PbHidd
1002
}
  0
LINE
  5
17C
330
1F
100
AcDbEntity
  8
HIDDEN
100
AcDbLine
 10
-44.19417382415918
 20
-44.19417382415924
 30
0.0
 11
-44.19417382415919
 21
-44.19417382415925
 31
0.0
1001
DBPROPERTIES
1002
{
1000
PbHidd
1002
}
  0
LINE
  5
17D
330
1F
100
AcDbEntity
  8
HIDDEN
100
AcDbLine
 10
-39.33252444061483
 20
-48.57162259106071
 30
0.0
 11
-39.33252444061481
 21
-48.5716225910607
 31
0.0
1001
DBPROPERTIES
1002
{
1000
PbHidd
1002
}
  0
LINE
  5
17E
330
1F
100
AcDbEntity
  8
HIDDEN
100
AcDbLine
 10
-28.37440623372168
 20
55.68790776177293
 30
0.0
 11
-28.37440623372169
 21
55.68790776177292
 31
0.0
1001
DBPROPERTIES
1002
{
1000
PbHidd
1002
}
  0
LINE
  5
17F
330
1F
100
AcDbEntity
  8
HIDDEN
100
AcDbLine
 10
-34.03993968843921
 20
52.41691049658893
 30
0.0
 11
-34.0399396884392
 21
52.41691049658894
 31
0.0
1001
DBPROPERTIES
1002
{
1000
PbHidd
1002
}
  0
LINE
  5
180
330
1F
100
AcDbEntity
  8
HIDDEN
100
AcDbLine
 10
-34.03993968843916
 20
-52.41691049658901
 30
0.0
 11
-34.03993968843918
 21
-52.41691049658903
 31
0.0
1001
DBPROPERTIES
1002
{
1000
PbHidd
1002
}
  0
LINE
  5
181
330
1F
100
AcDbEntity
  8
HIDDEN
100
AcDbLine
 10
-28.37440623372166
 20
-55.687907761773
 30
0.0
 11
-28.37440623372166
 21
-55.68790776177299
 31
0.0
1001
DBPROPERTIES
1002
{
1000
PbHidd
1002
}
  0
LINE
  5
182
330
1F
100
AcDbEntity
  8
HIDDEN
100
AcDbLine
 10
-16.17619031890758
 20
60.37036414306672
 30
0.0
 11
-16.17619031890758
 21
60.37036414306671
 31
0.0
1001
DBPROPERTIES
1002
{
1000
PbHidd
1002
}
  0
LINE
  5
183
330
1F
100
AcDbEntity
  8
HIDDEN
100
AcDbLine
 10
-22.39799684658129
 20
58.34877665607504
 30
0.0
 11
-22.39799684658129
 21
58.34877665607505
 31
0.0
1001
DBPROPERTIES
1002
{
1000
PbHidd
1002
}
  0
LINE
  5
184
330
1F
100
AcDbEntity
  8
HIDDEN
100
AcDbLine
 10
-22.39799684658125
 20
-58.34877665607512
 30
0.0
 11
-22.39799684658126
 21
-58.34877665607514
 31
0.0
1001
DBPROPERTIES
1002
{
1000
PbHidd
1002
}
  0
LINE
  5
185
330
1F
100
AcDbEntity
  8
HIDDEN
100
AcDbLine
 10
-16.17619031890754
 20
-60.37036414306681
 30
0.0
 11
-16.17619031890753
 21
-60.37036414306679
 31
0.0
1001
DBPROPERTIES
1002
{
1000
PbHidd
1002
}
  0
LINE
  5
186
330
1F
100
AcDbEntity
  8
HIDDEN
100
AcDbLine
 10
-3.270997265184001
 20
62.41434592216084
 30
0.0
 11
-3.270997265184011
 21
62.41434592216083
 31
0.0
1001
DBPROPERTIES
1002
{
1000
PbHidd
1002
}
  0
LINE
  5
187
330
1F
100
AcDbEntity
  8
HIDDEN
100
AcDbLine
 10
-9.77715406501445
 20
61.73052128719606
 30
0.0
 11
-9.77715406501444
 21
61.73052128719608
 31
0.0
1001
DBPROPERTIES
1002
{
1000
PbHidd
1002
}
  0
LINE
  5
188
330
1F
100
AcDbEntity
  8
HIDDEN
100
AcDbLine
 10
-9.777154065014408
 20
-61.73052128719613
 30
0.0
 11
-9.777154065014418
 21
-61.73052128719615
 31
0.0
1001
DBPROPERTIES
1002
{
1000
PbHidd
1002
}
  0
LINE
  5
189
330
1F
100
AcDbEntity
  8
HIDDEN
100
AcDbLine
 10
-3.270997265183978
 20
-62.41434592216091
 30
0.0
 11
-3.270997265183968
 21
-62.4143459221609
 31
0.0
1001
DBPROPERTIES
1002
{
1000
PbHidd
1002
}
  0
LINE
  5
18A
330
1F
100
AcDbEntity
  8
HIDDEN
100
AcDbLine
 10
9.777154065014388
 20
61.73052128719609
 30
0.0
 11
9.777154065014377
 21
61.73052128719608
 31
0.0
1001
DBPROPERTIES
1002
{
1000
PbHidd
1002
}
  0
LINE
  5
18B
330
1F
100
AcDbEntity
  8
HIDDEN
100
AcDbLine
 10
3.270997265183934
 20
62.41434592216083
 30
0.0
 11
3.270997265183944
 21
62.41434592216085
 31
0.0
1001
DBPROPERTIES
1002
{
1000
PbHidd
1002
}
  0
LINE
  5
18C
330
1F
100
AcDbEntity
  8
HIDDEN
100
AcDbLine
 10
3.270997265184001
 20
-62.4143459221609
 30
0.0
 11
3.270997265183991
 21
-62.41434592216091
 31
0.0
1001
DBPROPERTIES
1002
{
1000
PbHidd
1002
}
  0
LINE
  5
18D
330
1F
100
AcDbEntity
  8
HIDDEN
100
AcDbLine
 10
9.777154065014438
 20
-61.73052128719617
 30
0.0
 11
9.777154065014448
 21
-61.73052128719615
 31
0.0
1001
DBPROPERTIES
1002
{
1000
PbHidd
1002
}
  0
LINE
  5
18E
330
1F
100
AcDbEntity
  8
HIDDEN
100
AcDbLine
 10
22.39799684658125
 20
58.34877665607511
 30
0.0
 11
22.39799684658124
 21
58.3487766560751
 31
0.0
1001
DBPROPERTIES
1002
{
1000
PbHidd
1002
}
  0
LINE
  5
18F
330
1F
100
AcDbEntity
  8
HIDDEN
100
AcDbLine
 10
16.17619031890751
 20
60.37036414306675
 30
0.0
 11
16.17619031890752
 21
60.37036414306677
 31
0.0
1001
DBPROPERTIES
1002
{
1000
PbHidd
1002
}
  0
LINE
  5
190
330
1F
100
AcDbEntity
  8
HIDDEN
100
AcDbLine
 10
16.17619031890756
 20
-60.37036414306682
 30
0.0
 11
16.17619031890755
 21
-60.37036414306683
 31
0.0
1001
DBPROPERTIES
1002
{
1000
PbHidd
1002
}
  0
LINE
  5
191
330
1F
100
AcDbEntity
  8
HIDDEN
100
AcDbLine
 10
22.39799684658127
 20
-58.34877665607517
 30
0.0
 11
22.39799684658128
 21
-58.34877665607515
 31
0.0
1001
DBPROPERTIES
1002
{
1000
PbHidd
1002
}
  0
LINE
  5
192
330
1F
100
AcDbEntity
  8
HIDDEN
100
AcDbLine
 10
34.0399396884392
 20
52.41691049658901
 30
0.0
 11
34.03993968843919
 21
52.416910496589
 31
0.0
1001
DBPROPERTIES
1002
{
1000
PbHidd
1002
}
  0
LINE
  5
193
330
1F
100
AcDbEntity
  8
HIDDEN
100
AcDbLine
 10
28.37440623372167
 20
55.68790776177298
 30
0.0
 11
28.37440623372168
 21
55.68790776177299
 31
0.0
1001
DBPROPERTIES
1002
{
1000
PbHidd
1002
}
  0
LINE
  5
194
330
1F
100
AcDbEntity
  8
HIDDEN
100
AcDbLine
 10
28.3744062337217
 20
-55.68790776177304
 30
0.0
 11
28.3744062337217
 21
-55.68790776177305
 31
0.0
1001
DBPROPERTIES
1002
{
1000
PbHidd
1002
}
  0
LINE
  5
195
330
1F
100
AcDbEntity
  8
HIDDEN
100
AcDbLine
 10
34.0399396884392
 20
-52.41691049658907
 30
0.0
 11
34.03993968843922
 21
-52.41691049658905
 31
0.0
1001
DBPROPERTIES
1002
{
1000
PbHidd
1002
}
  0
LINE
  5
196
330
1F
100
AcDbEntity
  8
HIDDEN
100
AcDbLine
 10
44.19417382415922
 20
44.19417382415925
 30
0.0
 11
44.19417382415921
 21
44.19417382415924
 31
0.0
1001
DBPROPERTIES
1002
{
1000
PbHidd
1002
}
  0
LINE
  5
197
330
1F
100
AcDbEntity
  8
HIDDEN
100
AcDbLine
 10
39.33252444061482
 20
48.5716225910607
 30
0.0
 11
39.33252444061483
 21
48.57162259106072
 31
0.0
1001
DBPROPERTIES
1002
{
1000
PbHidd
1002
}
  0
LINE
  5
198
330
1F
100
AcDbEntity
  8
HIDDEN
100
AcDbLine
 10
39.33252444061487
 20
-48.57162259106073
 30
0.0
 11
39.33252444061485
 21
-48.57162259106074
 31
0.0
1001
DBPROPERTIES
1002
{
1000
PbHidd
1002
}
  0
LINE
  5
199
330
1F
100
AcDbEntity
  8
HIDDEN
100
AcDbLine
 10
44.19417382415924
 20
-44.19417382415928
 30
0.0
 11
44.19417382415926
 21
-44.19417382415926
 31
0.0
1001
DBPROPERTIES
1002
{
1000
PbHidd
1002
}
  0
LINE
  5
19A
330
1F
100
AcDbEntity
  8
HIDDEN
100
AcDbLine
 10
52.41691049658903
 20
34.03993968843922
 30
0.0
 11
52.41691049658901
 21
34.0399396884392
 31
0.0
1001
DBPROPERTIES
1002
{
1000
PbHidd
1002
}
  0
LINE
  5
19B
330
1F
100
AcDbEntity
  8
HIDDEN
100
AcDbLine
 10
48.57162259106068
 20
39.33252444061485
 30
0.0
 11
48.5716225910607
 21
39.33252444061486
 31
0.0
1001
DBPROPERTIES
1002
{
1000
PbHidd
1002
}
  0
LINE
  5
19C
330
1F
100
AcDbEntity
  8
HIDDEN
100
AcDbLine
 10
48.57162259106072
 20
-39.3325244406149
 30
0.0
 11
48.57162259106071
 21
-39.33252444061491
 31
0.0
1001
DBPROPERTIES
1002
{
1000
PbHidd
1002
}
  0
LINE
  5
19D
330
1F
100
AcDbEntity
  8
HIDDEN
100
AcDbLine
 10
52.41691049658903
 20
-34.03993968843926
 30
0.0
 11
52.41691049658905
 21
-34.03993968843925
 31
0.0
1001
DBPROPERTIES
1002
{
1000
PbHidd
1002
}
  0
LINE
  5
19E
330
1F
100
AcDbEntity
  8
HIDDEN
100
AcDbLine
 10
58.34877665607515
 20
22.39799684658127
 30
0.0
 11
58.34877665607514
 21
22.39799684658126
 31
0.0
1001
DBPROPERTIES
1002
{
1000
PbHidd
1002
}
  0
LINE
  5
19F
330
1F
100
AcDbEntity
  8
HIDDEN
100
AcDbLine
 10
55.68790776177302
 20
28.37440623372167
 30
0.0
 11
55.68790776177303
 21
28.37440623372168
 31
0.0
1001
DBPROPERTIES
1002
{
1000
PbHidd
1002
}
  0
LINE
  5
1A0
330
1F
100
AcDbEntity
  8
HIDDEN
100
AcDbLine
 10
55.68790776177304
 20
-28.37440623372173
 30
0.0
 11
55.68790776177303
 21
-28.37440623372174
 31
0.0
1001
DBPROPERTIES
1002
{
1000
PbHidd
1002
}
  0
LINE
  5
1A1
330
1F
100
AcDbEntity
  8
HIDDEN
100
AcDbLine
 10
58.34877665607515
 20
-22.39799684658133
 30
0.0
 11
58.34877665607517
 21
-22.39799684658132
 31
0.0
1001
DBPROPERTIES
1002
{
1000
PbHidd
1002
}
  0
LINE
  5
1A2
330
1F
100
AcDbEntity
  8
HIDDEN
100
AcDbLine
 10
61.73052128719615
 20
9.777154065014452
 30
0.0
 11
61.73052128719614
 21
9.777154065014441
 31
0.0
1001
DBPROPERTIES
1002
{
1000
PbHidd
1002
}
  0
LINE
  5
1A3
330
1F
100
AcDbEntity
  8
HIDDEN
100
AcDbLine
 10
60.3703641430668
 20
16.17619031890756
 30
0.0
 11
60.37036414306682
 21
16.17619031890757
 31
0.0
1001
DBPROPERTIES
1002
{
1000
PbHidd
1002
}
  0
LINE
  5
1A4
330
1F
100
AcDbEntity
  8
HIDDEN
100
AcDbLine
 10
61.73052128719615
 20
-9.777154065014482
 30
0.0
 11
61.73052128719617
 21
-9.777154065014471
 31
0.0
1001
DBPROPERTIES
1002
{
1000
PbHidd
1002
}
  0
LINE
  5
1A5
330
1F
100
AcDbEntity
  8
HIDDEN
100
AcDbLine
 10
60.37036414306682
 20
-16.1761903189076
 30
0.0
 11
60.37036414306681
 21
-16.1761903189076
 31
0.0
1001
DBPROPERTIES
1002
{
1000
PbHidd
1002
}
  0
LINE
  5
1A6
330
1F
100
AcDbEntity
  8
HIDDEN
100
AcDbLine
 10
98.76883405951382
 20
-15.64344650402313
 30
0.0
 11
98.76883405951382
 21
-15.64344650402313
 31
0.0
1001
DBPROPERTIES
1002
{
1000
PbHidd
1002
}
  0
LINE
  5
1A7
330
1F
100
AcDbEntity
  8
HIDDEN
100
AcDbLine
 10
41.05491202407121
 20
-6.50245926350563
 30
0.0
 11
41.05491202407121
 21
-6.50245926350564
 31
0.0
1001
DBPROPERTIES
1002
{
1000
PbHidd
1002
}
  0
LINE
  5
1A8
330
1F
100
AcDbEntity
  8
HIDDEN
100
AcDbLine
 10
41.05491202407121
 20
6.502459263505595
 30
0.0
 11
41.05491202407121
 21
6.502459263505585
 31
0.0
1001
DBPROPERTIES
1002
{
1000
PbHidd
1002
}
  0
LINE
  5
1A9
330
1F
100
AcDbEntity
  8
HIDDEN
100
AcDbLine
 10
38.80582639473367
 20
14.89616110276629
 30
0.0
 11
38.80582639473367
 21
14.89616110276628
 31
0.0
1001
DBPROPERTIES
1002
{
1000
PbHidd
1002
}
  0
LINE
  5
1AA
330
1F
100
AcDbEntity
  8
HIDDEN
100
AcDbLine
 10
93.3580426497202
 20
35.83679495453003
 30
0.0
 11
93.3580426497202
 21
35.83679495453004
 31
0.0
1001
DBPROPERTIES
1002
{
1000
PbHidd
1002
}
  0
LINE
  5
1AB
330
1F
100
AcDbEntity
  8
HIDDEN
100
AcDbLine
 10
40.15031684608226
 20
10.75824497476144
 30
0.0
 11
40.15031684608226
 21
10.75824497476143
 31
0.0
1001
DBPROPERTIES
1002
{
1000
PbHidd
1002
}
  0
LINE
  5
1AC
330
1F
100
AcDbEntity
  8
HIDDEN
100
AcDbLine
 10
89.10065241883682
 20
45.3990499739547
 30
0.0
 11
89.10065241883682
 21
45.39904997395469
 31
0.0
1001
DBPROPERTIES
1002
{
1000
PbHidd
1002
}
  0
LINE
  5
1AD
330
1F
100
AcDbEntity
  8
HIDDEN
100
AcDbLine
 10
83.8670567945424
 20
54.46390350150273
 30
0.0
 11
83.8670567945424
 21
54.46390350150274
 31
0.0
1001
DBPROPERTIES
1002
{
1000
PbHidd
1002
}
  0
LINE
  5
1AE
330
1F
100
AcDbEntity
  8
HIDDEN
100
AcDbLine
 10
34.86073994093143
 20
22.6388292221246
 30
0.0
 11
34.86073994093143
 21
22.63882922212459
 31
0.0
1001
DBPROPERTIES
1002
{
1000
PbHidd
1002
}
  0
LINE
  5
1AF
330
1F
100
AcDbEntity
  8
HIDDEN
100
AcDbLine
 10
37.03617118876313
 20
18.87087177250713
 30
0.0
 11
37.03617118876313
 21
18.87087177250712
 31
0.0
1001
DBPROPERTIES
1002
{
1000
PbHidd
1002
}
  0
LINE
  5
1B0
330
1F
100
AcDbEntity
  8
HIDDEN
100
AcDbLine
 10
77.71459614569707
 20
62.93203910498377
 30
0.0
 11
77.71459614569707
 21
62.93203910498376
 31
0.0
1001
DBPROPERTIES
1002
{
1000
PbHidd
1002
}
  0
LINE
  5
1B1
330
1F
100
AcDbEntity
  8
HIDDEN
100
AcDbLine
 10
70.71067811865473
 20
70.71067811865478
 30
0.0
 11
70.71067811865473
 21
70.71067811865478
 31
0.0
1001
DBPROPERTIES
1002
{
1000
PbHidd
1002
}
  0
LINE
  5
1B2
330
1F
100
AcDbEntity
  8
HIDDEN
100
AcDbLine
 10
29.39207187132079
 20
29.39207187132081
 30
0.0
 11
29.39207187132079
 21
29.39207187132079
 31
0.0
1001
DBPROPERTIES
1002
{
1000
PbHidd
1002
}
  0
LINE
  5
1B3
330
1F
100
AcDbEntity
  8
HIDDEN
100
AcDbLine
 10
32.30336713122806
 20
26.15875092130488
 30
0.0
 11
32.30336713122806
 21
26.15875092130487
 31
0.0
1001
DBPROPERTIES
1002
{
1000
PbHidd
1002
}
  0
LINE
  5
1B4
330
1F
100
AcDbEntity
  8
HIDDEN
100
AcDbLine
 10
62.93203910498371
 20
77.71459614569712
 30
0.0
 11
62.9320391049837
 21
77.71459614569712
 31
0.0
1001
DBPROPERTIES
1002
{
1000
PbHidd
1002
}
  0
LINE
  5
1B5
330
1F
100
AcDbEntity
  8
HIDDEN
100
AcDbLine
 10
54.46390350150271
 20
83.86705679454239
 30
0.0
 11
54.46390350150271
 21
83.86705679454239
 31
0.0
1001
DBPROPERTIES
1002
{
1000
PbHidd
1002
}
  0
LINE
  5
1B6
330
1F
100
AcDbEntity
  8
HIDDEN
100
AcDbLine
 10
22.63882922212461
 20
34.86073994093143
 30
0.0
 11
22.63882922212461
 21
34.86073994093142
 31
0.0
1001
DBPROPERTIES
1002
{
1000
PbHidd
1002
}
  0
LINE
  5
1B7
330
1F
100
AcDbEntity
  8
HIDDEN
100
AcDbLine
 10
26.15875092130488
 20
32.30336713122807
 30
0.0
 11
26.15875092130488
 21
32.30336713122806
 31
0.0
1001
DBPROPERTIES
1002
{
1000
PbHidd
1002
}
  0
LINE
  5
1B8
330
1F
100
AcDbEntity
  8
HIDDEN
100
AcDbLine
 10
45.39904997395467
 20
89.10065241883676
 30
0.0
 11
45.39904997395467
 21
89.10065241883676
 31
0.0
1001
DBPROPERTIES
1002
{
1000
PbHidd
1002
}
  0
LINE
  5
1B9
330
1F
100
AcDbEntity
  8
HIDDEN
100
AcDbLine
 10
35.83679495452999
 20
93.35804264972016
 30
0.0
 11
35.83679495452999
 21
93.35804264972016
 31
0.0
1001
DBPROPERTIES
1002
{
1000
PbHidd
1002
}
  0
LINE
  5
1BA
330
1F
100
AcDbEntity
  8
HIDDEN
100
AcDbLine
 10
14.89616110276629
 20
38.80582639473365
 30
0.0
 11
14.89616110276629
 21
38.80582639473364
 31
0.0
1001
DBPROPERTIES
1002
{
1000
PbHidd
1002
}
  0
LINE
  5
1BB
330
1F
100
AcDbEntity
  8
HIDDEN
100
AcDbLine
 10
18.87087177250715
 20
37.03617118876312
 30
0.0
 11
18.87087177250715
 21
37.03617118876311
 31
0.0
1001
DBPROPERTIES
1002
{
1000
PbHidd
1002
}
  0
LINE
  5
1BC
330
1F
100
AcDbEntity
  8
HIDDEN
100
AcDbLine
 10
25.88190451025202
 20
96.59258262890681
 30
0.0
 11
25.88190451025202
 21
96.59258262890681
 31
0.0
1001
DBPROPERTIES
1002
{
1000
PbHidd
1002
}
  0
LINE
  5
1BD
330
1F
100
AcDbEntity
  8
HIDDEN
100
AcDbLine
 10
15.64344650402301
 20
98.76883405951374
 30
0.0
 11
15.64344650402301
 21
98.76883405951374
 31
0.0
1001
DBPROPERTIES
1002
{
1000
PbHidd
1002
}
  0
LINE
  5
1BE
330
1F
100
AcDbEntity
  8
HIDDEN
100
AcDbLine
 10
6.50245926350556
 20
41.05491202407119
 30
0.0
 11
6.50245926350556
 21
41.05491202407118
 31
0.0
1001
DBPROPERTIES
1002
{
1000
PbHidd
1002
}
  0
LINE
  5
1BF
330
1F
100
AcDbEntity
  8
HIDDEN
100
AcDbLine
 10
10.75824497476142
 20
40.15031684608223
 30
0.0
 11
10.75824497476142
 21
40.15031684608222
 31
0.0
1001
DBPROPERTIES
1002
{
1000
PbHidd
1002
}
  0
LINE
  5
1C0
330
1F
100
AcDbEntity
  8
HIDDEN
100
AcDbLine
 10
5.233595624294307
 20
99.86295347545736
 30
0.0
 11
5.233595624294304
 21
99.86295347545736
 31
0.0
1001
DBPROPERTIES
1002
{
1000
PbHidd
1002
}
  0
LINE
  5
1C1
330
1F
100
AcDbEntity
  8
HIDDEN
100
AcDbLine
 10
-5.233595624294408
 20
99.86295347545735
 30
0.0
 11
-5.233595624294405
 21
99.86295347545735
 31
0.0
1001
DBPROPERTIES
1002
{
1000
PbHidd
1002
}
  0
LINE
  5
1C2
330
1F
100
AcDbEntity
  8
HIDDEN
100
AcDbLine
 10
-2.17543124783171
 20
41.50970099463174
 30
0.0
 11
-2.17543124783171
 21
41.50970099463173
 31
0.0
1001
DBPROPERTIES
1002
{
1000
PbHidd
1002
}
  0
LINE
  5
1C3
330
1F
100
AcDbEntity
  8
HIDDEN
100
AcDbLine
 10
2.175431247831666
 20
41.50970099463175
 30
0.0
 11
2.175431247831666
 21
41.50970099463174
 31
0.0
1001
DBPROPERTIES
1002
{
1000
PbHidd
1002
}
  0
LINE
  5
1C4
330
1F
100
AcDbEntity
  8
HIDDEN
100
AcDbLine
 10
-15.6434465040231
 20
98.76883405951371
 30
0.0
 11
-15.6434465040231
 21
98.76883405951371
 31
0.0
1001
DBPROPERTIES
1002
{
1000
PbHidd
1002
}
  0
LINE
  5
1C5
330
1F
100
AcDbEntity
  8
HIDDEN
100
AcDbLine
 10
-25.88190451025213
 20
96.59258262890675
 30
0.0
 11
-25.88190451025212
 21
96.59258262890675
 31
0.0
1001
DBPROPERTIES
1002
{
1000
PbHidd
1002
}
  0
LINE
  5
1C6
330
1F
100
AcDbEntity
  8
HIDDEN
100
AcDbLine
 10
-10.75824497476147
 20
40.15031684608223
 30
0.0
 11
-10.75824497476147
 21
40.15031684608221
 31
0.0
1001
DBPROPERTIES
1002
{
1000
PbHidd
1002
}
  0
LINE
  5
1C7
330
1F
100
AcDbEntity
  8
HIDDEN
100
AcDbLine
 10
-6.502459263505604
 20
41.05491202407118
 30
0.0
 11
-6.502459263505604
 21
41.05491202407116
 31
0.0
1001
DBPROPERTIES
1002
{
1000
PbHidd
1002
}
  0
LINE
  5
1C8
330
1F
100
AcDbEntity
  8
HIDDEN
100
AcDbLine
 10
-35.83679495453006
 20
93.3580426497201
 30
0.0
 11
-35.83679495453006
 21
93.3580426497201
 31
0.0
1001
DBPROPERTIES
1002
{
1000
PbHidd
1002
}
  0
LINE
  5
1C9
330
1F
100
AcDbEntity
  8
HIDDEN
100
AcDbLine
 10
-45.3990499739547
 20
89.1006524188367
 30
0.0
 11
-45.3990499739547
 21
89.1006524188367
 31
0.0
1001
DBPROPERTIES
1002
{
1000
PbHidd
1002
}
  0
LINE
  5
1CA
330
1F
100
AcDbEntity
  8
HIDDEN
100
AcDbLine
 10
-18.87087177250717
 20
37.03617118876311
 30
0.0
 11
-18.87087177250717
 21
37.0361711887631
 31
0.0
1001
DBPROPERTIES
1002
{
1000
PbHidd
1002
}
  0
LINE
  5
1CB
330
1F
100
AcDbEntity
  8
HIDDEN
100
AcDbLine
 10
-14.89616110276633
 20
38.80582639473364
 30
0.0
 11
-14.89616110276633
 21
38.80582639473362
 31
0.0
1001
DBPROPERTIES
1002
{
1000
PbHidd
1002
}
  0
LINE
  5
1CC
330
1F
100
AcDbEntity
  8
HIDDEN
100
AcDbLine
 10
-54.46390350150273
 20
83.86705679454232
 30
0.0
 11
-54.46390350150273
 21
83.86705679454232
 31
0.0
1001
DBPROPERTIES
1002
{
1000
PbHidd
1002
}
  0
LINE
  5
1CD
330
1F
100
AcDbEntity
  8
HIDDEN
100
AcDbLine
 10
-62.93203910498374
 20
77.714596145697
 30
0.0
 11
-62.93203910498374
 21
77.714596145697
 31
0.0
1001
DBPROPERTIES
1002
{
1000
PbHidd
1002
}
  0
LINE
  5
1CE
330
1F
100
AcDbEntity
  8
HIDDEN
100
AcDbLine
 10
-26.15875092130491
 20
32.30336713122804
 30
0.0
 11
-26.15875092130491
 21
32.30336713122803
 31
0.0
1001
DBPROPERTIES
1002
{
1000
PbHidd
1002
}
  0
LINE
  5
1CF
330
1F
100
AcDbEntity
  8
HIDDEN
100
AcDbLine
 10
-22.63882922212463
 20
34.86073994093142
 30
0.0
 11
-22.63882922212463
 21
34.8607399409314
 31
0.0
1001
DBPROPERTIES
1002
{
1000
PbHidd
1002
}
  0
LINE
  5
1D0
330
1F
100
AcDbEntity
  8
HIDDEN
100
AcDbLine
 10
-70.71067811865474
 20
70.71067811865466
 30
0.0
 11
-70.71067811865474
 21
70.71067811865466
 31
0.0
1001
DBPROPERTIES
1002
{
1000
PbHidd
1002
}
  0
LINE
  5
1D1
330
1F
100
AcDbEntity
  8
HIDDEN
100
AcDbLine
 10
-77.71459614569709
 20
62.93203910498363
 30
0.0
 11
-77.71459614569709
 21
62.93203910498364
 31
0.0
1001
DBPROPERTIES
1002
{
1000
PbHidd
1002
}
  0
LINE
  5
1D2
330
1F
100
AcDbEntity
  8
HIDDEN
100
AcDbLine
 10
-32.30336713122809
 20
26.15875092130484
 30
0.0
 11
-32.30336713122809
 21
26.15875092130483
 31
0.0
1001
DBPROPERTIES
1002
{
1000
PbHidd
1002
}
  0
LINE
  5
1D3
330
1F
100
AcDbEntity
  8
HIDDEN
100
AcDbLine
 10
-29.39207187132082
 20
29.39207187132077
 30
0.0
 11
-29.39207187132082
 21
29.39207187132076
 31
0.0
1001
DBPROPERTIES
1002
{
1000
PbHidd
1002
}
  0
LINE
  5
1D4
330
1F
100
AcDbEntity
  8
HIDDEN
100
AcDbLine
 10
-83.86705679454239
 20
54.46390350150261
 30
0.0
 11
-83.86705679454239
 21
54.4639035015026
 31
0.0
1001
DBPROPERTIES
1002
{
1000
PbHidd
1002
}
  0
LINE
  5
1D5
330
1F
100
AcDbEntity
  8
HIDDEN
100
AcDbLine
 10
-89.10065241883676
 20
45.39904997395458
 30
0.0
 11
-89.10065241883676
 21
45.39904997395458
 31
0.0
1001
DBPROPERTIES
1002
{
1000
PbHidd
1002
}
  0
LINE
  5
1D6
330
1F
100
AcDbEntity
  8
HIDDEN
100
AcDbLine
 10
-37.03617118876316
 20
18.8708717725071
 30
0.0
 11
-37.03617118876316
 21
18.87087177250709
 31
0.0
1001
DBPROPERTIES
1002
{
1000
PbHidd
1002
}
  0
LINE
  5
1D7
330
1F
100
AcDbEntity
  8
HIDDEN
100
AcDbLine
 10
-34.86073994093145
 20
22.63882922212456
 30
0.0
 11
-34.86073994093145
 21
22.63882922212455
 31
0.0
1001
DBPROPERTIES
1002
{
1000
PbHidd
1002
}
  0
LINE
  5
1D8
330
1F
100
AcDbEntity
  8
HIDDEN
100
AcDbLine
 10
-93.35804264972013
 20
35.83679495452994
 30
0.0
 11
-93.35804264972013
 21
35.83679495452994
 31
0.0
1001
DBPROPERTIES
1002
{
1000
PbHidd
1002
}
  0
LINE
  5
1D9
330
1F
100
AcDbEntity
  8
HIDDEN
100
AcDbLine
 10
-96.5925826289068
 20
25.88190451025201
 30
0.0
 11
-96.5925826289068
 21
25.88190451025201
 31
0.0
1001
DBPROPERTIES
1002
{
1000
PbHidd
1002
}
  0
LINE
  5
1DA
330
1F
100
AcDbEntity
  8
HIDDEN
100
AcDbLine
 10
-40.15031684608226
 20
10.7582449747614
 30
0.0
 11
-40.15031684608226
 21
10.75824497476139
 31
0.0
1001
DBPROPERTIES
1002
{
1000
PbHidd
1002
}
  0
LINE
  5
1DB
330
1F
100
AcDbEntity
  8
HIDDEN
100
AcDbLine
 10
-38.80582639473368
 20
14.89616110276626
 30
0.0
 11
-38.80582639473368
 21
14.89616110276625
 31
0.0
1001
DBPROPERTIES
1002
{
1000
PbHidd
1002
}
  0
LINE
  5
1DC
330
1F
100
AcDbEntity
  8
HIDDEN
100
AcDbLine
 10
-98.76883405951372
 20
15.64344650402302
 30
0.0
 11
-98.76883405951372
 21
15.64344650402302
 31
0.0
1001
DBPROPERTIES
1002
{
1000
PbHidd
1002
}
  0
LINE
  5
1DD
330
1F
100
AcDbEntity
  8
HIDDEN
100
AcDbLine
 10
-99.86295347545733
 20
5.233595624294292
 30
0.0
 11
-99.86295347545733
 21
5.233595624294296
 31
0.0
1001
DBPROPERTIES
1002
{
1000
PbHidd
1002
}
  0
LINE
  5
1DE
330
1F
100
AcDbEntity
  8
HIDDEN
100
AcDbLine
 10
-41.50970099463177
 20
2.17543124783164
 30
0.0
 11
-41.50970099463177
 21
2.17543124783163
 31
0.0
1001
DBPROPERTIES
1002
{
1000
PbHidd
1002
}
  0
LINE
  5
1DF
330
1F
100
AcDbEntity
  8
HIDDEN
100
AcDbLine
 10
-41.05491202407121
 20
6.502459263505552
 30
0.0
 11
-41.05491202407121
 21
6.502459263505542
 31
0.0
1001
DBPROPERTIES
1002
{
1000
PbHidd
1002
}
  0
LINE
  5
1E0
330
1F
100
AcDbEntity
  8
HIDDEN
100
AcDbLine
 10
-99.86295347545732
 20
-5.233595624294464
 30
0.0
 11
-99.86295347545732
 21
-5.233595624294468
 31
0.0
1001
DBPROPERTIES
1002
{
1000
PbHidd
1002
}
  0
LINE
  5
1E1
330
1F
100
AcDbEntity
  8
HIDDEN
100
AcDbLine
 10
-98.76883405951371
 20
-15.64344650402315
 30
0.0
 11
-98.76883405951371
 21
-15.64344650402314
 31
0.0
1001
DBPROPERTIES
1002
{
1000
PbHidd
1002
}
  0
LINE
  5
1E2
330
1F
100
AcDbEntity
  8
HIDDEN
100
AcDbLine
 10
-41.05491202407121
 20
-6.502459263505645
 30
0.0
 11
-41.05491202407121
 21
-6.502459263505655
 31
0.0
1001
DBPROPERTIES
1002
{
1000
PbHidd
1002
}
  0
LINE
  5
1E3
330
1F
100
AcDbEntity
  8
HIDDEN
100
AcDbLine
 10
-41.50970099463177
 20
-2.175431247831754
 30
0.0
 11
-41.50970099463177
 21
-2.175431247831764
 31
0.0
1001
DBPROPERTIES
1002
{
1000
PbHidd
1002
}
  0
LINE
  5
1E4
330
1F
100
AcDbEntity
  8
HIDDEN
100
AcDbLine
 10
-96.59258262890677
 20
-25.88190451025212
 30
0.0
 11
-96.59258262890677
 21
-25.88190451025213
 31
0.0
1001
DBPROPERTIES
1002
{
1000
PbHidd
1002
}
  0
LINE
  5
1E5
330
1F
100
AcDbEntity
  8
HIDDEN
100
AcDbLine
 10
-93.35804264972012
 20
-35.83679495453006
 30
0.0
 11
-93.35804264972012
 21
-35.83679495453006
 31
0.0
1001
DBPROPERTIES
1002
{
1000
PbHidd
1002
}
  0
LINE
  5
1E6
330
1F
100
AcDbEntity
  8
HIDDEN
100
AcDbLine
 10
-38.80582639473367
 20
-14.89616110276635
 30
0.0
 11
-38.80582639473367
 21
-14.89616110276636
 31
0.0
1001
DBPROPERTIES
1002
{
1000
PbHidd
1002
}
  0
LINE
  5
1E7
330
1F
100
AcDbEntity
  8
HIDDEN
100
AcDbLine
 10
-40.15031684608226
 20
-10.75824497476149
 30
0.0
 11
-40.15031684608226
 21
-10.7582449747615
 31
0.0
1001
DBPROPERTIES
1002
{
1000
PbHidd
1002
}
  0
LINE
  5
1E8
330
1F
100
AcDbEntity
  8
HIDDEN
100
AcDbLine
 10
-89.10065241883673
 20
-45.39904997395471
 30
0.0
 11
-89.10065241883673
 21
-45.39904997395472
 31
0.0
1001
DBPROPERTIES
1002
{
1000
PbHidd
1002
}
  0
LINE
  5
1E9
330
1F
100
AcDbEntity
  8
HIDDEN
100
AcDbLine
 10
-83.86705679454234
 20
-54.46390350150277
 30
0.0
 11
-83.86705679454234
 21
-54.46390350150276
 31
0.0
1001
DBPROPERTIES
1002
{
1000
PbHidd
1002
}
  0
LINE
  5
1EA
330
1F
100
AcDbEntity
  8
HIDDEN
100
AcDbLine
 10
-34.86073994093143
 20
-22.63882922212468
 30
0.0
 11
-34.86073994093143
 21
-22.63882922212469
 31
0.0
1001
DBPROPERTIES
1002
{
1000
PbHidd
1002
}
  0
LINE
  5
1EB
330
1F
100
AcDbEntity
  8
HIDDEN
100
AcDbLine
 10
-37.03617118876313
 20
-18.8708717725072
 30
0.0
 11
-37.03617118876313
 21
-18.87087177250721
 31
0.0
1001
DBPROPERTIES
1002
{
1000
PbHidd
1002
}
  0
LINE
  5
1EC
330
1F
100
AcDbEntity
  8
HIDDEN
100
AcDbLine
 10
-77.71459614569702
 20
-62.93203910498379
 30
0.0
 11
-77.71459614569702
 21
-62.9320391049838
 31
0.0
1001
DBPROPERTIES
1002
{
1000
PbHidd
1002
}
  0
LINE
  5
1ED
330
1F
100
AcDbEntity
  8
HIDDEN
100
AcDbLine
 10
-70.71067811865471
 20
-70.71067811865478
 30
0.0
 11
-70.71067811865471
 21
-70.71067811865478
 31
0.0
1001
DBPROPERTIES
1002
{
1000
PbHidd
1002
}
  0
LINE
  5
1EE
330
1F
100
AcDbEntity
  8
HIDDEN
100
AcDbLine
 10
-29.3920718713208
 20
-29.39207187132086
 30
0.0
 11
-29.3920718713208
 21
-29.39207187132087
 31
0.0
1001
DBPROPERTIES
1002
{
1000
PbHidd
1002
}
  0
LINE
  5
1EF
330
1F
100
AcDbEntity
  8
HIDDEN
100
AcDbLine
 10
-32.30336713122806
 20
-26.15875092130496
 30
0.0
 11
-32.30336713122806
 21
-26.15875092130497
 31
0.0
1001
DBPROPERTIES
1002
{
1000
PbHidd
1002
}
  0
LINE
  5
1F0
330
1F
100
AcDbEntity
  8
HIDDEN
100
AcDbLine
 10
-62.9320391049837
 20
-77.71459614569712
 30
0.0
 11
-62.93203910498371
 21
-77.71459614569712
 31
0.0
1001
DBPROPERTIES
1002
{
1000
PbHidd
1002
}
  0
LINE
  5
1F1
330
1F
100
AcDbEntity
  8
HIDDEN
100
AcDbLine
 10
-54.46390350150268
 20
-83.86705679454242
 30
0.0
 11
-54.46390350150268
 21
-83.86705679454242
 31
0.0
1001
DBPROPERTIES
1002
{
1000
PbHidd
1002
}
  0
LINE
  5
1F2
330
1F
100
AcDbEntity
  8
HIDDEN
100
AcDbLine
 10
-22.63882922212461
 20
-34.86073994093149
 30
0.0
 11
-22.63882922212461
 21
-34.8607399409315
 31
0.0
1001
DBPROPERTIES
1002
{
1000
PbHidd
1002
}
  0
LINE
  5
1F3
330
1F
100
AcDbEntity
  8
HIDDEN
100
AcDbLine
 10
-26.15875092130489
 20
-32.30336713122811
 30
0.0
 11
-26.15875092130489
 21
-32.30336713122813
 31
0.0
1001
DBPROPERTIES
1002
{
1000
PbHidd
1002
}
  0
LINE
  5
1F4
330
1F
100
AcDbEntity
  8
HIDDEN
100
AcDbLine
 10
-45.39904997395465
 20
-89.1006524188368
 30
0.0
 11
-45.39904997395466
 21
-89.1006524188368
 31
0.0
1001
DBPROPERTIES
1002
{
1000
PbHidd
1002
}
  0
LINE
  5
1F5
330
1F
100
AcDbEntity
  8
HIDDEN
100
AcDbLine
 10
-35.83679495453001
 20
-93.35804264972019
 30
0.0
 11
-35.83679495453
 21
-93.35804264972019
 31
0.0
1001
DBPROPERTIES
1002
{
1000
PbHidd
1002
}
  0
LINE
  5
1F6
330
1F
100
AcDbEntity
  8
HIDDEN
100
AcDbLine
 10
-14.8961611027663
 20
-38.80582639473371
 30
0.0
 11
-14.8961611027663
 21
-38.80582639473372
 31
0.0
1001
DBPROPERTIES
1002
{
1000
PbHidd
1002
}
  0
LINE
  5
1F7
330
1F
100
AcDbEntity
  8
HIDDEN
100
AcDbLine
 10
-18.87087177250715
 20
-37.03617118876318
 30
0.0
 11
-18.87087177250715
 21
-37.03617118876319
 31
0.0
1001
DBPROPERTIES
1002
{
1000
PbHidd
1002
}
  0
LINE
  5
1F8
330
1F
100
AcDbEntity
  8
HIDDEN
100
AcDbLine
 10
-25.88190451025205
 20
-96.59258262890687
 30
0.0
 11
-25.88190451025205
 21
-96.59258262890687
 31
0.0
1001
DBPROPERTIES
1002
{
1000
PbHidd
1002
}
  0
LINE
  5
1F9
330
1F
100
AcDbEntity
  8
HIDDEN
100
AcDbLine
 10
-15.64344650402306
 20
-98.76883405951381
 30
0.0
 11
-15.64344650402306
 21
-98.76883405951381
 31
0.0
1001
DBPROPERTIES
1002
{
1000
PbHidd
1002
}
  0
LINE
  5
1FA
330
1F
100
AcDbEntity
  8
HIDDEN
100
AcDbLine
 10
-6.502459263505582
 20
-41.05491202407124
 30
0.0
 11
-6.502459263505582
 21
-41.05491202407126
 31
0.0
1001
DBPROPERTIES
1002
{
1000
PbHidd
1002
}
  0
LINE
  5
1FB
330
1F
100
AcDbEntity
  8
HIDDEN
100
AcDbLine
 10
-10.75824497476144
 20
-40.15031684608229
 30
0.0
 11
-10.75824497476144
 21
-40.1503168460823
 31
0.0
1001
DBPROPERTIES
1002
{
1000
PbHidd
1002
}
  0
LINE
  5
1FC
330
1F
100
AcDbEntity
  8
HIDDEN
100
AcDbLine
 10
-5.233595624294352
 20
-99.86295347545743
 30
0.0
 11
-5.233595624294356
 21
-99.86295347545743
 31
0.0
1001
DBPROPERTIES
1002
{
1000
PbHidd
1002
}
  0
LINE
  5
1FD
330
1F
100
AcDbEntity
  8
HIDDEN
100
AcDbLine
 10
5.233595624294396
 20
-99.86295347545743
 30
0.0
 11
5.2335956242944
 21
-99.86295347545743
 31
0.0
1001
DBPROPERTIES
1002
{
1000
PbHidd
1002
}
  0
LINE
  5
1FE
330
1F
100
AcDbEntity
  8
HIDDEN
100
AcDbLine
 10
2.175431247831705
 20
-41.50970099463179
 30
0.0
 11
2.175431247831705
 21
-41.50970099463181
 31
0.0
1001
DBPROPERTIES
1002
{
1000
PbHidd
1002
}
  0
LINE
  5
1FF
330
1F
100
AcDbEntity
  8
HIDDEN
100
AcDbLine
 10
-2.175431247831689
 20
-41.50970099463181
 30
0.0
 11
-2.175431247831689
 21
-41.50970099463182
 31
0.0
1001
DBPROPERTIES
1002
{
1000
PbHidd
1002
}
  0
LINE
  5
200
330
1F
100
AcDbEntity
  8
HIDDEN
100
AcDbLine
 10
15.64344650402311
 20
-98.76883405951382
 30
0.0
 11
15.6434465040231
 21
-98.76883405951382
 31
0.0
1001
DBPROPERTIES
1002
{
1000
PbHidd
1002
}
  0
LINE
  5
201
330
1F
100
AcDbEntity
  8
HIDDEN
100
AcDbLine
 10
25.88190451025208
 20
-96.5925826289069
 30
0.0
 11
25.88190451025209
 21
-96.5925826289069
 31
0.0
1001
DBPROPERTIES
1002
{
1000
PbHidd
1002
}
  0
LINE
  5
202
330
1F
100
AcDbEntity
  8
HIDDEN
100
AcDbLine
 10
10.75824497476145
 20
-40.15031684608228
 30
0.0
 11
10.75824497476145
 21
-40.1503168460823
 31
0.0
1001
DBPROPERTIES
1002
{
1000
PbHidd
1002
}
  0
LINE
  5
203
330
1F
100
AcDbEntity
  8
HIDDEN
100
AcDbLine
 10
6.502459263505599
 20
-41.05491202407124
 30
0.0
 11
6.502459263505599
 21
-41.05491202407125
 31
0.0
1001
DBPROPERTIES
1002
{
1000
PbHidd
1002
}
  0
LINE
  5
204
330
1F
100
AcDbEntity
  8
HIDDEN
100
AcDbLine
 10
35.83679495453004
 20
-93.35804264972022
 30
0.0
 11
35.83679495453003
 21
-93.35804264972022
 31
0.0
1001
DBPROPERTIES
1002
{
1000
PbHidd
1002
}
  0
LINE
  5
205
330
1F
100
AcDbEntity
  8
HIDDEN
100
AcDbLine
 10
45.39904997395471
 20
-89.10065241883684
 30
0.0
 11
45.39904997395472
 21
-89.10065241883684
 31
0.0
1001
DBPROPERTIES
1002
{
1000
PbHidd
1002
}
  0
LINE
  5
206
330
1F
100
AcDbEntity
  8
HIDDEN
100
AcDbLine
 10
18.87087177250717
 20
-37.03617118876317
 30
0.0
 11
18.87087177250717
 21
-37.03617118876318
 31
0.0
1001
DBPROPERTIES
1002
{
1000
PbHidd
1002
}
  0
LINE
  5
207
330
1F
100
AcDbEntity
  8
HIDDEN
100
AcDbLine
 10
14.89616110276631
 20
-38.80582639473371
 30
0.0
 11
14.89616110276631
 21
-38.80582639473372
 31
0.0
1001
DBPROPERTIES
1002
{
1000
PbHidd
1002
}
  0
LINE
  5
208
330
1F
100
AcDbEntity
  8
HIDDEN
100
AcDbLine
 10
54.46390350150274
 20
-83.86705679454246
 30
0.0
 11
54.46390350150273
 21
-83.86705679454246
 31
0.0
1001
DBPROPERTIES
1002
{
1000
PbHidd
1002
}
  0
LINE
  5
209
330
1F
100
AcDbEntity
  8
HIDDEN
100
AcDbLine
 10
62.93203910498377
 20
-77.71459614569714
 30
0.0
 11
62.93203910498377
 21
-77.71459614569714
 31
0.0
1001
DBPROPERTIES
1002
{
1000
PbHidd
1002
}
  0
LINE
  5
20A
330
1F
100
AcDbEntity
  8
HIDDEN
100
AcDbLine
 10
26.15875092130491
 20
-32.30336713122811
 30
0.0
 11
26.15875092130491
 21
-32.30336713122812
 31
0.0
1001
DBPROPERTIES
1002
{
1000
PbHidd
1002
}
  0
LINE
  5
20B
330
1F
100
AcDbEntity
  8
HIDDEN
100
AcDbLine
 10
22.63882922212462
 20
-34.86073994093147
 30
0.0
 11
22.63882922212462
 21
-34.86073994093148
 31
0.0
1001
DBPROPERTIES
1002
{
1000
PbHidd
1002
}
  0
LINE
  5
20C
330
1F
100
AcDbEntity
  8
HIDDEN
100
AcDbLine
 10
70.71067811865478
 20
-70.71067811865481
 30
0.0
 11
70.71067811865478
 21
-70.71067811865481
 31
0.0
1001
DBPROPERTIES
1002
{
1000
PbHidd
1002
}
  0
LINE
  5
20D
330
1F
100
AcDbEntity
  8
HIDDEN
100
AcDbLine
 10
77.71459614569713
 20
-62.93203910498381
 30
0.0
 11
77.71459614569713
 21
-62.9320391049838
 31
0.0
1001
DBPROPERTIES
1002
{
1000
PbHidd
1002
}
  0
LINE
  5
20E
330
1F
100
AcDbEntity
  8
HIDDEN
100
AcDbLine
 10
32.30336713122808
 20
-26.15875092130493
 30
0.0
 11
32.30336713122808
 21
-26.15875092130494
 31
0.0
1001
DBPROPERTIES
1002
{
1000
PbHidd
1002
}
  0
LINE
  5
20F
330
1F
100
AcDbEntity
  8
HIDDEN
100
AcDbLine
 10
29.39207187132082
 20
-29.39207187132086
 30
0.0
 11
29.39207187132082
 21
-29.39207187132087
 31
0.0
1001
DBPROPERTIES
1002
{
1000
PbHidd
1002
}
  0
LINE
  5
210
330
1F
100
AcDbEntity
  8
HIDDEN
100
AcDbLine
 10
83.86705679454244
 20
-54.46390350150276
 30
0.0
 11
83.86705679454244
 21
-54.46390350150277
 31
0.0
1001
DBPROPERTIES
1002
{
1000
PbHidd
1002
}
  0
LINE
  5
211
330
1F
100
AcDbEntity
  8
HIDDEN
100
AcDbLine
 10
89.10065241883683
 20
-45.39904997395473
 30
0.0
 11
89.10065241883683
 21
-45.39904997395472
 31
0.0
1001
DBPROPERTIES
1002
{
1000
PbHidd
1002
}
  0
LINE
  5
212
330
1F
100
AcDbEntity
  8
HIDDEN
100
AcDbLine
 10
37.03617118876316
 20
-18.87087177250719
 30
0.0
 11
37.03617118876316
 21
-18.8708717725072
 31
0.0
1001
DBPROPERTIES
1002
{
1000
PbHidd
1002
}
  0
LINE
  5
213
330
1F
100
AcDbEntity
  8
HIDDEN
100
AcDbLine
 10
34.86073994093145
 20
-22.63882922212466
 30
0.0
 11
34.86073994093145
 21
-22.63882922212467
 31
0.0
1001
DBPROPERTIES
1002
{
1000
PbHidd
1002
}
  0
LINE
  5
214
330
1F
100
AcDbEntity
  8
HIDDEN
100
AcDbLine
 10
93.35804264972022
 20
-35.83679495453007
 30
0.0
 11
93.35804264972022
 21
-35.83679495453008
 31
0.0
1001
DBPROPERTIES
1002
{
1000
PbHidd
1002
}
  0
LINE
  5
215
330
1F
100
AcDbEntity
  8
HIDDEN
100
AcDbLine
 10
96.59258262890688
 20
-25.88190451025212
 30
0.0
 11
96.59258262890688
 21
-25.88190451025212
 31
0.0
1001
DBPROPERTIES
1002
{
1000
PbHidd
1002
}
  0
LINE
  5
216
330
1F
100
AcDbEntity
  8
HIDDEN
100
AcDbLine
 10
40.15031684608226
 20
-10.75824497476148
 30
0.0
 11
40.15031684608226
 21
-10.75824497476149
 31
0.0
1001
DBPROPERTIES
1002
{
1000
PbHidd
1002
}
  0
LINE
  5
217
330
1F
100
AcDbEntity
  8
HIDDEN
100
AcDbLine
 10
38.80582639473368
 20
-14.89616110276635
 30
0.0
 11
38.80582639473368
 21
-14.89616110276635
 31
0.0
1001
DBPROPERTIES
1002
{
1000
PbHidd
1002
}
  0
LINE
  5
218
330
1F
100
AcDbEntity
  8
HIDDEN
100
AcDbLine
 10
96.59258262890685
 20
25.88190451025213
 30
0.0
 11
96.59258262890685
 21
25.88190451025213
 31
0.0
1001
DBPROPERTIES
1002
{
1000
PbHidd
1002
}
  0
ARC
  5
219
330
1F
100
AcDbEntity
  8
HIDDEN
100
AcDbCircle
 10
0.0000000000000573
 20
-0.0000000000000366
 30
0.0
 40
88.0
100
AcDbArc
 50
350.9999789540851
 51
9.000021045914972
1001
DBPROPERTIES
1002
{
1000
PbHidd
1002
}
  0
ARC
  5
21A
330
1F
100
AcDbEntity
  8
HIDDEN
100
AcDbCircle
 10
0.0000000000000573
 20
-0.0000000000000366
 30
0.0
 40
88.0
100
AcDbArc
 50
14.99997778074544
 51
20.99999181135542
1001
DBPROPERTIES
1002
{
1000
PbHidd
1002
}
  0
ARC
  5
21B
330
1F
100
AcDbEntity
  8
HIDDEN
100
AcDbCircle
 10
0.0000000000000573
 20
-0.0000000000000366
 30
0.0
 40
88.0
100
AcDbArc
 50
27.0000058419654
 51
33.00001987257539
1001
DBPROPERTIES
1002
{
1000
PbHidd
1002
}
  0
ARC
  5
21C
330
1F
100
AcDbEntity
  8
HIDDEN
100
AcDbCircle
 10
0.0000000000000573
 20
-0.0000000000000366
 30
0.0
 40
88.0
100
AcDbArc
 50
38.99997660740585
 51
44.99999063801582
1001
DBPROPERTIES
1002
{
1000
PbHidd
1002
}
  0
ARC
  5
21D
330
1F
100
AcDbEntity
  8
HIDDEN
100
AcDbCircle
 10
0.0000000000000573
 20
-0.0000000000000366
 30
0.0
 40
88.0
100
AcDbArc
 50
51.00000466862581
 51
57.0000186992358
1001
DBPROPERTIES
1002
{
1000
PbHidd
1002
}
  0
ARC
  5
21E
330
1F
100
AcDbEntity
  8
HIDDEN
100
AcDbCircle
 10
0.0000000000000573
 20
-0.0000000000000366
 30
0.0
 40
88.0
100
AcDbArc
 50
62.99997543406626
 51
68.99998946467625
1001
DBPROPERTIES
1002
{
1000
PbHidd
1002
}
  0
ARC
  5
21F
330
1F
100
AcDbEntity
  8
HIDDEN
100
AcDbCircle
 10
0.0000000000000573
 20
-0.0000000000000366
 30
0.0
 40
88.0
100
AcDbArc
 50
75.00000349528622
 51
81.0000175258962
1001
DBPROPERTIES
1002
{
1000
PbHidd
1002
}
  0
ARC
  5
220
330
1F
100
AcDbEntity
  8
HIDDEN
100
AcDbCircle
 10
0.0000000000000573
 20
-0.0000000000000366
 30
0.0
 40
88.0
100
AcDbArc
 50
86.99997426072667
 51
89.99998127603165
1001
DBPROPERTIES
1002
{
1000
PbHidd
1002
}
  0
ARC
  5
221
330
1F
100
AcDbEntity
  8
HIDDEN
100
AcDbCircle
 10
0.0000000000000573
 20
-0.0000000000000366
 30
0.0
 40
88.0
100
AcDbArc
 50
99.00000232194662
 51
105.0000163525566
1001
DBPROPERTIES
1002
{
1000
PbHidd
1002
}
  0
ARC
  5
222
330
1F
100
AcDbEntity
  8
HIDDEN
100
AcDbCircle
 10
0.0000000000000573
 20
-0.0000000000000366
 30
0.0
 40
88.0
100
AcDbArc
 50
110.9999730873871
 51
116.9999871179971
1001
DBPROPERTIES
1002
{
1000
PbHidd
1002
}
  0
ARC
  5
223
330
1F
100
AcDbEntity
  8
HIDDEN
100
AcDbCircle
 10
0.0000000000000573
 20
-0.0000000000000366
 30
0.0
 40
88.0
100
AcDbArc
 50
123.000001148607
 51
129.000015179217
1001
DBPROPERTIES
1002
{
1000
PbHidd
1002
}
  0
ARC
  5
224
330
1F
100
AcDbEntity
  8
HIDDEN
100
AcDbCircle
 10
0.0000000000000573
 20
-0.0000000000000366
 30
0.0
 40
88.0
100
AcDbArc
 50
134.9999719140475
 51
140.9999859446575
1001
DBPROPERTIES
1002
{
1000
PbHidd
1002
}
  0
ARC
  5
225
330
1F
100
AcDbEntity
  8
HIDDEN
100
AcDbCircle
 10
0.0000000000000573
 20
-0.0000000000000366
 30
0.0
 40
88.0
100
AcDbArc
 50
146.9999999752674
 51
153.0000140058774
1001
DBPROPERTIES
1002
{
1000
PbHidd
1002
}
  0
ARC
  5
226
330
1F
100
AcDbEntity
  8
HIDDEN
100
AcDbCircle
 10
0.0000000000000573
 20
-0.0000000000000366
 30
0.0
 40
88.0
100
AcDbArc
 50
159.0000280364874
 51
164.9999847713179
1001
DBPROPERTIES
1002
{
1000
PbHidd
1002
}
  0
ARC
  5
227
330
1F
100
AcDbEntity
  8
HIDDEN
100
AcDbCircle
 10
0.0000000000000573
 20
-0.0000000000000366
 30
0.0
 40
88.0
100
AcDbArc
 50
170.9999988019279
 51
177.0000128325378
1001
DBPROPERTIES
1002
{
1000
PbHidd
1002
}
  0
ARC
  5
228
330
1F
100
AcDbEntity
  8
HIDDEN
100
AcDbCircle
 10
0.0000000000000573
 20
-0.0000000000000366
 30
0.0
 40
88.0
100
AcDbArc
 50
182.9999871674622
 51
189.0000011980722
1001
DBPROPERTIES
1002
{
1000
PbHidd
1002
}
  0
ARC
  5
229
330
1F
100
AcDbEntity
  8
HIDDEN
100
AcDbCircle
 10
0.0000000000000573
 20
-0.0000000000000366
 30
0.0
 40
88.0
100
AcDbArc
 50
195.0000152286821
 51
200.9999719635126
1001
DBPROPERTIES
1002
{
1000
PbHidd
1002
}
  0
ARC
  5
22A
330
1F
100
AcDbEntity
  8
HIDDEN
100
AcDbCircle
 10
0.0000000000000573
 20
-0.0000000000000366
 30
0.0
 40
88.0
100
AcDbArc
 50
206.9999859941226
 51
213.0000000247326
1001
DBPROPERTIES
1002
{
1000
PbHidd
1002
}
  0
ARC
  5
22B
330
1F
100
AcDbEntity
  8
HIDDEN
100
AcDbCircle
 10
0.0000000000000573
 20
-0.0000000000000366
 30
0.0
 40
88.0
100
AcDbArc
 50
219.0000140553425
 51
225.0000280859525
1001
DBPROPERTIES
1002
{
1000
PbHidd
1002
}
  0
ARC
  5
22C
330
1F
100
AcDbEntity
  8
HIDDEN
100
AcDbCircle
 10
0.0000000000000573
 20
-0.0000000000000366
 30
0.0
 40
88.0
100
AcDbArc
 50
230.999984820783
 51
236.999998851393
1001
DBPROPERTIES
1002
{
1000
PbHidd
1002
}
  0
ARC
  5
22D
330
1F
100
AcDbEntity
  8
HIDDEN
100
AcDbCircle
 10
0.0000000000000573
 20
-0.0000000000000366
 30
0.0
 40
88.0
100
AcDbArc
 50
243.0000128820029
 51
249.0000269126129
1001
DBPROPERTIES
1002
{
1000
PbHidd
1002
}
  0
ARC
  5
22E
330
1F
100
AcDbEntity
  8
HIDDEN
100
AcDbCircle
 10
0.0000000000000573
 20
-0.0000000000000366
 30
0.0
 40
88.0
100
AcDbArc
 50
254.9999836474434
 51
260.9999976780534
1001
DBPROPERTIES
1002
{
1000
PbHidd
1002
}
  0
ARC
  5
22F
330
1F
100
AcDbEntity
  8
HIDDEN
100
AcDbCircle
 10
0.0000000000000573
 20
-0.0000000000000366
 30
0.0
 40
88.0
100
AcDbArc
 50
270.0000187239684
 51
273.0000257392733
1001
DBPROPERTIES
1002
{
1000
PbHidd
1002
}
  0
ARC
  5
230
330
1F
100
AcDbEntity
  8
HIDDEN
100
AcDbCircle
 10
0.0000000000000573
 20
-0.0000000000000366
 30
0.0
 40
88.0
100
AcDbArc
 50
278.9999824741038
 51
284.9999965047138
1001
DBPROPERTIES
1002
{
1000
PbHidd
1002
}
  0
ARC
  5
231
330
1F
100
AcDbEntity
  8
HIDDEN
100
AcDbCircle
 10
0.0000000000000573
 20
-0.0000000000000366
 30
0.0
 40
88.0
100
AcDbArc
 50
291.0000105353237
 51
297.0000245659338
1001
DBPROPERTIES
1002
{
1000
PbHidd
1002
}
  0
ARC
  5
232
330
1F
100
AcDbEntity
  8
HIDDEN
100
AcDbCircle
 10
0.0000000000000573
 20
-0.0000000000000366
 30
0.0
 40
88.0
100
AcDbArc
 50
302.9999813007643
 51
308.9999953313742
1001
DBPROPERTIES
1002
{
1000
PbHidd
1002
}
  0
ARC
  5
233
330
1F
100
AcDbEntity
  8
HIDDEN
100
AcDbCircle
 10
0.0000000000000573
 20
-0.0000000000000366
 30
0.0
 40
88.0
100
AcDbArc
 50
315.0000093619842
 51
321.0000233925941
1001
DBPROPERTIES
1002
{
1000
PbHidd
1002
}
  0
ARC
  5
234
330
1F
100
AcDbEntity
  8
HIDDEN
100
AcDbCircle
 10
0.0000000000000573
 20
-0.0000000000000366
 30
0.0
 40
88.0
100
AcDbArc
 50
326.9999801274246
 51
332.9999941580346
1001
DBPROPERTIES
1002
{
1000
PbHidd
1002
}
  0
ARC
  5
235
330
1F
100
AcDbEntity
  8
HIDDEN
100
AcDbCircle
 10
0.0000000000000573
 20
-0.0000000000000366
 30
0.0
 40
88.0
100
AcDbArc
 50
339.0000081886445
 51
345.0000222192546
1001
DBPROPERTIES
1002
{
1000
PbHidd
1002
}
  0
LINE
  5
236
330
1F
100
AcDbEntity
  8
HIDDEN
100
AcDbLine
 10
41.22943560777778
 20
-72.4194592903631
 30
0.0
 11
155.8877927235859
 21
-163.8564479031954
 31
0.0
1001
DBPROPERTIES
1002
{
1000
PbHidd
1002
}
  0
LINE
  5
237
330
1F
100
AcDbEntity
  8
THICK
100
AcDbLine
 10
195.5687556679462
 20
-114.0980942107041
 30
0.0
 11
141.3524226816036
 21
-70.86201141130863
 31
0.0
1001
DBPROPERTIES
1002
{
1000
PbThick
1002
}
  0
LINE
  5
238
330
1F
100
AcDbEntity
  8
HIDDEN
100
AcDbLine
 10
141.3524226816036
 20
-70.86201141130863
 30
0.0
 11
80.32374205266228
 21
-22.19326265112494
 31
0.0
1001
DBPROPERTIES
1002
{
1000
PbHidd
1002
}
  0
ELLIPSE
  5
239
330
1F
100
AcDbEntity
  8
HIDDEN
100
AcDbEllipse
 10
94.38589478962031
 20
-74.10888809217252
 30
0.0
 11
-86.0014630714833
 21
68.5838782044607
 31
0.0
210
0.0
220
0.0
230
1.0
 40
0.8910065241883677
 41
2.810924217632188
 42
3.141592653589793
1001
DBPROPERTIES
1002
{
1000
PbHidd
1002
}
  0
ELLIPSE
  5
23A
330
1F
100
AcDbEntity
  8
THICK
100
AcDbEllipse
 10
94.38589478962031
 20
-74.10888809217252
 30
0.0
 11
-86.0014630714833
 21
68.5838782044607
 31
0.0
210
0.0
220
0.0
230
1.0
 40
0.8910065241883677
 41
-3.141592653589793
 42
-2.810924217632188
1001
DBPROPERTIES
1002
{
1000
PbThick
1002
}
  0
LINE
  5
23B
330
1F
100
AcDbEntity
  8
HIDDEN
100
AcDbLine
 10
80.05585254525596
 20
-23.14097918621163
 30
0.0
 11
140.9343261767118
 21
-71.68994186307678
 31
0.0
1001
DBPROPERTIES
1002
{
1000
PbHidd
1002
}
  0
LINE
  5
23C
330
1F
100
AcDbEntity
  8
THICK
100
AcDbLine
 10
140.9343261767118
 20
-71.68994186307678
 30
0.0
 11
195.0026387744895
 21
-114.8079823415797
 31
0.0
1001
DBPROPERTIES
1002
{
1000
PbThick
1002
}
  0
LINE
  5
23D
330
1F
100
AcDbEntity
  8
THICK
100
AcDbLine
 10
195.0026387744895
 20
-114.8079823415797
 30
0.0
 11
195.5687556679462
 21
-114.0980942107041
 31
0.0
1001
DBPROPERTIES
1002
{
1000
PbThick
1002
}
  0
LINE
  5
23E
330
1F
100
AcDbEntity
  8
HIDDEN
100
AcDbLine
 10
40.37488960089567
 20
-72.89933287870294
 30
0.0
 11
101.2533632323515
 21
-121.4482955555681
 31
0.0
1001
DBPROPERTIES
1002
{
1000
PbHidd
1002
}
  0
LINE
  5
23F
330
1F
100
AcDbEntity
  8
THICK
100
AcDbLine
 10
101.2533632323515
 20
-121.4482955555681
 30
0.0
 11
155.3216758301292
 21
-164.566336034071
 31
0.0
1001
DBPROPERTIES
1002
{
1000
PbThick
1002
}
  0
LINE
  5
240
330
1F
100
AcDbEntity
  8
HIDDEN
100
AcDbLine
 10
155.3216758301292
 20
-164.566336034071
 30
0.0
 11
155.8877927235859
 21
-163.8564479031954
 31
0.0
1001
DBPROPERTIES
1002
{
1000
PbHidd
1002
}
  0
ELLIPSE
  5
241
330
1F
100
AcDbEntity
  8
THICK
100
AcDbEllipse
 10
93.81977789616359
 20
-74.81877622304806
 30
0.0
 11
86.0014630714833
 21
-68.5838782044607
 31
0.0
210
0.0
220
0.0
230
1.0
 40
0.8910065241883677
 41
0.0
 42
0.3306684359576058
1001
DBPROPERTIES
1002
{
1000
PbThick
1002
}
  0
ELLIPSE
  5
242
330
1F
100
AcDbEntity
  8
THICK
100
AcDbEllipse
 10
93.81977789616359
 20
-74.81877622304806
 30
0.0
 11
86.0014630714833
 21
-68.5838782044607
 31
0.0
210
0.0
220
0.0
230
1.0
 40
0.8910065241883677
 41
-0.3306684359576053
 42
0.0
1001
DBPROPERTIES
1002
{
1000
PbThick
1002
}
  0
LINE
  5
243
330
1F
100
AcDbEntity
  8
THICK
100
AcDbLine
 10
211.1406068646984
 20
81.76281201640718
 30
0.0
 11
143.5339454423747
 21
66.3320327214575
 31
0.0
1001
DBPROPERTIES
1002
{
1000
PbThick
1002
}
  0
LINE
  5
244
330
1F
100
AcDbEntity
  8
HIDDEN
100
AcDbLine
 10
143.5339454423747
 20
66.3320327214575
 30
0.0
 11
67.43242545629771
 21
48.96235739346383
 31
0.0
1001
DBPROPERTIES
1002
{
1000
PbHidd
1002
}
  0
ELLIPSE
  5
245
330
1F
100
AcDbEntity
  8
HIDDEN
100
AcDbEllipse
 10
116.7893046818001
 20
27.58772809488062
 30
0.0
 11
-107.2420703400006
 21
-24.47730273519461
 31
0.0
210
0.0
220
0.0
230
1.0
 40
0.8910065241883678
 41
2.810924217632187
 42
3.141592653589793
1001
DBPROPERTIES
1002
{
1000
PbHidd
1002
}
  0
ELLIPSE
  5
246
330
1F
100
AcDbEntity
  8
THICK
100
AcDbEllipse
 10
116.7893046818001
 20
27.58772809488062
 30
0.0
 11
-107.2420703400006
 21
-24.47730273519461
 31
0.0
210
0.0
220
0.0
230
1.0
 40
0.8910065241883678
 41
-3.141592653589793
 42
-2.810924217632187
1001
DBPROPERTIES
1002
{
1000
PbThick
1002
}
  0
LINE
  5
247
330
1F
100
AcDbEntity
  8
HIDDEN
100
AcDbLine
 10
82.32594585435837
 20
-12.91832356111606
 30
0.0
 11
225.3025785735244
 21
19.71515984731081
 31
0.0
1001
DBPROPERTIES
1002
{
1000
PbHidd
1002
}
  0
LINE
  5
248
330
1F
100
AcDbEntity
  8
HIDDEN
100
AcDbLine
 10
68.0063537039912
 20
48.16202134807128
 30
0.0
 11
143.9205686278683
 21
65.48894551789756
 31
0.0
1001
DBPROPERTIES
1002
{
1000
PbHidd
1002
}
  0
LINE
  5
249
330
1F
100
AcDbEntity
  8
THICK
100
AcDbLine
 10
143.9205686278683
 20
65.48894551789756
 30
0.0
 11
211.3426516447171
 21
80.87759599628427
 31
0.0
1001
DBPROPERTIES
1002
{
1000
PbThick
1002
}
  0
LINE
  5
24A
330
1F
100
AcDbEntity
  8
THICK
100
AcDbLine
 10
211.3426516447172
 20
80.8775959962843
 30
0.0
 11
211.1406068646985
 21
81.76281201640721
 31
0.0
1001
DBPROPERTIES
1002
{
1000
PbThick
1002
}
  0
LINE
  5
24B
330
1F
100
AcDbEntity
  8
HIDDEN
100
AcDbLine
 10
82.1683254128173
 20
-13.88563082102508
 30
0.0
 11
158.0825403366943
 21
3.441293348801192
 31
0.0
1001
DBPROPERTIES
1002
{
1000
PbHidd
1002
}
  0
LINE
  5
24C
330
1F
100
AcDbEntity
  8
THICK
100
AcDbLine
 10
158.0825403366943
 20
3.441293348801192
 30
0.0
 11
225.5046233535431
 21
18.82994382718789
 31
0.0
1001
DBPROPERTIES
1002
{
1000
PbThick
1002
}
  0
LINE
  5
24D
330
1F
100
AcDbEntity
  8
HIDDEN
100
AcDbLine
 10
225.5046233535433
 20
18.82994382718794
 30
0.0
 11
225.3025785735246
 21
19.71515984731086
 31
0.0
1001
DBPROPERTIES
1002
{
1000
PbHidd
1002
}
  0
ELLIPSE
  5
24E
330
1F
100
AcDbEntity
  8
THICK
100
AcDbEllipse
 10
116.9913494618188
 20
26.7025120747577
 30
0.0
 11
107.2420703400006
 21
24.47730273519461
 31
0.0
210
0.0
220
0.0
230
1.0
 40
0.8910065241883678
 41
0.0
 42
0.3306684359576054
1001
DBPROPERTIES
1002
{
1000
PbThick
1002
}
  0
ELLIPSE
  5
24F
330
1F
100
AcDbEntity
  8
THICK
100
AcDbEllipse
 10
116.9913494618188
 20
26.7025120747577
 30
0.0
 11
107.2420703400006
 21
24.47730273519461
 31
0.0
210
0.0
220
0.0
230
1.0
 40
0.8910065241883678
 41
-0.2600291850692306
 42
0.0
1001
DBPROPERTIES
1002
{
1000
PbThick
1002
}
  0
ELLIPSE
  5
250
330
1F
100
AcDbEntity
  8
HIDDEN
100
AcDbEllipse
 10
116.9913494618188
 20
26.7025120747577
 30
0.0
 11
107.2420703400006
 21
24.47730273519461
 31
0.0
210
0.0
220
0.0
230
1.0
 40
0.8910065241883678
 41
-0.3012095301155532
 42
-0.2600291850692306
1001
DBPROPERTIES
1002
{
1000
PbHidd
1002
}
  0
ELLIPSE
  5
251
330
1F
100
AcDbEntity
  8
THICK
100
AcDbEllipse
 10
116.9913494618188
 20
26.7025120747577
 30
0.0
 11
107.2420703400006
 21
24.47730273519461
 31
0.0
210
0.0
220
0.0
230
1.0
 40
0.8910065241883678
 41
-0.3306684359576054
 42
-0.3012095301155532
1001
DBPROPERTIES
1002
{
1000
PbThick
1002
}
  0
LINE
  5
252
330
1F
100
AcDbEntity
  8
HIDDEN
100
AcDbLine
 10
61.42933972935575
 20
56.31057329542849
 30
0.0
 11
125.0599274225513
 21
188.4408501168215
 31
0.0
1001
DBPROPERTIES
1002
{
1000
PbHidd
1002
}
  0
LINE
  5
253
330
1F
100
AcDbEntity
  8
THICK
100
AcDbLine
 10
67.71927460886104
 20
216.0546531377491
 30
0.0
 11
37.63147972613349
 21
153.5767032880857
 31
0.0
1001
DBPROPERTIES
1002
{
1000
PbThick
1002
}
  0
LINE
  5
254
330
1F
100
AcDbEntity
  8
HIDDEN
100
AcDbLine
 10
37.63147972613349
 20
153.5767032880857
 30
0.0
 11
3.763117120539512
 21
83.24832367069938
 31
0.0
1001
DBPROPERTIES
1002
{
1000
PbHidd
1002
}
  0
ELLIPSE
  5
255
330
1F
100
AcDbEntity
  8
HIDDEN
100
AcDbEllipse
 10
51.24798608092937
 20
108.5102223393919
 30
0.0
 11
-47.72721130293137
 21
-99.10657546926613
 31
0.0
210
0.0
220
0.0
230
1.0
 40
0.8910065241883678
 41
2.810924217632187
 42
3.141592653589793
1001
DBPROPERTIES
1002
{
1000
PbHidd
1002
}
  0
ELLIPSE
  5
256
330
1F
100
AcDbEntity
  8
THICK
100
AcDbEllipse
 10
51.24798608092937
 20
108.5102223393919
 30
0.0
 11
-47.72721130293137
 21
-99.10657546926613
 31
0.0
210
0.0
220
0.0
230
1.0
 40
0.8910065241883678
 41
3.141592653589793
 42
3.472261089547398
1001
DBPROPERTIES
1002
{
1000
PbThick
1002
}
  0
LINE
  5
257
330
1F
100
AcDbEntity
  8
HIDDEN
100
AcDbLine
 10
4.746683446816927
 20
83.19803748106165
 30
0.0
 11
38.53168745765996
 21
153.3533211928594
 31
0.0
1001
DBPROPERTIES
1002
{
1000
PbHidd
1002
}
  0
LINE
  5
258
330
1F
100
AcDbEntity
  8
THICK
100
AcDbLine
 10
38.53168745765996
 20
153.3533211928594
 30
0.0
 11
68.53733722203863
 21
215.6606949466475
 31
0.0
1001
DBPROPERTIES
1002
{
1000
PbThick
1002
}
  0
LINE
  5
259
330
1F
100
AcDbEntity
  8
THICK
100
AcDbLine
 10
68.5373372220387
 20
215.6606949466476
 30
0.0
 11
67.71927460886111
 21
216.0546531377493
 31
0.0
1001
DBPROPERTIES
1002
{
1000
PbThick
1002
}
  0
LINE
  5
25A
330
1F
100
AcDbEntity
  8
HIDDEN
100
AcDbLine
 10
62.08733626050716
 20
55.58423446013394
 30
0.0
 11
95.87234027135017
 21
125.7395181719317
 31
0.0
1001
DBPROPERTIES
1002
{
1000
PbHidd
1002
}
  0
LINE
  5
25B
330
1F
100
AcDbEntity
  8
THICK
100
AcDbLine
 10
95.87234027135017
 20
125.7395181719317
 30
0.0
 11
125.8779900357289
 21
188.0468919257198
 31
0.0
1001
DBPROPERTIES
1002
{
1000
PbThick
1002
}
  0
LINE
  5
25C
330
1F
100
AcDbEntity
  8
HIDDEN
100
AcDbLine
 10
125.8779900357289
 20
188.0468919257199
 30
0.0
 11
125.0599274225514
 21
188.4408501168216
 31
0.0
1001
DBPROPERTIES
1002
{
1000
PbHidd
1002
}
  0
ELLIPSE
  5
25D
330
1F
100
AcDbEntity
  8
THICK
100
AcDbEllipse
 10
52.06604869410695
 20
108.1162641482902
 30
0.0
 11
47.72721130293137
 21
99.10657546926613
 31
0.0
210
0.0
220
0.0
230
1.0
 40
0.8910065241883678
 41
0.0
 42
0.3306684359576053
1001
DBPROPERTIES
1002
{
1000
PbThick
1002
}
  0
ELLIPSE
  5
25E
330
1F
100
AcDbEntity
  8
THICK
100
AcDbEllipse
 10
52.06604869410695
 20
108.1162641482902
 30
0.0
 11
47.72721130293137
 21
99.10657546926613
 31
0.0
210
0.0
220
0.0
230
1.0
 40
0.8910065241883678
 41
-0.3306684359576059
 42
0.0
1001
DBPROPERTIES
1002
{
1000
PbThick
1002
}
  0
LINE
  5
25F
330
1F
100
AcDbEntity
  8
HIDDEN
100
AcDbLine
 10
-5.724812142020713
 20
83.13645993415284
 30
0.0
 11
-69.35539983521626
 21
215.2667367555458
 31
0.0
1001
DBPROPERTIES
1002
{
1000
PbHidd
1002
}
  0
LINE
  5
260
330
1F
100
AcDbEntity
  8
THICK
100
AcDbLine
 10
-126.6960526489065
 20
187.652933734618
 30
0.0
 11
-96.60825776617887
 21
125.1749838849545
 31
0.0
1001
DBPROPERTIES
1002
{
1000
PbThick
1002
}
  0
LINE
  5
261
330
1F
100
AcDbEntity
  8
HIDDEN
100
AcDbLine
 10
-96.60825776617887
 20
125.1749838849545
 30
0.0
 11
-62.73989516058494
 21
54.84660426756829
 31
0.0
1001
DBPROPERTIES
1002
{
1000
PbHidd
1002
}
  0
ELLIPSE
  5
262
330
1F
100
AcDbEntity
  8
HIDDEN
100
AcDbEllipse
 10
-52.88411130728457
 20
107.7223059571885
 30
0.0
 11
47.72721130293142
 21
-99.10657546926608
 31
0.0
210
0.0
220
0.0
230
1.0
 40
0.8910065241883678
 41
2.810924217632187
 42
3.141592653589793
1001
DBPROPERTIES
1002
{
1000
PbHidd
1002
}
  0
ELLIPSE
  5
263
330
1F
100
AcDbEntity
  8
THICK
100
AcDbEllipse
 10
-52.88411130728457
 20
107.7223059571885
 30
0.0
 11
47.72721130293142
 21
-99.10657546926608
 31
0.0
210
0.0
220
0.0
230
1.0
 40
0.8910065241883678
 41
3.141592653589793
 42
3.472261089547398
1001
DBPROPERTIES
1002
{
1000
PbThick
1002
}
  0
LINE
  5
264
330
1F
100
AcDbEntity
  8
HIDDEN
100
AcDbLine
 10
-62.08733626050717
 20
55.58423446013393
 30
0.0
 11
-95.87234027135017
 21
125.7395181719316
 31
0.0
1001
DBPROPERTIES
1002
{
1000
PbHidd
1002
}
  0
LINE
  5
265
330
1F
100
AcDbEntity
  8
THICK
100
AcDbLine
 10
-95.87234027135017
 20
125.7395181719316
 30
0.0
 11
-125.8779900357289
 21
188.0468919257197
 31
0.0
1001
DBPROPERTIES
1002
{
1000
PbThick
1002
}
  0
LINE
  5
266
330
1F
100
AcDbEntity
  8
THICK
100
AcDbLine
 10
-125.877990035729
 20
188.0468919257199
 30
0.0
 11
-126.6960526489066
 21
187.6529337346182
 31
0.0
1001
DBPROPERTIES
1002
{
1000
PbThick
1002
}
  0
LINE
  5
267
330
1F
100
AcDbEntity
  8
HIDDEN
100
AcDbLine
 10
-4.746683446816959
 20
83.19803748106168
 30
0.0
 11
-38.53168745765998
 21
153.3533211928594
 31
0.0
1001
DBPROPERTIES
1002
{
1000
PbHidd
1002
}
  0
LINE
  5
268
330
1F
100
AcDbEntity
  8
THICK
100
AcDbLine
 10
-38.53168745765998
 20
153.3533211928594
 30
0.0
 11
-68.53733722203867
 21
215.6606949466475
 31
0.0
1001
DBPROPERTIES
1002
{
1000
PbThick
1002
}
  0
LINE
  5
269
330
1F
100
AcDbEntity
  8
HIDDEN
100
AcDbLine
 10
-68.53733722203874
 20
215.6606949466476
 30
0.0
 11
-69.35539983521633
 21
215.2667367555459
 31
0.0
1001
DBPROPERTIES
1002
{
1000
PbHidd
1002
}
  0
ELLIPSE
  5
26A
330
1F
100
AcDbEntity
  8
THICK
100
AcDbEllipse
 10
-52.06604869410699
 20
108.1162641482902
 30
0.0
 11
-47.72721130293142
 21
99.10657546926608
 31
0.0
210
0.0
220
0.0
230
1.0
 40
0.8910065241883678
 41
0.0
 42
0.3306684359576049
1001
DBPROPERTIES
1002
{
1000
PbThick
1002
}
  0
ELLIPSE
  5
26B
330
1F
100
AcDbEntity
  8
THICK
100
AcDbEllipse
 10
-52.06604869410699
 20
108.1162641482902
 30
0.0
 11
-47.72721130293142
 21
99.10657546926608
 31
0.0
210
0.0
220
0.0
230
1.0
 40
0.8910065241883678
 41
-0.3306684359576056
 42
0.0
1001
DBPROPERTIES
1002
{
1000
PbThick
1002
}
  0
LINE
  5
26C
330
1F
100
AcDbEntity
  8
THICK
100
AcDbLine
 10
-225.7066681335618
 20
17.94472780706492
 30
0.0
 11
-158.1000067112381
 21
2.513948512115242
 31
0.0
1001
DBPROPERTIES
1002
{
1000
PbThick
1002
}
  0
LINE
  5
26D
330
1F
100
AcDbEntity
  8
HIDDEN
100
AcDbLine
 10
-158.1000067112381
 20
2.513948512115242
 30
0.0
 11
-81.99848672516114
 21
-14.85572681587838
 31
0.0
1001
DBPROPERTIES
1002
{
1000
PbHidd
1002
}
  0
ELLIPSE
  5
26E
330
1F
100
AcDbEntity
  8
HIDDEN
100
AcDbEllipse
 10
-117.1933942418375
 20
25.81729605463474
 30
0.0
 11
107.2420703400006
 21
-24.47730273519457
 31
0.0
210
0.0
220
0.0
230
1.0
 40
0.8910065241883678
 41
2.810924217632187
 42
3.141592653589793
1001
DBPROPERTIES
1002
{
1000
PbHidd
1002
}
  0
ELLIPSE
  5
26F
330
1F
100
AcDbEntity
  8
THICK
100
AcDbEllipse
 10
-117.1933942418375
 20
25.81729605463474
 30
0.0
 11
107.2420703400006
 21
-24.47730273519457
 31
0.0
210
0.0
220
0.0
230
1.0
 40
0.8910065241883678
 41
-3.141592653589793
 42
-2.890812264303112
1001
DBPROPERTIES
1002
{
1000
PbThick
1002
}
  0
ELLIPSE
  5
270
330
1F
100
AcDbEntity
  8
HIDDEN
100
AcDbEllipse
 10
-117.1933942418375
 20
25.81729605463474
 30
0.0
 11
107.2420703400006
 21
-24.47730273519457
 31
0.0
210
0.0
220
0.0
230
1.0
 40
0.8910065241883678
 41
-2.890812264303112
 42
-2.849686434216256
1001
DBPROPERTIES
1002
{
1000
PbHidd
1002
}
  0
ELLIPSE
  5
271
330
1F
100
AcDbEntity
  8
THICK
100
AcDbEllipse
 10
-117.1933942418375
 20
25.81729605463474
 30
0.0
 11
107.2420703400006
 21
-24.47730273519457
 31
0.0
210
0.0
220
0.0
230
1.0
 40
0.8910065241883678
 41
-2.849686434216256
 42
-2.810924217632187
1001
DBPROPERTIES
1002
{
1000
PbThick
1002
}
  0
LINE
  5
272
330
1F
100
AcDbEntity
  8
HIDDEN
100
AcDbLine
 10
-68.56806370556966
 20
47.35889656773444
 30
0.0
 11
-211.5446964247357
 21
79.99237997616129
 31
0.0
1001
DBPROPERTIES
1002
{
1000
PbHidd
1002
}
  0
LINE
  5
273
330
1F
100
AcDbEntity
  8
HIDDEN
100
AcDbLine
 10
-82.16832541281727
 20
-13.8856308210251
 30
0.0
 11
-158.0825403366943
 21
3.441293348801164
 31
0.0
1001
DBPROPERTIES
1002
{
1000
PbHidd
1002
}
  0
LINE
  5
274
330
1F
100
AcDbEntity
  8
THICK
100
AcDbLine
 10
-158.0825403366943
 20
3.441293348801164
 30
0.0
 11
-225.5046233535431
 21
18.82994382718784
 31
0.0
1001
DBPROPERTIES
1002
{
1000
PbThick
1002
}
  0
LINE
  5
275
330
1F
100
AcDbEntity
  8
THICK
100
AcDbLine
 10
-225.5046233535433
 20
18.82994382718789
 30
0.0
 11
-225.7066681335619
 21
17.94472780706497
 31
0.0
1001
DBPROPERTIES
1002
{
1000
PbThick
1002
}
  0
LINE
  5
276
330
1F
100
AcDbEntity
  8
HIDDEN
100
AcDbLine
 10
-68.00635370399121
 20
48.16202134807125
 30
0.0
 11
-143.9205686278683
 21
65.48894551789752
 31
0.0
1001
DBPROPERTIES
1002
{
1000
PbHidd
1002
}
  0
LINE
  5
277
330
1F
100
AcDbEntity
  8
THICK
100
AcDbLine
 10
-143.9205686278683
 20
65.48894551789752
 30
0.0
 11
-211.3426516447171
 21
80.87759599628421
 31
0.0
1001
DBPROPERTIES
1002
{
1000
PbThick
1002
}
  0
LINE
  5
278
330
1F
100
AcDbEntity
  8
HIDDEN
100
AcDbLine
 10
-211.3426516447172
 20
80.87759599628424
 30
0.0
 11
-211.5446964247359
 21
79.99237997616133
 31
0.0
1001
DBPROPERTIES
1002
{
1000
PbHidd
1002
}
  0
ELLIPSE
  5
279
330
1F
100
AcDbEntity
  8
THICK
100
AcDbEllipse
 10
-116.9913494618188
 20
26.70251207475766
 30
0.0
 11
-107.2420703400006
 21
24.47730273519457
 31
0.0
210
0.0
220
0.0
230
1.0
 40
0.8910065241883678
 41
0.3012095301155524
 42
0.3306684359576053
1001
DBPROPERTIES
1002
{
1000
PbThick
1002
}
  0
ELLIPSE
  5
27A
330
1F
100
AcDbEntity
  8
HIDDEN
100
AcDbEllipse
 10
-116.9913494618188
 20
26.70251207475766
 30
0.0
 11
-107.2420703400006
 21
24.47730273519457
 31
0.0
210
0.0
220
0.0
230
1.0
 40
0.8910065241883678
 41
0.26002918506923
 42
0.3012095301155524
1001
DBPROPERTIES
1002
{
1000
PbHidd
1002
}
  0
ELLIPSE
  5
27B
330
1F
100
AcDbEntity
  8
THICK
100
AcDbEllipse
 10
-116.9913494618188
 20
26.70251207475766
 30
0.0
 11
-107.2420703400006
 21
24.47730273519457
 31
0.0
210
0.0
220
0.0
230
1.0
 40
0.8910065241883678
 41
0.0
 42
0.26002918506923
1001
DBPROPERTIES
1002
{
1000
PbThick
1002
}
  0
ELLIPSE
  5
27C
330
1F
100
AcDbEntity
  8
THICK
100
AcDbEllipse
 10
-116.9913494618188
 20
26.70251207475766
 30
0.0
 11
-107.2420703400006
 21
24.47730273519457
 31
0.0
210
0.0
220
0.0
230
1.0
 40
0.8910065241883678
 41
-0.3306684359576054
 42
0.0
1001
DBPROPERTIES
1002
{
1000
PbThick
1002
}
  0
LINE
  5
27D
330
1F
100
AcDbEntity
  8
HIDDEN
100
AcDbLine
 10
-79.77816476522463
 20
-24.08088185962291
 30
0.0
 11
-194.4365218810327
 21
-115.5178704724553
 31
0.0
1001
DBPROPERTIES
1002
{
1000
PbHidd
1002
}
  0
LINE
  5
27E
330
1F
100
AcDbEntity
  8
THICK
100
AcDbLine
 10
-154.7555589366724
 20
-165.2762241649466
 30
0.0
 11
-100.5392259503298
 21
-122.040141365551
 31
0.0
1001
DBPROPERTIES
1002
{
1000
PbThick
1002
}
  0
LINE
  5
27F
330
1F
100
AcDbEntity
  8
HIDDEN
100
AcDbLine
 10
-100.5392259503298
 20
-122.040141365551
 30
0.0
 11
-39.51054532138852
 21
-73.37139260536732
 31
0.0
1001
DBPROPERTIES
1002
{
1000
PbHidd
1002
}
  0
ELLIPSE
  5
280
330
1F
100
AcDbEntity
  8
HIDDEN
100
AcDbEllipse
 10
-93.25366100270683
 20
-75.52866435392363
 30
0.0
 11
86.0014630714833
 21
68.5838782044607
 31
0.0
210
0.0
220
0.0
230
1.0
 40
0.8910065241883678
 41
2.810924217632188
 42
3.141592653589793
1001
DBPROPERTIES
1002
{
1000
PbHidd
1002
}
  0
ELLIPSE
  5
281
330
1F
100
AcDbEntity
  8
THICK
100
AcDbEllipse
 10
-93.25366100270683
 20
-75.52866435392363
 30
0.0
 11
86.0014630714833
 21
68.5838782044607
 31
0.0
210
0.0
220
0.0
230
1.0
 40
0.8910065241883678
 41
3.141592653589793
 42
3.472261089547398
1001
DBPROPERTIES
1002
{
1000
PbThick
1002
}
  0
LINE
  5
282
330
1F
100
AcDbEntity
  8
HIDDEN
100
AcDbLine
 10
-40.37488960089564
 20
-72.89933287870294
 30
0.0
 11
-101.2533632323515
 21
-121.4482955555681
 31
0.0
1001
DBPROPERTIES
1002
{
1000
PbHidd
1002
}
  0
LINE
  5
283
330
1F
100
AcDbEntity
  8
THICK
100
AcDbLine
 10
-101.2533632323515
 20
-121.4482955555681
 30
0.0
 11
-155.3216758301291
 21
-164.566336034071
 31
0.0
1001
DBPROPERTIES
1002
{
1000
PbThick
1002
}
  0
LINE
  5
284
330
1F
100
AcDbEntity
  8
THICK
100
AcDbLine
 10
-155.3216758301291
 20
-164.566336034071
 30
0.0
 11
-154.7555589366724
 21
-165.2762241649466
 31
0.0
1001
DBPROPERTIES
1002
{
1000
PbThick
1002
}
  0
LINE
  5
285
330
1F
100
AcDbEntity
  8
HIDDEN
100
AcDbLine
 10
-80.05585254525596
 20
-23.14097918621166
 30
0.0
 11
-140.9343261767118
 21
-71.68994186307683
 31
0.0
1001
DBPROPERTIES
1002
{
1000
PbHidd
1002
}
  0
LINE
  5
286
330
1F
100
AcDbEntity
  8
THICK
100
AcDbLine
 10
-140.9343261767118
 20
-71.68994186307683
 30
0.0
 11
-195.0026387744894
 21
-114.8079823415797
 31
0.0
1001
DBPROPERTIES
1002
{
1000
PbThick
1002
}
  0
LINE
  5
287
330
1F
100
AcDbEntity
  8
HIDDEN
100
AcDbLine
 10
-195.0026387744894
 20
-114.8079823415797
 30
0.0
 11
-194.4365218810327
 21
-115.5178704724553
 31
0.0
1001
DBPROPERTIES
1002
{
1000
PbHidd
1002
}
  0
ELLIPSE
  5
288
330
1F
100
AcDbEntity
  8
THICK
100
AcDbEllipse
 10
-93.81977789616356
 20
-74.81877622304809
 30
0.0
 11
-86.0014630714833
 21
-68.5838782044607
 31
0.0
210
0.0
220
0.0
230
1.0
 40
0.8910065241883678
 41
0.0
 42
0.3306684359576053
1001
DBPROPERTIES
1002
{
1000
PbThick
1002
}
  0
ELLIPSE
  5
289
330
1F
100
AcDbEntity
  8
THICK
100
AcDbEllipse
 10
-93.81977789616356
 20
-74.81877622304809
 30
0.0
 11
-86.0014630714833
 21
-68.5838782044607
 31
0.0
210
0.0
220
0.0
230
1.0
 40
0.8910065241883678
 41
-0.3306684359576053
 42
0.0
1001
DBPROPERTIES
1002
{
1000
PbThick
1002
}
  0
LINE
  5
28A
330
1F
100
AcDbEntity
  8
HIDDEN
100
AcDbLine
 10
-30.9136805786769
 20
-77.3872650862142
 30
0.0
 11
-30.91368057867691
 21
-224.0408083201893
 31
0.0
1001
DBPROPERTIES
1002
{
1000
PbHidd
1002
}
  0
LINE
  5
28B
330
1F
100
AcDbEntity
  8
THICK
100
AcDbLine
 10
32.7296425776351
 20
-224.0408083201893
 30
0.0
 11
32.7296425776351
 21
-154.6955156297538
 31
0.0
1001
DBPROPERTIES
1002
{
1000
PbThick
1002
}
  0
LINE
  5
28C
330
1F
100
AcDbEntity
  8
HIDDEN
100
AcDbLine
 10
32.7296425776351
 20
-154.6955156297538
 30
0.0
 11
32.7296425776351
 21
-76.63690325936133
 31
0.0
1001
DBPROPERTIES
1002
{
1000
PbHidd
1002
}
  0
ELLIPSE
  5
28D
330
1F
100
AcDbEntity
  8
HIDDEN
100
AcDbEllipse
 10
0.9079809994790995
 20
-120.0000000000001
 30
0.0
 11
2.643767824632170E-14
 21
110.0
 31
0.0
210
0.0
220
0.0
230
1.0
 40
0.8910065241883679
 41
2.810924217632188
 42
3.141592653589793
1001
DBPROPERTIES
1002
{
1000
PbHidd
1002
}
  0
ELLIPSE
  5
28E
330
1F
100
AcDbEntity
  8
THICK
100
AcDbEllipse
 10
0.9079809994790995
 20
-120.0000000000001
 30
0.0
 11
2.643767824632170E-14
 21
110.0
 31
0.0
210
0.0
220
0.0
230
1.0
 40
0.8910065241883679
 41
-3.141592653589793
 42
-2.925793856783873
1001
DBPROPERTIES
1002
{
1000
PbThick
1002
}
  0
ELLIPSE
  5
28F
330
1F
100
AcDbEntity
  8
HIDDEN
100
AcDbEllipse
 10
0.9079809994790995
 20
-120.0000000000001
 30
0.0
 11
2.643767824632170E-14
 21
110.0
 31
0.0
210
0.0
220
0.0
230
1.0
 40
0.8910065241883679
 41
-2.925793856783873
 42
-2.88474707424389
1001
DBPROPERTIES
1002
{
1000
PbHidd
1002
}
  0
ELLIPSE
  5
290
330
1F
100
AcDbEntity
  8
THICK
100
AcDbEllipse
 10
0.9079809994790995
 20
-120.0000000000001
 30
0.0
 11
2.643767824632170E-14
 21
110.0
 31
0.0
210
0.0
220
0.0
230
1.0
 40
0.8910065241883679
 41
-2.88474707424389
 42
-2.810924217632188
1001
DBPROPERTIES
1002
{
1000
PbThick
1002
}
  0
LINE
  5
291
330
1F
100
AcDbEntity
  8
HIDDEN
100
AcDbLine
 10
31.821661578156
 20
-77.01835040332766
 30
0.0
 11
31.821661578156
 21
-154.8848408128454
 31
0.0
1001
DBPROPERTIES
1002
{
1000
PbHidd
1002
}
  0
LINE
  5
292
330
1F
100
AcDbEntity
  8
THICK
100
AcDbLine
 10
31.821661578156
 20
-154.8848408128454
 30
0.0
 11
31.82166157815601
 21
-224.0408083201893
 31
0.0
1001
DBPROPERTIES
1002
{
1000
PbThick
1002
}
  0
LINE
  5
293
330
1F
100
AcDbEntity
  8
THICK
100
AcDbLine
 10
31.82166157815601
 20
-224.0408083201893
 30
0.0
 11
32.7296425776351
 21
-224.0408083201893
 31
0.0
1001
DBPROPERTIES
1002
{
1000
PbThick
1002
}
  0
LINE
  5
294
330
1F
100
AcDbEntity
  8
HIDDEN
100
AcDbLine
 10
-31.821661578156
 20
-77.01835040332766
 30
0.0
 11
-31.821661578156
 21
-154.8848408128454
 31
0.0
1001
DBPROPERTIES
1002
{
1000
PbHidd
1002
}
  0
LINE
  5
295
330
1F
100
AcDbEntity
  8
THICK
100
AcDbLine
 10
-31.821661578156
 20
-154.8848408128454
 30
0.0
 11
-31.821661578156
 21
-224.0408083201893
 31
0.0
1001
DBPROPERTIES
1002
{
1000
PbThick
1002
}
  0
LINE
  5
296
330
1F
100
AcDbEntity
  8
HIDDEN
100
AcDbLine
 10
-31.821661578156
 20
-224.0408083201893
 30
0.0
 11
-30.91368057867691
 21
-224.0408083201893
 31
0.0
1001
DBPROPERTIES
1002
{
1000
PbHidd
1002
}
  0
ELLIPSE
  5
297
330
1F
100
AcDbEntity
  8
THICK
100
AcDbEllipse
 10
0.000000000000006
 20
-120.0000000000001
 30
0.0
 11
-2.643767824632170E-14
 21
-110.0
 31
0.0
210
0.0
220
0.0
230
1.0
 40
0.8910065241883679
 41
0.2661422440329785
 42
0.3306684359576056
1001
DBPROPERTIES
1002
{
1000
PbThick
1002
}
  0
ELLIPSE
  5
298
330
1F
100
AcDbEntity
  8
HIDDEN
100
AcDbEllipse
 10
0.000000000000006
 20
-120.0000000000001
 30
0.0
 11
-2.643767824632170E-14
 21
-110.0
 31
0.0
210
0.0
220
0.0
230
1.0
 40
0.8910065241883679
 41
0.2250481638641705
 42
0.2661422440329785
1001
DBPROPERTIES
1002
{
1000
PbHidd
1002
}
  0
ELLIPSE
  5
299
330
1F
100
AcDbEntity
  8
THICK
100
AcDbEllipse
 10
0.000000000000006
 20
-120.0000000000001
 30
0.0
 11
-2.643767824632170E-14
 21
-110.0
 31
0.0
210
0.0
220
0.0
230
1.0
 40
0.8910065241883679
 41
0.0
 42
0.2250481638641705
1001
DBPROPERTIES
1002
{
1000
PbThick
1002
}
  0
ELLIPSE
  5
29A
330
1F
100
AcDbEntity
  8
THICK
100
AcDbEllipse
 10
0.000000000000006
 20
-120.0000000000001
 30
0.0
 11
-2.643767824632170E-14
 21
-110.0
 31
0.0
210
0.0
220
0.0
230
1.0
 40
0.8910065241883679
 41
-0.2250481638641704
 42
0.0
1001
DBPROPERTIES
1002
{
1000
PbThick
1002
}
  0
ELLIPSE
  5
29B
330
1F
100
AcDbEntity
  8
HIDDEN
100
AcDbEllipse
 10
0.000000000000006
 20
-120.0000000000001
 30
0.0
 11
-2.643767824632170E-14
 21
-110.0
 31
0.0
210
0.0
220
0.0
230
1.0
 40
0.8910065241883679
 41
-0.2661422440329785
 42
-0.2250481638641704
1001
DBPROPERTIES
1002
{
1000
PbHidd
1002
}
  0
ELLIPSE
  5
29C
330
1F
100
AcDbEntity
  8
THICK
100
AcDbEllipse
 10
0.000000000000006
 20
-120.0000000000001
 30
0.0
 11
-2.643767824632170E-14
 21
-110.0
 31
0.0
210
0.0
220
0.0
230
1.0
 40
0.8910065241883679
 41
-0.3306684359576051
 42
-0.2661422440329785
1001
DBPROPERTIES
1002
{
1000
PbThick
1002
}
  0
ARC
  5
29D
330
1F
100
AcDbEntity
  8
HIDDEN
100
AcDbCircle
 10
0.0
 20
-0.0000000000000573
 30
0.0
 40
71.33333333333333
100
AcDbArc
 50
89.99998127603165
 51
270.0000187239684
1001
DBPROPERTIES
1002
{
1000
PbHidd
1002
}
  0
LINE
  5
29E
330
1F
100
AcDbEntity
  8
HIDDEN
100
AcDbLine
 10
31.559467676119
 20
248.0
 30
0.0
 11
31.559467676119
 21
248.0
 31
0.0
1001
DBPROPERTIES
1002
{
1000
PbHidd
1002
}
  0
LINE
  5
29F
330
1F
100
AcDbEntity
  8
THICK
100
AcDbLine
 10
27.34728761245244
 20
248.0
 30
0.0
 11
31.559467676119
 21
248.0
 31
0.0
1001
DBPROPERTIES
1002
{
1000
PbThick
1002
}
  0
LINE
  5
2A0
330
1F
100
AcDbEntity
  8
HIDDEN
100
AcDbLine
 10
27.34728761245244
 20
248.0
 30
0.0
 11
27.34728761245244
 21
248.0
 31
0.0
1001
DBPROPERTIES
1002
{
1000
PbHidd
1002
}
  0
LINE
  5
2A1
330
1F
100
AcDbEntity
  8
HIDDEN
100
AcDbLine
 10
24.05483378676073
 20
248.0
 30
0.0
 11
27.34728761245244
 21
248.0
 31
0.0
1001
DBPROPERTIES
1002
{
1000
PbHidd
1002
}
  0
LINE
  5
2A2
330
1F
100
AcDbEntity
  8
HIDDEN
100
AcDbLine
 10
24.05483378676071
 20
248.0
 30
0.0
 11
24.05483378676072
 21
248.0
 31
0.0
1001
DBPROPERTIES
1002
{
1000
PbHidd
1002
}
  0
LINE
  5
2A3
330
1F
100
AcDbEntity
  8
THICK
100
AcDbLine
 10
-24.05483378676072
 20
248.0
 30
0.0
 11
24.05483378676072
 21
248.0
 31
0.0
1001
DBPROPERTIES
1002
{
1000
PbThick
1002
}
  0
LINE
  5
2A4
330
1F
100
AcDbEntity
  8
HIDDEN
100
AcDbLine
 10
-24.05483378676072
 20
248.0
 30
0.0
 11
-24.05483378676072
 21
248.0
 31
0.0
1001
DBPROPERTIES
1002
{
1000
PbHidd
1002
}
  0
LINE
  5
2A5
330
1F
100
AcDbEntity
  8
HIDDEN
100
AcDbLine
 10
-27.34728761245237
 20
248.0
 30
0.0
 11
-24.05483378676072
 21
248.0
 31
0.0
1001
DBPROPERTIES
1002
{
1000
PbHidd
1002
}
  0
LINE
  5
2A6
330
1F
100
AcDbEntity
  8
HIDDEN
100
AcDbLine
 10
-27.34728761245237
 20
248.0
 30
0.0
 11
-27.34728761245237
 21
248.0
 31
0.0
1001
DBPROPERTIES
1002
{
1000
PbHidd
1002
}
  0
LINE
  5
2A7
330
1F
100
AcDbEntity
  8
THICK
100
AcDbLine
 10
-31.559467676119
 20
248.0
 30
0.0
 11
-27.34728761245237
 21
248.0
 31
0.0
1001
DBPROPERTIES
1002
{
1000
PbThick
1002
}
  0
LINE
  5
2A8
330
1F
100
AcDbEntity
  8
HIDDEN
100
AcDbLine
 10
-31.559467676119
 20
248.0
 30
0.0
 11
-31.559467676119
 21
248.0
 31
0.0
1001
DBPROPERTIES
1002
{
1000
PbHidd
1002
}
  0
LINE
  5
2A9
330
1F
100
AcDbEntity
  8
HIDDEN
100
AcDbLine
 10
-44.7213595499958
 20
248.0
 30
0.0
 11
-44.7213595499958
 21
248.0
 31
0.0
1001
DBPROPERTIES
1002
{
1000
PbHidd
1002
}
  0
LINE
  5
2AA
330
1F
100
AcDbEntity
  8
HIDDEN
100
AcDbLine
 10
-65.0
 20
248.0
 30
0.0
 11
-44.7213595499958
 21
248.0
 31
0.0
1001
DBPROPERTIES
1002
{
1000
PbHidd
1002
}
  0
LINE
  5
2AB
330
1F
100
AcDbEntity
  8
HIDDEN
100
AcDbLine
 10
-65.0
 20
248.0
 30
0.0
 11
-65.0
 21
248.0
 31
0.0
1001
DBPROPERTIES
1002
{
1000
PbHidd
1002
}
  0
LINE
  5
2AC
330
1F
100
AcDbEntity
  8
HIDDEN
100
AcDbLine
 10
44.7213595499958
 20
248.0
 30
0.0
 11
65.0
 21
248.0
 31
0.0
1001
DBPROPERTIES
1002
{
1000
PbHidd
1002
}
  0
LINE
  5
2AD
330
1F
100
AcDbEntity
  8
HIDDEN
100
AcDbLine
 10
44.7213595499958
 20
248.0
 30
0.0
 11
44.7213595499958
 21
248.0
 31
0.0
1001
DBPROPERTIES
1002
{
1000
PbHidd
1002
}
  0
LINE
  5
2AE
330
1F
100
AcDbEntity
  8
HIDDEN
100
AcDbLine
 10
65.0
 20
248.0
 30
0.0
 11
65.0
 21
248.0
 31
0.0
1001
DBPROPERTIES
1002
{
1000
PbHidd
1002
}
  0
LINE
  5
2AF
330
1F
100
AcDbEntity
  8
HIDDEN
100
AcDbLine
 10
65.0
 20
305.5
 30
0.0
 11
-65.0
 21
305.5
 31
0.0
1001
DBPROPERTIES
1002
{
1000
PbHidd
1002
}
  0
LINE
  5
2B0
330
1F
100
AcDbEntity
  8
THICK
100
AcDbLine
 10
-65.0
 20
305.5
 30
0.0
 11
65.0
 21
305.5
 31
0.0
1001
DBPROPERTIES
1002
{
1000
PbThick
1002
}
  0
LINE
  5
2B1
330
1F
100
AcDbEntity
  8
THICK
100
AcDbLine
 10
64.99999999999999
 20
305.5
 30
0.0
 11
64.99999999999999
 21
310.5
 31
0.0
1001
DBPROPERTIES
1002
{
1000
PbThick
1002
}
  0
LINE
  5
2B2
330
1F
100
AcDbEntity
  8
THICK
100
AcDbLine
 10
-65.0
 20
310.5
 30
0.0
 11
65.0
 21
310.5
 31
0.0
1001
DBPROPERTIES
1002
{
1000
PbThick
1002
}
  0
LINE
  5
2B3
330
1F
100
AcDbEntity
  8
THICK
100
AcDbLine
 10
-65.0
 20
305.5
 30
0.0
 11
-65.0
 21
310.5
 31
0.0
1001
DBPROPERTIES
1002
{
1000
PbThick
1002
}
  0
LINE
  5
2B4
330
1F
100
AcDbEntity
  8
HIDDEN
100
AcDbLine
 10
65.0
 20
310.5
 30
0.0
 11
65.0
 21
310.5
 31
0.0
1001
DBPROPERTIES
1002
{
1000
PbHidd
1002
}
  0
LINE
  5
2B5
330
1F
100
AcDbEntity
  8
HIDDEN
100
AcDbLine
 10
65.0
 20
248.0
 30
0.0
 11
65.0
 21
290.3123318083474
 31
0.0
1001
DBPROPERTIES
1002
{
1000
PbHidd
1002
}
  0
LINE
  5
2B6
330
1F
100
AcDbEntity
  8
THICK
100
AcDbLine
 10
65.0
 20
290.3123318083474
 30
0.0
 11
65.0
 21
305.5
 31
0.0
1001
DBPROPERTIES
1002
{
1000
PbThick
1002
}
  0
LINE
  5
2B7
330
1F
100
AcDbEntity
  8
HIDDEN
100
AcDbLine
 10
65.0
 20
305.5
 30
0.0
 11
65.0
 21
305.5
 31
0.0
1001
DBPROPERTIES
1002
{
1000
PbHidd
1002
}
  0
LINE
  5
2B8
330
1F
100
AcDbEntity
  8
THICK
100
AcDbLine
 10
-65.0
 20
305.5
 30
0.0
 11
-65.0
 21
290.3123318083474
 31
0.0
1001
DBPROPERTIES
1002
{
1000
PbThick
1002
}
  0
LINE
  5
2B9
330
1F
100
AcDbEntity
  8
HIDDEN
100
AcDbLine
 10
-65.0
 20
290.3123318083474
 30
0.0
 11
-65.0
 21
248.0
 31
0.0
1001
DBPROPERTIES
1002
{
1000
PbHidd
1002
}
  0
ARC
  5
2BA
330
1F
100
AcDbEntity
  8
HIDDEN
100
AcDbCircle
 10
-60.0
 20
305.5
 30
0.0
 40
5.0
100
AcDbArc
 50
89.99998127603165
 51
180.0000198478428
1001
DBPROPERTIES
1002
{
1000
PbHidd
1002
}
  0
LINE
  5
2BB
330
1F
100
AcDbEntity
  8
HIDDEN
100
AcDbLine
 10
-59.99999999999999
 20
310.5
 30
0.0
 11
-60.0
 21
310.5
 31
0.0
1001
DBPROPERTIES
1002
{
1000
PbHidd
1002
}
  0
LINE
  5
2BC
330
1F
100
AcDbEntity
  8
HIDDEN
100
AcDbLine
 10
-65.0
 20
305.5
 30
0.0
 11
-65.0
 21
305.5
 31
0.0
1001
DBPROPERTIES
1002
{
1000
PbHidd
1002
}
  0
LINE
  5
2BD
330
1F
100
AcDbEntity
  8
HIDDEN
100
AcDbLine
 10
-65.0
 20
310.5
 30
0.0
 11
-65.0
 21
310.5
 31
0.0
1001
DBPROPERTIES
1002
{
1000
PbHidd
1002
}
  0
ARC
  5
2BE
330
1F
100
AcDbEntity
  8
HIDDEN
100
AcDbCircle
 10
60.0
 20
305.5
 30
0.0
 40
5.0
100
AcDbArc
 50
0.0
 51
89.99998127603165
1001
DBPROPERTIES
1002
{
1000
PbHidd
1002
}
  0
LINE
  5
2BF
330
1F
100
AcDbEntity
  8
HIDDEN
100
AcDbLine
 10
60.0
 20
310.5
 30
0.0
 11
60.0
 21
310.5
 31
0.0
1001
DBPROPERTIES
1002
{
1000
PbHidd
1002
}
  0
ARC
  5
2C0
330
1F
100
AcDbEntity
  8
HIDDEN
100
AcDbCircle
 10
0.0
 20
0.0
 30
0.0
 40
252.0
100
AcDbArc
 50
0.0
 51
180.0000198478428
1001
DBPROPERTIES
1002
{
1000
PbHidd
1002
}
  0
ARC
  5
2C1
330
1F
100
AcDbEntity
  8
THICK
100
AcDbCircle
 10
242.4871130596428
 20
-140.0000000000001
 30
0.0
 40
6.0
100
AcDbArc
 50
329.9999871427296
 51
150.0000069905724
1001
DBPROPERTIES
1002
{
1000
PbThick
1002
}
  0
ARC
  5
2C2
330
1F
100
AcDbEntity
  8
THICK
100
AcDbCircle
 10
139.9999999999998
 20
-242.4871130596429
 30
0.0
 40
6.0
100
AcDbArc
 50
299.9999742854592
 51
119.999994133302
1001
DBPROPERTIES
1002
{
1000
PbThick
1002
}
  0
ARC
  5
2C3
330
1F
100
AcDbEntity
  8
THICK
100
AcDbCircle
 10
-0.0000000000000514
 20
-280.0
 30
0.0
 40
6.0
100
AcDbArc
 50
270.0000187239684
 51
89.99998127603165
1001
DBPROPERTIES
1002
{
1000
PbThick
1002
}
  0
ARC
  5
2C4
330
1F
100
AcDbEntity
  8
THICK
100
AcDbCircle
 10
-140.0000000000001
 20
-242.4871130596428
 30
0.0
 40
6.0
100
AcDbArc
 50
240.0000058666979
 51
60.00002571454078
1001
DBPROPERTIES
1002
{
1000
PbThick
1002
}
  0
ARC
  5
2C5
330
1F
100
AcDbEntity
  8
THICK
100
AcDbCircle
 10
-242.4871130596429
 20
-139.9999999999999
 30
0.0
 40
6.0
100
AcDbArc
 50
209.9999930094276
 51
30.00001285727039
1001
DBPROPERTIES
1002
{
1000
PbThick
1002
}
  0
ARC
  5
2C6
330
1F
100
AcDbEntity
  8
THICK
100
AcDbCircle
 10
-280.0
 20
0.0000000000000343
 30
0.0
 40
6.0
100
AcDbArc
 50
180.0000198478428
 51
0.0
1001
DBPROPERTIES
1002
{
1000
PbThick
1002
}
  0
ARC
  5
2C7
330
1F
100
AcDbEntity
  8
THICK
100
AcDbCircle
 10
-242.4871130596428
 20
140.0000000000001
 30
0.0
 40
5.999999999999999
100
AcDbArc
 50
150.0000069905724
 51
329.9999871427296
1001
DBPROPERTIES
1002
{
1000
PbThick
1002
}
  0
ARC
  5
2C8
330
1F
100
AcDbEntity
  8
THICK
100
AcDbCircle
 10
-139.9999999999999
 20
242.4871130596428
 30
0.0
 40
5.999999999999999
100
AcDbArc
 50
119.999994133302
 51
299.9999742854592
1001
DBPROPERTIES
1002
{
1000
PbThick
1002
}
  0
ARC
  5
2C9
330
1F
100
AcDbEntity
  8
THICK
100
AcDbCircle
 10
0.0000000000000171
 20
280.0
 30
0.0
 40
6.0
100
AcDbArc
 50
89.99998127603165
 51
270.0000187239684
1001
DBPROPERTIES
1002
{
1000
PbThick
1002
}
  0
ARC
  5
2CA
330
1F
100
AcDbEntity
  8
THICK
100
AcDbCircle
 10
140.0
 20
242.4871130596428
 30
0.0
 40
6.0
100
AcDbArc
 50
60.00002571454078
 51
240.0000058666979
1001
DBPROPERTIES
1002
{
1000
PbThick
1002
}
  0
ARC
  5
2CB
330
1F
100
AcDbEntity
  8
THICK
100
AcDbCircle
 10
242.4871130596428
 20
140.0
 30
0.0
 40
5.999999999999999
100
AcDbArc
 50
30.00001285727039
 51
209.9999930094276
1001
DBPROPERTIES
1002
{
1000
PbThick
1002
}
  0
ARC
  5
2CC
330
1F
100
AcDbEntity
  8
THICK
100
AcDbCircle
 10
280.0
 20
0.0
 30
0.0
 40
6.0
100
AcDbArc
 50
0.0
 51
180.0000198478428
1001
DBPROPERTIES
1002
{
1000
PbThick
1002
}
  0
ARC
  5
2CD
330
1F
100
AcDbEntity
  8
THICK
100
AcDbCircle
 10
0.0000000000000012
 20
-0.0000000000000006
 30
0.0
 40
297.5
100
AcDbArc
 50
0.0
 51
89.99998127603165
1001
DBPROPERTIES
1002
{
1000
PbThick
1002
}
  0
ARC
  5
2CE
330
1F
100
AcDbEntity
  8
THICK
100
AcDbCircle
 10
0.0
 20
0.0
 30
0.0
 40
287.5
100
AcDbArc
 50
270.0000187239684
 51
89.99998127603165
1001
DBPROPERTIES
1002
{
1000
PbThick
1002
}
  0
ARC
  5
2CF
330
1F
100
AcDbEntity
  8
HIDDEN
100
AcDbCircle
 10
0.0
 20
0.0
 30
0.0
 40
287.5
100
AcDbArc
 50
89.99998127603165
 51
270.0000187239684
1001
DBPROPERTIES
1002
{
1000
PbHidd
1002
}
  0
ARC
  5
2D0
330
1F
100
AcDbEntity
  8
THICK
100
AcDbCircle
 10
0.0
 20
0.0
 30
0.0
 40
250.0
100
AcDbArc
 50
0.0
 51
180.0000198478428
1001
DBPROPERTIES
1002
{
1000
PbThick
1002
}
  0
LINE
  5
2D1
330
1F
100
AcDbEntity
  8
HIDDEN
100
AcDbLine
 10
24.09080779454298
 20
248.3422698209195
 30
0.0
 11
24.09080779454298
 21
248.3422698209195
 31
0.0
1001
DBPROPERTIES
1002
{
1000
PbHidd
1002
}
  0
LINE
  5
2D2
330
1F
100
AcDbEntity
  8
THICK
100
AcDbLine
 10
24.09080779454298
 20
248.3422698209195
 30
0.0
 11
28.06889537601607
 21
247.9241559678489
 31
0.0
1001
DBPROPERTIES
1002
{
1000
PbThick
1002
}
  0
LINE
  5
2D3
330
1F
100
AcDbEntity
  8
HIDDEN
100
AcDbLine
 10
28.06889537601608
 20
247.9241559678489
 30
0.0
 11
28.06889537601608
 21
247.9241559678489
 31
0.0
1001
DBPROPERTIES
1002
{
1000
PbHidd
1002
}
  0
LINE
  5
2D4
330
1F
100
AcDbEntity
  8
HIDDEN
100
AcDbLine
 10
-24.09080779454299
 20
248.3422698209195
 30
0.0
 11
-24.09080779454299
 21
248.3422698209195
 31
0.0
1001
DBPROPERTIES
1002
{
1000
PbHidd
1002
}
  0
LINE
  5
2D5
330
1F
100
AcDbEntity
  8
THICK
100
AcDbLine
 10
-23.00371177655939
 20
237.9992421090894
 30
0.0
 11
-24.09080779454299
 21
248.3422698209195
 31
0.0
1001
DBPROPERTIES
1002
{
1000
PbThick
1002
}
  0
LINE
  5
2D6
330
1F
100
AcDbEntity
  8
HIDDEN
100
AcDbLine
 10
-23.00371177655939
 20
237.9992421090894
 30
0.0
 11
-23.00371177655939
 21
237.9992421090894
 31
0.0
1001
DBPROPERTIES
1002
{
1000
PbHidd
1002
}
  0
LINE
  5
2D7
330
1F
100
AcDbEntity
  8
HIDDEN
100
AcDbLine
 10
-14.53767385353827
 20
157.4502718261969
 30
0.0
 11
-21.87141623407437
 21
227.2261696479952
 31
0.0
1001
DBPROPERTIES
1002
{
1000
PbHidd
1002
}
  0
LINE
  5
2D8
330
1F
100
AcDbEntity
  8
THICK
100
AcDbLine
 10
-21.87141623407437
 20
227.2261696479952
 30
0.0
 11
-23.00371177655939
 21
237.9992421090894
 31
0.0
1001
DBPROPERTIES
1002
{
1000
PbThick
1002
}
  0
LINE
  5
2D9
330
1F
100
AcDbEntity
  8
HIDDEN
100
AcDbLine
 10
-14.53767385353827
 20
157.4502718261969
 30
0.0
 11
-13.94318380680729
 21
151.7940768571905
 31
0.0
1001
DBPROPERTIES
1002
{
1000
PbHidd
1002
}
  0
LINE
  5
2DA
330
1F
100
AcDbEntity
  8
HIDDEN
100
AcDbLine
 10
-11.66237351201899
 20
130.0936164616318
 30
0.0
 11
-13.94318380680729
 21
151.7940768571905
 31
0.0
1001
DBPROPERTIES
1002
{
1000
PbHidd
1002
}
  0
LINE
  5
2DB
330
1F
100
AcDbEntity
  8
HIDDEN
100
AcDbLine
 10
-8.675076975772024
 20
101.6713884829414
 30
0.0
 11
-11.66237351201899
 21
130.0936164616318
 31
0.0
1001
DBPROPERTIES
1002
{
1000
PbHidd
1002
}
  0
LINE
  5
2DC
330
1F
100
AcDbEntity
  8
HIDDEN
100
AcDbLine
 10
-8.675076975772024
 20
101.6713884829414
 30
0.0
 11
-8.675076975772024
 21
101.6713884829414
 31
0.0
1001
DBPROPERTIES
1002
{
1000
PbHidd
1002
}
  0
ARC
  5
2DD
330
1F
100
AcDbEntity
  8
HIDDEN
100
AcDbCircle
 10
0.0000000000000478
 20
0.0
 30
0.0
 40
102.0408163265306
100
AcDbArc
 50
0.0
 51
5.31372518360228
1001
DBPROPERTIES
1002
{
1000
PbHidd
1002
}
  0
ARC
  5
2DE
330
1F
100
AcDbEntity
  8
THICK
100
AcDbCircle
 10
0.0000000000000478
 20
0.0
 30
0.0
 40
102.0408163265306
100
AcDbArc
 50
5.31372518360228
 51
19.86312895425684
1001
DBPROPERTIES
1002
{
1000
PbThick
1002
}
  0
ARC
  5
2DF
330
1F
100
AcDbEntity
  8
HIDDEN
100
AcDbCircle
 10
0.0000000000000478
 20
0.0
 30
0.0
 40
102.0408163265306
100
AcDbArc
 50
19.86312895425684
 51
56.74230228298595
1001
DBPROPERTIES
1002
{
1000
PbHidd
1002
}
  0
ARC
  5
2E0
330
1F
100
AcDbEntity
  8
THICK
100
AcDbCircle
 10
0.0000000000000478
 20
0.0
 30
0.0
 40
102.0408163265306
100
AcDbArc
 50
56.74230228298595
 51
71.29170605364051
1001
DBPROPERTIES
1002
{
1000
PbThick
1002
}
  0
ARC
  5
2E1
330
1F
100
AcDbEntity
  8
HIDDEN
100
AcDbCircle
 10
0.0000000000000478
 20
0.0
 30
0.0
 40
102.0408163265306
100
AcDbArc
 50
71.29170605364051
 51
108.1708793823696
1001
DBPROPERTIES
1002
{
1000
PbHidd
1002
}
  0
ARC
  5
2E2
330
1F
100
AcDbEntity
  8
THICK
100
AcDbCircle
 10
0.0000000000000478
 20
0.0
 30
0.0
 40
102.0408163265306
100
AcDbArc
 50
108.1708793823696
 51
122.7202258572447
1001
DBPROPERTIES
1002
{
1000
PbThick
1002
}
  0
ARC
  5
2E3
330
1F
100
AcDbEntity
  8
HIDDEN
100
AcDbCircle
 10
0.0000000000000478
 20
0.0
 30
0.0
 40
102.0408163265306
100
AcDbArc
 50
122.7202258572447
 51
159.5994564817533
1001
DBPROPERTIES
1002
{
1000
PbHidd
1002
}
  0
ARC
  5
2E4
330
1F
100
AcDbEntity
  8
THICK
100
AcDbCircle
 10
0.0000000000000478
 20
0.0
 30
0.0
 40
102.0408163265306
100
AcDbArc
 50
159.5994564817533
 51
174.1488029566283
1001
DBPROPERTIES
1002
{
1000
PbThick
1002
}
  0
ARC
  5
2E5
330
1F
100
AcDbEntity
  8
HIDDEN
100
AcDbCircle
 10
0.0000000000000478
 20
0.0
 30
0.0
 40
102.0408163265306
100
AcDbArc
 50
174.1488029566283
 51
180.0000198478428
1001
DBPROPERTIES
1002
{
1000
PbHidd
1002
}
  0
ARC
  5
2E6
330
1F
100
AcDbEntity
  8
HIDDEN
100
AcDbCircle
 10
0.0
 20
0.0
 30
0.0
 40
41.56666666666666
100
AcDbArc
 50
20.99999181135542
 51
27.0000058419654
1001
DBPROPERTIES
1002
{
1000
PbHidd
1002
}
  0
LINE
  5
2E7
330
1F
100
AcDbEntity
  8
HIDDEN
100
AcDbLine
 10
37.03617118876316
 20
18.87087177250715
 30
0.0
 11
55.68790776177303
 21
28.37440623372168
 31
0.0
1001
DBPROPERTIES
1002
{
1000
PbHidd
1002
}
  0
ARC
  5
2E8
330
1F
100
AcDbEntity
  8
HIDDEN
100
AcDbCircle
 10
0.0000000000000478
 20
0.0
 30
0.0
 40
62.5
100
AcDbArc
 50
20.99999181135542
 51
27.0000058419654
1001
DBPROPERTIES
1002
{
1000
PbHidd
1002
}
  0
LINE
  5
2E9
330
1F
100
AcDbEntity
  8
HIDDEN
100
AcDbLine
 10
58.34877665607513
 20
22.39799684658127
 30
0.0
 11
38.80582639473367
 21
14.89616110276631
 31
0.0
1001
DBPROPERTIES
1002
{
1000
PbHidd
1002
}
  0
LINE
  5
2EA
330
1F
100
AcDbEntity
  8
HIDDEN
100
AcDbLine
 10
32.30336713122807
 20
26.15875092130489
 30
0.0
 11
48.57162259106069
 21
39.33252444061485
 31
0.0
1001
DBPROPERTIES
1002
{
1000
PbHidd
1002
}
  0
ARC
  5
2EB
330
1F
100
AcDbEntity
  8
HIDDEN
100
AcDbCircle
 10
0.0000000000000478
 20
0.0
 30
0.0
 40
62.5
100
AcDbArc
 50
33.00001987257539
 51
38.99997660740585
1001
DBPROPERTIES
1002
{
1000
PbHidd
1002
}
  0
LINE
  5
2EC
330
1F
100
AcDbEntity
  8
HIDDEN
100
AcDbLine
 10
52.41691049658903
 20
34.0399396884392
 30
0.0
 11
34.86073994093144
 21
22.63882922212461
 31
0.0
1001
DBPROPERTIES
1002
{
1000
PbHidd
1002
}
  0
ARC
  5
2ED
330
1F
100
AcDbEntity
  8
HIDDEN
100
AcDbCircle
 10
0.0
 20
0.0
 30
0.0
 40
41.56666666666665
100
AcDbArc
 50
33.00001987257539
 51
38.99997660740585
1001
DBPROPERTIES
1002
{
1000
PbHidd
1002
}
  0
LINE
  5
2EE
330
1F
100
AcDbEntity
  8
HIDDEN
100
AcDbLine
 10
26.1587509213049
 20
32.30336713122809
 30
0.0
 11
39.33252444061485
 21
48.5716225910607
 31
0.0
1001
DBPROPERTIES
1002
{
1000
PbHidd
1002
}
  0
ARC
  5
2EF
330
1F
100
AcDbEntity
  8
HIDDEN
100
AcDbCircle
 10
0.0000000000000478
 20
0.0
 30
0.0
 40
62.5
100
AcDbArc
 50
44.99999063801582
 51
51.00000466862581
1001
DBPROPERTIES
1002
{
1000
PbHidd
1002
}
  0
LINE
  5
2F0
330
1F
100
AcDbEntity
  8
HIDDEN
100
AcDbLine
 10
44.19417382415924
 20
44.19417382415922
 30
0.0
 11
29.39207187132082
 21
29.39207187132081
 31
0.0
1001
DBPROPERTIES
1002
{
1000
PbHidd
1002
}
  0
ARC
  5
2F1
330
1F
100
AcDbEntity
  8
HIDDEN
100
AcDbCircle
 10
0.0
 20
0.0
 30
0.0
 40
41.56666666666666
100
AcDbArc
 50
44.99999063801582
 51
51.00000466862581
1001
DBPROPERTIES
1002
{
1000
PbHidd
1002
}
  0
LINE
  5
2F2
330
1F
100
AcDbEntity
  8
HIDDEN
100
AcDbLine
 10
18.87087177250717
 20
37.03617118876313
 30
0.0
 11
28.37440623372169
 21
55.68790776177298
 31
0.0
1001
DBPROPERTIES
1002
{
1000
PbHidd
1002
}
  0
ARC
  5
2F3
330
1F
100
AcDbEntity
  8
HIDDEN
100
AcDbCircle
 10
0.0000000000000478
 20
0.0
 30
0.0
 40
62.5
100
AcDbArc
 50
57.0000186992358
 51
62.99997543406626
1001
DBPROPERTIES
1002
{
1000
PbHidd
1002
}
  0
LINE
  5
2F4
330
1F
100
AcDbEntity
  8
HIDDEN
100
AcDbLine
 10
34.0399396884392
 20
52.416910496589
 30
0.0
 11
22.63882922212461
 21
34.86073994093144
 31
0.0
1001
DBPROPERTIES
1002
{
1000
PbHidd
1002
}
  0
ARC
  5
2F5
330
1F
100
AcDbEntity
  8
HIDDEN
100
AcDbCircle
 10
0.0
 20
0.0
 30
0.0
 40
41.56666666666665
100
AcDbArc
 50
57.0000186992358
 51
62.99997543406626
1001
DBPROPERTIES
1002
{
1000
PbHidd
1002
}
  0
LINE
  5
2F6
330
1F
100
AcDbEntity
  8
HIDDEN
100
AcDbLine
 10
10.75824497476144
 20
40.15031684608226
 30
0.0
 11
16.17619031890755
 21
60.37036414306677
 31
0.0
1001
DBPROPERTIES
1002
{
1000
PbHidd
1002
}
  0
ARC
  5
2F7
330
1F
100
AcDbEntity
  8
HIDDEN
100
AcDbCircle
 10
0.0000000000000478
 20
0.0
 30
0.0
 40
62.5
100
AcDbArc
 50
68.99998946467625
 51
75.00000349528622
1001
DBPROPERTIES
1002
{
1000
PbHidd
1002
}
  0
LINE
  5
2F8
330
1F
100
AcDbEntity
  8
HIDDEN
100
AcDbLine
 10
22.39799684658127
 20
58.3487766560751
 30
0.0
 11
14.89616110276631
 21
38.80582639473367
 31
0.0
1001
DBPROPERTIES
1002
{
1000
PbHidd
1002
}
  0
ARC
  5
2F9
330
1F
100
AcDbEntity
  8
HIDDEN
100
AcDbCircle
 10
0.0
 20
0.0
 30
0.0
 40
41.56666666666666
100
AcDbArc
 50
68.99998946467625
 51
75.00000349528622
1001
DBPROPERTIES
1002
{
1000
PbHidd
1002
}
  0
LINE
  5
2FA
330
1F
100
AcDbEntity
  8
HIDDEN
100
AcDbLine
 10
2.175431247831701
 20
41.50970099463176
 30
0.0
 11
3.270997265183995
 21
62.41434592216085
 31
0.0
1001
DBPROPERTIES
1002
{
1000
PbHidd
1002
}
  0
ARC
  5
2FB
330
1F
100
AcDbEntity
  8
HIDDEN
100
AcDbCircle
 10
0.0000000000000478
 20
0.0
 30
0.0
 40
62.5
100
AcDbArc
 50
81.0000175258962
 51
86.99997426072667
1001
DBPROPERTIES
1002
{
1000
PbHidd
1002
}
  0
LINE
  5
2FC
330
1F
100
AcDbEntity
  8
HIDDEN
100
AcDbLine
 10
9.777154065014436
 20
61.73052128719609
 30
0.0
 11
6.5024592635056
 21
41.0549120240712
 31
0.0
1001
DBPROPERTIES
1002
{
1000
PbHidd
1002
}
  0
ARC
  5
2FD
330
1F
100
AcDbEntity
  8
HIDDEN
100
AcDbCircle
 10
0.0
 20
0.0
 30
0.0
 40
41.56666666666665
100
AcDbArc
 50
81.0000175258962
 51
86.99997426072667
1001
DBPROPERTIES
1002
{
1000
PbHidd
1002
}
  0
LINE
  5
2FE
330
1F
100
AcDbEntity
  8
HIDDEN
100
AcDbLine
 10
-6.502459263505586
 20
41.05491202407121
 30
0.0
 11
-9.777154065014411
 21
61.73052128719608
 31
0.0
1001
DBPROPERTIES
1002
{
1000
PbHidd
1002
}
  0
ARC
  5
2FF
330
1F
100
AcDbEntity
  8
HIDDEN
100
AcDbCircle
 10
0.0000000000000478
 20
0.0
 30
0.0
 40
62.5
100
AcDbArc
 50
92.99998829133665
 51
99.00000232194662
1001
DBPROPERTIES
1002
{
1000
PbHidd
1002
}
  0
LINE
  5
300
330
1F
100
AcDbEntity
  8
HIDDEN
100
AcDbLine
 10
-3.270997265183972
 20
62.41434592216085
 30
0.0
 11
-2.175431247831687
 21
41.50970099463177
 31
0.0
1001
DBPROPERTIES
1002
{
1000
PbHidd
1002
}
  0
ARC
  5
301
330
1F
100
AcDbEntity
  8
HIDDEN
100
AcDbCircle
 10
0.0
 20
0.0
 30
0.0
 40
41.56666666666666
100
AcDbArc
 50
92.99998829133665
 51
99.00000232194662
1001
DBPROPERTIES
1002
{
1000
PbHidd
1002
}
  0
LINE
  5
302
330
1F
100
AcDbEntity
  8
HIDDEN
100
AcDbLine
 10
-14.8961611027663
 20
38.80582639473367
 30
0.0
 11
-22.39799684658125
 21
58.34877665607508
 31
0.0
1001
DBPROPERTIES
1002
{
1000
PbHidd
1002
}
  0
ARC
  5
303
330
1F
100
AcDbEntity
  8
HIDDEN
100
AcDbCircle
 10
0.0000000000000478
 20
0.0
 30
0.0
 40
62.5
100
AcDbArc
 50
105.0000163525566
 51
110.9999730873871
1001
DBPROPERTIES
1002
{
1000
PbHidd
1002
}
  0
LINE
  5
304
330
1F
100
AcDbEntity
  8
HIDDEN
100
AcDbLine
 10
-16.17619031890753
 20
60.37036414306674
 30
0.0
 11
-10.75824497476143
 21
40.15031684608226
 31
0.0
1001
DBPROPERTIES
1002
{
1000
PbHidd
1002
}
  0
ARC
  5
305
330
1F
100
AcDbEntity
  8
HIDDEN
100
AcDbCircle
 10
0.0
 20
0.0
 30
0.0
 40
41.56666666666666
100
AcDbArc
 50
105.0000163525566
 51
110.9999730873871
1001
DBPROPERTIES
1002
{
1000
PbHidd
1002
}
  0
LINE
  5
306
330
1F
100
AcDbEntity
  8
HIDDEN
100
AcDbLine
 10
-22.63882922212462
 20
34.86073994093145
 30
0.0
 11
-34.03993968843918
 21
52.41691049658898
 31
0.0
1001
DBPROPERTIES
1002
{
1000
PbHidd
1002
}
  0
ARC
  5
307
330
1F
100
AcDbEntity
  8
HIDDEN
100
AcDbCircle
 10
0.0000000000000478
 20
0.0
 30
0.0
 40
62.5
100
AcDbArc
 50
116.9999871179971
 51
123.000001148607
1001
DBPROPERTIES
1002
{
1000
PbHidd
1002
}
  0
LINE
  5
308
330
1F
100
AcDbEntity
  8
HIDDEN
100
AcDbLine
 10
-28.37440623372165
 20
55.68790776177296
 30
0.0
 11
-18.87087177250715
 21
37.03617118876314
 31
0.0
1001
DBPROPERTIES
1002
{
1000
PbHidd
1002
}
  0
ARC
  5
309
330
1F
100
AcDbEntity
  8
HIDDEN
100
AcDbCircle
 10
0.0
 20
0.0
 30
0.0
 40
41.56666666666666
100
AcDbArc
 50
116.9999871179971
 51
123.000001148607
1001
DBPROPERTIES
1002
{
1000
PbHidd
1002
}
  0
LINE
  5
30A
330
1F
100
AcDbEntity
  8
HIDDEN
100
AcDbLine
 10
-29.3920718713208
 20
29.39207187132081
 30
0.0
 11
-44.19417382415918
 21
44.19417382415919
 31
0.0
1001
DBPROPERTIES
1002
{
1000
PbHidd
1002
}
  0
ARC
  5
30B
330
1F
100
AcDbEntity
  8
HIDDEN
100
AcDbCircle
 10
0.0000000000000478
 20
0.0
 30
0.0
 40
62.5
100
AcDbArc
 50
129.000015179217
 51
134.9999719140475
1001
DBPROPERTIES
1002
{
1000
PbHidd
1002
}
  0
LINE
  5
30C
330
1F
100
AcDbEntity
  8
HIDDEN
100
AcDbLine
 10
-39.3325244406148
 20
48.57162259106066
 30
0.0
 11
-26.15875092130489
 21
32.30336713122808
 31
0.0
1001
DBPROPERTIES
1002
{
1000
PbHidd
1002
}
  0
ARC
  5
30D
330
1F
100
AcDbEntity
  8
HIDDEN
100
AcDbCircle
 10
0.0
 20
0.0
 30
0.0
 40
41.56666666666666
100
AcDbArc
 50
129.000015179217
 51
134.9999719140475
1001
DBPROPERTIES
1002
{
1000
PbHidd
1002
}
  0
LINE
  5
30E
330
1F
100
AcDbEntity
  8
HIDDEN
100
AcDbLine
 10
-34.86073994093142
 20
22.63882922212463
 30
0.0
 11
-52.41691049658894
 21
34.03993968843919
 31
0.0
1001
DBPROPERTIES
1002
{
1000
PbHidd
1002
}
  0
ARC
  5
30F
330
1F
100
AcDbEntity
  8
HIDDEN
100
AcDbCircle
 10
0.0000000000000478
 20
0.0
 30
0.0
 40
62.5
100
AcDbArc
 50
140.9999859446575
 51
146.9999999752674
1001
DBPROPERTIES
1002
{
1000
PbHidd
1002
}
  0
LINE
  5
310
330
1F
100
AcDbEntity
  8
HIDDEN
100
AcDbLine
 10
-48.57162259106061
 20
39.33252444061483
 30
0.0
 11
-32.30336713122806
 21
26.15875092130491
 31
0.0
1001
DBPROPERTIES
1002
{
1000
PbHidd
1002
}
  0
ARC
  5
311
330
1F
100
AcDbEntity
  8
HIDDEN
100
AcDbCircle
 10
0.0
 20
0.0
 30
0.0
 40
41.56666666666665
100
AcDbArc
 50
140.9999859446575
 51
146.9999999752674
1001
DBPROPERTIES
1002
{
1000
PbHidd
1002
}
  0
LINE
  5
312
330
1F
100
AcDbEntity
  8
HIDDEN
100
AcDbLine
 10
-38.80582639473366
 20
14.89616110276631
 30
0.0
 11
-58.34877665607506
 21
22.39799684658126
 31
0.0
1001
DBPROPERTIES
1002
{
1000
PbHidd
1002
}
  0
ARC
  5
313
330
1F
100
AcDbEntity
  8
HIDDEN
100
AcDbCircle
 10
0.0000000000000478
 20
0.0
 30
0.0
 40
62.5
100
AcDbArc
 50
153.0000140058774
 51
159.0000280364874
1001
DBPROPERTIES
1002
{
1000
PbHidd
1002
}
  0
LINE
  5
314
330
1F
100
AcDbEntity
  8
HIDDEN
100
AcDbLine
 10
-55.68790776177293
 20
28.37440623372166
 30
0.0
 11
-37.03617118876313
 21
18.87087177250715
 31
0.0
1001
DBPROPERTIES
1002
{
1000
PbHidd
1002
}
  0
ARC
  5
315
330
1F
100
AcDbEntity
  8
HIDDEN
100
AcDbCircle
 10
0.0
 20
0.0
 30
0.0
 40
41.56666666666665
100
AcDbArc
 50
153.0000140058774
 51
159.0000280364874
1001
DBPROPERTIES
1002
{
1000
PbHidd
1002
}
  0
LINE
  5
316
330
1F
100
AcDbEntity
  8
HIDDEN
100
AcDbLine
 10
-41.0549120240712
 20
6.502459263505606
 30
0.0
 11
-61.73052128719605
 21
9.777154065014438
 31
0.0
1001
DBPROPERTIES
1002
{
1000
PbHidd
1002
}
  0
ARC
  5
317
330
1F
100
AcDbEntity
  8
HIDDEN
100
AcDbCircle
 10
0.0000000000000478
 20
0.0
 30
0.0
 40
62.5
100
AcDbArc
 50
164.9999847713179
 51
170.9999988019279
1001
DBPROPERTIES
1002
{
1000
PbHidd
1002
}
  0
LINE
  5
318
330
1F
100
AcDbEntity
  8
HIDDEN
100
AcDbLine
 10
-60.37036414306671
 20
16.17619031890754
 30
0.0
 11
-40.15031684608225
 21
10.75824497476145
 31
0.0
1001
DBPROPERTIES
1002
{
1000
PbHidd
1002
}
  0
ARC
  5
319
330
1F
100
AcDbEntity
  8
HIDDEN
100
AcDbCircle
 10
0.0
 20
0.0
 30
0.0
 40
41.56666666666666
100
AcDbArc
 50
164.9999847713179
 51
170.9999988019279
1001
DBPROPERTIES
1002
{
1000
PbHidd
1002
}
  0
LINE
  5
31A
330
1F
100
AcDbEntity
  8
HIDDEN
100
AcDbLine
 10
-41.50970099463176
 20
-2.175431247831678
 30
0.0
 11
-62.41434592216081
 21
-3.270997265183957
 31
0.0
1001
DBPROPERTIES
1002
{
1000
PbHidd
1002
}
  0
ARC
  5
31B
330
1F
100
AcDbEntity
  8
HIDDEN
100
AcDbCircle
 10
0.0000000000000478
 20
0.0
 30
0.0
 40
62.5
100
AcDbArc
 50
177.0000128325378
 51
180.0000198478428
1001
DBPROPERTIES
1002
{
1000
PbHidd
1002
}
  0
LINE
  5
31C
330
1F
100
AcDbEntity
  8
HIDDEN
100
AcDbLine
 10
-62.41434592216081
 20
3.270997265184016
 30
0.0
 11
-41.50970099463176
 21
2.175431247831717
 31
0.0
1001
DBPROPERTIES
1002
{
1000
PbHidd
1002
}
  0
ARC
  5
31D
330
1F
100
AcDbEntity
  8
HIDDEN
100
AcDbCircle
 10
0.0
 20
0.0
 30
0.0
 40
41.56666666666665
100
AcDbArc
 50
177.0000128325378
 51
182.9999871674622
1001
DBPROPERTIES
1002
{
1000
PbHidd
1002
}
  0
LINE
  5
31E
330
1F
100
AcDbEntity
  8
HIDDEN
100
AcDbLine
 10
-40.15031684608226
 20
-10.75824497476144
 30
0.0
 11
-60.37036414306672
 21
-16.17619031890752
 31
0.0
1001
DBPROPERTIES
1002
{
1000
PbHidd
1002
}
  0
ARC
  5
31F
330
1F
100
AcDbEntity
  8
HIDDEN
100
AcDbCircle
 10
0.0000000000000478
 20
0.0
 30
0.0
 40
62.5
100
AcDbArc
 50
189.0000011980722
 51
195.0000152286821
1001
DBPROPERTIES
1002
{
1000
PbHidd
1002
}
  0
LINE
  5
320
330
1F
100
AcDbEntity
  8
HIDDEN
100
AcDbLine
 10
-61.73052128719605
 20
-9.77715406501441
 30
0.0
 11
-41.05491202407121
 21
-6.502459263505586
 31
0.0
1001
DBPROPERTIES
1002
{
1000
PbHidd
1002
}
  0
ARC
  5
321
330
1F
100
AcDbEntity
  8
HIDDEN
100
AcDbCircle
 10
0.0
 20
0.0
 30
0.0
 40
41.56666666666666
100
AcDbArc
 50
189.0000011980722
 51
195.0000152286821
1001
DBPROPERTIES
1002
{
1000
PbHidd
1002
}
  0
LINE
  5
322
330
1F
100
AcDbEntity
  8
HIDDEN
100
AcDbLine
 10
-37.03617118876315
 20
-18.87087177250714
 30
0.0
 11
-55.68790776177295
 21
-28.37440623372163
 31
0.0
1001
DBPROPERTIES
1002
{
1000
PbHidd
1002
}
  0
ARC
  5
323
330
1F
100
AcDbEntity
  8
HIDDEN
100
AcDbCircle
 10
0.0000000000000478
 20
0.0
 30
0.0
 40
62.5
100
AcDbArc
 50
200.9999719635126
 51
206.9999859941226
1001
DBPROPERTIES
1002
{
1000
PbHidd
1002
}
  0
LINE
  5
324
330
1F
100
AcDbEntity
  8
HIDDEN
100
AcDbLine
 10
-58.34877665607506
 20
-22.39799684658123
 30
0.0
 11
-38.80582639473367
 21
-14.89616110276629
 31
0.0
1001
DBPROPERTIES
1002
{
1000
PbHidd
1002
}
  0
ARC
  5
325
330
1F
100
AcDbEntity
  8
HIDDEN
100
AcDbCircle
 10
0.0
 20
0.0
 30
0.0
 40
41.56666666666666
100
AcDbArc
 50
200.9999719635126
 51
206.9999859941226
1001
DBPROPERTIES
1002
{
1000
PbHidd
1002
}
  0
LINE
  5
326
330
1F
100
AcDbEntity
  8
HIDDEN
100
AcDbLine
 10
-32.30336713122808
 20
-26.15875092130488
 30
0.0
 11
-48.57162259106066
 21
-39.33252444061479
 31
0.0
1001
DBPROPERTIES
1002
{
1000
PbHidd
1002
}
  0
ARC
  5
327
330
1F
100
AcDbEntity
  8
HIDDEN
100
AcDbCircle
 10
0.0000000000000478
 20
0.0
 30
0.0
 40
62.5
100
AcDbArc
 50
213.0000000247326
 51
219.0000140553425
1001
DBPROPERTIES
1002
{
1000
PbHidd
1002
}
  0
LINE
  5
328
330
1F
100
AcDbEntity
  8
HIDDEN
100
AcDbLine
 10
-52.41691049658898
 20
-34.03993968843915
 30
0.0
 11
-34.86073994093145
 21
-22.6388292221246
 31
0.0
1001
DBPROPERTIES
1002
{
1000
PbHidd
1002
}
  0
ARC
  5
329
330
1F
100
AcDbEntity
  8
HIDDEN
100
AcDbCircle
 10
0.0
 20
0.0
 30
0.0
 40
41.56666666666665
100
AcDbArc
 50
213.0000000247326
 51
219.0000140553425
1001
DBPROPERTIES
1002
{
1000
PbHidd
1002
}
  0
LINE
  5
32A
330
1F
100
AcDbEntity
  8
HIDDEN
100
AcDbLine
 10
-26.15875092130491
 20
-32.30336713122806
 30
0.0
 11
-39.33252444061483
 21
-48.57162259106063
 31
0.0
1001
DBPROPERTIES
1002
{
1000
PbHidd
1002
}
  0
ARC
  5
32B
330
1F
100
AcDbEntity
  8
HIDDEN
100
AcDbCircle
 10
0.0000000000000478
 20
0.0
 30
0.0
 40
62.5
100
AcDbArc
 50
225.0000280859525
 51
230.999984820783
1001
DBPROPERTIES
1002
{
1000
PbHidd
1002
}
  0
LINE
  5
32C
330
1F
100
AcDbEntity
  8
HIDDEN
100
AcDbLine
 10
-44.19417382415919
 20
-44.19417382415917
 30
0.0
 11
-29.39207187132082
 21
-29.3920718713208
 31
0.0
1001
DBPROPERTIES
1002
{
1000
PbHidd
1002
}
  0
ARC
  5
32D
330
1F
100
AcDbEntity
  8
HIDDEN
100
AcDbCircle
 10
0.0
 20
0.0
 30
0.0
 40
41.56666666666666
100
AcDbArc
 50
225.0000280859525
 51
230.999984820783
1001
DBPROPERTIES
1002
{
1000
PbHidd
1002
}
  0
LINE
  5
32E
330
1F
100
AcDbEntity
  8
HIDDEN
100
AcDbLine
 10
-18.87087177250717
 20
-37.03617118876314
 30
0.0
 11
-28.37440623372167
 21
-55.68790776177294
 31
0.0
1001
DBPROPERTIES
1002
{
1000
PbHidd
1002
}
  0
ARC
  5
32F
330
1F
100
AcDbEntity
  8
HIDDEN
100
AcDbCircle
 10
0.0000000000000478
 20
0.0
 30
0.0
 40
62.5
100
AcDbArc
 50
236.999998851393
 51
243.0000128820029
1001
DBPROPERTIES
1002
{
1000
PbHidd
1002
}
  0
LINE
  5
330
330
1F
100
AcDbEntity
  8
HIDDEN
100
AcDbLine
 10
-34.0399396884392
 20
-52.41691049658895
 30
0.0
 11
-22.63882922212464
 21
-34.86073994093144
 31
0.0
1001
DBPROPERTIES
1002
{
1000
PbHidd
1002
}
  0
ARC
  5
331
330
1F
100
AcDbEntity
  8
HIDDEN
100
AcDbCircle
 10
0.0
 20
0.0
 30
0.0
 40
41.56666666666666
100
AcDbArc
 50
236.999998851393
 51
243.0000128820029
1001
DBPROPERTIES
1002
{
1000
PbHidd
1002
}
  0
LINE
  5
332
330
1F
100
AcDbEntity
  8
HIDDEN
100
AcDbLine
 10
-10.75824497476146
 20
-40.15031684608226
 30
0.0
 11
-16.17619031890758
 21
-60.37036414306674
 31
0.0
1001
DBPROPERTIES
1002
{
1000
PbHidd
1002
}
  0
ARC
  5
333
330
1F
100
AcDbEntity
  8
HIDDEN
100
AcDbCircle
 10
0.0000000000000478
 20
0.0
 30
0.0
 40
62.5
100
AcDbArc
 50
249.0000269126129
 51
254.9999836474434
1001
DBPROPERTIES
1002
{
1000
PbHidd
1002
}
  0
LINE
  5
334
330
1F
100
AcDbEntity
  8
HIDDEN
100
AcDbLine
 10
-22.39799684658129
 20
-58.34877665607507
 30
0.0
 11
-14.89616110276633
 21
-38.80582639473366
 31
0.0
1001
DBPROPERTIES
1002
{
1000
PbHidd
1002
}
  0
ARC
  5
335
330
1F
100
AcDbEntity
  8
HIDDEN
100
AcDbCircle
 10
0.0
 20
0.0
 30
0.0
 40
41.56666666666665
100
AcDbArc
 50
249.0000269126129
 51
254.9999836474434
1001
DBPROPERTIES
1002
{
1000
PbHidd
1002
}
  0
LINE
  5
336
330
1F
100
AcDbEntity
  8
HIDDEN
100
AcDbLine
 10
-2.175431247831709
 20
-41.50970099463176
 30
0.0
 11
-3.270997265184005
 21
-62.41434592216085
 31
0.0
1001
DBPROPERTIES
1002
{
1000
PbHidd
1002
}
  0
ARC
  5
337
330
1F
100
AcDbEntity
  8
HIDDEN
100
AcDbCircle
 10
0.0000000000000478
 20
0.0
 30
0.0
 40
62.5
100
AcDbArc
 50
260.9999976780534
 51
267.0000117086634
1001
DBPROPERTIES
1002
{
1000
PbHidd
1002
}
  0
LINE
  5
338
330
1F
100
AcDbEntity
  8
HIDDEN
100
AcDbLine
 10
-9.777154065014443
 20
-61.73052128719608
 30
0.0
 11
-6.502459263505605
 21
-41.0549120240712
 31
0.0
1001
DBPROPERTIES
1002
{
1000
PbHidd
1002
}
  0
ARC
  5
339
330
1F
100
AcDbEntity
  8
HIDDEN
100
AcDbCircle
 10
0.0
 20
0.0
 30
0.0
 40
41.56666666666665
100
AcDbArc
 50
260.9999976780534
 51
267.0000117086634
1001
DBPROPERTIES
1002
{
1000
PbHidd
1002
}
  0
LINE
  5
33A
330
1F
100
AcDbEntity
  8
HIDDEN
100
AcDbLine
 10
6.502459263505561
 20
-41.05491202407121
 30
0.0
 11
9.77715406501438
 21
-61.73052128719611
 31
0.0
1001
DBPROPERTIES
1002
{
1000
PbHidd
1002
}
  0
ARC
  5
33B
330
1F
100
AcDbEntity
  8
HIDDEN
100
AcDbCircle
 10
0.0000000000000478
 20
0.0
 30
0.0
 40
62.5
100
AcDbArc
 50
273.0000257392733
 51
278.9999824741038
1001
DBPROPERTIES
1002
{
1000
PbHidd
1002
}
  0
LINE
  5
33C
330
1F
100
AcDbEntity
  8
HIDDEN
100
AcDbLine
 10
3.270997265183937
 20
-62.41434592216085
 30
0.0
 11
2.175431247831663
 21
-41.50970099463177
 31
0.0
1001
DBPROPERTIES
1002
{
1000
PbHidd
1002
}
  0
ARC
  5
33D
330
1F
100
AcDbEntity
  8
HIDDEN
100
AcDbCircle
 10
0.0
 20
0.0
 30
0.0
 40
41.56666666666666
100
AcDbArc
 50
273.0000257392733
 51
278.9999824741038
1001
DBPROPERTIES
1002
{
1000
PbHidd
1002
}
  0
LINE
  5
33E
330
1F
100
AcDbEntity
  8
HIDDEN
100
AcDbLine
 10
14.89616110276629
 20
-38.80582639473367
 30
0.0
 11
22.39799684658124
 21
-58.34877665607512
 31
0.0
1001
DBPROPERTIES
1002
{
1000
PbHidd
1002
}
  0
ARC
  5
33F
330
1F
100
AcDbEntity
  8
HIDDEN
100
AcDbCircle
 10
0.0000000000000478
 20
0.0
 30
0.0
 40
62.5
100
AcDbArc
 50
284.9999965047138
 51
291.0000105353237
1001
DBPROPERTIES
1002
{
1000
PbHidd
1002
}
  0
LINE
  5
340
330
1F
100
AcDbEntity
  8
HIDDEN
100
AcDbLine
 10
16.17619031890751
 20
-60.37036414306676
 30
0.0
 11
10.75824497476142
 21
-40.15031684608226
 31
0.0
1001
DBPROPERTIES
1002
{
1000
PbHidd
1002
}
  0
ARC
  5
341
330
1F
100
AcDbEntity
  8
HIDDEN
100
AcDbCircle
 10
0.0
 20
0.0
 30
0.0
 40
41.56666666666665
100
AcDbArc
 50
284.9999965047138
 51
291.0000105353237
1001
DBPROPERTIES
1002
{
1000
PbHidd
1002
}
  0
LINE
  5
342
330
1F
100
AcDbEntity
  8
HIDDEN
100
AcDbLine
 10
22.63882922212461
 20
-34.86073994093145
 30
0.0
 11
34.03993968843919
 21
-52.41691049658902
 31
0.0
1001
DBPROPERTIES
1002
{
1000
PbHidd
1002
}
  0
ARC
  5
343
330
1F
100
AcDbEntity
  8
HIDDEN
100
AcDbCircle
 10
0.0000000000000478
 20
0.0
 30
0.0
 40
62.5
100
AcDbArc
 50
297.0000245659338
 51
302.9999813007643
1001
DBPROPERTIES
1002
{
1000
PbHidd
1002
}
  0
LINE
  5
344
330
1F
100
AcDbEntity
  8
HIDDEN
100
AcDbLine
 10
28.37440623372167
 20
-55.687907761773
 30
0.0
 11
18.87087177250715
 21
-37.03617118876314
 31
0.0
1001
DBPROPERTIES
1002
{
1000
PbHidd
1002
}
  0
ARC
  5
345
330
1F
100
AcDbEntity
  8
HIDDEN
100
AcDbCircle
 10
0.0
 20
0.0
 30
0.0
 40
41.56666666666666
100
AcDbArc
 50
297.0000245659338
 51
302.9999813007643
1001
DBPROPERTIES
1002
{
1000
PbHidd
1002
}
  0
LINE
  5
346
330
1F
100
AcDbEntity
  8
HIDDEN
100
AcDbLine
 10
29.39207187132079
 20
-29.39207187132083
 30
0.0
 11
44.19417382415919
 21
-44.19417382415926
 31
0.0
1001
DBPROPERTIES
1002
{
1000
PbHidd
1002
}
  0
ARC
  5
347
330
1F
100
AcDbEntity
  8
HIDDEN
100
AcDbCircle
 10
0.0000000000000478
 20
0.0
 30
0.0
 40
62.5
100
AcDbArc
 50
308.9999953313742
 51
315.0000093619842
1001
DBPROPERTIES
1002
{
1000
PbHidd
1002
}
  0
LINE
  5
348
330
1F
100
AcDbEntity
  8
HIDDEN
100
AcDbLine
 10
39.33252444061482
 20
-48.57162259106072
 30
0.0
 11
26.15875092130488
 21
-32.30336713122809
 31
0.0
1001
DBPROPERTIES
1002
{
1000
PbHidd
1002
}
  0
ARC
  5
349
330
1F
100
AcDbEntity
  8
HIDDEN
100
AcDbCircle
 10
0.0
 20
0.0
 30
0.0
 40
41.56666666666666
100
AcDbArc
 50
308.9999953313742
 51
315.0000093619842
1001
DBPROPERTIES
1002
{
1000
PbHidd
1002
}
  0
LINE
  5
34A
330
1F
100
AcDbEntity
  8
HIDDEN
100
AcDbLine
 10
34.86073994093142
 20
-22.63882922212463
 30
0.0
 11
52.416910496589
 21
-34.03993968843923
 31
0.0
1001
DBPROPERTIES
1002
{
1000
PbHidd
1002
}
  0
ARC
  5
34B
330
1F
100
AcDbEntity
  8
HIDDEN
100
AcDbCircle
 10
0.0000000000000478
 20
0.0
 30
0.0
 40
62.5
100
AcDbArc
 50
321.0000233925941
 51
326.9999801274246
1001
DBPROPERTIES
1002
{
1000
PbHidd
1002
}
  0
LINE
  5
34C
330
1F
100
AcDbEntity
  8
HIDDEN
100
AcDbLine
 10
48.57162259106066
 20
-39.33252444061488
 30
0.0
 11
32.30336713122806
 21
-26.15875092130491
 31
0.0
1001
DBPROPERTIES
1002
{
1000
PbHidd
1002
}
  0
ARC
  5
34D
330
1F
100
AcDbEntity
  8
HIDDEN
100
AcDbCircle
 10
0.0
 20
0.0
 30
0.0
 40
41.56666666666665
100
AcDbArc
 50
321.0000233925941
 51
326.9999801274246
1001
DBPROPERTIES
1002
{
1000
PbHidd
1002
}
  0
LINE
  5
34E
330
1F
100
AcDbEntity
  8
HIDDEN
100
AcDbLine
 10
38.80582639473366
 20
-14.89616110276633
 30
0.0
 11
58.34877665607512
 21
-22.3979968465813
 31
0.0
1001
DBPROPERTIES
1002
{
1000
PbHidd
1002
}
  0
ARC
  5
34F
330
1F
100
AcDbEntity
  8
HIDDEN
100
AcDbCircle
 10
0.0000000000000478
 20
0.0
 30
0.0
 40
62.5
100
AcDbArc
 50
332.9999941580346
 51
339.0000081886445
1001
DBPROPERTIES
1002
{
1000
PbHidd
1002
}
  0
LINE
  5
350
330
1F
100
AcDbEntity
  8
HIDDEN
100
AcDbLine
 10
55.687907761773
 20
-28.3744062337217
 30
0.0
 11
37.03617118876313
 21
-18.87087177250716
 31
0.0
1001
DBPROPERTIES
1002
{
1000
PbHidd
1002
}
  0
ARC
  5
351
330
1F
100
AcDbEntity
  8
HIDDEN
100
AcDbCircle
 10
0.0
 20
0.0
 30
0.0
 40
41.56666666666665
100
AcDbArc
 50
332.9999941580346
 51
339.0000081886445
1001
DBPROPERTIES
1002
{
1000
PbHidd
1002
}
  0
LINE
  5
352
330
1F
100
AcDbEntity
  8
HIDDEN
100
AcDbLine
 10
41.0549120240712
 20
-6.502459263505626
 30
0.0
 11
61.73052128719613
 21
-9.777154065014484
 31
0.0
1001
DBPROPERTIES
1002
{
1000
PbHidd
1002
}
  0
ARC
  5
353
330
1F
100
AcDbEntity
  8
HIDDEN
100
AcDbCircle
 10
0.0000000000000478
 20
0.0
 30
0.0
 40
62.5
100
AcDbArc
 50
345.0000222192546
 51
350.9999789540851
1001
DBPROPERTIES
1002
{
1000
PbHidd
1002
}
  0
LINE
  5
354
330
1F
100
AcDbEntity
  8
HIDDEN
100
AcDbLine
 10
60.37036414306678
 20
-16.1761903189076
 30
0.0
 11
40.15031684608225
 21
-10.75824497476148
 31
0.0
1001
DBPROPERTIES
1002
{
1000
PbHidd
1002
}
  0
ARC
  5
355
330
1F
100
AcDbEntity
  8
HIDDEN
100
AcDbCircle
 10
0.0
 20
0.0
 30
0.0
 40
41.56666666666666
100
AcDbArc
 50
345.0000222192546
 51
350.9999789540851
1001
DBPROPERTIES
1002
{
1000
PbHidd
1002
}
  0
LINE
  5
356
330
1F
100
AcDbEntity
  8
HIDDEN
100
AcDbLine
 10
40.15031684608226
 20
10.75824497476144
 30
0.0
 11
60.37036414306681
 21
16.17619031890755
 31
0.0
1001
DBPROPERTIES
1002
{
1000
PbHidd
1002
}
  0
ARC
  5
357
330
1F
100
AcDbEntity
  8
HIDDEN
100
AcDbCircle
 10
0.0000000000000478
 20
0.0
 30
0.0
 40
62.5
100
AcDbArc
 50
9.000021045914972
 51
14.99997778074544
1001
DBPROPERTIES
1002
{
1000
PbHidd
1002
}
  0
LINE
  5
358
330
1F
100
AcDbEntity
  8
HIDDEN
100
AcDbLine
 10
61.73052128719613
 20
9.77715406501443
 30
0.0
 11
41.05491202407121
 21
6.502459263505592
 31
0.0
1001
DBPROPERTIES
1002
{
1000
PbHidd
1002
}
  0
ARC
  5
359
330
1F
100
AcDbEntity
  8
HIDDEN
100
AcDbCircle
 10
0.0
 20
0.0
 30
0.0
 40
41.56666666666666
100
AcDbArc
 50
9.000021045914972
 51
14.99997778074544
1001
DBPROPERTIES
1002
{
1000
PbHidd
1002
}
  0
ARC
  5
35A
330
1F
100
AcDbEntity
  8
HIDDEN
100
AcDbCircle
 10
0.0000000000000029
 20
0.0
 30
0.0
 40
146.9155497985024
100
AcDbArc
 50
96.78002004893274
 51
173.2199810749418
1001
DBPROPERTIES
1002
{
1000
PbHidd
1002
}
  0
LINE
  5
35B
330
1F
100
AcDbEntity
  8
HIDDEN
100
AcDbLine
 10
-157.0321579731262
 20
18.51576143501136
 30
0.0
 11
-151.37596300412
 21
17.92127138828038
 31
0.0
1001
DBPROPERTIES
1002
{
1000
PbHidd
1002
}
  0
LINE
  5
35C
330
1F
100
AcDbEntity
  8
HIDDEN
100
AcDbLine
 10
-18.51576143501137
 20
157.0321579731263
 30
0.0
 11
-17.9212713882804
 21
151.37596300412
 31
0.0
1001
DBPROPERTIES
1002
{
1000
PbHidd
1002
}
  0
LINE
  5
35D
330
1F
100
AcDbEntity
  8
HIDDEN
100
AcDbLine
 10
-157.4502718261969
 20
14.53767385353827
 30
0.0
 11
-151.7940768571905
 21
13.9431838068073
 31
0.0
1001
DBPROPERTIES
1002
{
1000
PbHidd
1002
}
  0
ARC
  5
35E
330
1F
100
AcDbEntity
  8
HIDDEN
100
AcDbCircle
 10
0.0000000000000029
 20
0.0
 30
0.0
 40
146.9155497985024
100
AcDbArc
 50
174.7800305595239
 51
185.219969440476
1001
DBPROPERTIES
1002
{
1000
PbHidd
1002
}
  0
LINE
  5
35F
330
1F
100
AcDbEntity
  8
HIDDEN
100
AcDbLine
 10
-157.4502718261968
 20
-14.53767385353826
 30
0.0
 11
-151.7940768571905
 21
-13.94318380680729
 31
0.0
1001
DBPROPERTIES
1002
{
1000
PbHidd
1002
}
  0
ARC
  5
360
330
1F
100
AcDbEntity
  8
HIDDEN
100
AcDbCircle
 10
0.0000000000000029
 20
0.0
 30
0.0
 40
158.1199925980745
100
AcDbArc
 50
84.72475885626217
 51
89.99998127603165
1001
DBPROPERTIES
1002
{
1000
PbHidd
1002
}
  0
LINE
  5
361
330
1F
100
AcDbEntity
  8
HIDDEN
100
AcDbLine
 10
14.53767385353827
 20
157.4502718261969
 30
0.0
 11
13.94318380680729
 21
151.7940768571906
 31
0.0
1001
DBPROPERTIES
1002
{
1000
PbHidd
1002
}
  0
ARC
  5
362
330
1F
100
AcDbEntity
  8
HIDDEN
100
AcDbCircle
 10
0.0000000000000029
 20
0.0
 30
0.0
 40
146.9155497985024
100
AcDbArc
 50
89.99998127603165
 51
95.21997056435055
1001
DBPROPERTIES
1002
{
1000
PbHidd
1002
}
  0
ARC
  5
363
330
1F
100
AcDbEntity
  8
HIDDEN
100
AcDbCircle
 10
0.0000000000000029
 20
0.0
 30
0.0
 40
146.9155497985024
100
AcDbArc
 50
186.7800189250582
 51
263.2199799510672
1001
DBPROPERTIES
1002
{
1000
PbHidd
1002
}
  0
LINE
  5
364
330
1F
100
AcDbEntity
  8
HIDDEN
100
AcDbLine
 10
-18.51576143501137
 20
-157.0321579731262
 30
0.0
 11
-17.9212713882804
 21
-151.3759630041199
 31
0.0
1001
DBPROPERTIES
1002
{
1000
PbHidd
1002
}
  0
LINE
  5
365
330
1F
100
AcDbEntity
  8
HIDDEN
100
AcDbLine
 10
-157.0321579731263
 20
-18.51576143501136
 30
0.0
 11
-151.37596300412
 21
-17.92127138828038
 31
0.0
1001
DBPROPERTIES
1002
{
1000
PbHidd
1002
}
  0
ARC
  5
366
330
1F
100
AcDbEntity
  8
HIDDEN
100
AcDbCircle
 10
0.0000000000000029
 20
0.0
 30
0.0
 40
158.1199925980745
100
AcDbArc
 50
78.05386854333351
 51
83.27529022614021
1001
DBPROPERTIES
1002
{
1000
PbHidd
1002
}
  0
ARC
  5
367
330
1F
100
AcDbEntity
  8
THICK
100
AcDbCircle
 10
0.0000000000000029
 20
0.0
 30
0.0
 40
158.1199925980745
100
AcDbArc
 50
50.18147716250191
 51
78.05386854333351
1001
DBPROPERTIES
1002
{
1000
PbThick
1002
}
  0
ARC
  5
368
330
1F
100
AcDbEntity
  8
HIDDEN
100
AcDbCircle
 10
0.0000000000000029
 20
0.0
 30
0.0
 40
158.1199925980745
100
AcDbArc
 50
26.62529144394984
 51
50.18147716250191
1001
DBPROPERTIES
1002
{
1000
PbHidd
1002
}
  0
ARC
  5
369
330
1F
100
AcDbEntity
  8
THICK
100
AcDbCircle
 10
0.0000000000000029
 20
0.0
 30
0.0
 40
158.1199925980745
100
AcDbArc
 50
6.724748345670959
 51
26.62529144394984
1001
DBPROPERTIES
1002
{
1000
PbThick
1002
}
  0
LINE
  5
36A
330
1F
100
AcDbEntity
  8
HIDDEN
100
AcDbLine
 10
157.0321579731262
 20
18.51576143501133
 30
0.0
 11
151.3759630041199
 21
17.92127138828035
 31
0.0
1001
DBPROPERTIES
1002
{
1000
PbHidd
1002
}
  0
ARC
  5
36B
330
1F
100
AcDbEntity
  8
HIDDEN
100
AcDbCircle
 10
0.0000000000000029
 20
0.0
 30
0.0
 40
146.9155497985024
100
AcDbArc
 50
6.77998147712157
 51
83.21999979891008
1001
DBPROPERTIES
1002
{
1000
PbHidd
1002
}
  0
LINE
  5
36C
330
1F
100
AcDbEntity
  8
HIDDEN
100
AcDbLine
 10
18.51576143501136
 20
157.0321579731263
 30
0.0
 11
17.92127138828038
 21
151.3759630041199
 31
0.0
1001
DBPROPERTIES
1002
{
1000
PbHidd
1002
}
  0
LINE
  5
36D
330
1F
100
AcDbEntity
  8
HIDDEN
100
AcDbLine
 10
-14.53767385353828
 20
-157.4502718261969
 30
0.0
 11
-13.94318380680731
 21
-151.7940768571905
 31
0.0
1001
DBPROPERTIES
1002
{
1000
PbHidd
1002
}
  0
ARC
  5
36E
330
1F
100
AcDbEntity
  8
HIDDEN
100
AcDbCircle
 10
0.0000000000000029
 20
0.0
 30
0.0
 40
146.9155497985024
100
AcDbArc
 50
264.7800294356495
 51
270.0000187239684
1001
DBPROPERTIES
1002
{
1000
PbHidd
1002
}
  0
LINE
  5
36F
330
1F
100
AcDbEntity
  8
HIDDEN
100
AcDbLine
 10
14.53767385353825
 20
-157.4502718261969
 30
0.0
 11
13.94318380680727
 21
-151.7940768571905
 31
0.0
1001
DBPROPERTIES
1002
{
1000
PbHidd
1002
}
  0
ARC
  5
370
330
1F
100
AcDbEntity
  8
THICK
100
AcDbCircle
 10
0.0000000000000029
 20
0.0
 30
0.0
 40
158.1199925980745
100
AcDbArc
 50
270.0000187239684
 51
275.2752411437378
1001
DBPROPERTIES
1002
{
1000
PbThick
1002
}
  0
ARC
  5
371
330
1F
100
AcDbEntity
  8
THICK
100
AcDbCircle
 10
0.0000000000000029
 20
0.0
 30
0.0
 40
158.1199925980745
100
AcDbArc
 50
358.7529000631182
 51
5.275279715549003
1001
DBPROPERTIES
1002
{
1000
PbThick
1002
}
  0
ARC
  5
372
330
1F
100
AcDbEntity
  8
HIDDEN
100
AcDbCircle
 10
0.0000000000000029
 20
0.0
 30
0.0
 40
158.1199925980745
100
AcDbArc
 50
354.724720284451
 51
358.7529000631182
1001
DBPROPERTIES
1002
{
1000
PbHidd
1002
}
  0
LINE
  5
373
330
1F
100
AcDbEntity
  8
HIDDEN
100
AcDbLine
 10
157.4502718261969
 20
-14.53767385353829
 30
0.0
 11
151.7940768571905
 21
-13.94318380680732
 31
0.0
1001
DBPROPERTIES
1002
{
1000
PbHidd
1002
}
  0
ARC
  5
374
330
1F
100
AcDbEntity
  8
HIDDEN
100
AcDbCircle
 10
0.0000000000000029
 20
0.0
 30
0.0
 40
146.9155497985024
100
AcDbArc
 50
354.7800107116811
 51
5.219989288318877
1001
DBPROPERTIES
1002
{
1000
PbHidd
1002
}
  0
LINE
  5
375
330
1F
100
AcDbEntity
  8
HIDDEN
100
AcDbLine
 10
157.4502718261969
 20
14.53767385353824
 30
0.0
 11
151.7940768571905
 21
13.94318380680727
 31
0.0
1001
DBPROPERTIES
1002
{
1000
PbHidd
1002
}
  0
ARC
  5
376
330
1F
100
AcDbEntity
  8
THICK
100
AcDbCircle
 10
0.0000000000000023
 20
0.0
 30
0.0
 40
141.7155497985024
100
AcDbArc
 50
154.4047346321997
 51
173.1913904809647
1001
DBPROPERTIES
1002
{
1000
PbThick
1002
}
  0
ARC
  5
377
330
1F
100
AcDbEntity
  8
HIDDEN
100
AcDbCircle
 10
0.0000000000000023
 20
0.0
 30
0.0
 40
141.7155497985024
100
AcDbArc
 50
128.0753758894349
 51
154.4047346321997
1001
DBPROPERTIES
1002
{
1000
PbHidd
1002
}
  0
ARC
  5
378
330
1F
100
AcDbEntity
  8
THICK
100
AcDbCircle
 10
0.0000000000000023
 20
0.0
 30
0.0
 40
141.7155497985024
100
AcDbArc
 50
102.976157532816
 51
128.0753758894349
1001
DBPROPERTIES
1002
{
1000
PbThick
1002
}
  0
ARC
  5
379
330
1F
100
AcDbEntity
  8
HIDDEN
100
AcDbCircle
 10
0.0000000000000023
 20
0.0
 30
0.0
 40
141.7155497985024
100
AcDbArc
 50
96.80861064290976
 51
102.976157532816
1001
DBPROPERTIES
1002
{
1000
PbHidd
1002
}
  0
ARC
  5
37A
330
1F
100
AcDbEntity
  8
HIDDEN
100
AcDbCircle
 10
0.0000000000000023
 20
0.0
 30
0.0
 40
141.7155497985024
100
AcDbArc
 50
179.5039529888186
 51
185.191378846499
1001
DBPROPERTIES
1002
{
1000
PbHidd
1002
}
  0
ARC
  5
37B
330
1F
100
AcDbEntity
  8
THICK
100
AcDbCircle
 10
0.0000000000000023
 20
0.0
 30
0.0
 40
141.7155497985024
100
AcDbArc
 50
174.808621153501
 51
179.5039529888186
1001
DBPROPERTIES
1002
{
1000
PbThick
1002
}
  0
ARC
  5
37C
330
1F
100
AcDbEntity
  8
HIDDEN
100
AcDbCircle
 10
0.0000000000000023
 20
0.0
 30
0.0
 40
141.7155497985024
100
AcDbArc
 50
89.99998127603165
 51
95.1913799703735
1001
DBPROPERTIES
1002
{
1000
PbHidd
1002
}
  0
ARC
  5
37D
330
1F
100
AcDbEntity
  8
THICK
100
AcDbCircle
 10
0.0000000000000023
 20
0.0
 30
0.0
 40
141.7155497985024
100
AcDbArc
 50
257.2619064310608
 51
263.1913893570902
1001
DBPROPERTIES
1002
{
1000
PbThick
1002
}
  0
ARC
  5
37E
330
1F
100
AcDbEntity
  8
HIDDEN
100
AcDbCircle
 10
0.0000000000000023
 20
0.0
 30
0.0
 40
141.7155497985024
100
AcDbArc
 50
230.9325476882961
 51
257.2619064310608
1001
DBPROPERTIES
1002
{
1000
PbHidd
1002
}
  0
ARC
  5
37F
330
1F
100
AcDbEntity
  8
THICK
100
AcDbCircle
 10
0.0000000000000023
 20
0.0
 30
0.0
 40
141.7155497985024
100
AcDbArc
 50
205.8333293316772
 51
230.9325476882961
1001
DBPROPERTIES
1002
{
1000
PbThick
1002
}
  0
ARC
  5
380
330
1F
100
AcDbEntity
  8
HIDDEN
100
AcDbCircle
 10
0.0000000000000023
 20
0.0
 30
0.0
 40
141.7155497985024
100
AcDbArc
 50
186.8086095190353
 51
205.8333293316772
1001
DBPROPERTIES
1002
{
1000
PbHidd
1002
}
  0
ARC
  5
381
330
1F
100
AcDbEntity
  8
HIDDEN
100
AcDbCircle
 10
0.0000000000000023
 20
0.0
 30
0.0
 40
141.7155497985024
100
AcDbArc
 50
76.64679879005124
 51
83.19135190915354
1001
DBPROPERTIES
1002
{
1000
PbHidd
1002
}
  0
ARC
  5
382
330
1F
100
AcDbEntity
  8
THICK
100
AcDbCircle
 10
0.0000000000000023
 20
0.0
 30
0.0
 40
141.7155497985024
100
AcDbArc
 50
51.54763772921184
 51
76.64679879005124
1001
DBPROPERTIES
1002
{
1000
PbThick
1002
}
  0
ARC
  5
383
330
1F
100
AcDbEntity
  8
HIDDEN
100
AcDbCircle
 10
0.0000000000000023
 20
0.0
 30
0.0
 40
141.7155497985024
100
AcDbArc
 50
25.21822169066757
 51
51.54763772921184
1001
DBPROPERTIES
1002
{
1000
PbHidd
1002
}
  0
ARC
  5
384
330
1F
100
AcDbEntity
  8
THICK
100
AcDbCircle
 10
0.0000000000000023
 20
0.0
 30
0.0
 40
141.7155497985024
100
AcDbArc
 50
6.808629366878112
 51
25.21822169066757
1001
DBPROPERTIES
1002
{
1000
PbThick
1002
}
  0
ARC
  5
385
330
1F
100
AcDbEntity
  8
THICK
100
AcDbCircle
 10
0.0000000000000023
 20
0.0
 30
0.0
 40
141.7155497985024
100
AcDbArc
 50
264.8086200296265
 51
270.0000187239684
1001
DBPROPERTIES
1002
{
1000
PbThick
1002
}
  0
ARC
  5
386
330
1F
100
AcDbEntity
  8
THICK
100
AcDbCircle
 10
0.0000000000000023
 20
0.0
 30
0.0
 40
141.7155497985024
100
AcDbArc
 50
0.1190606298281851
 51
5.19139869434185
1001
DBPROPERTIES
1002
{
1000
PbThick
1002
}
  0
ARC
  5
387
330
1F
100
AcDbEntity
  8
HIDDEN
100
AcDbCircle
 10
0.0000000000000023
 20
0.0
 30
0.0
 40
141.7155497985024
100
AcDbArc
 50
354.8086013056582
 51
0.1190606298281851
1001
DBPROPERTIES
1002
{
1000
PbHidd
1002
}
  0
ARC
  5
388
330
1F
100
AcDbEntity
  8
HIDDEN
100
AcDbCircle
 10
0.0000000000000023
 20
0.0
 30
0.0
 40
141.7155497985024
100
AcDbArc
 50
333.7896445912839
 51
353.1913706331219
1001
DBPROPERTIES
1002
{
1000
PbHidd
1002
}
  0
ARC
  5
389
330
1F
100
AcDbEntity
  8
THICK
100
AcDbCircle
 10
0.0000000000000023
 20
0.0
 30
0.0
 40
141.7155497985024
100
AcDbArc
 50
308.6904835304445
 51
333.7896445912839
1001
DBPROPERTIES
1002
{
1000
PbThick
1002
}
  0
ARC
  5
38A
330
1F
100
AcDbEntity
  8
HIDDEN
100
AcDbCircle
 10
0.0000000000000023
 20
0.0
 30
0.0
 40
141.7155497985024
100
AcDbArc
 50
282.3610674919003
 51
308.6904835304445
1001
DBPROPERTIES
1002
{
1000
PbHidd
1002
}
  0
ARC
  5
38B
330
1F
100
AcDbEntity
  8
THICK
100
AcDbCircle
 10
0.0000000000000023
 20
0.0
 30
0.0
 40
141.7155497985024
100
AcDbArc
 50
276.8086480908464
 51
282.3610674919003
1001
DBPROPERTIES
1002
{
1000
PbThick
1002
}
  0
ARC
  5
38C
330
1F
100
AcDbEntity
  8
HIDDEN
100
AcDbCircle
 10
0.0000000000000029
 20
0.0
 30
0.0
 40
146.9155497985024
100
AcDbArc
 50
276.7800002010899
 51
353.2200185228784
1001
DBPROPERTIES
1002
{
1000
PbHidd
1002
}
  0
ARC
  5
38D
330
1F
100
AcDbEntity
  8
HIDDEN
100
AcDbCircle
 10
0.0000000000000023
 20
0.0
 30
0.0
 40
152.9199925980745
100
AcDbArc
 50
77.6412816350598
 51
89.99998127603165
1001
DBPROPERTIES
1002
{
1000
PbHidd
1002
}
  0
ARC
  5
38E
330
1F
100
AcDbEntity
  8
THICK
100
AcDbCircle
 10
0.0000000000000023
 20
0.0
 30
0.0
 40
152.9199925980745
100
AcDbArc
 50
50.58208925285739
 51
77.6412816350598
1001
DBPROPERTIES
1002
{
1000
PbThick
1002
}
  0
ARC
  5
38F
330
1F
100
AcDbEntity
  8
HIDDEN
100
AcDbCircle
 10
0.0000000000000023
 20
0.0
 30
0.0
 40
152.9199925980745
100
AcDbArc
 50
26.21276183145565
 51
50.58208925285739
1001
DBPROPERTIES
1002
{
1000
PbHidd
1002
}
  0
ARC
  5
390
330
1F
100
AcDbEntity
  8
THICK
100
AcDbCircle
 10
0.0000000000000023
 20
0.0
 30
0.0
 40
152.9199925980745
100
AcDbArc
 50
359.1535121534737
 51
26.21276183145565
1001
DBPROPERTIES
1002
{
1000
PbThick
1002
}
  0
ARC
  5
391
330
1F
100
AcDbEntity
  8
HIDDEN
100
AcDbCircle
 10
0.0000000000000023
 20
0.0
 30
0.0
 40
152.9199925980745
100
AcDbArc
 50
334.784184732072
 51
359.1535121534737
1001
DBPROPERTIES
1002
{
1000
PbHidd
1002
}
  0
ARC
  5
392
330
1F
100
AcDbEntity
  8
THICK
100
AcDbCircle
 10
0.0000000000000023
 20
0.0
 30
0.0
 40
152.9199925980745
100
AcDbArc
 50
307.7249350540901
 51
334.784184732072
1001
DBPROPERTIES
1002
{
1000
PbThick
1002
}
  0
ARC
  5
393
330
1F
100
AcDbEntity
  8
HIDDEN
100
AcDbCircle
 10
0.0000000000000023
 20
0.0
 30
0.0
 40
152.9199925980745
100
AcDbArc
 50
283.3556076326883
 51
307.7249350540901
1001
DBPROPERTIES
1002
{
1000
PbHidd
1002
}
  0
ARC
  5
394
330
1F
100
AcDbEntity
  8
THICK
100
AcDbCircle
 10
0.0000000000000023
 20
0.0
 30
0.0
 40
152.9199925980745
100
AcDbArc
 50
270.0000187239684
 51
283.3556076326883
1001
DBPROPERTIES
1002
{
1000
PbThick
1002
}
  0
ARC
  5
395
330
1F
100
AcDbEntity
  8
THICK
100
AcDbCircle
 10
0.0000000000000029
 20
0.0
 30
0.0
 40
158.1199925980745
100
AcDbArc
 50
275.2752411437378
 51
276.7247097738598
1001
DBPROPERTIES
1002
{
1000
PbThick
1002
}
  0
ARC
  5
396
330
1F
100
AcDbEntity
  8
HIDDEN
100
AcDbCircle
 10
0.0000000000000029
 20
0.0
 30
0.0
 40
158.1199925980745
100
AcDbArc
 50
335.1967143445662
 51
353.2752516543291
1001
DBPROPERTIES
1002
{
1000
PbHidd
1002
}
  0
ARC
  5
397
330
1F
100
AcDbEntity
  8
THICK
100
AcDbCircle
 10
0.0000000000000029
 20
0.0
 30
0.0
 40
158.1199925980745
100
AcDbArc
 50
307.3243802595141
 51
335.1967143445662
1001
DBPROPERTIES
1002
{
1000
PbThick
1002
}
  0
ARC
  5
398
330
1F
100
AcDbEntity
  8
HIDDEN
100
AcDbCircle
 10
0.0000000000000029
 20
0.0
 30
0.0
 40
158.1199925980745
100
AcDbArc
 50
283.7681372451825
 51
307.3243802595141
1001
DBPROPERTIES
1002
{
1000
PbHidd
1002
}
  0
ARC
  5
399
330
1F
100
AcDbEntity
  8
THICK
100
AcDbCircle
 10
0.0000000000000029
 20
0.0
 30
0.0
 40
158.1199925980745
100
AcDbArc
 50
276.7247097738598
 51
283.7681372451825
1001
DBPROPERTIES
1002
{
1000
PbThick
1002
}
  0
ARC
  5
39A
330
1F
100
AcDbEntity
  8
HIDDEN
100
AcDbCircle
 10
0.0000000000000029
 20
0.0
 30
0.0
 40
158.1199925980745
100
AcDbArc
 50
353.2752516543291
 51
354.724720284451
1001
DBPROPERTIES
1002
{
1000
PbHidd
1002
}
  0
ARC
  5
39B
330
1F
100
AcDbEntity
  8
THICK
100
AcDbCircle
 10
0.0000000000000029
 20
0.0
 30
0.0
 40
158.1199925980745
100
AcDbArc
 50
5.275279715549003
 51
6.724748345670959
1001
DBPROPERTIES
1002
{
1000
PbThick
1002
}
  0
ARC
  5
39C
330
1F
100
AcDbEntity
  8
HIDDEN
100
AcDbCircle
 10
0.0000000000000029
 20
0.0
 30
0.0
 40
158.1199925980745
100
AcDbArc
 50
83.27529022614021
 51
84.72475885626217
1001
DBPROPERTIES
1002
{
1000
PbHidd
1002
}
  0
LINE
  5
39D
330
1F
100
AcDbEntity
  8
HIDDEN
100
AcDbLine
 10
157.0321579731263
 20
-18.51576143501141
 30
0.0
 11
151.3759630041199
 21
-17.92127138828042
 31
0.0
1001
DBPROPERTIES
1002
{
1000
PbHidd
1002
}
  0
LINE
  5
39E
330
1F
100
AcDbEntity
  8
HIDDEN
100
AcDbLine
 10
18.51576143501134
 20
-157.0321579731262
 30
0.0
 11
17.92127138828036
 21
-151.3759630041199
 31
0.0
1001
DBPROPERTIES
1002
{
1000
PbHidd
1002
}
  0
LINE
  5
39F
330
1F
100
AcDbEntity
  8
HIDDEN
100
AcDbLine
 10
151.3759630041199
 20
-17.92127138828038
 30
0.0
 11
151.7940768571905
 21
-13.94318380680729
 31
0.0
1001
DBPROPERTIES
1002
{
1000
PbHidd
1002
}
  0
LINE
  5
3A0
330
1F
100
AcDbEntity
  8
THICK
100
AcDbLine
 10
13.94318380680728
 20
-151.7940768571906
 30
0.0
 11
17.92127138828037
 21
-151.3759630041199
 31
0.0
1001
DBPROPERTIES
1002
{
1000
PbThick
1002
}
  0
LINE
  5
3A1
330
1F
100
AcDbEntity
  8
THICK
100
AcDbLine
 10
-17.92127138828041
 20
-151.3759630041199
 30
0.0
 11
-13.94318380680732
 21
-151.7940768571906
 31
0.0
1001
DBPROPERTIES
1002
{
1000
PbThick
1002
}
  0
LINE
  5
3A2
330
1F
100
AcDbEntity
  8
HIDDEN
100
AcDbLine
 10
-151.7940768571905
 20
-13.94318380680725
 30
0.0
 11
-151.3759630041199
 21
-17.92127138828034
 31
0.0
1001
DBPROPERTIES
1002
{
1000
PbHidd
1002
}
  0
LINE
  5
3A3
330
1F
100
AcDbEntity
  8
THICK
100
AcDbLine
 10
-151.3759630041199
 20
17.92127138828043
 30
0.0
 11
-151.7940768571905
 21
13.94318380680733
 31
0.0
1001
DBPROPERTIES
1002
{
1000
PbThick
1002
}
  0
LINE
  5
3A4
330
1F
100
AcDbEntity
  8
HIDDEN
100
AcDbLine
 10
-13.94318380680729
 20
151.7940768571905
 30
0.0
 11
-17.92127138828038
 21
151.3759630041199
 31
0.0
1001
DBPROPERTIES
1002
{
1000
PbHidd
1002
}
  0
LINE
  5
3A5
330
1F
100
AcDbEntity
  8
HIDDEN
100
AcDbLine
 10
17.92127138828038
 20
151.3759630041199
 30
0.0
 11
13.94318380680729
 21
151.7940768571905
 31
0.0
1001
DBPROPERTIES
1002
{
1000
PbHidd
1002
}
  0
LINE
  5
3A6
330
1F
100
AcDbEntity
  8
THICK
100
AcDbLine
 10
151.7940768571905
 20
13.9431838068073
 30
0.0
 11
151.3759630041199
 21
17.92127138828039
 31
0.0
1001
DBPROPERTIES
1002
{
1000
PbThick
1002
}
  0
LINE
  5
3A7
330
1F
100
AcDbEntity
  8
HIDDEN
100
AcDbLine
 10
129.6755026085612
 20
-15.64046109349211
 30
0.0
 11
151.3759630041199
 21
-17.92127138828042
 31
0.0
1001
DBPROPERTIES
1002
{
1000
PbHidd
1002
}
  0
LINE
  5
3A8
330
1F
100
AcDbEntity
  8
HIDDEN
100
AcDbLine
 10
151.7940768571905
 20
-13.94318380680732
 30
0.0
 11
130.0936164616318
 21
-11.66237351201902
 31
0.0
1001
DBPROPERTIES
1002
{
1000
PbHidd
1002
}
  0
LINE
  5
3A9
330
1F
100
AcDbEntity
  8
HIDDEN
100
AcDbLine
 10
130.0936164616318
 20
-11.66237351201901
 30
0.0
 11
129.6755026085612
 21
-15.6404610934921
 31
0.0
1001
DBPROPERTIES
1002
{
1000
PbHidd
1002
}
  0
LINE
  5
3AA
330
1F
100
AcDbEntity
  8
THICK
100
AcDbLine
 10
237.9992421090894
 20
-23.00371177655943
 30
0.0
 11
225.8755302919752
 21
-21.72945831744019
 31
0.0
1001
DBPROPERTIES
1002
{
1000
PbThick
1002
}
  0
LINE
  5
3AB
330
1F
100
AcDbEntity
  8
HIDDEN
100
AcDbLine
 10
225.8755302919752
 20
-21.72945831744019
 30
0.0
 11
157.4502718261969
 21
-14.5376738535383
 31
0.0
1001
DBPROPERTIES
1002
{
1000
PbHidd
1002
}
  0
LINE
  5
3AC
330
1F
100
AcDbEntity
  8
HIDDEN
100
AcDbLine
 10
237.9992421090894
 20
-23.00371177655943
 30
0.0
 11
237.9992421090894
 21
-23.00371177655943
 31
0.0
1001
DBPROPERTIES
1002
{
1000
PbHidd
1002
}
  0
LINE
  5
3AD
330
1F
100
AcDbEntity
  8
THICK
100
AcDbLine
 10
248.3422698209195
 20
-24.09080779454302
 30
0.0
 11
237.9992421090894
 21
-23.00371177655942
 31
0.0
1001
DBPROPERTIES
1002
{
1000
PbThick
1002
}
  0
LINE
  5
3AE
330
1F
100
AcDbEntity
  8
HIDDEN
100
AcDbLine
 10
248.3422698209195
 20
-24.09080779454302
 30
0.0
 11
248.3422698209195
 21
-24.09080779454302
 31
0.0
1001
DBPROPERTIES
1002
{
1000
PbHidd
1002
}
  0
LINE
  5
3AF
330
1F
100
AcDbEntity
  8
HIDDEN
100
AcDbLine
 10
130.0936164616318
 20
-11.66237351201901
 30
0.0
 11
101.6713884829414
 21
-8.67507697577204
 31
0.0
1001
DBPROPERTIES
1002
{
1000
PbHidd
1002
}
  0
LINE
  5
3B0
330
1F
100
AcDbEntity
  8
THICK
100
AcDbLine
 10
130.0936164616318
 20
11.66237351201897
 30
0.0
 11
151.7940768571905
 21
13.94318380680727
 31
0.0
1001
DBPROPERTIES
1002
{
1000
PbThick
1002
}
  0
LINE
  5
3B1
330
1F
100
AcDbEntity
  8
THICK
100
AcDbLine
 10
151.3759630041199
 20
17.92127138828035
 30
0.0
 11
129.6755026085612
 21
15.64046109349206
 31
0.0
1001
DBPROPERTIES
1002
{
1000
PbThick
1002
}
  0
LINE
  5
3B2
330
1F
100
AcDbEntity
  8
THICK
100
AcDbLine
 10
129.6755026085612
 20
15.64046109349207
 30
0.0
 11
130.0936164616318
 21
11.66237351201898
 31
0.0
1001
DBPROPERTIES
1002
{
1000
PbThick
1002
}
  0
LINE
  5
3B3
330
1F
100
AcDbEntity
  8
THICK
100
AcDbLine
 10
237.5811282560188
 20
26.98179935803244
 30
0.0
 11
157.0321579731263
 21
18.51576143501133
 31
0.0
1001
DBPROPERTIES
1002
{
1000
PbThick
1002
}
  0
LINE
  5
3B4
330
1F
100
AcDbEntity
  8
HIDDEN
100
AcDbLine
 10
237.5811282560188
 20
26.98179935803244
 30
0.0
 11
237.5811282560188
 21
26.98179935803244
 31
0.0
1001
DBPROPERTIES
1002
{
1000
PbHidd
1002
}
  0
LINE
  5
3B5
330
1F
100
AcDbEntity
  8
THICK
100
AcDbLine
 10
247.9241559678489
 20
28.06889537601604
 30
0.0
 11
237.5811282560188
 21
26.98179935803244
 31
0.0
1001
DBPROPERTIES
1002
{
1000
PbThick
1002
}
  0
LINE
  5
3B6
330
1F
100
AcDbEntity
  8
HIDDEN
100
AcDbLine
 10
247.9241559678489
 20
28.06889537601604
 30
0.0
 11
247.9241559678489
 21
28.06889537601604
 31
0.0
1001
DBPROPERTIES
1002
{
1000
PbHidd
1002
}
  0
LINE
  5
3B7
330
1F
100
AcDbEntity
  8
HIDDEN
100
AcDbLine
 10
101.2532746298708
 20
12.65316455724511
 30
0.0
 11
101.2532746298708
 21
12.65316455724511
 31
0.0
1001
DBPROPERTIES
1002
{
1000
PbHidd
1002
}
  0
LINE
  5
3B8
330
1F
100
AcDbEntity
  8
THICK
100
AcDbLine
 10
129.6755026085612
 20
15.64046109349207
 30
0.0
 11
101.2532746298708
 21
12.65316455724511
 31
0.0
1001
DBPROPERTIES
1002
{
1000
PbThick
1002
}
  0
LINE
  5
3B9
330
1F
100
AcDbEntity
  8
THICK
100
AcDbLine
 10
-15.6404610934921
 20
-129.6755026085612
 30
0.0
 11
-17.92127138828041
 21
-151.3759630041199
 31
0.0
1001
DBPROPERTIES
1002
{
1000
PbThick
1002
}
  0
LINE
  5
3BA
330
1F
100
AcDbEntity
  8
THICK
100
AcDbLine
 10
-13.94318380680731
 20
-151.7940768571905
 30
0.0
 11
-11.66237351201901
 21
-130.0936164616318
 31
0.0
1001
DBPROPERTIES
1002
{
1000
PbThick
1002
}
  0
LINE
  5
3BB
330
1F
100
AcDbEntity
  8
THICK
100
AcDbLine
 10
-11.66237351201901
 20
-130.0936164616318
 30
0.0
 11
-15.6404610934921
 21
-129.6755026085612
 31
0.0
1001
DBPROPERTIES
1002
{
1000
PbThick
1002
}
  0
LINE
  5
3BC
330
1F
100
AcDbEntity
  8
THICK
100
AcDbLine
 10
-23.00371177655942
 20
-237.9992421090894
 30
0.0
 11
-14.53767385353828
 21
-157.4502718261968
 31
0.0
1001
DBPROPERTIES
1002
{
1000
PbThick
1002
}
  0
LINE
  5
3BD
330
1F
100
AcDbEntity
  8
HIDDEN
100
AcDbLine
 10
-23.00371177655942
 20
-237.9992421090894
 30
0.0
 11
-23.00371177655942
 21
-237.9992421090894
 31
0.0
1001
DBPROPERTIES
1002
{
1000
PbHidd
1002
}
  0
LINE
  5
3BE
330
1F
100
AcDbEntity
  8
THICK
100
AcDbLine
 10
-24.09080779454301
 20
-248.3422698209195
 30
0.0
 11
-23.00371177655941
 21
-237.9992421090894
 31
0.0
1001
DBPROPERTIES
1002
{
1000
PbThick
1002
}
  0
LINE
  5
3BF
330
1F
100
AcDbEntity
  8
HIDDEN
100
AcDbLine
 10
-24.09080779454301
 20
-248.3422698209195
 30
0.0
 11
-24.09080779454301
 21
-248.3422698209195
 31
0.0
1001
DBPROPERTIES
1002
{
1000
PbHidd
1002
}
  0
LINE
  5
3C0
330
1F
100
AcDbEntity
  8
THICK
100
AcDbLine
 10
-11.66237351201901
 20
-130.0936164616318
 30
0.0
 11
-8.67507697577203
 21
-101.6713884829414
 31
0.0
1001
DBPROPERTIES
1002
{
1000
PbThick
1002
}
  0
LINE
  5
3C1
330
1F
100
AcDbEntity
  8
THICK
100
AcDbLine
 10
11.66237351201898
 20
-130.0936164616318
 30
0.0
 11
13.94318380680727
 21
-151.7940768571905
 31
0.0
1001
DBPROPERTIES
1002
{
1000
PbThick
1002
}
  0
LINE
  5
3C2
330
1F
100
AcDbEntity
  8
THICK
100
AcDbLine
 10
17.92127138828036
 20
-151.3759630041199
 30
0.0
 11
15.64046109349207
 21
-129.6755026085612
 31
0.0
1001
DBPROPERTIES
1002
{
1000
PbThick
1002
}
  0
LINE
  5
3C3
330
1F
100
AcDbEntity
  8
THICK
100
AcDbLine
 10
15.64046109349207
 20
-129.6755026085612
 30
0.0
 11
11.66237351201898
 21
-130.0936164616318
 31
0.0
1001
DBPROPERTIES
1002
{
1000
PbThick
1002
}
  0
LINE
  5
3C4
330
1F
100
AcDbEntity
  8
THICK
100
AcDbLine
 10
26.98179935803245
 20
-237.5811282560188
 30
0.0
 11
18.51576143501134
 21
-157.0321579731262
 31
0.0
1001
DBPROPERTIES
1002
{
1000
PbThick
1002
}
  0
LINE
  5
3C5
330
1F
100
AcDbEntity
  8
HIDDEN
100
AcDbLine
 10
26.98179935803245
 20
-237.5811282560188
 30
0.0
 11
26.98179935803245
 21
-237.5811282560188
 31
0.0
1001
DBPROPERTIES
1002
{
1000
PbHidd
1002
}
  0
LINE
  5
3C6
330
1F
100
AcDbEntity
  8
THICK
100
AcDbLine
 10
28.06889537601605
 20
-247.9241559678489
 30
0.0
 11
26.98179935803246
 21
-237.5811282560188
 31
0.0
1001
DBPROPERTIES
1002
{
1000
PbThick
1002
}
  0
LINE
  5
3C7
330
1F
100
AcDbEntity
  8
HIDDEN
100
AcDbLine
 10
28.06889537601605
 20
-247.9241559678489
 30
0.0
 11
28.06889537601605
 21
-247.9241559678489
 31
0.0
1001
DBPROPERTIES
1002
{
1000
PbHidd
1002
}
  0
LINE
  5
3C8
330
1F
100
AcDbEntity
  8
THICK
100
AcDbLine
 10
15.64046109349207
 20
-129.6755026085612
 30
0.0
 11
12.7143950451918
 21
-101.8358438079055
 31
0.0
1001
DBPROPERTIES
1002
{
1000
PbThick
1002
}
  0
LINE
  5
3C9
330
1F
100
AcDbEntity
  8
HIDDEN
100
AcDbLine
 10
12.7143950451918
 20
-101.8358438079055
 30
0.0
 11
12.65316455724511
 21
-101.2532746298708
 31
0.0
1001
DBPROPERTIES
1002
{
1000
PbHidd
1002
}
  0
LINE
  5
3CA
330
1F
100
AcDbEntity
  8
THICK
100
AcDbLine
 10
-129.6755026085612
 20
15.64046109349209
 30
0.0
 11
-151.37596300412
 21
17.9212713882804
 31
0.0
1001
DBPROPERTIES
1002
{
1000
PbThick
1002
}
  0
LINE
  5
3CB
330
1F
100
AcDbEntity
  8
THICK
100
AcDbLine
 10
-151.7940768571906
 20
13.9431838068073
 30
0.0
 11
-130.0936164616318
 21
11.662373512019
 31
0.0
1001
DBPROPERTIES
1002
{
1000
PbThick
1002
}
  0
LINE
  5
3CC
330
1F
100
AcDbEntity
  8
THICK
100
AcDbLine
 10
-130.0936164616318
 20
11.662373512019
 30
0.0
 11
-129.6755026085612
 21
15.64046109349209
 31
0.0
1001
DBPROPERTIES
1002
{
1000
PbThick
1002
}
  0
LINE
  5
3CD
330
1F
100
AcDbEntity
  8
THICK
100
AcDbLine
 10
-237.9992421090894
 20
23.0037117765594
 30
0.0
 11
-157.4502718261969
 21
14.53767385353827
 31
0.0
1001
DBPROPERTIES
1002
{
1000
PbThick
1002
}
  0
LINE
  5
3CE
330
1F
100
AcDbEntity
  8
HIDDEN
100
AcDbLine
 10
-237.9992421090894
 20
23.0037117765594
 30
0.0
 11
-237.9992421090894
 21
23.0037117765594
 31
0.0
1001
DBPROPERTIES
1002
{
1000
PbHidd
1002
}
  0
LINE
  5
3CF
330
1F
100
AcDbEntity
  8
THICK
100
AcDbLine
 10
-248.3422698209195
 20
24.09080779454299
 30
0.0
 11
-237.9992421090894
 21
23.0037117765594
 31
0.0
1001
DBPROPERTIES
1002
{
1000
PbThick
1002
}
  0
LINE
  5
3D0
330
1F
100
AcDbEntity
  8
HIDDEN
100
AcDbLine
 10
-248.3422698209195
 20
24.09080779454299
 30
0.0
 11
-248.3422698209195
 21
24.09080779454299
 31
0.0
1001
DBPROPERTIES
1002
{
1000
PbHidd
1002
}
  0
LINE
  5
3D1
330
1F
100
AcDbEntity
  8
HIDDEN
100
AcDbLine
 10
-101.6713884829413
 20
8.675076975772019
 30
0.0
 11
-101.6713884829413
 21
8.675076975772019
 31
0.0
1001
DBPROPERTIES
1002
{
1000
PbHidd
1002
}
  0
LINE
  5
3D2
330
1F
100
AcDbEntity
  8
THICK
100
AcDbLine
 10
-130.0936164616318
 20
11.662373512019
 30
0.0
 11
-106.7424849465103
 21
9.20807069153391
 31
0.0
1001
DBPROPERTIES
1002
{
1000
PbThick
1002
}
  0
LINE
  5
3D3
330
1F
100
AcDbEntity
  8
HIDDEN
100
AcDbLine
 10
-106.7424849465103
 20
9.20807069153391
 30
0.0
 11
-101.6713884829413
 21
8.675076975772017
 31
0.0
1001
DBPROPERTIES
1002
{
1000
PbHidd
1002
}
  0
LINE
  5
3D4
330
1F
100
AcDbEntity
  8
HIDDEN
100
AcDbLine
 10
-130.0936164616318
 20
-11.66237351201899
 30
0.0
 11
-151.7940768571906
 21
-13.94318380680728
 31
0.0
1001
DBPROPERTIES
1002
{
1000
PbHidd
1002
}
  0
LINE
  5
3D5
330
1F
100
AcDbEntity
  8
HIDDEN
100
AcDbLine
 10
-151.3759630041199
 20
-17.92127138828037
 30
0.0
 11
-129.6755026085612
 21
-15.64046109349208
 31
0.0
1001
DBPROPERTIES
1002
{
1000
PbHidd
1002
}
  0
LINE
  5
3D6
330
1F
100
AcDbEntity
  8
HIDDEN
100
AcDbLine
 10
-129.6755026085612
 20
-15.64046109349208
 30
0.0
 11
-130.0936164616318
 21
-11.66237351201899
 31
0.0
1001
DBPROPERTIES
1002
{
1000
PbHidd
1002
}
  0
LINE
  5
3D7
330
1F
100
AcDbEntity
  8
THICK
100
AcDbLine
 10
-237.5811282560188
 20
-26.98179935803247
 30
0.0
 11
-226.4930613322481
 21
-25.81639656343491
 31
0.0
1001
DBPROPERTIES
1002
{
1000
PbThick
1002
}
  0
LINE
  5
3D8
330
1F
100
AcDbEntity
  8
HIDDEN
100
AcDbLine
 10
-226.4930613322481
 20
-25.81639656343491
 30
0.0
 11
-157.0321579731262
 21
-18.51576143501135
 31
0.0
1001
DBPROPERTIES
1002
{
1000
PbHidd
1002
}
  0
LINE
  5
3D9
330
1F
100
AcDbEntity
  8
HIDDEN
100
AcDbLine
 10
-237.5811282560188
 20
-26.98179935803247
 30
0.0
 11
-237.5811282560188
 21
-26.98179935803247
 31
0.0
1001
DBPROPERTIES
1002
{
1000
PbHidd
1002
}
  0
LINE
  5
3DA
330
1F
100
AcDbEntity
  8
THICK
100
AcDbLine
 10
-247.9241559678489
 20
-28.06889537601607
 30
0.0
 11
-237.5811282560188
 21
-26.98179935803247
 31
0.0
1001
DBPROPERTIES
1002
{
1000
PbThick
1002
}
  0
LINE
  5
3DB
330
1F
100
AcDbEntity
  8
HIDDEN
100
AcDbLine
 10
-247.9241559678489
 20
-28.06889537601607
 30
0.0
 11
-247.9241559678489
 21
-28.06889537601607
 31
0.0
1001
DBPROPERTIES
1002
{
1000
PbHidd
1002
}
  0
LINE
  5
3DC
330
1F
100
AcDbEntity
  8
HIDDEN
100
AcDbLine
 10
-129.6755026085612
 20
-15.64046109349208
 30
0.0
 11
-101.2532746298707
 21
-12.65316455724511
 31
0.0
1001
DBPROPERTIES
1002
{
1000
PbHidd
1002
}
  0
LINE
  5
3DD
330
1F
100
AcDbEntity
  8
HIDDEN
100
AcDbLine
 10
15.64046109349208
 20
129.6755026085612
 30
0.0
 11
17.92127138828038
 21
151.3759630041199
 31
0.0
1001
DBPROPERTIES
1002
{
1000
PbHidd
1002
}
  0
LINE
  5
3DE
330
1F
100
AcDbEntity
  8
HIDDEN
100
AcDbLine
 10
13.94318380680729
 20
151.7940768571905
 30
0.0
 11
11.66237351201899
 21
130.0936164616318
 31
0.0
1001
DBPROPERTIES
1002
{
1000
PbHidd
1002
}
  0
LINE
  5
3DF
330
1F
100
AcDbEntity
  8
HIDDEN
100
AcDbLine
 10
11.66237351201899
 20
130.0936164616318
 30
0.0
 11
15.64046109349208
 21
129.6755026085612
 31
0.0
1001
DBPROPERTIES
1002
{
1000
PbHidd
1002
}
  0
LINE
  5
3E0
330
1F
100
AcDbEntity
  8
HIDDEN
100
AcDbLine
 10
8.675076975772019
 20
101.6713884829414
 30
0.0
 11
8.675076975772019
 21
101.6713884829414
 31
0.0
1001
DBPROPERTIES
1002
{
1000
PbHidd
1002
}
  0
LINE
  5
3E1
330
1F
100
AcDbEntity
  8
HIDDEN
100
AcDbLine
 10
11.66237351201899
 20
130.0936164616318
 30
0.0
 11
8.67507697577202
 21
101.6713884829414
 31
0.0
1001
DBPROPERTIES
1002
{
1000
PbHidd
1002
}
  0
LINE
  5
3E2
330
1F
100
AcDbEntity
  8
THICK
100
AcDbLine
 10
23.00371177655939
 20
237.9992421090894
 30
0.0
 11
21.89479699892869
 21
227.4486227660378
 31
0.0
1001
DBPROPERTIES
1002
{
1000
PbThick
1002
}
  0
LINE
  5
3E3
330
1F
100
AcDbEntity
  8
HIDDEN
100
AcDbLine
 10
21.89479699892869
 20
227.4486227660378
 30
0.0
 11
14.53767385353827
 21
157.4502718261969
 31
0.0
1001
DBPROPERTIES
1002
{
1000
PbHidd
1002
}
  0
LINE
  5
3E4
330
1F
100
AcDbEntity
  8
HIDDEN
100
AcDbLine
 10
23.00371177655939
 20
237.9992421090894
 30
0.0
 11
23.00371177655939
 21
237.9992421090894
 31
0.0
1001
DBPROPERTIES
1002
{
1000
PbHidd
1002
}
  0
LINE
  5
3E5
330
1F
100
AcDbEntity
  8
THICK
100
AcDbLine
 10
24.09080779454298
 20
248.3422698209195
 30
0.0
 11
23.00371177655938
 21
237.9992421090894
 31
0.0
1001
DBPROPERTIES
1002
{
1000
PbThick
1002
}
  0
LINE
  5
3E6
330
1F
100
AcDbEntity
  8
HIDDEN
100
AcDbLine
 10
-17.92127138828038
 20
151.3759630041199
 30
0.0
 11
-15.64046109349209
 21
129.6755026085612
 31
0.0
1001
DBPROPERTIES
1002
{
1000
PbHidd
1002
}
  0
LINE
  5
3E7
330
1F
100
AcDbEntity
  8
HIDDEN
100
AcDbLine
 10
-15.64046109349209
 20
129.6755026085612
 30
0.0
 11
-11.662373512019
 21
130.0936164616318
 31
0.0
1001
DBPROPERTIES
1002
{
1000
PbHidd
1002
}
  0
LINE
  5
3E8
330
1F
100
AcDbEntity
  8
THICK
100
AcDbLine
 10
-26.98179935803248
 20
237.5811282560188
 30
0.0
 11
-25.7779427563556
 21
226.1271977970431
 31
0.0
1001
DBPROPERTIES
1002
{
1000
PbThick
1002
}
  0
LINE
  5
3E9
330
1F
100
AcDbEntity
  8
HIDDEN
100
AcDbLine
 10
-25.7779427563556
 20
226.1271977970431
 30
0.0
 11
-18.51576143501137
 21
157.0321579731263
 31
0.0
1001
DBPROPERTIES
1002
{
1000
PbHidd
1002
}
  0
LINE
  5
3EA
330
1F
100
AcDbEntity
  8
HIDDEN
100
AcDbLine
 10
-26.98179935803248
 20
237.5811282560188
 30
0.0
 11
-26.98179935803248
 21
237.5811282560188
 31
0.0
1001
DBPROPERTIES
1002
{
1000
PbHidd
1002
}
  0
LINE
  5
3EB
330
1F
100
AcDbEntity
  8
THICK
100
AcDbLine
 10
-28.06889537601608
 20
247.9241559678489
 30
0.0
 11
-26.98179935803249
 21
237.5811282560188
 31
0.0
1001
DBPROPERTIES
1002
{
1000
PbThick
1002
}
  0
LINE
  5
3EC
330
1F
100
AcDbEntity
  8
HIDDEN
100
AcDbLine
 10
-28.06889537601608
 20
247.9241559678489
 30
0.0
 11
-28.06889537601608
 21
247.9241559678489
 31
0.0
1001
DBPROPERTIES
1002
{
1000
PbHidd
1002
}
  0
LINE
  5
3ED
330
1F
100
AcDbEntity
  8
HIDDEN
100
AcDbLine
 10
-12.65316455724512
 20
101.2532746298708
 30
0.0
 11
-12.65316455724512
 21
101.2532746298708
 31
0.0
1001
DBPROPERTIES
1002
{
1000
PbHidd
1002
}
  0
LINE
  5
3EE
330
1F
100
AcDbEntity
  8
HIDDEN
100
AcDbLine
 10
-15.64046109349209
 20
129.6755026085612
 30
0.0
 11
-12.65316455724512
 21
101.2532746298708
 31
0.0
1001
DBPROPERTIES
1002
{
1000
PbHidd
1002
}
  0
LINE
  5
3EF
330
1F
100
AcDbEntity
  8
HIDDEN
100
AcDbLine
 10
101.2532746298708
 20
-12.65316455724513
 30
0.0
 11
129.6755026085612
 21
-15.64046109349211
 31
0.0
1001
DBPROPERTIES
1002
{
1000
PbHidd
1002
}
  0
LINE
  5
3F0
330
1F
100
AcDbEntity
  8
HIDDEN
100
AcDbLine
 10
157.0321579731263
 20
-18.51576143501139
 30
0.0
 11
226.2356038803166
 21
-25.78933669483624
 31
0.0
1001
DBPROPERTIES
1002
{
1000
PbHidd
1002
}
  0
LINE
  5
3F1
330
1F
100
AcDbEntity
  8
THICK
100
AcDbLine
 10
226.2356038803166
 20
-25.78933669483624
 30
0.0
 11
237.5811282560188
 21
-26.98179935803253
 31
0.0
1001
DBPROPERTIES
1002
{
1000
PbThick
1002
}
  0
LINE
  5
3F2
330
1F
100
AcDbEntity
  8
HIDDEN
100
AcDbLine
 10
237.5811282560188
 20
-26.98179935803253
 30
0.0
 11
237.5811282560188
 21
-26.98179935803253
 31
0.0
1001
DBPROPERTIES
1002
{
1000
PbHidd
1002
}
  0
LINE
  5
3F3
330
1F
100
AcDbEntity
  8
THICK
100
AcDbLine
 10
237.9992421090894
 20
-23.00371177655943
 30
0.0
 11
237.5811282560188
 21
-26.98179935803252
 31
0.0
1001
DBPROPERTIES
1002
{
1000
PbThick
1002
}
  0
LINE
  5
3F4
330
1F
100
AcDbEntity
  8
THICK
100
AcDbLine
 10
237.5811282560188
 20
-26.98179935803253
 30
0.0
 11
247.9241559678489
 21
-28.06889537601612
 31
0.0
1001
DBPROPERTIES
1002
{
1000
PbThick
1002
}
  0
LINE
  5
3F5
330
1F
100
AcDbEntity
  8
THICK
100
AcDbLine
 10
248.3422698209195
 20
-24.09080779454302
 30
0.0
 11
247.9241559678489
 21
-28.06889537601611
 31
0.0
1001
DBPROPERTIES
1002
{
1000
PbThick
1002
}
  0
LINE
  5
3F6
330
1F
100
AcDbEntity
  8
HIDDEN
100
AcDbLine
 10
247.9241559678489
 20
-28.06889537601612
 30
0.0
 11
247.9241559678489
 21
-28.06889537601612
 31
0.0
1001
DBPROPERTIES
1002
{
1000
PbHidd
1002
}
  0
LINE
  5
3F7
330
1F
100
AcDbEntity
  8
HIDDEN
100
AcDbLine
 10
148.8083019403601
 20
-13.62936621749842
 30
0.0
 11
148.3901880872895
 21
-17.60745379897151
 31
0.0
1001
DBPROPERTIES
1002
{
1000
PbHidd
1002
}
  0
LINE
  5
3F8
330
1F
100
AcDbEntity
  8
HIDDEN
100
AcDbLine
 10
124.9221026057168
 20
-11.11882550302722
 30
0.0
 11
124.5039887526462
 21
-15.09691308450031
 31
0.0
1001
DBPROPERTIES
1002
{
1000
PbHidd
1002
}
  0
LINE
  5
3F9
330
1F
100
AcDbEntity
  8
HIDDEN
100
AcDbLine
 10
101.6713884829414
 20
8.675076975772011
 30
0.0
 11
103.948611175311
 21
8.914422725383158
 31
0.0
1001
DBPROPERTIES
1002
{
1000
PbHidd
1002
}
  0
LINE
  5
3FA
330
1F
100
AcDbEntity
  8
THICK
100
AcDbLine
 10
103.948611175311
 20
8.914422725383158
 30
0.0
 11
130.0936164616318
 21
11.66237351201897
 31
0.0
1001
DBPROPERTIES
1002
{
1000
PbThick
1002
}
  0
LINE
  5
3FB
330
1F
100
AcDbEntity
  8
THICK
100
AcDbLine
 10
157.4502718261969
 20
14.53767385353824
 30
0.0
 11
237.9992421090894
 21
23.00371177655935
 31
0.0
1001
DBPROPERTIES
1002
{
1000
PbThick
1002
}
  0
LINE
  5
3FC
330
1F
100
AcDbEntity
  8
HIDDEN
100
AcDbLine
 10
237.9992421090894
 20
23.00371177655935
 30
0.0
 11
237.9992421090894
 21
23.00371177655935
 31
0.0
1001
DBPROPERTIES
1002
{
1000
PbHidd
1002
}
  0
LINE
  5
3FD
330
1F
100
AcDbEntity
  8
THICK
100
AcDbLine
 10
237.5811282560188
 20
26.98179935803244
 30
0.0
 11
237.9992421090894
 21
23.00371177655935
 31
0.0
1001
DBPROPERTIES
1002
{
1000
PbThick
1002
}
  0
LINE
  5
3FE
330
1F
100
AcDbEntity
  8
THICK
100
AcDbLine
 10
237.9992421090894
 20
23.00371177655935
 30
0.0
 11
248.3422698209195
 21
24.09080779454294
 31
0.0
1001
DBPROPERTIES
1002
{
1000
PbThick
1002
}
  0
LINE
  5
3FF
330
1F
100
AcDbEntity
  8
THICK
100
AcDbLine
 10
247.9241559678489
 20
28.06889537601604
 30
0.0
 11
248.3422698209195
 21
24.09080779454295
 31
0.0
1001
DBPROPERTIES
1002
{
1000
PbThick
1002
}
  0
LINE
  5
400
330
1F
100
AcDbEntity
  8
HIDDEN
100
AcDbLine
 10
248.3422698209195
 20
24.09080779454294
 30
0.0
 11
248.3422698209195
 21
24.09080779454294
 31
0.0
1001
DBPROPERTIES
1002
{
1000
PbHidd
1002
}
  0
LINE
  5
401
330
1F
100
AcDbEntity
  8
HIDDEN
100
AcDbLine
 10
148.3901880872895
 20
17.60745379897145
 30
0.0
 11
148.8083019403601
 21
13.62936621749836
 31
0.0
1001
DBPROPERTIES
1002
{
1000
PbHidd
1002
}
  0
LINE
  5
402
330
1F
100
AcDbEntity
  8
HIDDEN
100
AcDbLine
 10
124.5039887526462
 20
15.09691308450027
 30
0.0
 11
124.9221026057168
 21
11.11882550302718
 31
0.0
1001
DBPROPERTIES
1002
{
1000
PbHidd
1002
}
  0
LINE
  5
403
330
1F
100
AcDbEntity
  8
HIDDEN
100
AcDbLine
 10
101.6713884829414
 20
8.675076975772008
 30
0.0
 11
101.6713884829414
 21
8.675076975772008
 31
0.0
1001
DBPROPERTIES
1002
{
1000
PbHidd
1002
}
  0
LINE
  5
404
330
1F
100
AcDbEntity
  8
THICK
100
AcDbLine
 10
-12.65316455724512
 20
-101.2532746298707
 30
0.0
 11
-15.6404610934921
 21
-129.6755026085612
 31
0.0
1001
DBPROPERTIES
1002
{
1000
PbThick
1002
}
  0
LINE
  5
405
330
1F
100
AcDbEntity
  8
THICK
100
AcDbLine
 10
-18.51576143501137
 20
-157.0321579731262
 30
0.0
 11
-26.98179935803251
 21
-237.5811282560188
 31
0.0
1001
DBPROPERTIES
1002
{
1000
PbThick
1002
}
  0
LINE
  5
406
330
1F
100
AcDbEntity
  8
HIDDEN
100
AcDbLine
 10
-26.98179935803251
 20
-237.5811282560188
 30
0.0
 11
-26.98179935803251
 21
-237.5811282560188
 31
0.0
1001
DBPROPERTIES
1002
{
1000
PbHidd
1002
}
  0
LINE
  5
407
330
1F
100
AcDbEntity
  8
THICK
100
AcDbLine
 10
-23.00371177655942
 20
-237.9992421090894
 30
0.0
 11
-26.98179935803251
 21
-237.5811282560188
 31
0.0
1001
DBPROPERTIES
1002
{
1000
PbThick
1002
}
  0
LINE
  5
408
330
1F
100
AcDbEntity
  8
THICK
100
AcDbLine
 10
-26.98179935803251
 20
-237.5811282560188
 30
0.0
 11
-28.06889537601611
 21
-247.9241559678489
 31
0.0
1001
DBPROPERTIES
1002
{
1000
PbThick
1002
}
  0
LINE
  5
409
330
1F
100
AcDbEntity
  8
THICK
100
AcDbLine
 10
-24.09080779454301
 20
-248.3422698209195
 30
0.0
 11
-28.0688953760161
 21
-247.9241559678489
 31
0.0
1001
DBPROPERTIES
1002
{
1000
PbThick
1002
}
  0
LINE
  5
40A
330
1F
100
AcDbEntity
  8
HIDDEN
100
AcDbLine
 10
-28.06889537601611
 20
-247.9241559678489
 30
0.0
 11
-28.06889537601611
 21
-247.9241559678489
 31
0.0
1001
DBPROPERTIES
1002
{
1000
PbHidd
1002
}
  0
LINE
  5
40B
330
1F
100
AcDbEntity
  8
HIDDEN
100
AcDbLine
 10
-13.62936621749841
 20
-148.8083019403601
 30
0.0
 11
-17.6074537989715
 21
-148.3901880872895
 31
0.0
1001
DBPROPERTIES
1002
{
1000
PbHidd
1002
}
  0
LINE
  5
40C
330
1F
100
AcDbEntity
  8
HIDDEN
100
AcDbLine
 10
-11.11882550302721
 20
-124.9221026057168
 30
0.0
 11
-15.0969130845003
 21
-124.5039887526462
 31
0.0
1001
DBPROPERTIES
1002
{
1000
PbHidd
1002
}
  0
LINE
  5
40D
330
1F
100
AcDbEntity
  8
THICK
100
AcDbLine
 10
8.675076975772011
 20
-101.6713884829414
 30
0.0
 11
11.66237351201898
 21
-130.0936164616318
 31
0.0
1001
DBPROPERTIES
1002
{
1000
PbThick
1002
}
  0
LINE
  5
40E
330
1F
100
AcDbEntity
  8
THICK
100
AcDbLine
 10
14.53767385353825
 20
-157.4502718261969
 30
0.0
 11
23.00371177655936
 21
-237.9992421090894
 31
0.0
1001
DBPROPERTIES
1002
{
1000
PbThick
1002
}
  0
LINE
  5
40F
330
1F
100
AcDbEntity
  8
HIDDEN
100
AcDbLine
 10
23.00371177655936
 20
-237.9992421090894
 30
0.0
 11
23.00371177655936
 21
-237.9992421090894
 31
0.0
1001
DBPROPERTIES
1002
{
1000
PbHidd
1002
}
  0
LINE
  5
410
330
1F
100
AcDbEntity
  8
THICK
100
AcDbLine
 10
26.98179935803245
 20
-237.5811282560188
 30
0.0
 11
23.00371177655936
 21
-237.9992421090894
 31
0.0
1001
DBPROPERTIES
1002
{
1000
PbThick
1002
}
  0
LINE
  5
411
330
1F
100
AcDbEntity
  8
THICK
100
AcDbLine
 10
23.00371177655936
 20
-237.9992421090894
 30
0.0
 11
24.09080779454296
 21
-248.3422698209195
 31
0.0
1001
DBPROPERTIES
1002
{
1000
PbThick
1002
}
  0
LINE
  5
412
330
1F
100
AcDbEntity
  8
THICK
100
AcDbLine
 10
28.06889537601605
 20
-247.9241559678489
 30
0.0
 11
24.09080779454296
 21
-248.3422698209195
 31
0.0
1001
DBPROPERTIES
1002
{
1000
PbThick
1002
}
  0
LINE
  5
413
330
1F
100
AcDbEntity
  8
HIDDEN
100
AcDbLine
 10
24.09080779454296
 20
-248.3422698209195
 30
0.0
 11
24.09080779454296
 21
-248.3422698209195
 31
0.0
1001
DBPROPERTIES
1002
{
1000
PbHidd
1002
}
  0
LINE
  5
414
330
1F
100
AcDbEntity
  8
HIDDEN
100
AcDbLine
 10
17.60745379897146
 20
-148.3901880872895
 30
0.0
 11
13.62936621749837
 21
-148.8083019403601
 31
0.0
1001
DBPROPERTIES
1002
{
1000
PbHidd
1002
}
  0
LINE
  5
415
330
1F
100
AcDbEntity
  8
HIDDEN
100
AcDbLine
 10
15.09691308450027
 20
-124.5039887526462
 30
0.0
 11
11.11882550302718
 21
-124.9221026057168
 31
0.0
1001
DBPROPERTIES
1002
{
1000
PbHidd
1002
}
  0
LINE
  5
416
330
1F
100
AcDbEntity
  8
THICK
100
AcDbLine
 10
-101.2532746298707
 20
12.65316455724511
 30
0.0
 11
-129.6755026085612
 21
15.64046109349209
 31
0.0
1001
DBPROPERTIES
1002
{
1000
PbThick
1002
}
  0
LINE
  5
417
330
1F
100
AcDbEntity
  8
THICK
100
AcDbLine
 10
-157.0321579731262
 20
18.51576143501136
 30
0.0
 11
-237.5811282560188
 21
26.9817993580325
 31
0.0
1001
DBPROPERTIES
1002
{
1000
PbThick
1002
}
  0
LINE
  5
418
330
1F
100
AcDbEntity
  8
HIDDEN
100
AcDbLine
 10
-237.5811282560188
 20
26.9817993580325
 30
0.0
 11
-237.5811282560188
 21
26.9817993580325
 31
0.0
1001
DBPROPERTIES
1002
{
1000
PbHidd
1002
}
  0
LINE
  5
419
330
1F
100
AcDbEntity
  8
THICK
100
AcDbLine
 10
-237.9992421090894
 20
23.0037117765594
 30
0.0
 11
-237.5811282560188
 21
26.98179935803249
 31
0.0
1001
DBPROPERTIES
1002
{
1000
PbThick
1002
}
  0
LINE
  5
41A
330
1F
100
AcDbEntity
  8
THICK
100
AcDbLine
 10
-237.5811282560188
 20
26.9817993580325
 30
0.0
 11
-247.9241559678489
 21
28.06889537601609
 31
0.0
1001
DBPROPERTIES
1002
{
1000
PbThick
1002
}
  0
LINE
  5
41B
330
1F
100
AcDbEntity
  8
THICK
100
AcDbLine
 10
-248.3422698209195
 20
24.09080779454299
 30
0.0
 11
-247.9241559678489
 21
28.06889537601608
 31
0.0
1001
DBPROPERTIES
1002
{
1000
PbThick
1002
}
  0
LINE
  5
41C
330
1F
100
AcDbEntity
  8
HIDDEN
100
AcDbLine
 10
-247.9241559678489
 20
28.06889537601609
 30
0.0
 11
-247.9241559678489
 21
28.06889537601609
 31
0.0
1001
DBPROPERTIES
1002
{
1000
PbHidd
1002
}
  0
LINE
  5
41D
330
1F
100
AcDbEntity
  8
HIDDEN
100
AcDbLine
 10
-148.8083019403601
 20
13.6293662174984
 30
0.0
 11
-148.3901880872895
 21
17.60745379897149
 31
0.0
1001
DBPROPERTIES
1002
{
1000
PbHidd
1002
}
  0
LINE
  5
41E
330
1F
100
AcDbEntity
  8
HIDDEN
100
AcDbLine
 10
-124.9221026057168
 20
11.1188255030272
 30
0.0
 11
-124.5039887526462
 21
15.09691308450029
 31
0.0
1001
DBPROPERTIES
1002
{
1000
PbHidd
1002
}
  0
LINE
  5
41F
330
1F
100
AcDbEntity
  8
HIDDEN
100
AcDbLine
 10
-101.2532746298707
 20
12.65316455724512
 30
0.0
 11
-101.2532746298707
 21
12.65316455724512
 31
0.0
1001
DBPROPERTIES
1002
{
1000
PbHidd
1002
}
  0
LINE
  5
420
330
1F
100
AcDbEntity
  8
HIDDEN
100
AcDbLine
 10
-101.6713884829413
 20
-8.675076975772011
 30
0.0
 11
-130.0936164616318
 21
-11.66237351201899
 31
0.0
1001
DBPROPERTIES
1002
{
1000
PbHidd
1002
}
  0
LINE
  5
421
330
1F
100
AcDbEntity
  8
HIDDEN
100
AcDbLine
 10
-157.4502718261969
 20
-14.53767385353826
 30
0.0
 11
-226.1750915302974
 21
-21.76094347230923
 31
0.0
1001
DBPROPERTIES
1002
{
1000
PbHidd
1002
}
  0
LINE
  5
422
330
1F
100
AcDbEntity
  8
THICK
100
AcDbLine
 10
-226.1750915302974
 20
-21.76094347230923
 30
0.0
 11
-237.9992421090894
 21
-23.00371177655937
 31
0.0
1001
DBPROPERTIES
1002
{
1000
PbThick
1002
}
  0
LINE
  5
423
330
1F
100
AcDbEntity
  8
HIDDEN
100
AcDbLine
 10
-237.9992421090894
 20
-23.00371177655937
 30
0.0
 11
-237.9992421090894
 21
-23.00371177655937
 31
0.0
1001
DBPROPERTIES
1002
{
1000
PbHidd
1002
}
  0
LINE
  5
424
330
1F
100
AcDbEntity
  8
THICK
100
AcDbLine
 10
-237.5811282560188
 20
-26.98179935803247
 30
0.0
 11
-237.9992421090894
 21
-23.00371177655938
 31
0.0
1001
DBPROPERTIES
1002
{
1000
PbThick
1002
}
  0
LINE
  5
425
330
1F
100
AcDbEntity
  8
THICK
100
AcDbLine
 10
-237.9992421090894
 20
-23.00371177655938
 30
0.0
 11
-248.3422698209195
 21
-24.09080779454297
 31
0.0
1001
DBPROPERTIES
1002
{
1000
PbThick
1002
}
  0
LINE
  5
426
330
1F
100
AcDbEntity
  8
THICK
100
AcDbLine
 10
-247.9241559678489
 20
-28.06889537601607
 30
0.0
 11
-248.3422698209195
 21
-24.09080779454298
 31
0.0
1001
DBPROPERTIES
1002
{
1000
PbThick
1002
}
  0
LINE
  5
427
330
1F
100
AcDbEntity
  8
HIDDEN
100
AcDbLine
 10
-248.3422698209195
 20
-24.09080779454297
 30
0.0
 11
-248.3422698209195
 21
-24.09080779454297
 31
0.0
1001
DBPROPERTIES
1002
{
1000
PbHidd
1002
}
  0
LINE
  5
428
330
1F
100
AcDbEntity
  8
HIDDEN
100
AcDbLine
 10
-148.3901880872895
 20
-17.60745379897147
 30
0.0
 11
-148.8083019403601
 21
-13.62936621749838
 31
0.0
1001
DBPROPERTIES
1002
{
1000
PbHidd
1002
}
  0
LINE
  5
429
330
1F
100
AcDbEntity
  8
HIDDEN
100
AcDbLine
 10
-124.5039887526462
 20
-15.09691308450028
 30
0.0
 11
-124.9221026057168
 21
-11.11882550302719
 31
0.0
1001
DBPROPERTIES
1002
{
1000
PbHidd
1002
}
  0
LINE
  5
42A
330
1F
100
AcDbEntity
  8
HIDDEN
100
AcDbLine
 10
12.65316455724511
 20
101.2532746298708
 30
0.0
 11
15.64046109349209
 21
129.6755026085612
 31
0.0
1001
DBPROPERTIES
1002
{
1000
PbHidd
1002
}
  0
LINE
  5
42B
330
1F
100
AcDbEntity
  8
HIDDEN
100
AcDbLine
 10
18.51576143501136
 20
157.0321579731262
 30
0.0
 11
25.80572960470381
 21
226.3915719992622
 31
0.0
1001
DBPROPERTIES
1002
{
1000
PbHidd
1002
}
  0
LINE
  5
42C
330
1F
100
AcDbEntity
  8
THICK
100
AcDbLine
 10
25.80572960470381
 20
226.3915719992622
 30
0.0
 11
26.98179935803248
 21
237.5811282560188
 31
0.0
1001
DBPROPERTIES
1002
{
1000
PbThick
1002
}
  0
LINE
  5
42D
330
1F
100
AcDbEntity
  8
HIDDEN
100
AcDbLine
 10
26.98179935803248
 20
237.5811282560188
 30
0.0
 11
26.98179935803248
 21
237.5811282560188
 31
0.0
1001
DBPROPERTIES
1002
{
1000
PbHidd
1002
}
  0
LINE
  5
42E
330
1F
100
AcDbEntity
  8
THICK
100
AcDbLine
 10
23.00371177655939
 20
237.9992421090894
 30
0.0
 11
26.98179935803248
 21
237.5811282560188
 31
0.0
1001
DBPROPERTIES
1002
{
1000
PbThick
1002
}
  0
LINE
  5
42F
330
1F
100
AcDbEntity
  8
THICK
100
AcDbLine
 10
26.98179935803248
 20
237.5811282560188
 30
0.0
 11
28.06889537601608
 21
247.9241559678489
 31
0.0
1001
DBPROPERTIES
1002
{
1000
PbThick
1002
}
  0
LINE
  5
430
330
1F
100
AcDbEntity
  8
HIDDEN
100
AcDbLine
 10
13.62936621749839
 20
148.8083019403601
 30
0.0
 11
17.60745379897148
 21
148.3901880872895
 31
0.0
1001
DBPROPERTIES
1002
{
1000
PbHidd
1002
}
  0
LINE
  5
431
330
1F
100
AcDbEntity
  8
HIDDEN
100
AcDbLine
 10
11.11882550302719
 20
124.9221026057168
 30
0.0
 11
15.09691308450028
 21
124.5039887526462
 31
0.0
1001
DBPROPERTIES
1002
{
1000
PbHidd
1002
}
  0
LINE
  5
432
330
1F
100
AcDbEntity
  8
HIDDEN
100
AcDbLine
 10
12.65316455724511
 20
101.2532746298708
 30
0.0
 11
12.65316455724511
 21
101.2532746298708
 31
0.0
1001
DBPROPERTIES
1002
{
1000
PbHidd
1002
}
  0
LINE
  5
433
330
1F
100
AcDbEntity
  8
THICK
100
AcDbLine
 10
-26.98179935803248
 20
237.5811282560188
 30
0.0
 11
-23.00371177655939
 21
237.9992421090894
 31
0.0
1001
DBPROPERTIES
1002
{
1000
PbThick
1002
}
  0
LINE
  5
434
330
1F
100
AcDbEntity
  8
THICK
100
AcDbLine
 10
-28.06889537601608
 20
247.9241559678489
 30
0.0
 11
-24.09080779454299
 21
248.3422698209195
 31
0.0
1001
DBPROPERTIES
1002
{
1000
PbThick
1002
}
  0
LINE
  5
435
330
1F
100
AcDbEntity
  8
HIDDEN
100
AcDbLine
 10
-17.60745379897148
 20
148.3901880872895
 30
0.0
 11
-13.62936621749839
 21
148.8083019403601
 31
0.0
1001
DBPROPERTIES
1002
{
1000
PbHidd
1002
}
  0
LINE
  5
436
330
1F
100
AcDbEntity
  8
HIDDEN
100
AcDbLine
 10
-15.09691308450029
 20
124.5039887526462
 30
0.0
 11
-11.1188255030272
 21
124.9221026057168
 31
0.0
1001
DBPROPERTIES
1002
{
1000
PbHidd
1002
}
  0
ARC
  5
437
330
1F
100
AcDbEntity
  8
HIDDEN
100
AcDbCircle
 10
0.0000000000000528
 20
0.0
 30
0.0
 40
71.42857142857143
100
AcDbArc
 50
177.0000128325378
 51
180.0000198478428
1001
DBPROPERTIES
1002
{
1000
PbHidd
1002
}
  0
LINE
  5
438
330
1F
100
AcDbEntity
  8
HIDDEN
100
AcDbLine
 10
-71.33068105389808
 20
3.738282588781733
 30
0.0
 11
-71.33068105389808
 21
3.738282588781733
 31
0.0
1001
DBPROPERTIES
1002
{
1000
PbHidd
1002
}
  0
LINE
  5
439
330
1F
100
AcDbEntity
  8
HIDDEN
100
AcDbLine
 10
-68.99470187779056
 20
-18.48707465018003
 30
0.0
 11
-68.99470187779056
 21
-18.48707465018003
 31
0.0
1001
DBPROPERTIES
1002
{
1000
PbHidd
1002
}
  0
ARC
  5
43A
330
1F
100
AcDbEntity
  8
HIDDEN
100
AcDbCircle
 10
0.0000000000000528
 20
0.0
 30
0.0
 40
71.42857142857143
100
AcDbArc
 50
189.0000011980722
 51
195.0000152286821
1001
DBPROPERTIES
1002
{
1000
PbHidd
1002
}
  0
LINE
  5
43B
330
1F
100
AcDbEntity
  8
HIDDEN
100
AcDbLine
 10
-70.54916718536694
 20
-11.17389036001647
 30
0.0
 11
-70.54916718536694
 21
-11.17389036001647
 31
0.0
1001
DBPROPERTIES
1002
{
1000
PbHidd
1002
}
  0
LINE
  5
43C
330
1F
100
AcDbEntity
  8
HIDDEN
100
AcDbLine
 10
-70.54916718536693
 20
11.1738903600165
 30
0.0
 11
-70.54916718536693
 21
11.1738903600165
 31
0.0
1001
DBPROPERTIES
1002
{
1000
PbHidd
1002
}
  0
ARC
  5
43D
330
1F
100
AcDbEntity
  8
HIDDEN
100
AcDbCircle
 10
0.0000000000000528
 20
0.0
 30
0.0
 40
71.42857142857143
100
AcDbArc
 50
164.9999847713179
 51
170.9999988019279
1001
DBPROPERTIES
1002
{
1000
PbHidd
1002
}
  0
LINE
  5
43E
330
1F
100
AcDbEntity
  8
HIDDEN
100
AcDbLine
 10
-68.99470187779055
 20
18.48707465018006
 30
0.0
 11
-68.99470187779055
 21
18.48707465018006
 31
0.0
1001
DBPROPERTIES
1002
{
1000
PbHidd
1002
}
  0
LINE
  5
43F
330
1F
100
AcDbEntity
  8
HIDDEN
100
AcDbLine
 10
-63.64332315631196
 20
-32.42789283853901
 30
0.0
 11
-63.64332315631196
 21
-32.42789283853901
 31
0.0
1001
DBPROPERTIES
1002
{
1000
PbHidd
1002
}
  0
ARC
  5
440
330
1F
100
AcDbEntity
  8
HIDDEN
100
AcDbCircle
 10
0.0000000000000528
 20
0.0
 30
0.0
 40
71.42857142857143
100
AcDbArc
 50
200.9999719635126
 51
206.9999859941226
1001
DBPROPERTIES
1002
{
1000
PbHidd
1002
}
  0
LINE
  5
441
330
1F
100
AcDbEntity
  8
HIDDEN
100
AcDbLine
 10
-66.68431617837152
 20
-25.59771068180712
 30
0.0
 11
-66.68431617837152
 21
-25.59771068180712
 31
0.0
1001
DBPROPERTIES
1002
{
1000
PbHidd
1002
}
  0
LINE
  5
442
330
1F
100
AcDbEntity
  8
HIDDEN
100
AcDbLine
 10
-66.6843161783715
 20
25.59771068180716
 30
0.0
 11
-66.6843161783715
 21
25.59771068180716
 31
0.0
1001
DBPROPERTIES
1002
{
1000
PbHidd
1002
}
  0
ARC
  5
443
330
1F
100
AcDbEntity
  8
HIDDEN
100
AcDbCircle
 10
0.0000000000000528
 20
0.0
 30
0.0
 40
71.42857142857143
100
AcDbArc
 50
153.0000140058774
 51
159.0000280364874
1001
DBPROPERTIES
1002
{
1000
PbHidd
1002
}
  0
LINE
  5
444
330
1F
100
AcDbEntity
  8
HIDDEN
100
AcDbLine
 10
-63.64332315631194
 20
32.42789283853905
 30
0.0
 11
-63.64332315631194
 21
32.42789283853905
 31
0.0
1001
DBPROPERTIES
1002
{
1000
PbHidd
1002
}
  0
LINE
  5
445
330
1F
100
AcDbEntity
  8
HIDDEN
100
AcDbLine
 10
-55.51042581835505
 20
-44.95145650355977
 30
0.0
 11
-55.51042581835505
 21
-44.95145650355977
 31
0.0
1001
DBPROPERTIES
1002
{
1000
PbHidd
1002
}
  0
ARC
  5
446
330
1F
100
AcDbEntity
  8
HIDDEN
100
AcDbCircle
 10
0.0000000000000528
 20
0.0
 30
0.0
 40
71.42857142857143
100
AcDbArc
 50
213.0000000247326
 51
219.0000140553425
1001
DBPROPERTIES
1002
{
1000
PbHidd
1002
}
  0
LINE
  5
447
330
1F
100
AcDbEntity
  8
HIDDEN
100
AcDbLine
 10
-59.90504056753027
 20
-38.90278821535902
 30
0.0
 11
-59.90504056753027
 21
-38.90278821535902
 31
0.0
1001
DBPROPERTIES
1002
{
1000
PbHidd
1002
}
  0
LINE
  5
448
330
1F
100
AcDbEntity
  8
HIDDEN
100
AcDbLine
 10
-59.90504056753022
 20
38.90278821535908
 30
0.0
 11
-59.90504056753022
 21
38.90278821535908
 31
0.0
1001
DBPROPERTIES
1002
{
1000
PbHidd
1002
}
  0
ARC
  5
449
330
1F
100
AcDbEntity
  8
HIDDEN
100
AcDbCircle
 10
0.0000000000000528
 20
0.0
 30
0.0
 40
71.42857142857143
100
AcDbArc
 50
140.9999859446575
 51
146.9999999752674
1001
DBPROPERTIES
1002
{
1000
PbHidd
1002
}
  0
LINE
  5
44A
330
1F
100
AcDbEntity
  8
HIDDEN
100
AcDbLine
 10
-55.51042581835501
 20
44.95145650355983
 30
0.0
 11
-55.51042581835501
 21
44.95145650355983
 31
0.0
1001
DBPROPERTIES
1002
{
1000
PbHidd
1002
}
  0
LINE
  5
44B
330
1F
100
AcDbEntity
  8
HIDDEN
100
AcDbLine
 10
-44.95145650355982
 20
-55.51042581835502
 30
0.0
 11
-44.95145650355982
 21
-55.51042581835502
 31
0.0
1001
DBPROPERTIES
1002
{
1000
PbHidd
1002
}
  0
ARC
  5
44C
330
1F
100
AcDbEntity
  8
HIDDEN
100
AcDbCircle
 10
0.0000000000000528
 20
0.0
 30
0.0
 40
71.42857142857143
100
AcDbArc
 50
225.0000280859525
 51
230.999984820783
1001
DBPROPERTIES
1002
{
1000
PbHidd
1002
}
  0
LINE
  5
44D
330
1F
100
AcDbEntity
  8
HIDDEN
100
AcDbLine
 10
-50.50762722761053
 20
-50.5076272276105
 30
0.0
 11
-50.50762722761053
 21
-50.5076272276105
 31
0.0
1001
DBPROPERTIES
1002
{
1000
PbHidd
1002
}
  0
LINE
  5
44E
330
1F
100
AcDbEntity
  8
HIDDEN
100
AcDbLine
 10
-50.50762722761051
 20
50.50762722761052
 30
0.0
 11
-50.50762722761051
 21
50.50762722761052
 31
0.0
1001
DBPROPERTIES
1002
{
1000
PbHidd
1002
}
  0
ARC
  5
44F
330
1F
100
AcDbEntity
  8
HIDDEN
100
AcDbCircle
 10
0.0000000000000528
 20
0.0
 30
0.0
 40
71.42857142857143
100
AcDbArc
 50
129.000015179217
 51
134.9999719140475
1001
DBPROPERTIES
1002
{
1000
PbHidd
1002
}
  0
LINE
  5
450
330
1F
100
AcDbEntity
  8
HIDDEN
100
AcDbLine
 10
-44.95145650355978
 20
55.51042581835505
 30
0.0
 11
-44.95145650355978
 21
55.51042581835505
 31
0.0
1001
DBPROPERTIES
1002
{
1000
PbHidd
1002
}
  0
LINE
  5
451
330
1F
100
AcDbEntity
  8
HIDDEN
100
AcDbLine
 10
-32.42789283853907
 20
-63.64332315631196
 30
0.0
 11
-32.42789283853907
 21
-63.64332315631196
 31
0.0
1001
DBPROPERTIES
1002
{
1000
PbHidd
1002
}
  0
ARC
  5
452
330
1F
100
AcDbEntity
  8
HIDDEN
100
AcDbCircle
 10
0.0000000000000528
 20
0.0
 30
0.0
 40
71.42857142857143
100
AcDbArc
 50
236.999998851393
 51
243.0000128820029
1001
DBPROPERTIES
1002
{
1000
PbHidd
1002
}
  0
LINE
  5
453
330
1F
100
AcDbEntity
  8
HIDDEN
100
AcDbLine
 10
-38.9027882153591
 20
-59.90504056753025
 30
0.0
 11
-38.9027882153591
 21
-59.90504056753025
 31
0.0
1001
DBPROPERTIES
1002
{
1000
PbHidd
1002
}
  0
LINE
  5
454
330
1F
100
AcDbEntity
  8
HIDDEN
100
AcDbLine
 10
-38.90278821535906
 20
59.90504056753027
 30
0.0
 11
-38.90278821535906
 21
59.90504056753027
 31
0.0
1001
DBPROPERTIES
1002
{
1000
PbHidd
1002
}
  0
ARC
  5
455
330
1F
100
AcDbEntity
  8
HIDDEN
100
AcDbCircle
 10
0.0000000000000528
 20
0.0
 30
0.0
 40
71.42857142857143
100
AcDbArc
 50
116.9999871179971
 51
123.000001148607
1001
DBPROPERTIES
1002
{
1000
PbHidd
1002
}
  0
LINE
  5
456
330
1F
100
AcDbEntity
  8
HIDDEN
100
AcDbLine
 10
-32.42789283853904
 20
63.64332315631196
 30
0.0
 11
-32.42789283853904
 21
63.64332315631196
 31
0.0
1001
DBPROPERTIES
1002
{
1000
PbHidd
1002
}
  0
LINE
  5
457
330
1F
100
AcDbEntity
  8
HIDDEN
100
AcDbLine
 10
-18.48707465018009
 20
-68.99470187779056
 30
0.0
 11
-18.48707465018009
 21
-68.99470187779056
 31
0.0
1001
DBPROPERTIES
1002
{
1000
PbHidd
1002
}
  0
ARC
  5
458
330
1F
100
AcDbEntity
  8
HIDDEN
100
AcDbCircle
 10
0.0000000000000528
 20
0.0
 30
0.0
 40
71.42857142857143
100
AcDbArc
 50
249.0000269126129
 51
254.9999836474434
1001
DBPROPERTIES
1002
{
1000
PbHidd
1002
}
  0
LINE
  5
459
330
1F
100
AcDbEntity
  8
HIDDEN
100
AcDbLine
 10
-25.59771068180719
 20
-66.68431617837152
 30
0.0
 11
-25.59771068180719
 21
-66.68431617837152
 31
0.0
1001
DBPROPERTIES
1002
{
1000
PbHidd
1002
}
  0
LINE
  5
45A
330
1F
100
AcDbEntity
  8
HIDDEN
100
AcDbLine
 10
-25.59771068180715
 20
66.68431617837155
 30
0.0
 11
-25.59771068180714
 21
66.68431617837155
 31
0.0
1001
DBPROPERTIES
1002
{
1000
PbHidd
1002
}
  0
ARC
  5
45B
330
1F
100
AcDbEntity
  8
HIDDEN
100
AcDbCircle
 10
0.0000000000000528
 20
0.0
 30
0.0
 40
71.42857142857143
100
AcDbArc
 50
105.0000163525566
 51
110.9999730873871
1001
DBPROPERTIES
1002
{
1000
PbHidd
1002
}
  0
LINE
  5
45C
330
1F
100
AcDbEntity
  8
HIDDEN
100
AcDbLine
 10
-18.48707465018003
 20
68.99470187779059
 30
0.0
 11
-18.48707465018004
 21
68.99470187779059
 31
0.0
1001
DBPROPERTIES
1002
{
1000
PbHidd
1002
}
  0
LINE
  5
45D
330
1F
100
AcDbEntity
  8
HIDDEN
100
AcDbLine
 10
-3.738282588781723
 20
-71.33068105389813
 30
0.0
 11
-3.738282588781718
 21
-71.33068105389813
 31
0.0
1001
DBPROPERTIES
1002
{
1000
PbHidd
1002
}
  0
ARC
  5
45E
330
1F
100
AcDbEntity
  8
HIDDEN
100
AcDbCircle
 10
0.0000000000000528
 20
0.0
 30
0.0
 40
71.42857142857143
100
AcDbArc
 50
260.9999976780534
 51
267.0000117086634
1001
DBPROPERTIES
1002
{
1000
PbHidd
1002
}
  0
LINE
  5
45F
330
1F
100
AcDbEntity
  8
HIDDEN
100
AcDbLine
 10
-11.17389036001651
 20
-70.54916718536697
 30
0.0
 11
-11.17389036001651
 21
-70.54916718536697
 31
0.0
1001
DBPROPERTIES
1002
{
1000
PbHidd
1002
}
  0
LINE
  5
460
330
1F
100
AcDbEntity
  8
HIDDEN
100
AcDbLine
 10
-11.17389036001648
 20
70.54916718536698
 30
0.0
 11
-11.17389036001647
 21
70.54916718536698
 31
0.0
1001
DBPROPERTIES
1002
{
1000
PbHidd
1002
}
  0
ARC
  5
461
330
1F
100
AcDbEntity
  8
HIDDEN
100
AcDbCircle
 10
0.0000000000000528
 20
0.0
 30
0.0
 40
71.42857142857143
100
AcDbArc
 50
92.99998829133665
 51
99.00000232194662
1001
DBPROPERTIES
1002
{
1000
PbHidd
1002
}
  0
LINE
  5
462
330
1F
100
AcDbEntity
  8
HIDDEN
100
AcDbLine
 10
-3.738282588781682
 20
71.33068105389813
 30
0.0
 11
-3.738282588781686
 21
71.33068105389813
 31
0.0
1001
DBPROPERTIES
1002
{
1000
PbHidd
1002
}
  0
LINE
  5
463
330
1F
100
AcDbEntity
  8
HIDDEN
100
AcDbLine
 10
11.17389036001643
 20
-70.549167185367
 30
0.0
 11
11.17389036001644
 21
-70.549167185367
 31
0.0
1001
DBPROPERTIES
1002
{
1000
PbHidd
1002
}
  0
ARC
  5
464
330
1F
100
AcDbEntity
  8
HIDDEN
100
AcDbCircle
 10
0.0000000000000528
 20
0.0
 30
0.0
 40
71.42857142857143
100
AcDbArc
 50
273.0000257392733
 51
278.9999824741038
1001
DBPROPERTIES
1002
{
1000
PbHidd
1002
}
  0
LINE
  5
465
330
1F
100
AcDbEntity
  8
HIDDEN
100
AcDbLine
 10
3.738282588781647
 20
-71.33068105389813
 30
0.0
 11
3.738282588781642
 21
-71.33068105389813
 31
0.0
1001
DBPROPERTIES
1002
{
1000
PbHidd
1002
}
  0
LINE
  5
466
330
1F
100
AcDbEntity
  8
HIDDEN
100
AcDbLine
 10
3.738282588781709
 20
71.33068105389813
 30
0.0
 11
3.738282588781713
 21
71.33068105389813
 31
0.0
1001
DBPROPERTIES
1002
{
1000
PbHidd
1002
}
  0
ARC
  5
467
330
1F
100
AcDbEntity
  8
HIDDEN
100
AcDbCircle
 10
0.0000000000000528
 20
0.0
 30
0.0
 40
71.42857142857143
100
AcDbArc
 50
81.0000175258962
 51
86.99997426072667
1001
DBPROPERTIES
1002
{
1000
PbHidd
1002
}
  0
LINE
  5
468
330
1F
100
AcDbEntity
  8
HIDDEN
100
AcDbLine
 10
11.17389036001651
 20
70.549167185367
 30
0.0
 11
11.1738903600165
 21
70.549167185367
 31
0.0
1001
DBPROPERTIES
1002
{
1000
PbHidd
1002
}
  0
LINE
  5
469
330
1F
100
AcDbEntity
  8
HIDDEN
100
AcDbLine
 10
25.59771068180713
 20
-66.68431617837159
 30
0.0
 11
25.59771068180714
 21
-66.68431617837159
 31
0.0
1001
DBPROPERTIES
1002
{
1000
PbHidd
1002
}
  0
ARC
  5
46A
330
1F
100
AcDbEntity
  8
HIDDEN
100
AcDbCircle
 10
0.0000000000000528
 20
0.0
 30
0.0
 40
71.42857142857143
100
AcDbArc
 50
284.9999965047138
 51
291.0000105353237
1001
DBPROPERTIES
1002
{
1000
PbHidd
1002
}
  0
LINE
  5
46B
330
1F
100
AcDbEntity
  8
HIDDEN
100
AcDbLine
 10
18.48707465018002
 20
-68.99470187779062
 30
0.0
 11
18.48707465018001
 21
-68.99470187779062
 31
0.0
1001
DBPROPERTIES
1002
{
1000
PbHidd
1002
}
  0
LINE
  5
46C
330
1F
100
AcDbEntity
  8
HIDDEN
100
AcDbLine
 10
18.48707465018006
 20
68.99470187779062
 30
0.0
 11
18.48707465018007
 21
68.99470187779062
 31
0.0
1001
DBPROPERTIES
1002
{
1000
PbHidd
1002
}
  0
ARC
  5
46D
330
1F
100
AcDbEntity
  8
HIDDEN
100
AcDbCircle
 10
0.0000000000000528
 20
0.0
 30
0.0
 40
71.42857142857143
100
AcDbArc
 50
68.99998946467625
 51
75.00000349528622
1001
DBPROPERTIES
1002
{
1000
PbHidd
1002
}
  0
LINE
  5
46E
330
1F
100
AcDbEntity
  8
HIDDEN
100
AcDbLine
 10
25.59771068180718
 20
66.68431617837157
 30
0.0
 11
25.59771068180717
 21
66.68431617837157
 31
0.0
1001
DBPROPERTIES
1002
{
1000
PbHidd
1002
}
  0
LINE
  5
46F
330
1F
100
AcDbEntity
  8
HIDDEN
100
AcDbLine
 10
38.90278821535908
 20
-59.90504056753033
 30
0.0
 11
38.90278821535908
 21
-59.90504056753033
 31
0.0
1001
DBPROPERTIES
1002
{
1000
PbHidd
1002
}
  0
ARC
  5
470
330
1F
100
AcDbEntity
  8
HIDDEN
100
AcDbCircle
 10
0.0000000000000528
 20
0.0
 30
0.0
 40
71.42857142857143
100
AcDbArc
 50
297.0000245659338
 51
302.9999813007643
1001
DBPROPERTIES
1002
{
1000
PbHidd
1002
}
  0
LINE
  5
471
330
1F
100
AcDbEntity
  8
HIDDEN
100
AcDbLine
 10
32.42789283853906
 20
-63.64332315631202
 30
0.0
 11
32.42789283853906
 21
-63.64332315631202
 31
0.0
1001
DBPROPERTIES
1002
{
1000
PbHidd
1002
}
  0
LINE
  5
472
330
1F
100
AcDbEntity
  8
HIDDEN
100
AcDbLine
 10
32.42789283853909
 20
63.64332315631201
 30
0.0
 11
32.42789283853909
 21
63.64332315631201
 31
0.0
1001
DBPROPERTIES
1002
{
1000
PbHidd
1002
}
  0
ARC
  5
473
330
1F
100
AcDbEntity
  8
HIDDEN
100
AcDbCircle
 10
0.0000000000000528
 20
0.0
 30
0.0
 40
71.42857142857143
100
AcDbArc
 50
57.0000186992358
 51
62.99997543406626
1001
DBPROPERTIES
1002
{
1000
PbHidd
1002
}
  0
LINE
  5
474
330
1F
100
AcDbEntity
  8
HIDDEN
100
AcDbLine
 10
38.9027882153591
 20
59.90504056753031
 30
0.0
 11
38.9027882153591
 21
59.90504056753031
 31
0.0
1001
DBPROPERTIES
1002
{
1000
PbHidd
1002
}
  0
LINE
  5
475
330
1F
100
AcDbEntity
  8
HIDDEN
100
AcDbLine
 10
50.50762722761053
 20
-50.50762722761061
 30
0.0
 11
50.50762722761053
 21
-50.50762722761061
 31
0.0
1001
DBPROPERTIES
1002
{
1000
PbHidd
1002
}
  0
ARC
  5
476
330
1F
100
AcDbEntity
  8
HIDDEN
100
AcDbCircle
 10
0.0000000000000528
 20
0.0
 30
0.0
 40
71.42857142857143
100
AcDbArc
 50
308.9999953313742
 51
315.0000093619842
1001
DBPROPERTIES
1002
{
1000
PbHidd
1002
}
  0
LINE
  5
477
330
1F
100
AcDbEntity
  8
HIDDEN
100
AcDbLine
 10
44.9514565035598
 20
-55.51042581835513
 30
0.0
 11
44.9514565035598
 21
-55.51042581835513
 31
0.0
1001
DBPROPERTIES
1002
{
1000
PbHidd
1002
}
  0
LINE
  5
478
330
1F
100
AcDbEntity
  8
HIDDEN
100
AcDbLine
 10
44.95145650355984
 20
55.51042581835509
 30
0.0
 11
44.95145650355984
 21
55.51042581835509
 31
0.0
1001
DBPROPERTIES
1002
{
1000
PbHidd
1002
}
  0
ARC
  5
479
330
1F
100
AcDbEntity
  8
HIDDEN
100
AcDbCircle
 10
0.0000000000000528
 20
0.0
 30
0.0
 40
71.42857142857143
100
AcDbArc
 50
44.99999063801582
 51
51.00000466862581
1001
DBPROPERTIES
1002
{
1000
PbHidd
1002
}
  0
LINE
  5
47A
330
1F
100
AcDbEntity
  8
HIDDEN
100
AcDbLine
 10
50.50762722761057
 20
50.50762722761056
 30
0.0
 11
50.50762722761057
 21
50.50762722761056
 31
0.0
1001
DBPROPERTIES
1002
{
1000
PbHidd
1002
}
  0
LINE
  5
47B
330
1F
100
AcDbEntity
  8
HIDDEN
100
AcDbLine
 10
59.90504056753031
 20
-38.90278821535914
 30
0.0
 11
59.90504056753031
 21
-38.90278821535914
 31
0.0
1001
DBPROPERTIES
1002
{
1000
PbHidd
1002
}
  0
ARC
  5
47C
330
1F
100
AcDbEntity
  8
HIDDEN
100
AcDbCircle
 10
0.0000000000000528
 20
0.0
 30
0.0
 40
71.42857142857143
100
AcDbArc
 50
321.0000233925941
 51
326.9999801274246
1001
DBPROPERTIES
1002
{
1000
PbHidd
1002
}
  0
LINE
  5
47D
330
1F
100
AcDbEntity
  8
HIDDEN
100
AcDbLine
 10
55.51042581835507
 20
-44.95145650355988
 30
0.0
 11
55.51042581835507
 21
-44.95145650355988
 31
0.0
1001
DBPROPERTIES
1002
{
1000
PbHidd
1002
}
  0
LINE
  5
47E
330
1F
100
AcDbEntity
  8
HIDDEN
100
AcDbLine
 10
55.5104258183551
 20
44.95145650355984
 30
0.0
 11
55.5104258183551
 21
44.95145650355984
 31
0.0
1001
DBPROPERTIES
1002
{
1000
PbHidd
1002
}
  0
ARC
  5
47F
330
1F
100
AcDbEntity
  8
HIDDEN
100
AcDbCircle
 10
0.0000000000000528
 20
0.0
 30
0.0
 40
71.42857142857143
100
AcDbArc
 50
33.00001987257539
 51
38.99997660740585
1001
DBPROPERTIES
1002
{
1000
PbHidd
1002
}
  0
LINE
  5
480
330
1F
100
AcDbEntity
  8
HIDDEN
100
AcDbLine
 10
59.90504056753034
 20
38.9027882153591
 30
0.0
 11
59.90504056753034
 21
38.9027882153591
 31
0.0
1001
DBPROPERTIES
1002
{
1000
PbHidd
1002
}
  0
LINE
  5
481
330
1F
100
AcDbEntity
  8
HIDDEN
100
AcDbLine
 10
66.68431617837159
 20
-25.59771068180721
 30
0.0
 11
66.68431617837159
 21
-25.59771068180721
 31
0.0
1001
DBPROPERTIES
1002
{
1000
PbHidd
1002
}
  0
ARC
  5
482
330
1F
100
AcDbEntity
  8
HIDDEN
100
AcDbCircle
 10
0.0000000000000528
 20
0.0
 30
0.0
 40
71.42857142857143
100
AcDbArc
 50
332.9999941580346
 51
339.0000081886445
1001
DBPROPERTIES
1002
{
1000
PbHidd
1002
}
  0
LINE
  5
483
330
1F
100
AcDbEntity
  8
HIDDEN
100
AcDbLine
 10
63.64332315631203
 20
-32.4278928385391
 30
0.0
 11
63.64332315631203
 21
-32.4278928385391
 31
0.0
1001
DBPROPERTIES
1002
{
1000
PbHidd
1002
}
  0
LINE
  5
484
330
1F
100
AcDbEntity
  8
HIDDEN
100
AcDbLine
 10
63.64332315631204
 20
32.42789283853907
 30
0.0
 11
63.64332315631204
 21
32.42789283853907
 31
0.0
1001
DBPROPERTIES
1002
{
1000
PbHidd
1002
}
  0
ARC
  5
485
330
1F
100
AcDbEntity
  8
HIDDEN
100
AcDbCircle
 10
0.0000000000000528
 20
0.0
 30
0.0
 40
71.42857142857143
100
AcDbArc
 50
20.99999181135542
 51
27.0000058419654
1001
DBPROPERTIES
1002
{
1000
PbHidd
1002
}
  0
LINE
  5
486
330
1F
100
AcDbEntity
  8
HIDDEN
100
AcDbLine
 10
66.6843161783716
 20
25.59771068180718
 30
0.0
 11
66.6843161783716
 21
25.59771068180718
 31
0.0
1001
DBPROPERTIES
1002
{
1000
PbHidd
1002
}
  0
LINE
  5
487
330
1F
100
AcDbEntity
  8
HIDDEN
100
AcDbLine
 10
70.54916718536703
 20
-11.17389036001656
 30
0.0
 11
70.54916718536703
 21
-11.17389036001656
 31
0.0
1001
DBPROPERTIES
1002
{
1000
PbHidd
1002
}
  0
ARC
  5
488
330
1F
100
AcDbEntity
  8
HIDDEN
100
AcDbCircle
 10
0.0000000000000528
 20
0.0
 30
0.0
 40
71.42857142857143
100
AcDbArc
 50
345.0000222192546
 51
350.9999789540851
1001
DBPROPERTIES
1002
{
1000
PbHidd
1002
}
  0
LINE
  5
489
330
1F
100
AcDbEntity
  8
HIDDEN
100
AcDbLine
 10
68.99470187779063
 20
-18.48707465018013
 30
0.0
 11
68.99470187779063
 21
-18.48707465018013
 31
0.0
1001
DBPROPERTIES
1002
{
1000
PbHidd
1002
}
  0
ARC
  5
48A
330
1F
100
AcDbEntity
  8
HIDDEN
100
AcDbCircle
 10
0.0000000000000528
 20
0.0
 30
0.0
 40
71.42857142857143
100
AcDbArc
 50
9.000021045914972
 51
14.99997778074544
1001
DBPROPERTIES
1002
{
1000
PbHidd
1002
}
  0
LINE
  5
48B
330
1F
100
AcDbEntity
  8
HIDDEN
100
AcDbLine
 10
70.54916718536704
 20
11.1738903600165
 30
0.0
 11
70.54916718536704
 21
11.1738903600165
 31
0.0
1001
DBPROPERTIES
1002
{
1000
PbHidd
1002
}
  0
LINE
  5
48C
330
1F
100
AcDbEntity
  8
HIDDEN
100
AcDbLine
 10
68.99470187779065
 20
18.48707465018007
 30
0.0
 11
68.99470187779065
 21
18.48707465018007
 31
0.0
1001
DBPROPERTIES
1002
{
1000
PbHidd
1002
}
  0
LINE
  5
48D
330
1F
100
AcDbEntity
  8
HIDDEN
100
AcDbLine
 10
-62.41434592216082
 20
3.270997265184016
 30
0.0
 11
-62.41434592216081
 21
3.270997265184016
 31
0.0
1001
DBPROPERTIES
1002
{
1000
PbHidd
1002
}
  0
LINE
  5
48E
330
1F
100
AcDbEntity
  8
HIDDEN
100
AcDbLine
 10
-60.37036414306673
 20
-16.17619031890753
 30
0.0
 11
-60.37036414306674
 21
-16.17619031890753
 31
0.0
1001
DBPROPERTIES
1002
{
1000
PbHidd
1002
}
  0
LINE
  5
48F
330
1F
100
AcDbEntity
  8
HIDDEN
100
AcDbLine
 10
-61.73052128719608
 20
-9.777154065014411
 30
0.0
 11
-61.73052128719606
 21
-9.777154065014411
 31
0.0
1001
DBPROPERTIES
1002
{
1000
PbHidd
1002
}
  0
LINE
  5
490
330
1F
100
AcDbEntity
  8
HIDDEN
100
AcDbLine
 10
-61.73052128719605
 20
9.77715406501444
 30
0.0
 11
-61.73052128719607
 21
9.77715406501444
 31
0.0
1001
DBPROPERTIES
1002
{
1000
PbHidd
1002
}
  0
LINE
  5
491
330
1F
100
AcDbEntity
  8
HIDDEN
100
AcDbLine
 10
-60.37036414306674
 20
16.17619031890755
 30
0.0
 11
-60.37036414306672
 21
16.17619031890755
 31
0.0
1001
DBPROPERTIES
1002
{
1000
PbHidd
1002
}
  0
LINE
  5
492
330
1F
100
AcDbEntity
  8
HIDDEN
100
AcDbLine
 10
-55.68790776177295
 20
-28.37440623372163
 30
0.0
 11
-55.68790776177296
 21
-28.37440623372163
 31
0.0
1001
DBPROPERTIES
1002
{
1000
PbHidd
1002
}
  0
LINE
  5
493
330
1F
100
AcDbEntity
  8
HIDDEN
100
AcDbLine
 10
-58.34877665607508
 20
-22.39799684658124
 30
0.0
 11
-58.34877665607507
 21
-22.39799684658124
 31
0.0
1001
DBPROPERTIES
1002
{
1000
PbHidd
1002
}
  0
LINE
  5
494
330
1F
100
AcDbEntity
  8
HIDDEN
100
AcDbLine
 10
-58.34877665607505
 20
22.39799684658126
 30
0.0
 11
-58.34877665607507
 21
22.39799684658126
 31
0.0
1001
DBPROPERTIES
1002
{
1000
PbHidd
1002
}
  0
LINE
  5
495
330
1F
100
AcDbEntity
  8
HIDDEN
100
AcDbLine
 10
-55.68790776177296
 20
28.37440623372166
 30
0.0
 11
-55.68790776177295
 21
28.37440623372166
 31
0.0
1001
DBPROPERTIES
1002
{
1000
PbHidd
1002
}
  0
LINE
  5
496
330
1F
100
AcDbEntity
  8
HIDDEN
100
AcDbLine
 10
-48.57162259106066
 20
-39.33252444061479
 30
0.0
 11
-48.57162259106067
 21
-39.33252444061479
 31
0.0
1001
DBPROPERTIES
1002
{
1000
PbHidd
1002
}
  0
LINE
  5
497
330
1F
100
AcDbEntity
  8
HIDDEN
100
AcDbLine
 10
-52.41691049658899
 20
-34.03993968843914
 30
0.0
 11
-52.41691049658898
 21
-34.03993968843914
 31
0.0
1001
DBPROPERTIES
1002
{
1000
PbHidd
1002
}
  0
LINE
  5
498
330
1F
100
AcDbEntity
  8
HIDDEN
100
AcDbLine
 10
-52.41691049658894
 20
34.03993968843919
 30
0.0
 11
-52.41691049658895
 21
34.03993968843919
 31
0.0
1001
DBPROPERTIES
1002
{
1000
PbHidd
1002
}
  0
LINE
  5
499
330
1F
100
AcDbEntity
  8
HIDDEN
100
AcDbLine
 10
-48.57162259106063
 20
39.33252444061485
 30
0.0
 11
-48.57162259106062
 21
39.33252444061485
 31
0.0
1001
DBPROPERTIES
1002
{
1000
PbHidd
1002
}
  0
LINE
  5
49A
330
1F
100
AcDbEntity
  8
HIDDEN
100
AcDbLine
 10
-39.33252444061483
 20
-48.57162259106065
 30
0.0
 11
-39.33252444061485
 21
-48.57162259106065
 31
0.0
1001
DBPROPERTIES
1002
{
1000
PbHidd
1002
}
  0
LINE
  5
49B
330
1F
100
AcDbEntity
  8
HIDDEN
100
AcDbLine
 10
-44.19417382415922
 20
-44.19417382415918
 30
0.0
 11
-44.19417382415921
 21
-44.19417382415918
 31
0.0
1001
DBPROPERTIES
1002
{
1000
PbHidd
1002
}
  0
LINE
  5
49C
330
1F
100
AcDbEntity
  8
HIDDEN
100
AcDbLine
 10
-44.19417382415918
 20
44.19417382415921
 30
0.0
 11
-44.19417382415919
 21
44.19417382415921
 31
0.0
1001
DBPROPERTIES
1002
{
1000
PbHidd
1002
}
  0
LINE
  5
49D
330
1F
100
AcDbEntity
  8
HIDDEN
100
AcDbLine
 10
-39.33252444061483
 20
48.57162259106067
 30
0.0
 11
-39.33252444061481
 21
48.57162259106067
 31
0.0
1001
DBPROPERTIES
1002
{
1000
PbHidd
1002
}
  0
LINE
  5
49E
330
1F
100
AcDbEntity
  8
HIDDEN
100
AcDbLine
 10
-28.37440623372168
 20
-55.68790776177296
 30
0.0
 11
-28.37440623372169
 21
-55.68790776177296
 31
0.0
1001
DBPROPERTIES
1002
{
1000
PbHidd
1002
}
  0
LINE
  5
49F
330
1F
100
AcDbEntity
  8
HIDDEN
100
AcDbLine
 10
-34.03993968843921
 20
-52.41691049658897
 30
0.0
 11
-34.0399396884392
 21
-52.41691049658897
 31
0.0
1001
DBPROPERTIES
1002
{
1000
PbHidd
1002
}
  0
LINE
  5
4A0
330
1F
100
AcDbEntity
  8
HIDDEN
100
AcDbLine
 10
-34.03993968843916
 20
52.41691049658898
 30
0.0
 11
-34.03993968843918
 21
52.41691049658898
 31
0.0
1001
DBPROPERTIES
1002
{
1000
PbHidd
1002
}
  0
LINE
  5
4A1
330
1F
100
AcDbEntity
  8
HIDDEN
100
AcDbLine
 10
-28.37440623372166
 20
55.68790776177296
 30
0.0
 11
-28.37440623372166
 21
55.68790776177296
 31
0.0
1001
DBPROPERTIES
1002
{
1000
PbHidd
1002
}
  0
LINE
  5
4A2
330
1F
100
AcDbEntity
  8
HIDDEN
100
AcDbLine
 10
-16.17619031890758
 20
-60.37036414306675
 30
0.0
 11
-16.17619031890758
 21
-60.37036414306675
 31
0.0
1001
DBPROPERTIES
1002
{
1000
PbHidd
1002
}
  0
LINE
  5
4A3
330
1F
100
AcDbEntity
  8
HIDDEN
100
AcDbLine
 10
-22.39799684658129
 20
-58.34877665607508
 30
0.0
 11
-22.39799684658129
 21
-58.34877665607508
 31
0.0
1001
DBPROPERTIES
1002
{
1000
PbHidd
1002
}
  0
LINE
  5
4A4
330
1F
100
AcDbEntity
  8
HIDDEN
100
AcDbLine
 10
-22.39799684658125
 20
58.3487766560751
 30
0.0
 11
-22.39799684658126
 21
58.3487766560751
 31
0.0
1001
DBPROPERTIES
1002
{
1000
PbHidd
1002
}
  0
LINE
  5
4A5
330
1F
100
AcDbEntity
  8
HIDDEN
100
AcDbLine
 10
-16.17619031890754
 20
60.37036414306677
 30
0.0
 11
-16.17619031890753
 21
60.37036414306677
 31
0.0
1001
DBPROPERTIES
1002
{
1000
PbHidd
1002
}
  0
LINE
  5
4A6
330
1F
100
AcDbEntity
  8
HIDDEN
100
AcDbLine
 10
-3.270997265184001
 20
-62.41434592216087
 30
0.0
 11
-3.270997265184011
 21
-62.41434592216087
 31
0.0
1001
DBPROPERTIES
1002
{
1000
PbHidd
1002
}
  0
LINE
  5
4A7
330
1F
100
AcDbEntity
  8
HIDDEN
100
AcDbLine
 10
-9.77715406501445
 20
-61.7305212871961
 30
0.0
 11
-9.77715406501444
 21
-61.7305212871961
 31
0.0
1001
DBPROPERTIES
1002
{
1000
PbHidd
1002
}
  0
LINE
  5
4A8
330
1F
100
AcDbEntity
  8
HIDDEN
100
AcDbLine
 10
-9.777154065014408
 20
61.7305212871961
 30
0.0
 11
-9.777154065014418
 21
61.7305212871961
 31
0.0
1001
DBPROPERTIES
1002
{
1000
PbHidd
1002
}
  0
LINE
  5
4A9
330
1F
100
AcDbEntity
  8
HIDDEN
100
AcDbLine
 10
-3.270997265183978
 20
62.41434592216087
 30
0.0
 11
-3.270997265183968
 21
62.41434592216087
 31
0.0
1001
DBPROPERTIES
1002
{
1000
PbHidd
1002
}
  0
LINE
  5
4AA
330
1F
100
AcDbEntity
  8
HIDDEN
100
AcDbLine
 10
9.777154065014388
 20
-61.73052128719612
 30
0.0
 11
9.777154065014377
 21
-61.73052128719612
 31
0.0
1001
DBPROPERTIES
1002
{
1000
PbHidd
1002
}
  0
LINE
  5
4AB
330
1F
100
AcDbEntity
  8
HIDDEN
100
AcDbLine
 10
3.270997265183934
 20
-62.41434592216088
 30
0.0
 11
3.270997265183944
 21
-62.41434592216088
 31
0.0
1001
DBPROPERTIES
1002
{
1000
PbHidd
1002
}
  0
LINE
  5
4AC
330
1F
100
AcDbEntity
  8
HIDDEN
100
AcDbLine
 10
3.270997265184001
 20
62.41434592216087
 30
0.0
 11
3.270997265183991
 21
62.41434592216087
 31
0.0
1001
DBPROPERTIES
1002
{
1000
PbHidd
1002
}
  0
LINE
  5
4AD
330
1F
100
AcDbEntity
  8
HIDDEN
100
AcDbLine
 10
9.777154065014438
 20
61.73052128719613
 30
0.0
 11
9.777154065014448
 21
61.73052128719613
 31
0.0
1001
DBPROPERTIES
1002
{
1000
PbHidd
1002
}
  0
LINE
  5
4AE
330
1F
100
AcDbEntity
  8
HIDDEN
100
AcDbLine
 10
22.39799684658125
 20
-58.34877665607514
 30
0.0
 11
22.39799684658124
 21
-58.34877665607514
 31
0.0
1001
DBPROPERTIES
1002
{
1000
PbHidd
1002
}
  0
LINE
  5
4AF
330
1F
100
AcDbEntity
  8
HIDDEN
100
AcDbLine
 10
16.17619031890751
 20
-60.37036414306679
 30
0.0
 11
16.17619031890752
 21
-60.37036414306679
 31
0.0
1001
DBPROPERTIES
1002
{
1000
PbHidd
1002
}
  0
LINE
  5
4B0
330
1F
100
AcDbEntity
  8
HIDDEN
100
AcDbLine
 10
16.17619031890756
 20
60.37036414306679
 30
0.0
 11
16.17619031890755
 21
60.37036414306679
 31
0.0
1001
DBPROPERTIES
1002
{
1000
PbHidd
1002
}
  0
LINE
  5
4B1
330
1F
100
AcDbEntity
  8
HIDDEN
100
AcDbLine
 10
22.39799684658127
 20
58.34877665607512
 30
0.0
 11
22.39799684658128
 21
58.34877665607512
 31
0.0
1001
DBPROPERTIES
1002
{
1000
PbHidd
1002
}
  0
LINE
  5
4B2
330
1F
100
AcDbEntity
  8
HIDDEN
100
AcDbLine
 10
34.0399396884392
 20
-52.41691049658904
 30
0.0
 11
34.03993968843919
 21
-52.41691049658904
 31
0.0
1001
DBPROPERTIES
1002
{
1000
PbHidd
1002
}
  0
LINE
  5
4B3
330
1F
100
AcDbEntity
  8
HIDDEN
100
AcDbLine
 10
28.37440623372167
 20
-55.68790776177302
 30
0.0
 11
28.37440623372168
 21
-55.68790776177302
 31
0.0
1001
DBPROPERTIES
1002
{
1000
PbHidd
1002
}
  0
LINE
  5
4B4
330
1F
100
AcDbEntity
  8
HIDDEN
100
AcDbLine
 10
28.3744062337217
 20
55.68790776177301
 30
0.0
 11
28.3744062337217
 21
55.68790776177301
 31
0.0
1001
DBPROPERTIES
1002
{
1000
PbHidd
1002
}
  0
LINE
  5
4B5
330
1F
100
AcDbEntity
  8
HIDDEN
100
AcDbLine
 10
34.0399396884392
 20
52.41691049658903
 30
0.0
 11
34.03993968843922
 21
52.41691049658903
 31
0.0
1001
DBPROPERTIES
1002
{
1000
PbHidd
1002
}
  0
LINE
  5
4B6
330
1F
100
AcDbEntity
  8
HIDDEN
100
AcDbLine
 10
44.19417382415922
 20
-44.19417382415928
 30
0.0
 11
44.19417382415921
 21
-44.19417382415928
 31
0.0
1001
DBPROPERTIES
1002
{
1000
PbHidd
1002
}
  0
LINE
  5
4B7
330
1F
100
AcDbEntity
  8
HIDDEN
100
AcDbLine
 10
39.33252444061482
 20
-48.57162259106074
 30
0.0
 11
39.33252444061483
 21
-48.57162259106074
 31
0.0
1001
DBPROPERTIES
1002
{
1000
PbHidd
1002
}
  0
LINE
  5
4B8
330
1F
100
AcDbEntity
  8
HIDDEN
100
AcDbLine
 10
39.33252444061487
 20
48.5716225910607
 30
0.0
 11
39.33252444061485
 21
48.5716225910607
 31
0.0
1001
DBPROPERTIES
1002
{
1000
PbHidd
1002
}
  0
LINE
  5
4B9
330
1F
100
AcDbEntity
  8
HIDDEN
100
AcDbLine
 10
44.19417382415924
 20
44.19417382415924
 30
0.0
 11
44.19417382415926
 21
44.19417382415924
 31
0.0
1001
DBPROPERTIES
1002
{
1000
PbHidd
1002
}
  0
LINE
  5
4BA
330
1F
100
AcDbEntity
  8
HIDDEN
100
AcDbLine
 10
52.41691049658903
 20
-34.03993968843925
 30
0.0
 11
52.41691049658901
 21
-34.03993968843925
 31
0.0
1001
DBPROPERTIES
1002
{
1000
PbHidd
1002
}
  0
LINE
  5
4BB
330
1F
100
AcDbEntity
  8
HIDDEN
100
AcDbLine
 10
48.57162259106068
 20
-39.33252444061489
 30
0.0
 11
48.5716225910607
 21
-39.33252444061489
 31
0.0
1001
DBPROPERTIES
1002
{
1000
PbHidd
1002
}
  0
LINE
  5
4BC
330
1F
100
AcDbEntity
  8
HIDDEN
100
AcDbLine
 10
48.57162259106072
 20
39.33252444061487
 30
0.0
 11
48.57162259106071
 21
39.33252444061487
 31
0.0
1001
DBPROPERTIES
1002
{
1000
PbHidd
1002
}
  0
LINE
  5
4BD
330
1F
100
AcDbEntity
  8
HIDDEN
100
AcDbLine
 10
52.41691049658903
 20
34.03993968843922
 30
0.0
 11
52.41691049658905
 21
34.03993968843922
 31
0.0
1001
DBPROPERTIES
1002
{
1000
PbHidd
1002
}
  0
LINE
  5
4BE
330
1F
100
AcDbEntity
  8
HIDDEN
100
AcDbLine
 10
58.34877665607515
 20
-22.39799684658131
 30
0.0
 11
58.34877665607514
 21
-22.39799684658131
 31
0.0
1001
DBPROPERTIES
1002
{
1000
PbHidd
1002
}
  0
LINE
  5
4BF
330
1F
100
AcDbEntity
  8
HIDDEN
100
AcDbLine
 10
55.68790776177302
 20
-28.37440623372171
 30
0.0
 11
55.68790776177303
 21
-28.37440623372171
 31
0.0
1001
DBPROPERTIES
1002
{
1000
PbHidd
1002
}
  0
LINE
  5
4C0
330
1F
100
AcDbEntity
  8
HIDDEN
100
AcDbLine
 10
55.68790776177304
 20
28.37440623372169
 30
0.0
 11
55.68790776177303
 21
28.37440623372169
 31
0.0
1001
DBPROPERTIES
1002
{
1000
PbHidd
1002
}
  0
LINE
  5
4C1
330
1F
100
AcDbEntity
  8
HIDDEN
100
AcDbLine
 10
58.34877665607515
 20
22.39799684658128
 30
0.0
 11
58.34877665607517
 21
22.39799684658128
 31
0.0
1001
DBPROPERTIES
1002
{
1000
PbHidd
1002
}
  0
LINE
  5
4C2
330
1F
100
AcDbEntity
  8
HIDDEN
100
AcDbLine
 10
61.73052128719615
 20
-9.77715406501449
 30
0.0
 11
61.73052128719614
 21
-9.77715406501449
 31
0.0
1001
DBPROPERTIES
1002
{
1000
PbHidd
1002
}
  0
LINE
  5
4C3
330
1F
100
AcDbEntity
  8
HIDDEN
100
AcDbLine
 10
60.3703641430668
 20
-16.17619031890761
 30
0.0
 11
60.37036414306682
 21
-16.17619031890761
 31
0.0
1001
DBPROPERTIES
1002
{
1000
PbHidd
1002
}
  0
ARC
  5
4C4
330
1F
100
AcDbEntity
  8
HIDDEN
100
AcDbCircle
 10
0.0000000000000528
 20
0.0
 30
0.0
 40
100.0
100
AcDbArc
 50
0.0
 51
9.000021045914972
1001
DBPROPERTIES
1002
{
1000
PbHidd
1002
}
  0
LINE
  5
4C5
330
1F
100
AcDbEntity
  8
HIDDEN
100
AcDbLine
 10
70.549167185367
 20
11.17389036001649
 30
0.0
 11
98.76883405951375
 21
15.64344650402308
 31
0.0
1001
DBPROPERTIES
1002
{
1000
PbHidd
1002
}
  0
LINE
  5
4C6
330
1F
100
AcDbEntity
  8
HIDDEN
100
AcDbLine
 10
96.59258262890685
 20
25.88190451025207
 30
0.0
 11
68.99470187779062
 21
18.48707465018006
 31
0.0
1001
DBPROPERTIES
1002
{
1000
PbHidd
1002
}
  0
ARC
  5
4C7
330
1F
100
AcDbEntity
  8
HIDDEN
100
AcDbCircle
 10
0.0000000000000528
 20
0.0
 30
0.0
 40
100.0
100
AcDbArc
 50
14.99997778074544
 51
20.99999181135542
1001
DBPROPERTIES
1002
{
1000
PbHidd
1002
}
  0
LINE
  5
4C8
330
1F
100
AcDbEntity
  8
HIDDEN
100
AcDbLine
 10
66.68431617837157
 20
25.59771068180716
 30
0.0
 11
93.35804264972016
 21
35.83679495453002
 31
0.0
1001
DBPROPERTIES
1002
{
1000
PbHidd
1002
}
  0
LINE
  5
4C9
330
1F
100
AcDbEntity
  8
HIDDEN
100
AcDbLine
 10
89.10065241883683
 20
45.39904997395469
 30
0.0
 11
63.64332315631203
 21
32.42789283853907
 31
0.0
1001
DBPROPERTIES
1002
{
1000
PbHidd
1002
}
  0
ARC
  5
4CA
330
1F
100
AcDbEntity
  8
HIDDEN
100
AcDbCircle
 10
0.0000000000000528
 20
0.0
 30
0.0
 40
100.0
100
AcDbArc
 50
27.0000058419654
 51
33.00001987257539
1001
DBPROPERTIES
1002
{
1000
PbHidd
1002
}
  0
LINE
  5
4CB
330
1F
100
AcDbEntity
  8
HIDDEN
100
AcDbLine
 10
59.90504056753029
 20
38.90278821535908
 30
0.0
 11
83.86705679454238
 21
54.46390350150268
 31
0.0
1001
DBPROPERTIES
1002
{
1000
PbHidd
1002
}
  0
LINE
  5
4CC
330
1F
100
AcDbEntity
  8
HIDDEN
100
AcDbLine
 10
77.71459614569706
 20
62.93203910498372
 30
0.0
 11
55.51042581835506
 21
44.95145650355981
 31
0.0
1001
DBPROPERTIES
1002
{
1000
PbHidd
1002
}
  0
ARC
  5
4CD
330
1F
100
AcDbEntity
  8
HIDDEN
100
AcDbCircle
 10
0.0000000000000528
 20
0.0
 30
0.0
 40
100.0
100
AcDbArc
 50
38.99997660740585
 51
44.99999063801582
1001
DBPROPERTIES
1002
{
1000
PbHidd
1002
}
  0
LINE
  5
4CE
330
1F
100
AcDbEntity
  8
HIDDEN
100
AcDbLine
 10
50.50762722761056
 20
50.50762722761054
 30
0.0
 11
70.71067811865476
 21
70.71067811865476
 31
0.0
1001
DBPROPERTIES
1002
{
1000
PbHidd
1002
}
  0
LINE
  5
4CF
330
1F
100
AcDbEntity
  8
HIDDEN
100
AcDbLine
 10
62.93203910498374
 20
77.71459614569707
 30
0.0
 11
44.95145650355983
 21
55.51042581835508
 31
0.0
1001
DBPROPERTIES
1002
{
1000
PbHidd
1002
}
  0
ARC
  5
4D0
330
1F
100
AcDbEntity
  8
HIDDEN
100
AcDbCircle
 10
0.0000000000000528
 20
0.0
 30
0.0
 40
100.0
100
AcDbArc
 50
51.00000466862581
 51
57.0000186992358
1001
DBPROPERTIES
1002
{
1000
PbHidd
1002
}
  0
LINE
  5
4D1
330
1F
100
AcDbEntity
  8
HIDDEN
100
AcDbLine
 10
38.90278821535908
 20
59.90504056753028
 30
0.0
 11
54.4639035015027
 21
83.86705679454235
 31
0.0
1001
DBPROPERTIES
1002
{
1000
PbHidd
1002
}
  0
LINE
  5
4D2
330
1F
100
AcDbEntity
  8
HIDDEN
100
AcDbLine
 10
45.39904997395467
 20
89.10065241883673
 30
0.0
 11
32.42789283853907
 21
63.64332315631198
 31
0.0
1001
DBPROPERTIES
1002
{
1000
PbHidd
1002
}
  0
ARC
  5
4D3
330
1F
100
AcDbEntity
  8
HIDDEN
100
AcDbCircle
 10
0.0000000000000528
 20
0.0
 30
0.0
 40
100.0
100
AcDbArc
 50
62.99997543406626
 51
68.99998946467625
1001
DBPROPERTIES
1002
{
1000
PbHidd
1002
}
  0
LINE
  5
4D4
330
1F
100
AcDbEntity
  8
HIDDEN
100
AcDbLine
 10
25.59771068180716
 20
66.68431617837155
 30
0.0
 11
35.83679495453001
 21
93.3580426497201
 31
0.0
1001
DBPROPERTIES
1002
{
1000
PbHidd
1002
}
  0
LINE
  5
4D5
330
1F
100
AcDbEntity
  8
HIDDEN
100
AcDbLine
 10
25.88190451025208
 20
96.59258262890683
 30
0.0
 11
18.48707465018006
 21
68.9947018777906
 31
0.0
1001
DBPROPERTIES
1002
{
1000
PbHidd
1002
}
  0
ARC
  5
4D6
330
1F
100
AcDbEntity
  8
HIDDEN
100
AcDbCircle
 10
0.0000000000000528
 20
0.0
 30
0.0
 40
100.0
100
AcDbArc
 50
75.00000349528622
 51
81.0000175258962
1001
DBPROPERTIES
1002
{
1000
PbHidd
1002
}
  0
LINE
  5
4D7
330
1F
100
AcDbEntity
  8
HIDDEN
100
AcDbLine
 10
11.1738903600165
 20
70.54916718536695
 30
0.0
 11
15.64344650402309
 21
98.7688340595137
 31
0.0
1001
DBPROPERTIES
1002
{
1000
PbHidd
1002
}
  0
LINE
  5
4D8
330
1F
100
AcDbEntity
  8
HIDDEN
100
AcDbLine
 10
5.233595624294392
 20
99.86295347545733
 30
0.0
 11
3.738282588781709
 21
71.3306810538981
 31
0.0
1001
DBPROPERTIES
1002
{
1000
PbHidd
1002
}
  0
ARC
  5
4D9
330
1F
100
AcDbEntity
  8
HIDDEN
100
AcDbCircle
 10
0.0000000000000528
 20
0.0
 30
0.0
 40
100.0
100
AcDbArc
 50
86.99997426072667
 51
92.99998829133665
1001
DBPROPERTIES
1002
{
1000
PbHidd
1002
}
  0
LINE
  5
4DA
330
1F
100
AcDbEntity
  8
HIDDEN
100
AcDbLine
 10
-3.738282588781682
 20
71.3306810538981
 30
0.0
 11
-5.233595624294353
 21
99.86295347545732
 31
0.0
1001
DBPROPERTIES
1002
{
1000
PbHidd
1002
}
  0
LINE
  5
4DB
330
1F
100
AcDbEntity
  8
HIDDEN
100
AcDbLine
 10
-15.64344650402306
 20
98.76883405951372
 30
0.0
 11
-11.17389036001647
 21
70.54916718536697
 31
0.0
1001
DBPROPERTIES
1002
{
1000
PbHidd
1002
}
  0
ARC
  5
4DC
330
1F
100
AcDbEntity
  8
HIDDEN
100
AcDbCircle
 10
0.0000000000000528
 20
0.0
 30
0.0
 40
100.0
100
AcDbArc
 50
99.00000232194662
 51
105.0000163525566
1001
DBPROPERTIES
1002
{
1000
PbHidd
1002
}
  0
LINE
  5
4DD
330
1F
100
AcDbEntity
  8
HIDDEN
100
AcDbLine
 10
-18.48707465018003
 20
68.99470187779055
 30
0.0
 11
-25.88190451025203
 21
96.59258262890674
 31
0.0
1001
DBPROPERTIES
1002
{
1000
PbHidd
1002
}
  0
LINE
  5
4DE
330
1F
100
AcDbEntity
  8
HIDDEN
100
AcDbLine
 10
-35.83679495452998
 20
93.35804264972009
 30
0.0
 11
-25.59771068180714
 21
66.68431617837152
 31
0.0
1001
DBPROPERTIES
1002
{
1000
PbHidd
1002
}
  0
ARC
  5
4DF
330
1F
100
AcDbEntity
  8
HIDDEN
100
AcDbCircle
 10
0.0000000000000528
 20
0.0
 30
0.0
 40
100.0
100
AcDbArc
 50
110.9999730873871
 51
116.9999871179971
1001
DBPROPERTIES
1002
{
1000
PbHidd
1002
}
  0
LINE
  5
4E0
330
1F
100
AcDbEntity
  8
HIDDEN
100
AcDbLine
 10
-32.42789283853902
 20
63.64332315631194
 30
0.0
 11
-45.39904997395463
 21
89.1006524188367
 31
0.0
1001
DBPROPERTIES
1002
{
1000
PbHidd
1002
}
  0
LINE
  5
4E1
330
1F
100
AcDbEntity
  8
HIDDEN
100
AcDbLine
 10
-54.46390350150267
 20
83.86705679454236
 30
0.0
 11
-38.90278821535905
 21
59.90504056753026
 31
0.0
1001
DBPROPERTIES
1002
{
1000
PbHidd
1002
}
  0
ARC
  5
4E2
330
1F
100
AcDbEntity
  8
HIDDEN
100
AcDbCircle
 10
0.0000000000000528
 20
0.0
 30
0.0
 40
100.0
100
AcDbArc
 50
123.000001148607
 51
129.000015179217
1001
DBPROPERTIES
1002
{
1000
PbHidd
1002
}
  0
LINE
  5
4E3
330
1F
100
AcDbEntity
  8
HIDDEN
100
AcDbLine
 10
-44.95145650355977
 20
55.51042581835503
 30
0.0
 11
-62.93203910498367
 21
77.71459614569703
 31
0.0
1001
DBPROPERTIES
1002
{
1000
PbHidd
1002
}
  0
LINE
  5
4E4
330
1F
100
AcDbEntity
  8
HIDDEN
100
AcDbLine
 10
-70.71067811865467
 20
70.7106781186547
 30
0.0
 11
-50.50762722761048
 21
50.50762722761051
 31
0.0
1001
DBPROPERTIES
1002
{
1000
PbHidd
1002
}
  0
ARC
  5
4E5
330
1F
100
AcDbEntity
  8
HIDDEN
100
AcDbCircle
 10
0.0000000000000528
 20
0.0
 30
0.0
 40
100.0
100
AcDbArc
 50
134.9999719140475
 51
140.9999859446575
1001
DBPROPERTIES
1002
{
1000
PbHidd
1002
}
  0
LINE
  5
4E6
330
1F
100
AcDbEntity
  8
HIDDEN
100
AcDbLine
 10
-55.51042581835496
 20
44.95145650355979
 30
0.0
 11
-77.71459614569694
 21
62.9320391049837
 31
0.0
1001
DBPROPERTIES
1002
{
1000
PbHidd
1002
}
  0
LINE
  5
4E7
330
1F
100
AcDbEntity
  8
HIDDEN
100
AcDbLine
 10
-83.8670567945423
 20
54.4639035015027
 30
0.0
 11
-59.90504056753019
 21
38.90278821535907
 31
0.0
1001
DBPROPERTIES
1002
{
1000
PbHidd
1002
}
  0
ARC
  5
4E8
330
1F
100
AcDbEntity
  8
HIDDEN
100
AcDbCircle
 10
0.0000000000000528
 20
0.0
 30
0.0
 40
100.0
100
AcDbArc
 50
146.9999999752674
 51
153.0000140058774
1001
DBPROPERTIES
1002
{
1000
PbHidd
1002
}
  0
LINE
  5
4E9
330
1F
100
AcDbEntity
  8
HIDDEN
100
AcDbLine
 10
-63.64332315631192
 20
32.42789283853904
 30
0.0
 11
-89.10065241883667
 21
45.39904997395464
 31
0.0
1001
DBPROPERTIES
1002
{
1000
PbHidd
1002
}
  0
LINE
  5
4EA
330
1F
100
AcDbEntity
  8
HIDDEN
100
AcDbLine
 10
-93.35804264972006
 20
35.83679495453001
 30
0.0
 11
-66.68431617837147
 21
25.59771068180715
 31
0.0
1001
DBPROPERTIES
1002
{
1000
PbHidd
1002
}
  0
ARC
  5
4EB
330
1F
100
AcDbEntity
  8
HIDDEN
100
AcDbCircle
 10
0.0000000000000528
 20
0.0
 30
0.0
 40
100.0
100
AcDbArc
 50
159.0000280364874
 51
164.9999847713179
1001
DBPROPERTIES
1002
{
1000
PbHidd
1002
}
  0
LINE
  5
4EC
330
1F
100
AcDbEntity
  8
HIDDEN
100
AcDbLine
 10
-68.9947018777905
 20
18.48707465018005
 30
0.0
 11
-96.59258262890668
 21
25.88190451025206
 31
0.0
1001
DBPROPERTIES
1002
{
1000
PbHidd
1002
}
  0
LINE
  5
4ED
330
1F
100
AcDbEntity
  8
HIDDEN
100
AcDbLine
 10
-98.76883405951367
 20
15.6434465040231
 30
0.0
 11
-70.54916718536691
 21
11.1738903600165
 31
0.0
1001
DBPROPERTIES
1002
{
1000
PbHidd
1002
}
  0
ARC
  5
4EE
330
1F
100
AcDbEntity
  8
HIDDEN
100
AcDbCircle
 10
0.0000000000000528
 20
0.0
 30
0.0
 40
100.0
100
AcDbArc
 50
170.9999988019279
 51
177.0000128325378
1001
DBPROPERTIES
1002
{
1000
PbHidd
1002
}
  0
LINE
  5
4EF
330
1F
100
AcDbEntity
  8
HIDDEN
100
AcDbLine
 10
-71.33068105389805
 20
3.738282588781732
 30
0.0
 11
-99.86295347545727
 21
5.233595624294424
 31
0.0
1001
DBPROPERTIES
1002
{
1000
PbHidd
1002
}
  0
LINE
  5
4F0
330
1F
100
AcDbEntity
  8
HIDDEN
100
AcDbLine
 10
-99.86295347545726
 20
-5.233595624294328
 30
0.0
 11
-71.33068105389805
 21
-3.738282588781663
 31
0.0
1001
DBPROPERTIES
1002
{
1000
PbHidd
1002
}
  0
ARC
  5
4F1
330
1F
100
AcDbEntity
  8
HIDDEN
100
AcDbCircle
 10
0.0000000000000528
 20
0.0
 30
0.0
 40
100.0
100
AcDbArc
 50
182.9999871674622
 51
189.0000011980722
1001
DBPROPERTIES
1002
{
1000
PbHidd
1002
}
  0
LINE
  5
4F2
330
1F
100
AcDbEntity
  8
HIDDEN
100
AcDbLine
 10
-70.54916718536691
 20
-11.17389036001647
 30
0.0
 11
-98.76883405951367
 21
-15.64344650402305
 31
0.0
1001
DBPROPERTIES
1002
{
1000
PbHidd
1002
}
  0
LINE
  5
4F3
330
1F
100
AcDbEntity
  8
HIDDEN
100
AcDbLine
 10
-96.59258262890675
 20
-25.88190451025204
 30
0.0
 11
-68.99470187779055
 21
-18.48707465018003
 31
0.0
1001
DBPROPERTIES
1002
{
1000
PbHidd
1002
}
  0
ARC
  5
4F4
330
1F
100
AcDbEntity
  8
HIDDEN
100
AcDbCircle
 10
0.0000000000000528
 20
0.0
 30
0.0
 40
100.0
100
AcDbArc
 50
195.0000152286821
 51
200.9999719635126
1001
DBPROPERTIES
1002
{
1000
PbHidd
1002
}
  0
LINE
  5
4F5
330
1F
100
AcDbEntity
  8
HIDDEN
100
AcDbLine
 10
-66.68431617837149
 20
-25.59771068180711
 30
0.0
 11
-93.35804264972006
 21
-35.83679495452996
 31
0.0
1001
DBPROPERTIES
1002
{
1000
PbHidd
1002
}
  0
LINE
  5
4F6
330
1F
100
AcDbEntity
  8
HIDDEN
100
AcDbLine
 10
-89.10065241883672
 20
-45.3990499739546
 30
0.0
 11
-63.64332315631194
 21
-32.42789283853899
 31
0.0
1001
DBPROPERTIES
1002
{
1000
PbHidd
1002
}
  0
ARC
  5
4F7
330
1F
100
AcDbEntity
  8
HIDDEN
100
AcDbCircle
 10
0.0000000000000528
 20
0.0
 30
0.0
 40
100.0
100
AcDbArc
 50
206.9999859941226
 51
213.0000000247326
1001
DBPROPERTIES
1002
{
1000
PbHidd
1002
}
  0
LINE
  5
4F8
330
1F
100
AcDbEntity
  8
HIDDEN
100
AcDbLine
 10
-59.90504056753024
 20
-38.90278821535901
 30
0.0
 11
-83.86705679454235
 21
-54.46390350150261
 31
0.0
1001
DBPROPERTIES
1002
{
1000
PbHidd
1002
}
  0
LINE
  5
4F9
330
1F
100
AcDbEntity
  8
HIDDEN
100
AcDbLine
 10
-77.71459614569703
 20
-62.93203910498364
 30
0.0
 11
-55.51042581835502
 21
-44.95145650355974
 31
0.0
1001
DBPROPERTIES
1002
{
1000
PbHidd
1002
}
  0
ARC
  5
4FA
330
1F
100
AcDbEntity
  8
HIDDEN
100
AcDbCircle
 10
0.0000000000000528
 20
0.0
 30
0.0
 40
100.0
100
AcDbArc
 50
219.0000140553425
 51
225.0000280859525
1001
DBPROPERTIES
1002
{
1000
PbHidd
1002
}
  0
LINE
  5
4FB
330
1F
100
AcDbEntity
  8
HIDDEN
100
AcDbLine
 10
-50.50762722761051
 20
-50.50762722761047
 30
0.0
 11
-70.7106781186547
 21
-70.71067811865466
 31
0.0
1001
DBPROPERTIES
1002
{
1000
PbHidd
1002
}
  0
LINE
  5
4FC
330
1F
100
AcDbEntity
  8
HIDDEN
100
AcDbLine
 10
-62.9320391049837
 20
-77.71459614569699
 30
0.0
 11
-44.9514565035598
 21
-55.510425818355
 31
0.0
1001
DBPROPERTIES
1002
{
1000
PbHidd
1002
}
  0
ARC
  5
4FD
330
1F
100
AcDbEntity
  8
HIDDEN
100
AcDbCircle
 10
0.0000000000000528
 20
0.0
 30
0.0
 40
100.0
100
AcDbArc
 50
230.999984820783
 51
236.999998851393
1001
DBPROPERTIES
1002
{
1000
PbHidd
1002
}
  0
LINE
  5
4FE
330
1F
100
AcDbEntity
  8
HIDDEN
100
AcDbLine
 10
-38.90278821535908
 20
-59.90504056753024
 30
0.0
 11
-54.46390350150273
 21
-83.86705679454235
 31
0.0
1001
DBPROPERTIES
1002
{
1000
PbHidd
1002
}
  0
LINE
  5
4FF
330
1F
100
AcDbEntity
  8
HIDDEN
100
AcDbLine
 10
-45.39904997395467
 20
-89.10065241883669
 30
0.0
 11
-32.42789283853905
 21
-63.64332315631192
 31
0.0
1001
DBPROPERTIES
1002
{
1000
PbHidd
1002
}
  0
ARC
  5
500
330
1F
100
AcDbEntity
  8
HIDDEN
100
AcDbCircle
 10
0.0000000000000528
 20
0.0
 30
0.0
 40
100.0
100
AcDbArc
 50
243.0000128820029
 51
249.0000269126129
1001
DBPROPERTIES
1002
{
1000
PbHidd
1002
}
  0
LINE
  5
501
330
1F
100
AcDbEntity
  8
HIDDEN
100
AcDbLine
 10
-25.59771068180718
 20
-66.68431617837149
 30
0.0
 11
-35.83679495453005
 21
-93.35804264972008
 31
0.0
1001
DBPROPERTIES
1002
{
1000
PbHidd
1002
}
  0
LINE
  5
502
330
1F
100
AcDbEntity
  8
HIDDEN
100
AcDbLine
 10
-25.88190451025211
 20
-96.59258262890677
 30
0.0
 11
-18.48707465018008
 21
-68.99470187779055
 31
0.0
1001
DBPROPERTIES
1002
{
1000
PbHidd
1002
}
  0
ARC
  5
503
330
1F
100
AcDbEntity
  8
HIDDEN
100
AcDbCircle
 10
0.0000000000000528
 20
0.0
 30
0.0
 40
100.0
100
AcDbArc
 50
254.9999836474434
 51
260.9999976780534
1001
DBPROPERTIES
1002
{
1000
PbHidd
1002
}
  0
LINE
  5
504
330
1F
100
AcDbEntity
  8
HIDDEN
100
AcDbLine
 10
-11.1738903600165
 20
-70.54916718536694
 30
0.0
 11
-15.6434465040231
 21
-98.76883405951367
 31
0.0
1001
DBPROPERTIES
1002
{
1000
PbHidd
1002
}
  0
LINE
  5
505
330
1F
100
AcDbEntity
  8
HIDDEN
100
AcDbLine
 10
-5.233595624294406
 20
-99.86295347545733
 30
0.0
 11
-3.738282588781719
 21
-71.3306810538981
 31
0.0
1001
DBPROPERTIES
1002
{
1000
PbHidd
1002
}
  0
ARC
  5
506
330
1F
100
AcDbEntity
  8
HIDDEN
100
AcDbCircle
 10
0.0000000000000528
 20
0.0
 30
0.0
 40
100.0
100
AcDbArc
 50
267.0000117086634
 51
273.0000257392733
1001
DBPROPERTIES
1002
{
1000
PbHidd
1002
}
  0
LINE
  5
507
330
1F
100
AcDbEntity
  8
HIDDEN
100
AcDbLine
 10
3.738282588781642
 20
-71.3306810538981
 30
0.0
 11
5.233595624294299
 21
-99.86295347545733
 31
0.0
1001
DBPROPERTIES
1002
{
1000
PbHidd
1002
}
  0
LINE
  5
508
330
1F
100
AcDbEntity
  8
HIDDEN
100
AcDbLine
 10
15.643446504023
 20
-98.76883405951375
 30
0.0
 11
11.17389036001643
 21
-70.54916718536697
 31
0.0
1001
DBPROPERTIES
1002
{
1000
PbHidd
1002
}
  0
ARC
  5
509
330
1F
100
AcDbEntity
  8
HIDDEN
100
AcDbCircle
 10
0.0000000000000528
 20
0.0
 30
0.0
 40
100.0
100
AcDbArc
 50
278.9999824741038
 51
284.9999965047138
1001
DBPROPERTIES
1002
{
1000
PbHidd
1002
}
  0
LINE
  5
50A
330
1F
100
AcDbEntity
  8
HIDDEN
100
AcDbLine
 10
18.48707465018001
 20
-68.99470187779059
 30
0.0
 11
25.88190451025201
 21
-96.59258262890678
 31
0.0
1001
DBPROPERTIES
1002
{
1000
PbHidd
1002
}
  0
LINE
  5
50B
330
1F
100
AcDbEntity
  8
HIDDEN
100
AcDbLine
 10
35.83679495452996
 20
-93.35804264972015
 30
0.0
 11
25.59771068180712
 21
-66.68431617837155
 31
0.0
1001
DBPROPERTIES
1002
{
1000
PbHidd
1002
}
  0
ARC
  5
50C
330
1F
100
AcDbEntity
  8
HIDDEN
100
AcDbCircle
 10
0.0000000000000528
 20
0.0
 30
0.0
 40
100.0
100
AcDbArc
 50
291.0000105353237
 51
297.0000245659338
1001
DBPROPERTIES
1002
{
1000
PbHidd
1002
}
  0
LINE
  5
50D
330
1F
100
AcDbEntity
  8
HIDDEN
100
AcDbLine
 10
32.42789283853904
 20
-63.64332315631199
 30
0.0
 11
45.39904997395463
 21
-89.10065241883673
 31
0.0
1001
DBPROPERTIES
1002
{
1000
PbHidd
1002
}
  0
LINE
  5
50E
330
1F
100
AcDbEntity
  8
HIDDEN
100
AcDbLine
 10
54.46390350150266
 20
-83.86705679454238
 30
0.0
 11
38.90278821535907
 21
-59.90504056753029
 31
0.0
1001
DBPROPERTIES
1002
{
1000
PbHidd
1002
}
  0
ARC
  5
50F
330
1F
100
AcDbEntity
  8
HIDDEN
100
AcDbCircle
 10
0.0000000000000528
 20
0.0
 30
0.0
 40
100.0
100
AcDbArc
 50
302.9999813007643
 51
308.9999953313742
1001
DBPROPERTIES
1002
{
1000
PbHidd
1002
}
  0
LINE
  5
510
330
1F
100
AcDbEntity
  8
HIDDEN
100
AcDbLine
 10
44.95145650355978
 20
-55.51042581835512
 30
0.0
 11
62.93203910498367
 21
-77.71459614569713
 31
0.0
1001
DBPROPERTIES
1002
{
1000
PbHidd
1002
}
  0
LINE
  5
511
330
1F
100
AcDbEntity
  8
HIDDEN
100
AcDbLine
 10
70.71067811865467
 20
-70.71067811865478
 30
0.0
 11
50.50762722761051
 21
-50.50762722761058
 31
0.0
1001
DBPROPERTIES
1002
{
1000
PbHidd
1002
}
  0
ARC
  5
512
330
1F
100
AcDbEntity
  8
HIDDEN
100
AcDbCircle
 10
0.0000000000000528
 20
0.0
 30
0.0
 40
100.0
100
AcDbArc
 50
315.0000093619842
 51
321.0000233925941
1001
DBPROPERTIES
1002
{
1000
PbHidd
1002
}
  0
LINE
  5
513
330
1F
100
AcDbEntity
  8
HIDDEN
100
AcDbLine
 10
55.51042581835503
 20
-44.95145650355984
 30
0.0
 11
77.71459614569702
 21
-62.93203910498375
 31
0.0
1001
DBPROPERTIES
1002
{
1000
PbHidd
1002
}
  0
LINE
  5
514
330
1F
100
AcDbEntity
  8
HIDDEN
100
AcDbLine
 10
83.86705679454235
 20
-54.46390350150274
 30
0.0
 11
59.90504056753028
 21
-38.90278821535912
 31
0.0
1001
DBPROPERTIES
1002
{
1000
PbHidd
1002
}
  0
ARC
  5
515
330
1F
100
AcDbEntity
  8
HIDDEN
100
AcDbCircle
 10
0.0000000000000528
 20
0.0
 30
0.0
 40
100.0
100
AcDbArc
 50
326.9999801274246
 51
332.9999941580346
1001
DBPROPERTIES
1002
{
1000
PbHidd
1002
}
  0
LINE
  5
516
330
1F
100
AcDbEntity
  8
HIDDEN
100
AcDbLine
 10
63.643323156312
 20
-32.42789283853909
 30
0.0
 11
89.10065241883677
 21
-45.3990499739547
 31
0.0
1001
DBPROPERTIES
1002
{
1000
PbHidd
1002
}
  0
LINE
  5
517
330
1F
100
AcDbEntity
  8
HIDDEN
100
AcDbLine
 10
93.35804264972015
 20
-35.83679495453006
 30
0.0
 11
66.68431617837157
 21
-25.5977106818072
 31
0.0
1001
DBPROPERTIES
1002
{
1000
PbHidd
1002
}
  0
ARC
  5
518
330
1F
100
AcDbEntity
  8
HIDDEN
100
AcDbCircle
 10
0.0000000000000528
 20
0.0
 30
0.0
 40
100.0
100
AcDbArc
 50
339.0000081886445
 51
345.0000222192546
1001
DBPROPERTIES
1002
{
1000
PbHidd
1002
}
  0
LINE
  5
519
330
1F
100
AcDbEntity
  8
HIDDEN
100
AcDbLine
 10
68.99470187779059
 20
-18.48707465018012
 30
0.0
 11
96.5925826289068
 21
-25.88190451025215
 31
0.0
1001
DBPROPERTIES
1002
{
1000
PbHidd
1002
}
  0
LINE
  5
51A
330
1F
100
AcDbEntity
  8
HIDDEN
100
AcDbLine
 10
98.76883405951376
 20
-15.64344650402317
 30
0.0
 11
70.54916718536701
 21
-11.17389036001655
 31
0.0
1001
DBPROPERTIES
1002
{
1000
PbHidd
1002
}
  0
LINE
  5
51B
330
1F
100
AcDbEntity
  8
HIDDEN
100
AcDbLine
 10
61.73052128719615
 20
9.777154065014434
 30
0.0
 11
61.73052128719617
 21
9.777154065014434
 31
0.0
1001
DBPROPERTIES
1002
{
1000
PbHidd
1002
}
  0
LINE
  5
51C
330
1F
100
AcDbEntity
  8
HIDDEN
100
AcDbLine
 10
60.37036414306682
 20
16.17619031890756
 30
0.0
 11
60.37036414306681
 21
16.17619031890756
 31
0.0
1001
DBPROPERTIES
1002
{
1000
PbHidd
1002
}
  0
LINE
  5
51D
330
1F
100
AcDbEntity
  8
HIDDEN
100
AcDbLine
 10
98.76883405951382
 20
15.64344650402309
 30
0.0
 11
98.76883405951382
 21
15.64344650402309
 31
0.0
1001
DBPROPERTIES
1002
{
1000
PbHidd
1002
}
  0
LINE
  5
51E
330
1F
100
AcDbEntity
  8
HIDDEN
100
AcDbLine
 10
41.05491202407121
 20
6.502459263505593
 30
0.0
 11
41.05491202407121
 21
6.502459263505593
 31
0.0
1001
DBPROPERTIES
1002
{
1000
PbHidd
1002
}
  0
LINE
  5
51F
330
1F
100
AcDbEntity
  8
HIDDEN
100
AcDbLine
 10
41.05491202407121
 20
-6.502459263505632
 30
0.0
 11
41.05491202407121
 21
-6.502459263505632
 31
0.0
1001
DBPROPERTIES
1002
{
1000
PbHidd
1002
}
  0
LINE
  5
520
330
1F
100
AcDbEntity
  8
HIDDEN
100
AcDbLine
 10
38.80582639473367
 20
-14.89616110276633
 30
0.0
 11
38.80582639473367
 21
-14.89616110276633
 31
0.0
1001
DBPROPERTIES
1002
{
1000
PbHidd
1002
}
  0
LINE
  5
521
330
1F
100
AcDbEntity
  8
HIDDEN
100
AcDbLine
 10
93.3580426497202
 20
-35.83679495453008
 30
0.0
 11
93.3580426497202
 21
-35.83679495453008
 31
0.0
1001
DBPROPERTIES
1002
{
1000
PbHidd
1002
}
  0
LINE
  5
522
330
1F
100
AcDbEntity
  8
HIDDEN
100
AcDbLine
 10
40.15031684608226
 20
-10.75824497476148
 30
0.0
 11
40.15031684608226
 21
-10.75824497476148
 31
0.0
1001
DBPROPERTIES
1002
{
1000
PbHidd
1002
}
  0
LINE
  5
523
330
1F
100
AcDbEntity
  8
HIDDEN
100
AcDbLine
 10
89.10065241883682
 20
-45.39904997395473
 30
0.0
 11
89.10065241883682
 21
-45.39904997395473
 31
0.0
1001
DBPROPERTIES
1002
{
1000
PbHidd
1002
}
  0
LINE
  5
524
330
1F
100
AcDbEntity
  8
HIDDEN
100
AcDbLine
 10
83.8670567945424
 20
-54.46390350150278
 30
0.0
 11
83.8670567945424
 21
-54.46390350150278
 31
0.0
1001
DBPROPERTIES
1002
{
1000
PbHidd
1002
}
  0
LINE
  5
525
330
1F
100
AcDbEntity
  8
HIDDEN
100
AcDbLine
 10
34.86073994093143
 20
-22.63882922212464
 30
0.0
 11
34.86073994093143
 21
-22.63882922212464
 31
0.0
1001
DBPROPERTIES
1002
{
1000
PbHidd
1002
}
  0
LINE
  5
526
330
1F
100
AcDbEntity
  8
HIDDEN
100
AcDbLine
 10
37.03617118876313
 20
-18.87087177250717
 30
0.0
 11
37.03617118876313
 21
-18.87087177250717
 31
0.0
1001
DBPROPERTIES
1002
{
1000
PbHidd
1002
}
  0
LINE
  5
527
330
1F
100
AcDbEntity
  8
HIDDEN
100
AcDbLine
 10
77.71459614569707
 20
-62.9320391049838
 30
0.0
 11
77.71459614569707
 21
-62.9320391049838
 31
0.0
1001
DBPROPERTIES
1002
{
1000
PbHidd
1002
}
  0
LINE
  5
528
330
1F
100
AcDbEntity
  8
HIDDEN
100
AcDbLine
 10
70.71067811865473
 20
-70.71067811865483
 30
0.0
 11
70.71067811865473
 21
-70.71067811865483
 31
0.0
1001
DBPROPERTIES
1002
{
1000
PbHidd
1002
}
  0
LINE
  5
529
330
1F
100
AcDbEntity
  8
HIDDEN
100
AcDbLine
 10
29.39207187132079
 20
-29.39207187132084
 30
0.0
 11
29.39207187132079
 21
-29.39207187132084
 31
0.0
1001
DBPROPERTIES
1002
{
1000
PbHidd
1002
}
  0
LINE
  5
52A
330
1F
100
AcDbEntity
  8
HIDDEN
100
AcDbLine
 10
32.30336713122806
 20
-26.15875092130492
 30
0.0
 11
32.30336713122806
 21
-26.15875092130492
 31
0.0
1001
DBPROPERTIES
1002
{
1000
PbHidd
1002
}
  0
LINE
  5
52B
330
1F
100
AcDbEntity
  8
HIDDEN
100
AcDbLine
 10
62.93203910498371
 20
-77.71459614569716
 30
0.0
 11
62.9320391049837
 21
-77.71459614569716
 31
0.0
1001
DBPROPERTIES
1002
{
1000
PbHidd
1002
}
  0
LINE
  5
52C
330
1F
100
AcDbEntity
  8
HIDDEN
100
AcDbLine
 10
54.46390350150271
 20
-83.86705679454244
 30
0.0
 11
54.46390350150271
 21
-83.86705679454244
 31
0.0
1001
DBPROPERTIES
1002
{
1000
PbHidd
1002
}
  0
LINE
  5
52D
330
1F
100
AcDbEntity
  8
HIDDEN
100
AcDbLine
 10
22.63882922212461
 20
-34.86073994093146
 30
0.0
 11
22.63882922212461
 21
-34.86073994093146
 31
0.0
1001
DBPROPERTIES
1002
{
1000
PbHidd
1002
}
  0
LINE
  5
52E
330
1F
100
AcDbEntity
  8
HIDDEN
100
AcDbLine
 10
26.15875092130488
 20
-32.3033671312281
 30
0.0
 11
26.15875092130488
 21
-32.3033671312281
 31
0.0
1001
DBPROPERTIES
1002
{
1000
PbHidd
1002
}
  0
LINE
  5
52F
330
1F
100
AcDbEntity
  8
HIDDEN
100
AcDbLine
 10
45.39904997395467
 20
-89.1006524188368
 30
0.0
 11
45.39904997395467
 21
-89.1006524188368
 31
0.0
1001
DBPROPERTIES
1002
{
1000
PbHidd
1002
}
  0
LINE
  5
530
330
1F
100
AcDbEntity
  8
HIDDEN
100
AcDbLine
 10
35.83679495452999
 20
-93.3580426497202
 30
0.0
 11
35.83679495452999
 21
-93.3580426497202
 31
0.0
1001
DBPROPERTIES
1002
{
1000
PbHidd
1002
}
  0
LINE
  5
531
330
1F
100
AcDbEntity
  8
HIDDEN
100
AcDbLine
 10
14.89616110276629
 20
-38.80582639473368
 30
0.0
 11
14.89616110276629
 21
-38.80582639473368
 31
0.0
1001
DBPROPERTIES
1002
{
1000
PbHidd
1002
}
  0
LINE
  5
532
330
1F
100
AcDbEntity
  8
HIDDEN
100
AcDbLine
 10
18.87087177250715
 20
-37.03617118876315
 30
0.0
 11
18.87087177250715
 21
-37.03617118876315
 31
0.0
1001
DBPROPERTIES
1002
{
1000
PbHidd
1002
}
  0
LINE
  5
533
330
1F
100
AcDbEntity
  8
HIDDEN
100
AcDbLine
 10
25.88190451025202
 20
-96.59258262890685
 30
0.0
 11
25.88190451025202
 21
-96.59258262890685
 31
0.0
1001
DBPROPERTIES
1002
{
1000
PbHidd
1002
}
  0
LINE
  5
534
330
1F
100
AcDbEntity
  8
HIDDEN
100
AcDbLine
 10
15.64344650402301
 20
-98.76883405951378
 30
0.0
 11
15.64344650402301
 21
-98.76883405951378
 31
0.0
1001
DBPROPERTIES
1002
{
1000
PbHidd
1002
}
  0
LINE
  5
535
330
1F
100
AcDbEntity
  8
HIDDEN
100
AcDbLine
 10
6.50245926350556
 20
-41.05491202407122
 30
0.0
 11
6.50245926350556
 21
-41.05491202407122
 31
0.0
1001
DBPROPERTIES
1002
{
1000
PbHidd
1002
}
  0
LINE
  5
536
330
1F
100
AcDbEntity
  8
HIDDEN
100
AcDbLine
 10
10.75824497476142
 20
-40.15031684608226
 30
0.0
 11
10.75824497476142
 21
-40.15031684608226
 31
0.0
1001
DBPROPERTIES
1002
{
1000
PbHidd
1002
}
  0
LINE
  5
537
330
1F
100
AcDbEntity
  8
HIDDEN
100
AcDbLine
 10
5.233595624294307
 20
-99.8629534754574
 30
0.0
 11
5.233595624294304
 21
-99.8629534754574
 31
0.0
1001
DBPROPERTIES
1002
{
1000
PbHidd
1002
}
  0
LINE
  5
538
330
1F
100
AcDbEntity
  8
HIDDEN
100
AcDbLine
 10
-5.233595624294408
 20
-99.86295347545739
 30
0.0
 11
-5.233595624294405
 21
-99.86295347545739
 31
0.0
1001
DBPROPERTIES
1002
{
1000
PbHidd
1002
}
  0
LINE
  5
539
330
1F
100
AcDbEntity
  8
HIDDEN
100
AcDbLine
 10
-2.17543124783171
 20
-41.50970099463177
 30
0.0
 11
-2.17543124783171
 21
-41.50970099463177
 31
0.0
1001
DBPROPERTIES
1002
{
1000
PbHidd
1002
}
  0
LINE
  5
53A
330
1F
100
AcDbEntity
  8
HIDDEN
100
AcDbLine
 10
2.175431247831666
 20
-41.50970099463178
 30
0.0
 11
2.175431247831666
 21
-41.50970099463178
 31
0.0
1001
DBPROPERTIES
1002
{
1000
PbHidd
1002
}
  0
LINE
  5
53B
330
1F
100
AcDbEntity
  8
HIDDEN
100
AcDbLine
 10
-15.6434465040231
 20
-98.76883405951375
 30
0.0
 11
-15.6434465040231
 21
-98.76883405951375
 31
0.0
1001
DBPROPERTIES
1002
{
1000
PbHidd
1002
}
  0
LINE
  5
53C
330
1F
100
AcDbEntity
  8
HIDDEN
100
AcDbLine
 10
-25.88190451025213
 20
-96.5925826289068
 30
0.0
 11
-25.88190451025212
 21
-96.5925826289068
 31
0.0
1001
DBPROPERTIES
1002
{
1000
PbHidd
1002
}
  0
LINE
  5
53D
330
1F
100
AcDbEntity
  8
HIDDEN
100
AcDbLine
 10
-10.75824497476147
 20
-40.15031684608226
 30
0.0
 11
-10.75824497476147
 21
-40.15031684608226
 31
0.0
1001
DBPROPERTIES
1002
{
1000
PbHidd
1002
}
  0
LINE
  5
53E
330
1F
100
AcDbEntity
  8
HIDDEN
100
AcDbLine
 10
-6.502459263505604
 20
-41.05491202407121
 30
0.0
 11
-6.502459263505604
 21
-41.05491202407121
 31
0.0
1001
DBPROPERTIES
1002
{
1000
PbHidd
1002
}
  0
LINE
  5
53F
330
1F
100
AcDbEntity
  8
HIDDEN
100
AcDbLine
 10
-35.83679495453006
 20
-93.35804264972015
 30
0.0
 11
-35.83679495453006
 21
-93.35804264972015
 31
0.0
1001
DBPROPERTIES
1002
{
1000
PbHidd
1002
}
  0
LINE
  5
540
330
1F
100
AcDbEntity
  8
HIDDEN
100
AcDbLine
 10
-45.3990499739547
 20
-89.10065241883675
 30
0.0
 11
-45.3990499739547
 21
-89.10065241883675
 31
0.0
1001
DBPROPERTIES
1002
{
1000
PbHidd
1002
}
  0
LINE
  5
541
330
1F
100
AcDbEntity
  8
HIDDEN
100
AcDbLine
 10
-18.87087177250717
 20
-37.03617118876314
 30
0.0
 11
-18.87087177250717
 21
-37.03617118876314
 31
0.0
1001
DBPROPERTIES
1002
{
1000
PbHidd
1002
}
  0
LINE
  5
542
330
1F
100
AcDbEntity
  8
HIDDEN
100
AcDbLine
 10
-14.89616110276633
 20
-38.80582639473366
 30
0.0
 11
-14.89616110276633
 21
-38.80582639473366
 31
0.0
1001
DBPROPERTIES
1002
{
1000
PbHidd
1002
}
  0
LINE
  5
543
330
1F
100
AcDbEntity
  8
HIDDEN
100
AcDbLine
 10
-54.46390350150273
 20
-83.86705679454236
 30
0.0
 11
-54.46390350150273
 21
-83.86705679454236
 31
0.0
1001
DBPROPERTIES
1002
{
1000
PbHidd
1002
}
  0
LINE
  5
544
330
1F
100
AcDbEntity
  8
HIDDEN
100
AcDbLine
 10
-62.93203910498374
 20
-77.71459614569704
 30
0.0
 11
-62.93203910498374
 21
-77.71459614569704
 31
0.0
1001
DBPROPERTIES
1002
{
1000
PbHidd
1002
}
  0
LINE
  5
545
330
1F
100
AcDbEntity
  8
HIDDEN
100
AcDbLine
 10
-26.15875092130491
 20
-32.30336713122807
 30
0.0
 11
-26.15875092130491
 21
-32.30336713122807
 31
0.0
1001
DBPROPERTIES
1002
{
1000
PbHidd
1002
}
  0
LINE
  5
546
330
1F
100
AcDbEntity
  8
HIDDEN
100
AcDbLine
 10
-22.63882922212463
 20
-34.86073994093145
 30
0.0
 11
-22.63882922212463
 21
-34.86073994093145
 31
0.0
1001
DBPROPERTIES
1002
{
1000
PbHidd
1002
}
  0
LINE
  5
547
330
1F
100
AcDbEntity
  8
HIDDEN
100
AcDbLine
 10
-70.71067811865474
 20
-70.7106781186547
 30
0.0
 11
-70.71067811865474
 21
-70.7106781186547
 31
0.0
1001
DBPROPERTIES
1002
{
1000
PbHidd
1002
}
  0
LINE
  5
548
330
1F
100
AcDbEntity
  8
HIDDEN
100
AcDbLine
 10
-77.71459614569709
 20
-62.93203910498367
 30
0.0
 11
-77.71459614569709
 21
-62.93203910498367
 31
0.0
1001
DBPROPERTIES
1002
{
1000
PbHidd
1002
}
  0
LINE
  5
549
330
1F
100
AcDbEntity
  8
HIDDEN
100
AcDbLine
 10
-32.30336713122809
 20
-26.15875092130488
 30
0.0
 11
-32.30336713122809
 21
-26.15875092130488
 31
0.0
1001
DBPROPERTIES
1002
{
1000
PbHidd
1002
}
  0
LINE
  5
54A
330
1F
100
AcDbEntity
  8
HIDDEN
100
AcDbLine
 10
-29.39207187132082
 20
-29.39207187132081
 30
0.0
 11
-29.39207187132082
 21
-29.39207187132081
 31
0.0
1001
DBPROPERTIES
1002
{
1000
PbHidd
1002
}
  0
LINE
  5
54B
330
1F
100
AcDbEntity
  8
HIDDEN
100
AcDbLine
 10
-83.86705679454239
 20
-54.46390350150264
 30
0.0
 11
-83.86705679454239
 21
-54.46390350150264
 31
0.0
1001
DBPROPERTIES
1002
{
1000
PbHidd
1002
}
  0
LINE
  5
54C
330
1F
100
AcDbEntity
  8
HIDDEN
100
AcDbLine
 10
-89.10065241883676
 20
-45.39904997395462
 30
0.0
 11
-89.10065241883676
 21
-45.39904997395462
 31
0.0
1001
DBPROPERTIES
1002
{
1000
PbHidd
1002
}
  0
LINE
  5
54D
330
1F
100
AcDbEntity
  8
HIDDEN
100
AcDbLine
 10
-37.03617118876316
 20
-18.87087177250714
 30
0.0
 11
-37.03617118876316
 21
-18.87087177250714
 31
0.0
1001
DBPROPERTIES
1002
{
1000
PbHidd
1002
}
  0
LINE
  5
54E
330
1F
100
AcDbEntity
  8
HIDDEN
100
AcDbLine
 10
-34.86073994093145
 20
-22.6388292221246
 30
0.0
 11
-34.86073994093145
 21
-22.6388292221246
 31
0.0
1001
DBPROPERTIES
1002
{
1000
PbHidd
1002
}
  0
LINE
  5
54F
330
1F
100
AcDbEntity
  8
HIDDEN
100
AcDbLine
 10
-93.35804264972013
 20
-35.83679495452998
 30
0.0
 11
-93.35804264972013
 21
-35.83679495452998
 31
0.0
1001
DBPROPERTIES
1002
{
1000
PbHidd
1002
}
  0
LINE
  5
550
330
1F
100
AcDbEntity
  8
HIDDEN
100
AcDbLine
 10
-96.5925826289068
 20
-25.88190451025205
 30
0.0
 11
-96.5925826289068
 21
-25.88190451025205
 31
0.0
1001
DBPROPERTIES
1002
{
1000
PbHidd
1002
}
  0
LINE
  5
551
330
1F
100
AcDbEntity
  8
HIDDEN
100
AcDbLine
 10
-40.15031684608226
 20
-10.75824497476143
 30
0.0
 11
-40.15031684608226
 21
-10.75824497476143
 31
0.0
1001
DBPROPERTIES
1002
{
1000
PbHidd
1002
}
  0
LINE
  5
552
330
1F
100
AcDbEntity
  8
HIDDEN
100
AcDbLine
 10
-38.80582639473368
 20
-14.8961611027663
 30
0.0
 11
-38.80582639473368
 21
-14.8961611027663
 31
0.0
1001
DBPROPERTIES
1002
{
1000
PbHidd
1002
}
  0
LINE
  5
553
330
1F
100
AcDbEntity
  8
HIDDEN
100
AcDbLine
 10
-98.76883405951372
 20
-15.64344650402306
 30
0.0
 11
-98.76883405951372
 21
-15.64344650402306
 31
0.0
1001
DBPROPERTIES
1002
{
1000
PbHidd
1002
}
  0
LINE
  5
554
330
1F
100
AcDbEntity
  8
HIDDEN
100
AcDbLine
 10
-99.86295347545733
 20
-5.233595624294333
 30
0.0
 11
-99.86295347545733
 21
-5.233595624294333
 31
0.0
1001
DBPROPERTIES
1002
{
1000
PbHidd
1002
}
  0
LINE
  5
555
330
1F
100
AcDbEntity
  8
HIDDEN
100
AcDbLine
 10
-41.50970099463177
 20
-2.175431247831677
 30
0.0
 11
-41.50970099463177
 21
-2.175431247831677
 31
0.0
1001
DBPROPERTIES
1002
{
1000
PbHidd
1002
}
  0
LINE
  5
556
330
1F
100
AcDbEntity
  8
HIDDEN
100
AcDbLine
 10
-41.05491202407121
 20
-6.502459263505588
 30
0.0
 11
-41.05491202407121
 21
-6.502459263505588
 31
0.0
1001
DBPROPERTIES
1002
{
1000
PbHidd
1002
}
  0
LINE
  5
557
330
1F
100
AcDbEntity
  8
HIDDEN
100
AcDbLine
 10
-99.86295347545732
 20
5.233595624294427
 30
0.0
 11
-99.86295347545732
 21
5.233595624294427
 31
0.0
1001
DBPROPERTIES
1002
{
1000
PbHidd
1002
}
  0
LINE
  5
558
330
1F
100
AcDbEntity
  8
HIDDEN
100
AcDbLine
 10
-98.76883405951371
 20
15.6434465040231
 30
0.0
 11
-98.76883405951371
 21
15.6434465040231
 31
0.0
1001
DBPROPERTIES
1002
{
1000
PbHidd
1002
}
  0
LINE
  5
559
330
1F
100
AcDbEntity
  8
HIDDEN
100
AcDbLine
 10
-41.05491202407121
 20
6.502459263505608
 30
0.0
 11
-41.05491202407121
 21
6.502459263505608
 31
0.0
1001
DBPROPERTIES
1002
{
1000
PbHidd
1002
}
  0
LINE
  5
55A
330
1F
100
AcDbEntity
  8
HIDDEN
100
AcDbLine
 10
-41.50970099463177
 20
2.175431247831717
 30
0.0
 11
-41.50970099463177
 21
2.175431247831717
 31
0.0
1001
DBPROPERTIES
1002
{
1000
PbHidd
1002
}
  0
LINE
  5
55B
330
1F
100
AcDbEntity
  8
HIDDEN
100
AcDbLine
 10
-96.59258262890677
 20
25.88190451025208
 30
0.0
 11
-96.59258262890677
 21
25.88190451025208
 31
0.0
1001
DBPROPERTIES
1002
{
1000
PbHidd
1002
}
  0
LINE
  5
55C
330
1F
100
AcDbEntity
  8
HIDDEN
100
AcDbLine
 10
-93.35804264972012
 20
35.83679495453002
 30
0.0
 11
-93.35804264972012
 21
35.83679495453002
 31
0.0
1001
DBPROPERTIES
1002
{
1000
PbHidd
1002
}
  0
LINE
  5
55D
330
1F
100
AcDbEntity
  8
HIDDEN
100
AcDbLine
 10
-38.80582639473367
 20
14.89616110276632
 30
0.0
 11
-38.80582639473367
 21
14.89616110276632
 31
0.0
1001
DBPROPERTIES
1002
{
1000
PbHidd
1002
}
  0
LINE
  5
55E
330
1F
100
AcDbEntity
  8
HIDDEN
100
AcDbLine
 10
-40.15031684608226
 20
10.75824497476145
 30
0.0
 11
-40.15031684608226
 21
10.75824497476145
 31
0.0
1001
DBPROPERTIES
1002
{
1000
PbHidd
1002
}
  0
LINE
  5
55F
330
1F
100
AcDbEntity
  8
HIDDEN
100
AcDbLine
 10
-89.10065241883673
 20
45.39904997395467
 30
0.0
 11
-89.10065241883673
 21
45.39904997395467
 31
0.0
1001
DBPROPERTIES
1002
{
1000
PbHidd
1002
}
  0
LINE
  5
560
330
1F
100
AcDbEntity
  8
HIDDEN
100
AcDbLine
 10
-83.86705679454234
 20
54.46390350150273
 30
0.0
 11
-83.86705679454234
 21
54.46390350150273
 31
0.0
1001
DBPROPERTIES
1002
{
1000
PbHidd
1002
}
  0
LINE
  5
561
330
1F
100
AcDbEntity
  8
HIDDEN
100
AcDbLine
 10
-34.86073994093143
 20
22.63882922212464
 30
0.0
 11
-34.86073994093143
 21
22.63882922212464
 31
0.0
1001
DBPROPERTIES
1002
{
1000
PbHidd
1002
}
  0
LINE
  5
562
330
1F
100
AcDbEntity
  8
HIDDEN
100
AcDbLine
 10
-37.03617118876313
 20
18.87087177250716
 30
0.0
 11
-37.03617118876313
 21
18.87087177250716
 31
0.0
1001
DBPROPERTIES
1002
{
1000
PbHidd
1002
}
  0
LINE
  5
563
330
1F
100
AcDbEntity
  8
HIDDEN
100
AcDbLine
 10
-77.71459614569702
 20
62.93203910498376
 30
0.0
 11
-77.71459614569702
 21
62.93203910498376
 31
0.0
1001
DBPROPERTIES
1002
{
1000
PbHidd
1002
}
  0
LINE
  5
564
330
1F
100
AcDbEntity
  8
HIDDEN
100
AcDbLine
 10
-70.71067811865471
 20
70.71067811865474
 30
0.0
 11
-70.71067811865471
 21
70.71067811865474
 31
0.0
1001
DBPROPERTIES
1002
{
1000
PbHidd
1002
}
  0
LINE
  5
565
330
1F
100
AcDbEntity
  8
HIDDEN
100
AcDbLine
 10
-29.3920718713208
 20
29.39207187132082
 30
0.0
 11
-29.3920718713208
 21
29.39207187132082
 31
0.0
1001
DBPROPERTIES
1002
{
1000
PbHidd
1002
}
  0
LINE
  5
566
330
1F
100
AcDbEntity
  8
HIDDEN
100
AcDbLine
 10
-32.30336713122806
 20
26.15875092130492
 30
0.0
 11
-32.30336713122806
 21
26.15875092130492
 31
0.0
1001
DBPROPERTIES
1002
{
1000
PbHidd
1002
}
  0
LINE
  5
567
330
1F
100
AcDbEntity
  8
HIDDEN
100
AcDbLine
 10
-62.9320391049837
 20
77.71459614569707
 30
0.0
 11
-62.93203910498371
 21
77.71459614569707
 31
0.0
1001
DBPROPERTIES
1002
{
1000
PbHidd
1002
}
  0
LINE
  5
568
330
1F
100
AcDbEntity
  8
HIDDEN
100
AcDbLine
 10
-54.46390350150268
 20
83.86705679454238
 30
0.0
 11
-54.46390350150268
 21
83.86705679454238
 31
0.0
1001
DBPROPERTIES
1002
{
1000
PbHidd
1002
}
  0
LINE
  5
569
330
1F
100
AcDbEntity
  8
HIDDEN
100
AcDbLine
 10
-22.63882922212461
 20
34.86073994093146
 30
0.0
 11
-22.63882922212461
 21
34.86073994093146
 31
0.0
1001
DBPROPERTIES
1002
{
1000
PbHidd
1002
}
  0
LINE
  5
56A
330
1F
100
AcDbEntity
  8
HIDDEN
100
AcDbLine
 10
-26.15875092130489
 20
32.30336713122809
 30
0.0
 11
-26.15875092130489
 21
32.30336713122809
 31
0.0
1001
DBPROPERTIES
1002
{
1000
PbHidd
1002
}
  0
LINE
  5
56B
330
1F
100
AcDbEntity
  8
HIDDEN
100
AcDbLine
 10
-45.39904997395465
 20
89.10065241883676
 30
0.0
 11
-45.39904997395466
 21
89.10065241883676
 31
0.0
1001
DBPROPERTIES
1002
{
1000
PbHidd
1002
}
  0
LINE
  5
56C
330
1F
100
AcDbEntity
  8
HIDDEN
100
AcDbLine
 10
-35.83679495453001
 20
93.35804264972015
 30
0.0
 11
-35.83679495453
 21
93.35804264972015
 31
0.0
1001
DBPROPERTIES
1002
{
1000
PbHidd
1002
}
  0
LINE
  5
56D
330
1F
100
AcDbEntity
  8
HIDDEN
100
AcDbLine
 10
-14.8961611027663
 20
38.80582639473368
 30
0.0
 11
-14.8961611027663
 21
38.80582639473368
 31
0.0
1001
DBPROPERTIES
1002
{
1000
PbHidd
1002
}
  0
LINE
  5
56E
330
1F
100
AcDbEntity
  8
HIDDEN
100
AcDbLine
 10
-18.87087177250715
 20
37.03617118876315
 30
0.0
 11
-18.87087177250715
 21
37.03617118876315
 31
0.0
1001
DBPROPERTIES
1002
{
1000
PbHidd
1002
}
  0
LINE
  5
56F
330
1F
100
AcDbEntity
  8
HIDDEN
100
AcDbLine
 10
-25.88190451025205
 20
96.59258262890683
 30
0.0
 11
-25.88190451025205
 21
96.59258262890683
 31
0.0
1001
DBPROPERTIES
1002
{
1000
PbHidd
1002
}
  0
LINE
  5
570
330
1F
100
AcDbEntity
  8
HIDDEN
100
AcDbLine
 10
-15.64344650402306
 20
98.76883405951376
 30
0.0
 11
-15.64344650402306
 21
98.76883405951376
 31
0.0
1001
DBPROPERTIES
1002
{
1000
PbHidd
1002
}
  0
LINE
  5
571
330
1F
100
AcDbEntity
  8
HIDDEN
100
AcDbLine
 10
-6.502459263505582
 20
41.05491202407121
 30
0.0
 11
-6.502459263505582
 21
41.05491202407121
 31
0.0
1001
DBPROPERTIES
1002
{
1000
PbHidd
1002
}
  0
LINE
  5
572
330
1F
100
AcDbEntity
  8
HIDDEN
100
AcDbLine
 10
-10.75824497476144
 20
40.15031684608226
 30
0.0
 11
-10.75824497476144
 21
40.15031684608226
 31
0.0
1001
DBPROPERTIES
1002
{
1000
PbHidd
1002
}
  0
LINE
  5
573
330
1F
100
AcDbEntity
  8
HIDDEN
100
AcDbLine
 10
-5.233595624294352
 20
99.86295347545739
 30
0.0
 11
-5.233595624294356
 21
99.86295347545739
 31
0.0
1001
DBPROPERTIES
1002
{
1000
PbHidd
1002
}
  0
LINE
  5
574
330
1F
100
AcDbEntity
  8
HIDDEN
100
AcDbLine
 10
5.233595624294396
 20
99.86295347545739
 30
0.0
 11
5.2335956242944
 21
99.86295347545739
 31
0.0
1001
DBPROPERTIES
1002
{
1000
PbHidd
1002
}
  0
LINE
  5
575
330
1F
100
AcDbEntity
  8
HIDDEN
100
AcDbLine
 10
2.175431247831705
 20
41.50970099463176
 30
0.0
 11
2.175431247831705
 21
41.50970099463176
 31
0.0
1001
DBPROPERTIES
1002
{
1000
PbHidd
1002
}
  0
LINE
  5
576
330
1F
100
AcDbEntity
  8
HIDDEN
100
AcDbLine
 10
-2.175431247831689
 20
41.50970099463178
 30
0.0
 11
-2.175431247831689
 21
41.50970099463178
 31
0.0
1001
DBPROPERTIES
1002
{
1000
PbHidd
1002
}
  0
LINE
  5
577
330
1F
100
AcDbEntity
  8
HIDDEN
100
AcDbLine
 10
15.64344650402311
 20
98.76883405951378
 30
0.0
 11
15.6434465040231
 21
98.76883405951378
 31
0.0
1001
DBPROPERTIES
1002
{
1000
PbHidd
1002
}
  0
LINE
  5
578
330
1F
100
AcDbEntity
  8
HIDDEN
100
AcDbLine
 10
25.88190451025208
 20
96.59258262890685
 30
0.0
 11
25.88190451025209
 21
96.59258262890685
 31
0.0
1001
DBPROPERTIES
1002
{
1000
PbHidd
1002
}
  0
LINE
  5
579
330
1F
100
AcDbEntity
  8
HIDDEN
100
AcDbLine
 10
10.75824497476145
 20
40.15031684608226
 30
0.0
 11
10.75824497476145
 21
40.15031684608226
 31
0.0
1001
DBPROPERTIES
1002
{
1000
PbHidd
1002
}
  0
LINE
  5
57A
330
1F
100
AcDbEntity
  8
HIDDEN
100
AcDbLine
 10
6.502459263505599
 20
41.05491202407121
 30
0.0
 11
6.502459263505599
 21
41.05491202407121
 31
0.0
1001
DBPROPERTIES
1002
{
1000
PbHidd
1002
}
  0
LINE
  5
57B
330
1F
100
AcDbEntity
  8
HIDDEN
100
AcDbLine
 10
35.83679495453004
 20
93.35804264972018
 30
0.0
 11
35.83679495453003
 21
93.35804264972018
 31
0.0
1001
DBPROPERTIES
1002
{
1000
PbHidd
1002
}
  0
LINE
  5
57C
330
1F
100
AcDbEntity
  8
HIDDEN
100
AcDbLine
 10
45.39904997395471
 20
89.1006524188368
 30
0.0
 11
45.39904997395472
 21
89.1006524188368
 31
0.0
1001
DBPROPERTIES
1002
{
1000
PbHidd
1002
}
  0
LINE
  5
57D
330
1F
100
AcDbEntity
  8
HIDDEN
100
AcDbLine
 10
18.87087177250717
 20
37.03617118876314
 30
0.0
 11
18.87087177250717
 21
37.03617118876314
 31
0.0
1001
DBPROPERTIES
1002
{
1000
PbHidd
1002
}
  0
LINE
  5
57E
330
1F
100
AcDbEntity
  8
HIDDEN
100
AcDbLine
 10
14.89616110276631
 20
38.80582639473368
 30
0.0
 11
14.89616110276631
 21
38.80582639473368
 31
0.0
1001
DBPROPERTIES
1002
{
1000
PbHidd
1002
}
  0
LINE
  5
57F
330
1F
100
AcDbEntity
  8
HIDDEN
100
AcDbLine
 10
54.46390350150274
 20
83.86705679454242
 30
0.0
 11
54.46390350150273
 21
83.86705679454242
 31
0.0
1001
DBPROPERTIES
1002
{
1000
PbHidd
1002
}
  0
LINE
  5
580
330
1F
100
AcDbEntity
  8
HIDDEN
100
AcDbLine
 10
62.93203910498377
 20
77.7145961456971
 30
0.0
 11
62.93203910498377
 21
77.7145961456971
 31
0.0
1001
DBPROPERTIES
1002
{
1000
PbHidd
1002
}
  0
LINE
  5
581
330
1F
100
AcDbEntity
  8
HIDDEN
100
AcDbLine
 10
26.15875092130491
 20
32.30336713122808
 30
0.0
 11
26.15875092130491
 21
32.30336713122808
 31
0.0
1001
DBPROPERTIES
1002
{
1000
PbHidd
1002
}
  0
LINE
  5
582
330
1F
100
AcDbEntity
  8
HIDDEN
100
AcDbLine
 10
22.63882922212462
 20
34.86073994093144
 30
0.0
 11
22.63882922212462
 21
34.86073994093144
 31
0.0
1001
DBPROPERTIES
1002
{
1000
PbHidd
1002
}
  0
LINE
  5
583
330
1F
100
AcDbEntity
  8
HIDDEN
100
AcDbLine
 10
70.71067811865478
 20
70.71067811865477
 30
0.0
 11
70.71067811865478
 21
70.71067811865477
 31
0.0
1001
DBPROPERTIES
1002
{
1000
PbHidd
1002
}
  0
LINE
  5
584
330
1F
100
AcDbEntity
  8
HIDDEN
100
AcDbLine
 10
77.71459614569713
 20
62.93203910498377
 30
0.0
 11
77.71459614569713
 21
62.93203910498377
 31
0.0
1001
DBPROPERTIES
1002
{
1000
PbHidd
1002
}
  0
LINE
  5
585
330
1F
100
AcDbEntity
  8
HIDDEN
100
AcDbLine
 10
32.30336713122808
 20
26.15875092130489
 30
0.0
 11
32.30336713122808
 21
26.15875092130489
 31
0.0
1001
DBPROPERTIES
1002
{
1000
PbHidd
1002
}
  0
LINE
  5
586
330
1F
100
AcDbEntity
  8
HIDDEN
100
AcDbLine
 10
29.39207187132082
 20
29.39207187132082
 30
0.0
 11
29.39207187132082
 21
29.39207187132082
 31
0.0
1001
DBPROPERTIES
1002
{
1000
PbHidd
1002
}
  0
LINE
  5
587
330
1F
100
AcDbEntity
  8
HIDDEN
100
AcDbLine
 10
83.86705679454244
 20
54.46390350150273
 30
0.0
 11
83.86705679454244
 21
54.46390350150273
 31
0.0
1001
DBPROPERTIES
1002
{
1000
PbHidd
1002
}
  0
LINE
  5
588
330
1F
100
AcDbEntity
  8
HIDDEN
100
AcDbLine
 10
89.10065241883683
 20
45.39904997395469
 30
0.0
 11
89.10065241883683
 21
45.39904997395469
 31
0.0
1001
DBPROPERTIES
1002
{
1000
PbHidd
1002
}
  0
LINE
  5
589
330
1F
100
AcDbEntity
  8
HIDDEN
100
AcDbLine
 10
37.03617118876316
 20
18.87087177250715
 30
0.0
 11
37.03617118876316
 21
18.87087177250715
 31
0.0
1001
DBPROPERTIES
1002
{
1000
PbHidd
1002
}
  0
LINE
  5
58A
330
1F
100
AcDbEntity
  8
HIDDEN
100
AcDbLine
 10
34.86073994093145
 20
22.63882922212462
 30
0.0
 11
34.86073994093145
 21
22.63882922212462
 31
0.0
1001
DBPROPERTIES
1002
{
1000
PbHidd
1002
}
  0
LINE
  5
58B
330
1F
100
AcDbEntity
  8
HIDDEN
100
AcDbLine
 10
93.35804264972022
 20
35.83679495453003
 30
0.0
 11
93.35804264972022
 21
35.83679495453003
 31
0.0
1001
DBPROPERTIES
1002
{
1000
PbHidd
1002
}
  0
LINE
  5
58C
330
1F
100
AcDbEntity
  8
HIDDEN
100
AcDbLine
 10
96.59258262890688
 20
25.88190451025208
 30
0.0
 11
96.59258262890688
 21
25.88190451025208
 31
0.0
1001
DBPROPERTIES
1002
{
1000
PbHidd
1002
}
  0
LINE
  5
58D
330
1F
100
AcDbEntity
  8
HIDDEN
100
AcDbLine
 10
40.15031684608226
 20
10.75824497476144
 30
0.0
 11
40.15031684608226
 21
10.75824497476144
 31
0.0
1001
DBPROPERTIES
1002
{
1000
PbHidd
1002
}
  0
LINE
  5
58E
330
1F
100
AcDbEntity
  8
HIDDEN
100
AcDbLine
 10
38.80582639473368
 20
14.89616110276631
 30
0.0
 11
38.80582639473368
 21
14.89616110276631
 31
0.0
1001
DBPROPERTIES
1002
{
1000
PbHidd
1002
}
  0
LINE
  5
58F
330
1F
100
AcDbEntity
  8
HIDDEN
100
AcDbLine
 10
96.59258262890685
 20
-25.88190451025217
 30
0.0
 11
96.59258262890685
 21
-25.88190451025217
 31
0.0
1001
DBPROPERTIES
1002
{
1000
PbHidd
1002
}
  0
ARC
  5
590
330
1F
100
AcDbEntity
  8
HIDDEN
100
AcDbCircle
 10
0.0000000000000573
 20
0.0
 30
0.0
 40
88.0
100
AcDbArc
 50
350.9999789540851
 51
9.000021045914972
1001
DBPROPERTIES
1002
{
1000
PbHidd
1002
}
  0
ARC
  5
591
330
1F
100
AcDbEntity
  8
HIDDEN
100
AcDbCircle
 10
0.0000000000000573
 20
0.0
 30
0.0
 40
88.0
100
AcDbArc
 50
339.0000081886445
 51
345.0000222192546
1001
DBPROPERTIES
1002
{
1000
PbHidd
1002
}
  0
ARC
  5
592
330
1F
100
AcDbEntity
  8
HIDDEN
100
AcDbCircle
 10
0.0000000000000573
 20
0.0
 30
0.0
 40
88.0
100
AcDbArc
 50
326.9999801274246
 51
332.9999941580346
1001
DBPROPERTIES
1002
{
1000
PbHidd
1002
}
  0
ARC
  5
593
330
1F
100
AcDbEntity
  8
HIDDEN
100
AcDbCircle
 10
0.0000000000000573
 20
0.0
 30
0.0
 40
88.0
100
AcDbArc
 50
315.0000093619842
 51
321.0000233925941
1001
DBPROPERTIES
1002
{
1000
PbHidd
1002
}
  0
ARC
  5
594
330
1F
100
AcDbEntity
  8
HIDDEN
100
AcDbCircle
 10
0.0000000000000573
 20
0.0
 30
0.0
 40
88.0
100
AcDbArc
 50
302.9999813007643
 51
308.9999953313742
1001
DBPROPERTIES
1002
{
1000
PbHidd
1002
}
  0
ARC
  5
595
330
1F
100
AcDbEntity
  8
HIDDEN
100
AcDbCircle
 10
0.0000000000000573
 20
0.0
 30
0.0
 40
88.0
100
AcDbArc
 50
291.0000105353237
 51
297.0000245659338
1001
DBPROPERTIES
1002
{
1000
PbHidd
1002
}
  0
ARC
  5
596
330
1F
100
AcDbEntity
  8
HIDDEN
100
AcDbCircle
 10
0.0000000000000573
 20
0.0
 30
0.0
 40
88.0
100
AcDbArc
 50
278.9999824741038
 51
284.9999965047138
1001
DBPROPERTIES
1002
{
1000
PbHidd
1002
}
  0
ARC
  5
597
330
1F
100
AcDbEntity
  8
HIDDEN
100
AcDbCircle
 10
0.0000000000000573
 20
0.0
 30
0.0
 40
88.0
100
AcDbArc
 50
270.0000187239684
 51
273.0000257392733
1001
DBPROPERTIES
1002
{
1000
PbHidd
1002
}
  0
ARC
  5
598
330
1F
100
AcDbEntity
  8
HIDDEN
100
AcDbCircle
 10
0.0000000000000573
 20
0.0
 30
0.0
 40
88.0
100
AcDbArc
 50
254.9999836474434
 51
260.9999976780534
1001
DBPROPERTIES
1002
{
1000
PbHidd
1002
}
  0
ARC
  5
599
330
1F
100
AcDbEntity
  8
HIDDEN
100
AcDbCircle
 10
0.0000000000000573
 20
0.0
 30
0.0
 40
88.0
100
AcDbArc
 50
243.0000128820029
 51
249.0000269126129
1001
DBPROPERTIES
1002
{
1000
PbHidd
1002
}
  0
ARC
  5
59A
330
1F
100
AcDbEntity
  8
HIDDEN
100
AcDbCircle
 10
0.0000000000000573
 20
0.0
 30
0.0
 40
88.0
100
AcDbArc
 50
230.999984820783
 51
236.999998851393
1001
DBPROPERTIES
1002
{
1000
PbHidd
1002
}
  0
ARC
  5
59B
330
1F
100
AcDbEntity
  8
HIDDEN
100
AcDbCircle
 10
0.0000000000000573
 20
0.0
 30
0.0
 40
88.0
100
AcDbArc
 50
219.0000140553425
 51
225.0000280859525
1001
DBPROPERTIES
1002
{
1000
PbHidd
1002
}
  0
ARC
  5
59C
330
1F
100
AcDbEntity
  8
HIDDEN
100
AcDbCircle
 10
0.0000000000000573
 20
0.0
 30
0.0
 40
88.0
100
AcDbArc
 50
206.9999859941226
 51
213.0000000247326
1001
DBPROPERTIES
1002
{
1000
PbHidd
1002
}
  0
ARC
  5
59D
330
1F
100
AcDbEntity
  8
HIDDEN
100
AcDbCircle
 10
0.0000000000000573
 20
0.0
 30
0.0
 40
88.0
100
AcDbArc
 50
195.0000152286821
 51
200.9999719635126
1001
DBPROPERTIES
1002
{
1000
PbHidd
1002
}
  0
ARC
  5
59E
330
1F
100
AcDbEntity
  8
HIDDEN
100
AcDbCircle
 10
0.0000000000000573
 20
0.0
 30
0.0
 40
88.0
100
AcDbArc
 50
182.9999871674622
 51
189.0000011980722
1001
DBPROPERTIES
1002
{
1000
PbHidd
1002
}
  0
ARC
  5
59F
330
1F
100
AcDbEntity
  8
HIDDEN
100
AcDbCircle
 10
0.0000000000000573
 20
0.0
 30
0.0
 40
88.0
100
AcDbArc
 50
170.9999988019279
 51
177.0000128325378
1001
DBPROPERTIES
1002
{
1000
PbHidd
1002
}
  0
ARC
  5
5A0
330
1F
100
AcDbEntity
  8
HIDDEN
100
AcDbCircle
 10
0.0000000000000573
 20
0.0
 30
0.0
 40
88.0
100
AcDbArc
 50
159.0000280364874
 51
164.9999847713179
1001
DBPROPERTIES
1002
{
1000
PbHidd
1002
}
  0
ARC
  5
5A1
330
1F
100
AcDbEntity
  8
HIDDEN
100
AcDbCircle
 10
0.0000000000000573
 20
0.0
 30
0.0
 40
88.0
100
AcDbArc
 50
146.9999999752674
 51
153.0000140058774
1001
DBPROPERTIES
1002
{
1000
PbHidd
1002
}
  0
ARC
  5
5A2
330
1F
100
AcDbEntity
  8
HIDDEN
100
AcDbCircle
 10
0.0000000000000573
 20
0.0
 30
0.0
 40
88.0
100
AcDbArc
 50
134.9999719140475
 51
140.9999859446575
1001
DBPROPERTIES
1002
{
1000
PbHidd
1002
}
  0
ARC
  5
5A3
330
1F
100
AcDbEntity
  8
HIDDEN
100
AcDbCircle
 10
0.0000000000000573
 20
0.0
 30
0.0
 40
88.0
100
AcDbArc
 50
123.000001148607
 51
129.000015179217
1001
DBPROPERTIES
1002
{
1000
PbHidd
1002
}
  0
ARC
  5
5A4
330
1F
100
AcDbEntity
  8
HIDDEN
100
AcDbCircle
 10
0.0000000000000573
 20
0.0
 30
0.0
 40
88.0
100
AcDbArc
 50
110.9999730873871
 51
116.9999871179971
1001
DBPROPERTIES
1002
{
1000
PbHidd
1002
}
  0
ARC
  5
5A5
330
1F
100
AcDbEntity
  8
HIDDEN
100
AcDbCircle
 10
0.0000000000000573
 20
0.0
 30
0.0
 40
88.0
100
AcDbArc
 50
99.00000232194662
 51
105.0000163525566
1001
DBPROPERTIES
1002
{
1000
PbHidd
1002
}
  0
ARC
  5
5A6
330
1F
100
AcDbEntity
  8
HIDDEN
100
AcDbCircle
 10
0.0000000000000573
 20
0.0
 30
0.0
 40
88.0
100
AcDbArc
 50
86.99997426072667
 51
89.99998127603165
1001
DBPROPERTIES
1002
{
1000
PbHidd
1002
}
  0
ARC
  5
5A7
330
1F
100
AcDbEntity
  8
HIDDEN
100
AcDbCircle
 10
0.0000000000000573
 20
0.0
 30
0.0
 40
88.0
100
AcDbArc
 50
75.00000349528622
 51
81.0000175258962
1001
DBPROPERTIES
1002
{
1000
PbHidd
1002
}
  0
ARC
  5
5A8
330
1F
100
AcDbEntity
  8
HIDDEN
100
AcDbCircle
 10
0.0000000000000573
 20
0.0
 30
0.0
 40
88.0
100
AcDbArc
 50
62.99997543406626
 51
68.99998946467625
1001
DBPROPERTIES
1002
{
1000
PbHidd
1002
}
  0
ARC
  5
5A9
330
1F
100
AcDbEntity
  8
HIDDEN
100
AcDbCircle
 10
0.0000000000000573
 20
0.0
 30
0.0
 40
88.0
100
AcDbArc
 50
51.00000466862581
 51
57.0000186992358
1001
DBPROPERTIES
1002
{
1000
PbHidd
1002
}
  0
ARC
  5
5AA
330
1F
100
AcDbEntity
  8
HIDDEN
100
AcDbCircle
 10
0.0000000000000573
 20
0.0
 30
0.0
 40
88.0
100
AcDbArc
 50
38.99997660740585
 51
44.99999063801582
1001
DBPROPERTIES
1002
{
1000
PbHidd
1002
}
  0
ARC
  5
5AB
330
1F
100
AcDbEntity
  8
HIDDEN
100
AcDbCircle
 10
0.0000000000000573
 20
0.0
 30
0.0
 40
88.0
100
AcDbArc
 50
27.0000058419654
 51
33.00001987257539
1001
DBPROPERTIES
1002
{
1000
PbHidd
1002
}
  0
ARC
  5
5AC
330
1F
100
AcDbEntity
  8
HIDDEN
100
AcDbCircle
 10
0.0000000000000573
 20
0.0
 30
0.0
 40
88.0
100
AcDbArc
 50
14.99997778074544
 51
20.99999181135542
1001
DBPROPERTIES
1002
{
1000
PbHidd
1002
}
  0
ARC
  5
5AD
330
1F
100
AcDbEntity
  8
HIDDEN
100
AcDbCircle
 10
0.0
 20
0.0
 30
0.0
 40
16.66666666666667
100
AcDbArc
 50
179.9999801521572
 51
0.0
1001
DBPROPERTIES
1002
{
1000
PbHidd
1002
}
  0
LINE
  5
5AE
330
1F
100
AcDbEntity
  8
THICK
100
AcDbLine
 10
41.22943560777778
 20
72.41945929036304
 30
0.0
 11
155.8877927235859
 21
163.8564479031954
 31
0.0
1001
DBPROPERTIES
1002
{
1000
PbThick
1002
}
  0
LINE
  5
5AF
330
1F
100
AcDbEntity
  8
THICK
100
AcDbLine
 10
195.5687556679462
 20
114.0980942107041
 30
0.0
 11
80.32374205266228
 21
22.19326265112489
 31
0.0
1001
DBPROPERTIES
1002
{
1000
PbThick
1002
}
  0
ELLIPSE
  5
5B0
330
1F
100
AcDbEntity
  8
THICK
100
AcDbEllipse
 10
94.38589478962031
 20
74.10888809217246
 30
0.0
 11
86.00146307148329
 21
68.58387820446066
 31
0.0
210
0.0
220
0.0
230
1.0
 40
0.8910065241883679
 41
0.0
 42
0.3306684359576054
1001
DBPROPERTIES
1002
{
1000
PbThick
1002
}
  0
ELLIPSE
  5
5B1
330
1F
100
AcDbEntity
  8
THICK
100
AcDbEllipse
 10
94.38589478962031
 20
74.10888809217246
 30
0.0
 11
86.00146307148329
 21
68.58387820446066
 31
0.0
210
0.0
220
0.0
230
1.0
 40
0.8910065241883679
 41
-0.3306684359576054
 42
0.0
1001
DBPROPERTIES
1002
{
1000
PbThick
1002
}
  0
LINE
  5
5B2
330
1F
100
AcDbEntity
  8
HIDDEN
100
AcDbLine
 10
80.05585254525596
 20
23.14097918621158
 30
0.0
 11
195.0026387744895
 21
114.8079823415796
 31
0.0
1001
DBPROPERTIES
1002
{
1000
PbHidd
1002
}
  0
LINE
  5
5B3
330
1F
100
AcDbEntity
  8
HIDDEN
100
AcDbLine
 10
195.0026387744895
 20
114.8079823415796
 30
0.0
 11
195.5687556679462
 21
114.0980942107041
 31
0.0
1001
DBPROPERTIES
1002
{
1000
PbHidd
1002
}
  0
LINE
  5
5B4
330
1F
100
AcDbEntity
  8
THICK
100
AcDbLine
 10
40.37488960089567
 20
72.89933287870288
 30
0.0
 11
155.3216758301292
 21
164.5663360340709
 31
0.0
1001
DBPROPERTIES
1002
{
1000
PbThick
1002
}
  0
LINE
  5
5B5
330
1F
100
AcDbEntity
  8
THICK
100
AcDbLine
 10
155.3216758301292
 20
164.5663360340709
 30
0.0
 11
155.8877927235859
 21
163.8564479031954
 31
0.0
1001
DBPROPERTIES
1002
{
1000
PbThick
1002
}
  0
ELLIPSE
  5
5B6
330
1F
100
AcDbEntity
  8
HIDDEN
100
AcDbEllipse
 10
93.81977789616359
 20
74.818776223048
 30
0.0
 11
-86.00146307148329
 21
-68.58387820446066
 31
0.0
210
0.0
220
0.0
230
1.0
 40
0.8910065241883679
 41
2.810924217632188
 42
3.141592653589793
1001
DBPROPERTIES
1002
{
1000
PbHidd
1002
}
  0
ELLIPSE
  5
5B7
330
1F
100
AcDbEntity
  8
THICK
100
AcDbEllipse
 10
93.81977789616359
 20
74.818776223048
 30
0.0
 11
-86.00146307148329
 21
-68.58387820446066
 31
0.0
210
0.0
220
0.0
230
1.0
 40
0.8910065241883679
 41
3.141592653589793
 42
3.472261089547398
1001
DBPROPERTIES
1002
{
1000
PbThick
1002
}
  0
LINE
  5
5B8
330
1F
100
AcDbEntity
  8
THICK
100
AcDbLine
 10
211.1406068646984
 20
-81.76281201640725
 30
0.0
 11
67.43242545629774
 21
-48.96235739346389
 31
0.0
1001
DBPROPERTIES
1002
{
1000
PbThick
1002
}
  0
ELLIPSE
  5
5B9
330
1F
100
AcDbEntity
  8
THICK
100
AcDbEllipse
 10
116.7893046818001
 20
-27.58772809488067
 30
0.0
 11
107.2420703400006
 21
-24.4773027351946
 31
0.0
210
0.0
220
0.0
230
1.0
 40
0.891006524188368
 41
0.0
 42
0.3306684359576053
1001
DBPROPERTIES
1002
{
1000
PbThick
1002
}
  0
ELLIPSE
  5
5BA
330
1F
100
AcDbEntity
  8
THICK
100
AcDbEllipse
 10
116.7893046818001
 20
-27.58772809488067
 30
0.0
 11
107.2420703400006
 21
-24.4773027351946
 31
0.0
210
0.0
220
0.0
230
1.0
 40
0.891006524188368
 41
-0.3306684359576053
 42
0.0
1001
DBPROPERTIES
1002
{
1000
PbThick
1002
}
  0
LINE
  5
5BB
330
1F
100
AcDbEntity
  8
THICK
100
AcDbLine
 10
82.3259458543584
 20
12.918323561116
 30
0.0
 11
225.3025785735245
 21
-19.71515984731089
 31
0.0
1001
DBPROPERTIES
1002
{
1000
PbThick
1002
}
  0
LINE
  5
5BC
330
1F
100
AcDbEntity
  8
HIDDEN
100
AcDbLine
 10
68.00635370399122
 20
-48.16202134807133
 30
0.0
 11
211.3426516447171
 21
-80.87759599628433
 31
0.0
1001
DBPROPERTIES
1002
{
1000
PbHidd
1002
}
  0
LINE
  5
5BD
330
1F
100
AcDbEntity
  8
HIDDEN
100
AcDbLine
 10
211.3426516447172
 20
-80.87759599628436
 30
0.0
 11
211.1406068646985
 21
-81.76281201640727
 31
0.0
1001
DBPROPERTIES
1002
{
1000
PbHidd
1002
}
  0
LINE
  5
5BE
330
1F
100
AcDbEntity
  8
THICK
100
AcDbLine
 10
82.16832541281732
 20
13.88563082102502
 30
0.0
 11
225.5046233535432
 21
-18.82994382718798
 31
0.0
1001
DBPROPERTIES
1002
{
1000
PbThick
1002
}
  0
LINE
  5
5BF
330
1F
100
AcDbEntity
  8
THICK
100
AcDbLine
 10
225.5046233535433
 20
-18.82994382718799
 30
0.0
 11
225.3025785735246
 21
-19.71515984731091
 31
0.0
1001
DBPROPERTIES
1002
{
1000
PbThick
1002
}
  0
ELLIPSE
  5
5C0
330
1F
100
AcDbEntity
  8
HIDDEN
100
AcDbEllipse
 10
116.9913494618188
 20
-26.70251207475776
 30
0.0
 11
-107.2420703400006
 21
24.4773027351946
 31
0.0
210
0.0
220
0.0
230
1.0
 40
0.891006524188368
 41
2.810924217632188
 42
3.141592653589793
1001
DBPROPERTIES
1002
{
1000
PbHidd
1002
}
  0
ELLIPSE
  5
5C1
330
1F
100
AcDbEntity
  8
THICK
100
AcDbEllipse
 10
116.9913494618188
 20
-26.70251207475776
 30
0.0
 11
-107.2420703400006
 21
24.4773027351946
 31
0.0
210
0.0
220
0.0
230
1.0
 40
0.891006524188368
 41
3.141592653589793
 42
3.472261089547398
1001
DBPROPERTIES
1002
{
1000
PbThick
1002
}
  0
LINE
  5
5C2
330
1F
100
AcDbEntity
  8
THICK
100
AcDbLine
 10
61.42933972935575
 20
-56.31057329542855
 30
0.0
 11
125.0599274225513
 21
-188.4408501168215
 31
0.0
1001
DBPROPERTIES
1002
{
1000
PbThick
1002
}
  0
LINE
  5
5C3
330
1F
100
AcDbEntity
  8
THICK
100
AcDbLine
 10
67.71927460886104
 20
-216.0546531377492
 30
0.0
 11
3.763117120539508
 21
-83.24832367069942
 31
0.0
1001
DBPROPERTIES
1002
{
1000
PbThick
1002
}
  0
ELLIPSE
  5
5C4
330
1F
100
AcDbEntity
  8
THICK
100
AcDbEllipse
 10
51.24798608092937
 20
-108.510222339392
 30
0.0
 11
47.72721130293137
 21
-99.1065754692661
 31
0.0
210
0.0
220
0.0
230
1.0
 40
0.8910065241883679
 41
0.0
 42
0.3306684359576054
1001
DBPROPERTIES
1002
{
1000
PbThick
1002
}
  0
ELLIPSE
  5
5C5
330
1F
100
AcDbEntity
  8
THICK
100
AcDbEllipse
 10
51.24798608092937
 20
-108.510222339392
 30
0.0
 11
47.72721130293137
 21
-99.1065754692661
 31
0.0
210
0.0
220
0.0
230
1.0
 40
0.8910065241883679
 41
-0.3306684359576054
 42
0.0
1001
DBPROPERTIES
1002
{
1000
PbThick
1002
}
  0
LINE
  5
5C6
330
1F
100
AcDbEntity
  8
HIDDEN
100
AcDbLine
 10
4.746683446816924
 20
-83.1980374810617
 30
0.0
 11
68.53733722203863
 21
-215.6606949466475
 31
0.0
1001
DBPROPERTIES
1002
{
1000
PbHidd
1002
}
  0
LINE
  5
5C7
330
1F
100
AcDbEntity
  8
HIDDEN
100
AcDbLine
 10
68.5373372220387
 20
-215.6606949466477
 30
0.0
 11
67.71927460886111
 21
-216.0546531377493
 31
0.0
1001
DBPROPERTIES
1002
{
1000
PbHidd
1002
}
  0
LINE
  5
5C8
330
1F
100
AcDbEntity
  8
THICK
100
AcDbLine
 10
62.08733626050716
 20
-55.584234460134
 30
0.0
 11
125.8779900357289
 21
-188.0468919257198
 31
0.0
1001
DBPROPERTIES
1002
{
1000
PbThick
1002
}
  0
LINE
  5
5C9
330
1F
100
AcDbEntity
  8
THICK
100
AcDbLine
 10
125.8779900357289
 20
-188.0468919257199
 30
0.0
 11
125.0599274225514
 21
-188.4408501168216
 31
0.0
1001
DBPROPERTIES
1002
{
1000
PbThick
1002
}
  0
ELLIPSE
  5
5CA
330
1F
100
AcDbEntity
  8
HIDDEN
100
AcDbEllipse
 10
52.06604869410695
 20
-108.1162641482903
 30
0.0
 11
-47.72721130293137
 21
99.1065754692661
 31
0.0
210
0.0
220
0.0
230
1.0
 40
0.8910065241883679
 41
2.810924217632188
 42
3.141592653589793
1001
DBPROPERTIES
1002
{
1000
PbHidd
1002
}
  0
ELLIPSE
  5
5CB
330
1F
100
AcDbEntity
  8
THICK
100
AcDbEllipse
 10
52.06604869410695
 20
-108.1162641482903
 30
0.0
 11
-47.72721130293137
 21
99.1065754692661
 31
0.0
210
0.0
220
0.0
230
1.0
 40
0.8910065241883679
 41
3.141592653589793
 42
3.472261089547398
1001
DBPROPERTIES
1002
{
1000
PbThick
1002
}
  0
LINE
  5
5CC
330
1F
100
AcDbEntity
  8
THICK
100
AcDbLine
 10
-5.724812142020724
 20
-83.13645993415292
 30
0.0
 11
-69.3553998352163
 21
-215.2667367555459
 31
0.0
1001
DBPROPERTIES
1002
{
1000
PbThick
1002
}
  0
LINE
  5
5CD
330
1F
100
AcDbEntity
  8
THICK
100
AcDbLine
 10
-126.6960526489065
 20
-187.6529337346182
 30
0.0
 11
-62.73989516058495
 21
-54.84660426756837
 31
0.0
1001
DBPROPERTIES
1002
{
1000
PbThick
1002
}
  0
ELLIPSE
  5
5CE
330
1F
100
AcDbEntity
  8
THICK
100
AcDbEllipse
 10
-52.88411130728457
 20
-107.7223059571886
 30
0.0
 11
-47.7272113029314
 21
-99.10657546926609
 31
0.0
210
0.0
220
0.0
230
1.0
 40
0.8910065241883678
 41
0.0
 42
0.3306684359576055
1001
DBPROPERTIES
1002
{
1000
PbThick
1002
}
  0
ELLIPSE
  5
5CF
330
1F
100
AcDbEntity
  8
THICK
100
AcDbEllipse
 10
-52.88411130728457
 20
-107.7223059571886
 30
0.0
 11
-47.7272113029314
 21
-99.10657546926609
 31
0.0
210
0.0
220
0.0
230
1.0
 40
0.8910065241883678
 41
-0.3306684359576054
 42
0.0
1001
DBPROPERTIES
1002
{
1000
PbThick
1002
}
  0
LINE
  5
5D0
330
1F
100
AcDbEntity
  8
HIDDEN
100
AcDbLine
 10
-62.08733626050719
 20
-55.58423446013401
 30
0.0
 11
-125.877990035729
 21
-188.0468919257198
 31
0.0
1001
DBPROPERTIES
1002
{
1000
PbHidd
1002
}
  0
LINE
  5
5D1
330
1F
100
AcDbEntity
  8
HIDDEN
100
AcDbLine
 10
-125.877990035729
 20
-188.0468919257199
 30
0.0
 11
-126.6960526489066
 21
-187.6529337346182
 31
0.0
1001
DBPROPERTIES
1002
{
1000
PbHidd
1002
}
  0
LINE
  5
5D2
330
1F
100
AcDbEntity
  8
THICK
100
AcDbLine
 10
-4.74668344681697
 20
-83.19803748106176
 30
0.0
 11
-68.53733722203873
 21
-215.6606949466476
 31
0.0
1001
DBPROPERTIES
1002
{
1000
PbThick
1002
}
  0
LINE
  5
5D3
330
1F
100
AcDbEntity
  8
THICK
100
AcDbLine
 10
-68.53733722203874
 20
-215.6606949466477
 30
0.0
 11
-69.35539983521633
 21
-215.266736755546
 31
0.0
1001
DBPROPERTIES
1002
{
1000
PbThick
1002
}
  0
ELLIPSE
  5
5D4
330
1F
100
AcDbEntity
  8
HIDDEN
100
AcDbEllipse
 10
-52.06604869410699
 20
-108.1162641482903
 30
0.0
 11
47.7272113029314
 21
99.10657546926609
 31
0.0
210
0.0
220
0.0
230
1.0
 40
0.8910065241883678
 41
2.810924217632187
 42
3.141592653589793
1001
DBPROPERTIES
1002
{
1000
PbHidd
1002
}
  0
ELLIPSE
  5
5D5
330
1F
100
AcDbEntity
  8
THICK
100
AcDbEllipse
 10
-52.06604869410699
 20
-108.1162641482903
 30
0.0
 11
47.7272113029314
 21
99.10657546926609
 31
0.0
210
0.0
220
0.0
230
1.0
 40
0.8910065241883678
 41
3.141592653589793
 42
3.472261089547398
1001
DBPROPERTIES
1002
{
1000
PbThick
1002
}
  0
LINE
  5
5D6
330
1F
100
AcDbEntity
  8
THICK
100
AcDbLine
 10
-225.7066681335619
 20
-17.94472780706499
 30
0.0
 11
-81.99848672516117
 21
14.85572681587832
 31
0.0
1001
DBPROPERTIES
1002
{
1000
PbThick
1002
}
  0
ELLIPSE
  5
5D7
330
1F
100
AcDbEntity
  8
THICK
100
AcDbEllipse
 10
-117.1933942418375
 20
-25.8172960546348
 30
0.0
 11
-107.2420703400006
 21
-24.47730273519457
 31
0.0
210
0.0
220
0.0
230
1.0
 40
0.8910065241883679
 41
0.0
 42
0.3306684359576053
1001
DBPROPERTIES
1002
{
1000
PbThick
1002
}
  0
ELLIPSE
  5
5D8
330
1F
100
AcDbEntity
  8
THICK
100
AcDbEllipse
 10
-117.1933942418375
 20
-25.8172960546348
 30
0.0
 11
-107.2420703400006
 21
-24.47730273519457
 31
0.0
210
0.0
220
0.0
230
1.0
 40
0.8910065241883679
 41
-0.3306684359576054
 42
0.0
1001
DBPROPERTIES
1002
{
1000
PbThick
1002
}
  0
LINE
  5
5D9
330
1F
100
AcDbEntity
  8
THICK
100
AcDbLine
 10
-68.56806370556968
 20
-47.3588965677345
 30
0.0
 11
-211.5446964247358
 21
-79.99237997616137
 31
0.0
1001
DBPROPERTIES
1002
{
1000
PbThick
1002
}
  0
LINE
  5
5DA
330
1F
100
AcDbEntity
  8
HIDDEN
100
AcDbLine
 10
-82.16832541281731
 20
13.88563082102504
 30
0.0
 11
-225.5046233535432
 21
-18.82994382718791
 31
0.0
1001
DBPROPERTIES
1002
{
1000
PbHidd
1002
}
  0
LINE
  5
5DB
330
1F
100
AcDbEntity
  8
HIDDEN
100
AcDbLine
 10
-225.5046233535433
 20
-18.82994382718794
 30
0.0
 11
-225.7066681335619
 21
-17.94472780706502
 31
0.0
1001
DBPROPERTIES
1002
{
1000
PbHidd
1002
}
  0
LINE
  5
5DC
330
1F
100
AcDbEntity
  8
THICK
100
AcDbLine
 10
-68.00635370399124
 20
-48.16202134807131
 30
0.0
 11
-211.3426516447171
 21
-80.87759599628428
 31
0.0
1001
DBPROPERTIES
1002
{
1000
PbThick
1002
}
  0
LINE
  5
5DD
330
1F
100
AcDbEntity
  8
THICK
100
AcDbLine
 10
-211.3426516447172
 20
-80.8775959962843
 30
0.0
 11
-211.5446964247359
 21
-79.99237997616139
 31
0.0
1001
DBPROPERTIES
1002
{
1000
PbThick
1002
}
  0
ELLIPSE
  5
5DE
330
1F
100
AcDbEntity
  8
HIDDEN
100
AcDbEllipse
 10
-116.9913494618188
 20
-26.70251207475771
 30
0.0
 11
107.2420703400006
 21
24.47730273519457
 31
0.0
210
0.0
220
0.0
230
1.0
 40
0.8910065241883679
 41
2.810924217632188
 42
3.141592653589793
1001
DBPROPERTIES
1002
{
1000
PbHidd
1002
}
  0
ELLIPSE
  5
5DF
330
1F
100
AcDbEntity
  8
THICK
100
AcDbEllipse
 10
-116.9913494618188
 20
-26.70251207475771
 30
0.0
 11
107.2420703400006
 21
24.47730273519457
 31
0.0
210
0.0
220
0.0
230
1.0
 40
0.8910065241883679
 41
3.141592653589793
 42
3.472261089547398
1001
DBPROPERTIES
1002
{
1000
PbThick
1002
}
  0
LINE
  5
5E0
330
1F
100
AcDbEntity
  8
THICK
100
AcDbLine
 10
-79.77816476522463
 20
24.08088185962285
 30
0.0
 11
-194.4365218810327
 21
115.5178704724552
 31
0.0
1001
DBPROPERTIES
1002
{
1000
PbThick
1002
}
  0
LINE
  5
5E1
330
1F
100
AcDbEntity
  8
THICK
100
AcDbLine
 10
-154.7555589366724
 20
165.2762241649465
 30
0.0
 11
-39.51054532138852
 21
73.37139260536728
 31
0.0
1001
DBPROPERTIES
1002
{
1000
PbThick
1002
}
  0
ELLIPSE
  5
5E2
330
1F
100
AcDbEntity
  8
THICK
100
AcDbEllipse
 10
-93.25366100270683
 20
75.52866435392357
 30
0.0
 11
-86.00146307148327
 21
68.58387820446072
 31
0.0
210
0.0
220
0.0
230
1.0
 40
0.8910065241883678
 41
0.0
 42
0.3306684359576054
1001
DBPROPERTIES
1002
{
1000
PbThick
1002
}
  0
ELLIPSE
  5
5E3
330
1F
100
AcDbEntity
  8
THICK
100
AcDbEllipse
 10
-93.25366100270683
 20
75.52866435392357
 30
0.0
 11
-86.00146307148327
 21
68.58387820446072
 31
0.0
210
0.0
220
0.0
230
1.0
 40
0.8910065241883678
 41
-0.3306684359576054
 42
0.0
1001
DBPROPERTIES
1002
{
1000
PbThick
1002
}
  0
LINE
  5
5E4
330
1F
100
AcDbEntity
  8
HIDDEN
100
AcDbLine
 10
-40.37488960089564
 20
72.8993328787029
 30
0.0
 11
-155.3216758301291
 21
164.566336034071
 31
0.0
1001
DBPROPERTIES
1002
{
1000
PbHidd
1002
}
  0
LINE
  5
5E5
330
1F
100
AcDbEntity
  8
HIDDEN
100
AcDbLine
 10
-155.3216758301291
 20
164.566336034071
 30
0.0
 11
-154.7555589366724
 21
165.2762241649465
 31
0.0
1001
DBPROPERTIES
1002
{
1000
PbHidd
1002
}
  0
LINE
  5
5E6
330
1F
100
AcDbEntity
  8
THICK
100
AcDbLine
 10
-80.05585254525596
 20
23.14097918621161
 30
0.0
 11
-195.0026387744894
 21
114.8079823415797
 31
0.0
1001
DBPROPERTIES
1002
{
1000
PbThick
1002
}
  0
LINE
  5
5E7
330
1F
100
AcDbEntity
  8
THICK
100
AcDbLine
 10
-195.0026387744894
 20
114.8079823415797
 30
0.0
 11
-194.4365218810327
 21
115.5178704724552
 31
0.0
1001
DBPROPERTIES
1002
{
1000
PbThick
1002
}
  0
ELLIPSE
  5
5E8
330
1F
100
AcDbEntity
  8
HIDDEN
100
AcDbEllipse
 10
-93.81977789616356
 20
74.81877622304803
 30
0.0
 11
86.00146307148327
 21
-68.58387820446072
 31
0.0
210
0.0
220
0.0
230
1.0
 40
0.8910065241883678
 41
2.810924217632187
 42
3.141592653589793
1001
DBPROPERTIES
1002
{
1000
PbHidd
1002
}
  0
ELLIPSE
  5
5E9
330
1F
100
AcDbEntity
  8
THICK
100
AcDbEllipse
 10
-93.81977789616356
 20
74.81877622304803
 30
0.0
 11
86.00146307148327
 21
-68.58387820446072
 31
0.0
210
0.0
220
0.0
230
1.0
 40
0.8910065241883678
 41
-3.141592653589793
 42
-2.810924217632187
1001
DBPROPERTIES
1002
{
1000
PbThick
1002
}
  0
LINE
  5
5EA
330
1F
100
AcDbEntity
  8
THICK
100
AcDbLine
 10
-30.9136805786769
 20
77.38726508621414
 30
0.0
 11
-30.91368057867691
 21
224.0408083201893
 31
0.0
1001
DBPROPERTIES
1002
{
1000
PbThick
1002
}
  0
LINE
  5
5EB
330
1F
100
AcDbEntity
  8
THICK
100
AcDbLine
 10
32.7296425776351
 20
224.0408083201893
 30
0.0
 11
32.7296425776351
 21
76.63690325936128
 31
0.0
1001
DBPROPERTIES
1002
{
1000
PbThick
1002
}
  0
ELLIPSE
  5
5EC
330
1F
100
AcDbEntity
  8
THICK
100
AcDbEllipse
 10
0.9079809994790995
 20
120.0
 30
0.0
 11
0.0
 21
110.0
 31
0.0
210
0.0
220
0.0
230
1.0
 40
0.8910065241883679
 41
0.0
 42
0.3306684359576054
1001
DBPROPERTIES
1002
{
1000
PbThick
1002
}
  0
ELLIPSE
  5
5ED
330
1F
100
AcDbEntity
  8
THICK
100
AcDbEllipse
 10
0.9079809994790995
 20
120.0
 30
0.0
 11
0.0
 21
110.0
 31
0.0
210
0.0
220
0.0
230
1.0
 40
0.8910065241883679
 41
-0.3306684359576054
 42
0.0
1001
DBPROPERTIES
1002
{
1000
PbThick
1002
}
  0
LINE
  5
5EE
330
1F
100
AcDbEntity
  8
HIDDEN
100
AcDbLine
 10
31.821661578156
 20
77.0183504033276
 30
0.0
 11
31.82166157815601
 21
224.0408083201893
 31
0.0
1001
DBPROPERTIES
1002
{
1000
PbHidd
1002
}
  0
LINE
  5
5EF
330
1F
100
AcDbEntity
  8
HIDDEN
100
AcDbLine
 10
31.82166157815601
 20
224.0408083201893
 30
0.0
 11
32.7296425776351
 21
224.0408083201893
 31
0.0
1001
DBPROPERTIES
1002
{
1000
PbHidd
1002
}
  0
LINE
  5
5F0
330
1F
100
AcDbEntity
  8
THICK
100
AcDbLine
 10
-31.821661578156
 20
77.0183504033276
 30
0.0
 11
-31.821661578156
 21
224.0408083201893
 31
0.0
1001
DBPROPERTIES
1002
{
1000
PbThick
1002
}
  0
LINE
  5
5F1
330
1F
100
AcDbEntity
  8
THICK
100
AcDbLine
 10
-31.821661578156
 20
224.0408083201893
 30
0.0
 11
-30.91368057867691
 21
224.0408083201893
 31
0.0
1001
DBPROPERTIES
1002
{
1000
PbThick
1002
}
  0
ELLIPSE
  5
5F2
330
1F
100
AcDbEntity
  8
HIDDEN
100
AcDbEllipse
 10
0.000000000000006
 20
120.0
 30
0.0
 11
0.0
 21
-110.0
 31
0.0
210
0.0
220
0.0
230
1.0
 40
0.8910065241883679
 41
2.810924217632188
 42
3.141592653589793
1001
DBPROPERTIES
1002
{
1000
PbHidd
1002
}
  0
ELLIPSE
  5
5F3
330
1F
100
AcDbEntity
  8
THICK
100
AcDbEllipse
 10
0.000000000000006
 20
120.0
 30
0.0
 11
0.0
 21
-110.0
 31
0.0
210
0.0
220
0.0
230
1.0
 40
0.8910065241883679
 41
3.141592653589793
 42
3.472261089547398
1001
DBPROPERTIES
1002
{
1000
PbThick
1002
}
  0
ARC
  5
5F4
330
1F
100
AcDbEntity
  8
THICK
100
AcDbCircle
 10
0.0
 20
-0.0000000000000007
 30
0.0
 40
83.33333333333333
100
AcDbArc
 50
89.99998127603165
 51
180.0000198478428
1001
DBPROPERTIES
1002
{
1000
PbThick
1002
}
  0
LINE
  5
5F5
330
1F
100
AcDbEntity
  8
THICK
100
AcDbLine
 10
180.3873596191406
 20
-142.6927642822266
 30
0.0
 11
179.8212432861328
 21
-143.4026489257812
 31
0.0
1001
DBPROPERTIES
1002
{
1000
PbThick
1002
}
  0
LINE
  5
5F6
330
1F
100
AcDbEntity
  8
THICK
100
AcDbLine
 10
224.0313720703125
 20
52.06502914428711
 30
0.0
 11
224.2334136962891
 21
51.17981338500977
 31
0.0
1001
DBPROPERTIES
1002
{
1000
PbThick
1002
}
  0
LINE
  5
5F7
330
1F
100
AcDbEntity
  8
THICK
100
AcDbLine
 10
98.9751968383789
 20
207.6167907714844
 30
0.0
 11
99.79325866699219
 21
207.2228393554688
 31
0.0
1001
DBPROPERTIES
1002
{
1000
PbThick
1002
}
  0
LINE
  5
5F8
330
1F
100
AcDbEntity
  8
THICK
100
AcDbLine
 10
-100.6113204956055
 20
206.8288879394531
 30
0.0
 11
-99.79325866699219
 21
207.2228393554688
 31
0.0
1001
DBPROPERTIES
1002
{
1000
PbThick
1002
}
  0
LINE
  5
5F9
330
1F
100
AcDbEntity
  8
THICK
100
AcDbLine
 10
-224.4354705810547
 20
50.29459762573242
 30
0.0
 11
-224.2334136962891
 21
51.17981338500977
 31
0.0
1001
DBPROPERTIES
1002
{
1000
PbThick
1002
}
  0
LINE
  5
5FA
330
1F
100
AcDbEntity
  8
THICK
100
AcDbLine
 10
-179.255126953125
 20
-144.112548828125
 30
0.0
 11
-179.8212432861328
 21
-143.4026489257812
 31
0.0
1001
DBPROPERTIES
1002
{
1000
PbThick
1002
}
  0
LINE
  5
5FB
330
1F
100
AcDbEntity
  8
THICK
100
AcDbLine
 10
0.9079809784889221
 20
-230.0
 30
0.0
 11
0.000000000000012
 21
-230.0
 31
0.0
1001
DBPROPERTIES
1002
{
1000
PbThick
1002
}
  0
LINE
  5
5FC
330
1F
100
AcDbEntity
  8
THICK
100
AcDbLine
 10
180.3873581768771
 20
142.6927659006656
 30
0.0
 11
179.8212417061669
 21
143.4026535014338
 31
0.0
1001
DBPROPERTIES
1002
{
1000
PbThick
1002
}
  0
LINE
  5
5FD
330
1F
100
AcDbEntity
  8
THICK
100
AcDbLine
 10
224.0313750768608
 20
-52.06503058884125
 30
0.0
 11
224.2334198032232
 21
-51.17981480380198
 31
0.0
1001
DBPROPERTIES
1002
{
1000
PbThick
1002
}
  0
LINE
  5
5FE
330
1F
100
AcDbEntity
  8
THICK
100
AcDbLine
 10
98.97519789928461
 20
-207.616797560443
 30
0.0
 11
99.79325979562937
 21
-207.2228397145498
 31
0.0
1001
DBPROPERTIES
1002
{
1000
PbThick
1002
}
  0
LINE
  5
5FF
330
1F
100
AcDbEntity
  8
THICK
100
AcDbLine
 10
-100.6113216919742
 20
-206.8288818686566
 30
0.0
 11
-99.79325979562942
 21
-207.2228397145498
 31
0.0
1001
DBPROPERTIES
1002
{
1000
PbThick
1002
}
  0
LINE
  5
600
330
1F
100
AcDbEntity
  8
THICK
100
AcDbLine
 10
-224.4354646853095
 20
-50.29459833649157
 30
0.0
 11
-224.2334198032232
 21
-51.17981480380193
 31
0.0
1001
DBPROPERTIES
1002
{
1000
PbThick
1002
}
  0
LINE
  5
601
330
1F
100
AcDbEntity
  8
THICK
100
AcDbLine
 10
-179.2551237024073
 20
144.1125430245851
 30
0.0
 11
-179.8212417061668
 21
143.4026535014339
 31
0.0
1001
DBPROPERTIES
1002
{
1000
PbThick
1002
}
  0
LINE
  5
602
330
1F
100
AcDbEntity
  8
THICK
100
AcDbLine
 10
0.907980951092343
 20
230.0
 30
0.0
 11
0.000000000000006
 21
230.0
 31
0.0
1001
DBPROPERTIES
1002
{
1000
PbThick
1002
}
  0
ENDSEC
  0
SECTION
  2
OBJECTS
  0
DICTIONARY
  5
C
330
0
100
AcDbDictionary
  3
ACAD_GROUP
350
D
  3
ACAD_LAYOUT
350
1A
  3
ACAD_MATERIAL
350
43
  3
ACAD_MLEADERSTYLE
350
6B
  3
ACAD_MLINESTYLE
350
17
  3
ACAD_PLOTSETTINGS
350
19
  3
ACAD_SCALELIST
350
47
  3
ACAD_VISUALSTYLE
350
2A
  3
ACDBVARIABLEDICTIONARY
350
603
1001
ACAD
1000
TREAT_AS_HARD
1070
     0
  0
DICTIONARY
  5
D
102
{ACAD_REACTORS
330
C
102
}
330
C
100
AcDbDictionary
1001
ACAD
1000
TREAT_AS_HARD
1070
     0
  0
DICTIONARY
  5
1A
102
{ACAD_REACTORS
330
C
102
}
330
C
100
AcDbDictionary
1001
ACAD
1000
TREAT_AS_HARD
1070
     0
  0
DICTIONARY
  5
43
102
{ACAD_REACTORS
330
C
102
}
330
C
100
AcDbDictionary
  3
BYBLOCK
350
45
  3
BYLAYER
350
44
  3
GLOBAL
350
46
1001
ACAD
1000
TREAT_AS_HARD
1070
     0
  0
DICTIONARY
  5
6B
102
{ACAD_REACTORS
330
C
102
}
330
C
100
AcDbDictionary
  3
STANDARD
350
6C
1001
ACAD
1000
TREAT_AS_HARD
1070
     0
  0
DICTIONARY
  5
17
102
{ACAD_REACTORS
330
C
102
}
330
C
100
AcDbDictionary
  3
STANDARD
350
18
1001
ACAD
1000
TREAT_AS_HARD
1070
     0
  0
DICTIONARY
  5
19
102
{ACAD_REACTORS
330
C
102
}
330
C
100
AcDbDictionary
1001
ACAD
1000
TREAT_AS_HARD
1070
     0
  0
DICTIONARY
  5
47
102
{ACAD_REACTORS
330
C
102
}
330
C
100
AcDbDictionary
  3
A0
350
48
  3
A1
350
49
  3
A2
350
4A
  3
A3
350
4B
  3
A4
350
4C
  3
A5
350
4D
  3
A6
350
4E
  3
A7
350
4F
  3
A8
350
50
  3
A9
350
51
  3
B0
350
52
  3
B1
350
53
  3
B2
350
54
  3
B3
350
55
  3
B4
350
56
  3
B5
350
57
  3
B6
350
58
  3
B7
350
59
  3
B8
350
5A
  3
B9
350
5B
  3
C0
350
5C
  3
C1
350
5D
  3
C2
350
5E
  3
C3
350
5F
  3
C4
350
60
  3
C5
350
61
  3
C6
350
62
  3
C7
350
63
  3
C8
350
64
  3
C9
350
65
  3
D0
350
66
  3
D1
350
67
  3
D2
350
68
1001
ACAD
1000
TREAT_AS_HARD
1070
     0
  0
DICTIONARY
  5
2A
102
{ACAD_REACTORS
330
C
102
}
330
C
100
AcDbDictionary
  3
2DWIREFRAME
350
2F
  3
BASIC
350
32
  3
BRIGHTEN
350
36
  3
COLORCHANGE
350
3A
  3
CONCEPTUAL
350
34
  3
DIM
350
35
  3
EDGECOLOROFF
350
3D
  3
FACEPATTERN
350
39
  3
FLAT
350
2B
  3
FLATWITHEDGES
350
2C
  3
GOURAUD
350
2D
  3
GOURAUDWITHEDGES
350
2E
  3
HIDDEN
350
31
  3
JITTEROFF
350
3B
  3
LINEPATTERN
350
38
  3
OVERHANGOFF
350
3C
  3
REALISTIC
350
33
  3
SHADED
350
42
  3
SHADED_WITH_EDGES
350
41
  3
SHADES_OF_GRAY
350
3E
  3
SKETCHY
350
3F
  3
THICKEN
350
37
  3
WIREFRAME
350
30
  3
X-RAY
350
40
1001
ACAD
1000
TREAT_AS_HARD
1070
     0
  0
DICTIONARY
  5
603
102
{ACAD_REACTORS
330
C
102
}
330
C
100
AcDbDictionary
  3
CANNOSCALE
350
60E
  3
CENTEREXE
350
60A
  3
CENTERLTYPEFILE
350
60B
  3
CMLEADERSTYLE
350
605
  3
CTABLESTYLE
350
604
  3
DIMASSOC
350
60C
  3
HIDETEXT
350
60D
  3
MSLTSCALE
350
60F
  3
PSOLHEIGHT
350
607
  3
PSOLWIDTH
350
606
1001
ACAD
1000
TREAT_AS_HARD
1070
     0
  0
MATERIAL
  5
45
102
{ACAD_REACTORS
330
43
102
}
102
{ACAD_XDICTIONARY
360
612
102
}
330
43
100
AcDbMaterial
  1
BYBLOCK
  0
MATERIAL
  5
44
102
{ACAD_REACTORS
330
43
102
}
102
{ACAD_XDICTIONARY
360
610
102
}
330
43
100
AcDbMaterial
  1
BYLAYER
  0
MATERIAL
  5
46
102
{ACAD_REACTORS
330
43
102
}
102
{ACAD_XDICTIONARY
360
614
102
}
330
43
100
AcDbMaterial
  1
GLOBAL
  0
ACAD_PROXY_OBJECT
  5
6C
102
{ACAD_REACTORS
330
6B
102
}
330
6B
100
AcDbZombieObject
 90
      499
 91
      505
 93
      610
310
40901902A4063FBFFFFFE0000000000000020400000000000020404214DD185B99185C990000000000000104090141901A00000000000004100000000000000041025764000000000000039000
340
14
340
0
340
11
340
0
 94
        0
1001
ACAD_MLEADERVER
1070
     2
  0
MLINESTYLE
  5
18
102
{ACAD_REACTORS
330
17
102
}
330
17
100
AcDbMlineStyle
  2
Standard
 70
     0
  3

 62
   256
 51
90.0
 52
90.0
 71
     2
 49
0.5
 62
   256
  6
BYLAYER
 49
-0.5
 62
   256
  6
BYLAYER
  0
ACAD_PROXY_OBJECT
  5
48
102
{ACAD_REACTORS
330
47
102
}
330
47
100
AcDbZombieObject
 90
      499
 91
      503
 93
       41
310
903313A31580
  0
ACAD_PROXY_OBJECT
  5
49
102
{ACAD_REACTORS
330
47
102
}
330
47
100
AcDbZombieObject
 90
      499
 91
      503
 93
      105
310
903313A324000000000000004000
  0
ACAD_PROXY_OBJECT
  5
4A
102
{ACAD_REACTORS
330
47
102
}
330
47
100
AcDbZombieObject
 90
      499
 91
      503
 93
      105
310
903313A344000000000000104000
  0
ACAD_PROXY_OBJECT
  5
4B
102
{ACAD_REACTORS
330
47
102
}
330
47
100
AcDbZombieObject
 90
      499
 91
      503
 93
      105
310
903313A354000000000000144000
  0
ACAD_PROXY_OBJECT
  5
4C
102
{ACAD_REACTORS
330
47
102
}
330
47
100
AcDbZombieObject
 90
      499
 91
      503
 93
      105
310
903313A384000000000000204000
  0
ACAD_PROXY_OBJECT
  5
4D
102
{ACAD_REACTORS
330
47
102
}
330
47
100
AcDbZombieObject
 90
      499
 91
      503
 93
      113
310
904313A31304000000000000244000
  0
ACAD_PROXY_OBJECT
  5
4E
102
{ACAD_REACTORS
330
47
102
}
330
47
100
AcDbZombieObject
 90
      499
 91
      503
 93
      113
310
904313A31364000000000000304000
  0
ACAD_PROXY_OBJECT
  5
4F
102
{ACAD_REACTORS
330
47
102
}
330
47
100
AcDbZombieObject
 90
      499
 91
      503
 93
      113
310
904313A32304000000000000344000
  0
ACAD_PROXY_OBJECT
  5
50
102
{ACAD_REACTORS
330
47
102
}
330
47
100
AcDbZombieObject
 90
      499
 91
      503
 93
      113
310
904313A333040000000000003E4000
  0
ACAD_PROXY_OBJECT
  5
51
102
{ACAD_REACTORS
330
47
102
}
330
47
100
AcDbZombieObject
 90
      499
 91
      503
 93
      113
310
904313A34304000000000000444000
  0
ACAD_PROXY_OBJECT
  5
52
102
{ACAD_REACTORS
330
47
102
}
330
47
100
AcDbZombieObject
 90
      499
 91
      503
 93
      113
310
904313A35304000000000000494000
  0
ACAD_PROXY_OBJECT
  5
53
102
{ACAD_REACTORS
330
47
102
}
330
47
100
AcDbZombieObject
 90
      499
 91
      503
 93
      121
310
905313A3130304000000000000594000
  0
ACAD_PROXY_OBJECT
  5
54
102
{ACAD_REACTORS
330
47
102
}
330
47
100
AcDbZombieObject
 90
      499
 91
      503
 93
      105
310
903323A310000000000000010100
  0
ACAD_PROXY_OBJECT
  5
55
102
{ACAD_REACTORS
330
47
102
}
330
47
100
AcDbZombieObject
 90
      499
 91
      503
 93
      105
310
903343A310000000000000410100
  0
ACAD_PROXY_OBJECT
  5
56
102
{ACAD_REACTORS
330
47
102
}
330
47
100
AcDbZombieObject
 90
      499
 91
      503
 93
      105
310
903383A310000000000000810100
  0
ACAD_PROXY_OBJECT
  5
57
102
{ACAD_REACTORS
330
47
102
}
330
47
100
AcDbZombieObject
 90
      499
 91
      503
 93
      113
310
90431303A310000000000000910100
  0
ACAD_PROXY_OBJECT
  5
58
102
{ACAD_REACTORS
330
47
102
}
330
47
100
AcDbZombieObject
 90
      499
 91
      503
 93
      121
310
9053130303A310000000000001650100
  0
ACAD_PROXY_OBJECT
  5
59
102
{ACAD_REACTORS
330
47
102
}
330
47
100
AcDbZombieObject
 90
      499
 91
      503
 93
      257
310
90E312F31323822203D2031272D3022000000000000200FC000000000000284000
  0
ACAD_PROXY_OBJECT
  5
5A
102
{ACAD_REACTORS
330
47
102
}
330
47
100
AcDbZombieObject
 90
      499
 91
      503
 93
      249
310
90D312F363422203D2031272D3022000000000000240FC000000000000284000
  0
ACAD_PROXY_OBJECT
  5
5B
102
{ACAD_REACTORS
330
47
102
}
330
47
100
AcDbZombieObject
 90
      499
 91
      503
 93
      249
310
90D312F333222203D2031272D3022000000000000280FC000000000000284000
  0
ACAD_PROXY_OBJECT
  5
5C
102
{ACAD_REACTORS
330
47
102
}
330
47
100
AcDbZombieObject
 90
      499
 91
      503
 93
      249
310
90D312F313622203D2031272D30220000000000002C0FC000000000000284000
  0
ACAD_PROXY_OBJECT
  5
5D
102
{ACAD_REACTORS
330
47
102
}
330
47
100
AcDbZombieObject
 90
      499
 91
      503
 93
      249
310
90D332F333222203D2031272D30220000000000002E0FC000000000000284000
  0
ACAD_PROXY_OBJECT
  5
5E
102
{ACAD_REACTORS
330
47
102
}
330
47
100
AcDbZombieObject
 90
      499
 91
      503
 93
      241
310
90C312F3822203D2031272D3022000000000000300FC000000000000284000
  0
ACAD_PROXY_OBJECT
  5
5F
102
{ACAD_REACTORS
330
47
102
}
330
47
100
AcDbZombieObject
 90
      499
 91
      503
 93
      249
310
90D332F313622203D2031272D3022000000000000320FC000000000000284000
  0
ACAD_PROXY_OBJECT
  5
60
102
{ACAD_REACTORS
330
47
102
}
330
47
100
AcDbZombieObject
 90
      499
 91
      503
 93
      241
310
90C312F3422203D2031272D3022000000000000340FC000000000000284000
  0
ACAD_PROXY_OBJECT
  5
61
102
{ACAD_REACTORS
330
47
102
}
330
47
100
AcDbZombieObject
 90
      499
 91
      503
 93
      241
310
90C332F3822203D2031272D3022000000000000360FC000000000000284000
  0
ACAD_PROXY_OBJECT
  5
62
102
{ACAD_REACTORS
330
47
102
}
330
47
100
AcDbZombieObject
 90
      499
 91
      503
 93
      241
310
90C312F3222203D2031272D3022000000000000380FC000000000000284000
  0
ACAD_PROXY_OBJECT
  5
63
102
{ACAD_REACTORS
330
47
102
}
330
47
100
AcDbZombieObject
 90
      499
 91
      503
 93
      241
310
90C332F3422203D2031272D30220000000000003A0FC000000000000284000
  0
ACAD_PROXY_OBJECT
  5
64
102
{ACAD_REACTORS
330
47
102
}
330
47
100
AcDbZombieObject
 90
      499
 91
      503
 93
      161
310
90A3122203D2031272D30224000000000000284000
  0
ACAD_PROXY_OBJECT
  5
65
102
{ACAD_REACTORS
330
47
102
}
330
47
100
AcDbZombieObject
 90
      499
 91
      503
 93
      257
310
90E312D312F3222203D2031272D30220000000000003E0FC000000000000284000
  0
ACAD_PROXY_OBJECT
  5
66
102
{ACAD_REACTORS
330
47
102
}
330
47
100
AcDbZombieObject
 90
      499
 91
      503
 93
      225
310
90A3322203D2031272D302200000000000002100000000000000284000
  0
ACAD_PROXY_OBJECT
  5
67
102
{ACAD_REACTORS
330
47
102
}
330
47
100
AcDbZombieObject
 90
      499
 91
      503
 93
      225
310
90A3622203D2031272D302200000000000006100000000000000284000
  0
ACAD_PROXY_OBJECT
  5
68
102
{ACAD_REACTORS
330
47
102
}
330
47
100
AcDbZombieObject
 90
      499
 91
      503
 93
      249
310
90D31272D3022203D2031272D30220000000000000A100000000000000284000
  0
ACAD_PROXY_OBJECT
  5
2F
102
{ACAD_REACTORS
330
2A
102
}
330
2A
100
AcDbZombieObject
 90
      499
 91
      501
 93
      436
310
42CC9915DA5C99599C985B595049028333333333333E33F0000000000000F90107901411070040501600405405064090741402480A0340
1001
ACAD
1000
AcDbSavedByObjectVersion
1070
     0
  0
ACAD_PROXY_OBJECT
  5
32
102
{ACAD_REACTORS
330
2A
102
}
330
2A
100
AcDbZombieObject
 90
      499
 91
      501
 93
      388
310
4150985CDA58D07406404333333333333E33F0000000000000F90107A41107004050150841D405064090741402480A0350
1001
ACAD
1000
AcDbSavedByObjectVersion
1070
     0
  0
ACAD_PROXY_OBJECT
  5
36
102
{ACAD_REACTORS
330
2A
102
}
330
2A
100
AcDbZombieObject
 90
      499
 91
      501
 93
      428
310
42109C9A59DA1D195B90C409028333333333333E33F0000000000000F9010790141107004050150841D405064090741402480A029950
1001
ACAD
1000
AcDbSavedByObjectVersion
1070
     0
  0
ACAD_PROXY_OBJECT
  5
3A
102
{ACAD_REACTORS
330
2A
102
}
330
2A
100
AcDbZombieObject
 90
      499
 91
      501
 93
      452
310
42D0DBDB1BDC90DA185B99D95104090240C333333333333E33F0000000000000F90108901411070040501508421405064090741402480A0350
1001
ACAD
1000
AcDbSavedByObjectVersion
1070
     0
  0
ACAD_PROXY_OBJECT
  5
34
102
{ACAD_REACTORS
330
2A
102
}
330
2A
100
AcDbZombieObject
 90
      499
 91
      501
 93
      500
310
4290DBDB98D95C1D1D585B10940D028333333333333E33F0000000000000F90107902409070040501000000000018199010841D405064090740C02480A0340
1001
ACAD
1000
AcDbSavedByObjectVersion
1070
     0
  0
ACAD_PROXY_OBJECT
  5
35
102
{ACAD_REACTORS
330
2A
102
}
330
2A
100
AcDbZombieObject
 90
      499
 91
      501
 93
      412
310
40D11A5B50B409028333333333333E33F0000000000000F9010790141107004050150841D405064090741402480A02677FFFFFD0
1001
ACAD
1000
AcDbSavedByObjectVersion
1070
     0
  0
ACAD_PROXY_OBJECT
  5
3D
102
{ACAD_REACTORS
330
2A
102
}
330
2A
100
AcDbZombieObject
 90
      499
 91
      501
 93
      452
310
43115919D950DBDB1BDC93D999916409028333333333333E33F0000000000000F9010790141107004050150841D405064090741402480A0350
1001
ACAD
1000
AcDbSavedByObjectVersion
1070
     0
  0
ACAD_PROXY_OBJECT
  5
39
102
{ACAD_REACTORS
330
2A
102
}
330
2A
100
AcDbZombieObject
 90
      499
 91
      501
 93
      444
310
42D19858D95C185D1D195C9B90F409028333333333333E33F0000000000000F9010790141107004050150841D405064090741402480A0350
1001
ACAD
1000
AcDbSavedByObjectVersion
1070
     0
  0
ACAD_PROXY_OBJECT
  5
2B
102
{ACAD_REACTORS
330
2A
102
}
330
2A
100
AcDbZombieObject
 90
      499
 91
      501
 93
      380
310
41119B185D240901404333333333333E33F0000000000000F9010740A907004050150841D405064090741402480A1B50
1001
ACAD
1000
AcDbSavedByObjectVersion
1070
     0
  0
ACAD_PROXY_OBJECT
  5
2C
102
{ACAD_REACTORS
330
2A
102
}
330
2A
100
AcDbZombieObject
 90
      499
 91
      501
 93
      468
310
43519B185D15DA5D1A115919D95CD0140901404333333333333E33F0000000000000F90107409019070040501600405405064090741402480A1B50
1001
ACAD
1000
AcDbSavedByObjectVersion
1070
     0
  0
ACAD_PROXY_OBJECT
  5
2D
102
{ACAD_REACTORS
330
2A
102
}
330
2A
100
AcDbZombieObject
 90
      499
 91
      501
 93
      404
310
41D1DBDD5C985D5910240902404333333333333E33F0000000000000F9010740A9070040501641D405064090741402480A1B50
1001
ACAD
1000
AcDbSavedByObjectVersion
1070
     0
  0
ACAD_PROXY_OBJECT
  5
2E
102
{ACAD_REACTORS
330
2A
102
}
330
2A
100
AcDbZombieObject
 90
      499
 91
      501
 93
      492
310
4411DBDD5C985D5915DA5D1A115919D95CD0340902404333333333333E33F0000000000000F90107409019070040501600405405064090741402480A1B50
1001
ACAD
1000
AcDbSavedByObjectVersion
1070
     0
  0
ACAD_PROXY_OBJECT
  5
31
102
{ACAD_REACTORS
330
2A
102
}
330
2A
100
AcDbZombieObject
 90
      499
 91
      501
 93
      476
310
41921A5919195B90640502408333333333333E33F0000000000000F901079024090700405020000000000001110200405405064090740C02480A0340
1001
ACAD
1000
AcDbSavedByObjectVersion
1070
     0
  0
ACAD_PROXY_OBJECT
  5
3B
102
{ACAD_REACTORS
330
2A
102
}
330
2A
100
AcDbZombieObject
 90
      499
 91
      501
 93
      428
310
42529A5D1D195C93D999914409028333333333333E33F0000000000000F9010790141107004050150A41D405064090741402480A0350
1001
ACAD
1000
AcDbSavedByObjectVersion
1070
     0
  0
ACAD_PROXY_OBJECT
  5
38
102
{ACAD_REACTORS
330
2A
102
}
330
2A
100
AcDbZombieObject
 90
      499
 91
      501
 93
      444
310
42D31A5B995C185D1D195C9B90E409028333333333333E33F0000000000000F9010790141107004050750841D405064090741402483A0350
1001
ACAD
1000
AcDbSavedByObjectVersion
1070
     0
  0
ACAD_PROXY_OBJECT
  5
3C
102
{ACAD_REACTORS
330
2A
102
}
330
2A
100
AcDbZombieObject
 90
      499
 91
      501
 93
      444
310
42D3DD995C9A185B99D3D999915409028333333333333E33F0000000000000F9010790141107004050150941D405064090741402480A0350
1001
ACAD
1000
AcDbSavedByObjectVersion
1070
     0
  0
ACAD_PROXY_OBJECT
  5
33
102
{ACAD_REACTORS
330
2A
102
}
330
2A
100
AcDbZombieObject
 90
      499
 91
      501
 93
      428
310
425499585B1A5CDD1A58D08409038333333333333E33F0000000000000F9010740A907004050150800405405064090740C02480A1B40
1001
ACAD
1000
AcDbSavedByObjectVersion
1070
     0
  0
ACAD_PROXY_OBJECT
  5
42
102
{ACAD_REACTORS
330
2A
102
}
330
2A
100
AcDbZombieObject
 90
      499
 91
      501
 93
      420
310
4194DA1859195911B40902404333333333333E33F0000000000000F9010740A41107004050150800405405064090840C02480A0B40
1001
ACAD
1000
AcDbSavedByObjectVersion
1070
     0
  0
ACAD_PROXY_OBJECT
  5
41
102
{ACAD_REACTORS
330
2A
102
}
330
2A
100
AcDbZombieObject
 90
      499
 91
      501
 93
      516
310
4454DA18591959081DDA5D1A08195919D95CD1A40902404333333333333E33F0000000000000F901074090142907004050250800405405064090740C02480A0B40
1001
ACAD
1000
AcDbSavedByObjectVersion
1070
     0
  0
ACAD_PROXY_OBJECT
  5
3E
102
{ACAD_REACTORS
330
2A
102
}
330
2A
100
AcDbZombieObject
 90
      499
 91
      501
 93
      532
310
4394DA1859195CC81BD98811DC985E5174090240C333333333333E33F0000000000000F901079024090741D01000000000000111010841D405064090740C02480A0340
1001
ACAD
1000
AcDbSavedByObjectVersion
1070
     0
  0
ACAD_PROXY_OBJECT
  5
3F
102
{ACAD_REACTORS
330
2A
102
}
330
2A
100
AcDbZombieObject
 90
      499
 91
      501
 93
      476
310
41D4DAD95D18DA1E51840502408333333333333E33F0000000000000F901079024090741D01000000000000111010B41D405064090741802480A0340
1001
ACAD
1000
AcDbSavedByObjectVersion
1070
     0
  0
ACAD_PROXY_OBJECT
  5
37
102
{ACAD_REACTORS
330
2A
102
}
330
2A
100
AcDbZombieObject
 90
      499
 91
      501
 93
      412
310
41D51A1A58DAD95B90D409028333333333333E33F0000000000000F9010790141107004050150C41D405064090741402480A0350
1001
ACAD
1000
AcDbSavedByObjectVersion
1070
     0
  0
ACAD_PROXY_OBJECT
  5
30
102
{ACAD_REACTORS
330
2A
102
}
330
2A
100
AcDbZombieObject
 90
      499
 91
      501
 93
      420
310
4255DA5C99599C985B595059028333333333333E33F0000000000000F90107901411070040501600405405064090740C02480A0340
1001
ACAD
1000
AcDbSavedByObjectVersion
1070
     0
  0
ACAD_PROXY_OBJECT
  5
40
102
{ACAD_REACTORS
330
2A
102
}
330
2A
100
AcDbZombieObject
 90
      499
 91
      501
 93
      404
310
41560B54985E51940902404000000000000E03F0000000000000F9010740501907004050150841D405064090740C02480A1B40
1001
ACAD
1000
AcDbSavedByObjectVersion
1070
     0
  0
DICTIONARYVAR
  5
60E
102
{ACAD_REACTORS
330
603
102
}
330
603
100
DictionaryVariables
280
     0
  1
1:1
  0
DICTIONARYVAR
  5
60A
102
{ACAD_REACTORS
330
603
102
}
330
603
100
DictionaryVariables
280
     0
  1
3.500000
  0
DICTIONARYVAR
  5
60B
102
{ACAD_REACTORS
330
603
102
}
330
603
100
DictionaryVariables
280
     0
  1
acadiso.lin
  0
DICTIONARYVAR
  5
605
102
{ACAD_REACTORS
330
603
102
}
330
603
100
DictionaryVariables
280
     0
  1
Standard
  0
DICTIONARYVAR
  5
604
102
{ACAD_REACTORS
330
603
102
}
330
603
100
DictionaryVariables
280
     0
  1
Standard
  0
DICTIONARYVAR
  5
60C
102
{ACAD_REACTORS
330
603
102
}
330
603
100
DictionaryVariables
280
     0
  1
2
  0
DICTIONARYVAR
  5
60D
102
{ACAD_REACTORS
330
603
102
}
330
603
100
DictionaryVariables
280
     0
  1
1
  0
DICTIONARYVAR
  5
60F
102
{ACAD_REACTORS
330
603
102
}
330
603
100
DictionaryVariables
280
     0
  1
1
  0
DICTIONARYVAR
  5
607
102
{ACAD_REACTORS
330
603
102
}
330
603
100
DictionaryVariables
280
     0
  1
80.000000
  0
DICTIONARYVAR
  5
606
102
{ACAD_REACTORS
330
603
102
}
330
603
100
DictionaryVariables
280
     0
  1
5.000000
  0
DICTIONARY
  5
612
330
45
100
AcDbDictionary
  3
ACAD_XREC_ROUNDTRIP
360
613
1001
ACAD
1000
TREAT_AS_HARD
1070
     1
  0
DICTIONARY
  5
610
330
44
100
AcDbDictionary
  3
ACAD_XREC_ROUNDTRIP
360
611
1001
ACAD
1000
TREAT_AS_HARD
1070
     1
  0
DICTIONARY
  5
614
330
46
100
AcDbDictionary
  3
ACAD_XREC_ROUNDTRIP
360
615
1001
ACAD
1000
TREAT_AS_HARD
1070
     1
  0
XRECORD
  5
613
102
{ACAD_REACTORS
330
612
102
}
330
612
100
AcDbXrecord
102
MATERIAL
148
0.0
149
0.0
149
0.0
 93
        0
 94
      127
282
     0
 72
     1
 77
     1
171
     1
175
     1
179
     1
273
     0
  0
XRECORD
  5
611
102
{ACAD_REACTORS
330
610
102
}
330
610
100
AcDbXrecord
102
MATERIAL
148
0.0
149
0.0
149
0.0
 93
        0
 94
      127
282
     0
 72
     1
 77
     1
171
     1
175
     1
179
     1
273
     0
  0
XRECORD
  5
615
102
{ACAD_REACTORS
330
614
102
}
330
614
100
AcDbXrecord
102
MATERIAL
148
0.0
149
0.0
149
0.0
 93
        0
 94
      127
282
     0
 72
     1
 77
     1
171
     1
175
     1
179
     1
273
     0
  0
ENDSEC
  0
EOF
