  0
SECTION
  2
HEADER
  9
$ACADVER
  1
AC1012
  9
$DWGCODEPAGE
  3
ansi_1252
  9
$INSBASE
 10
0.0
 20
0.0
 30
0.0
  9
$EXTMIN
 10
1.000000000000000E+20
 20
1.000000000000000E+20
 30
1.000000000000000E+20
  9
$EXTMAX
 10
-1.000000000000000E+20
 20
-1.000000000000000E+20
 30
-1.000000000000000E+20
  9
$LIMMIN
 10
0.0
 20
0.0
  9
$LIMMAX
 10
420.0
 20
297.0
  9
$ORTHOMODE
 70
     0
  9
$REGENMODE
 70
     1
  9
$FILLMODE
 70
     1
  9
$QTEXTMODE
 70
     0
  9
$MIRRTEXT
 70
     1
  9
$DRAGMODE
 70
     2
  9
$LTSCALE
 40
1.0
  9
$OSMODE
 70
    37
  9
$ATTMODE
 70
     1
  9
$TEXTSIZE
 40
2.5
  9
$TRACEWID
 40
1.0
  9
$TEXTSTYLE
  7
STANDARD
  9
$CLAYER
  8
0
  9
$CELTYPE
  6
BYLAYER
  9
$CECOLOR
 62
   256
  9
$CELTSCALE
 40
1.0
  9
$DELOBJ
 70
     1
  9
$DISPSILH
 70
     0
  9
$DIMSCALE
 40
1.0
  9
$DIMASZ
 40
2.5
  9
$DIMEXO
 40
0.625
  9
$DIMDLI
 40
3.75
  9
$DIMRND
 40
0.0
  9
$DIMDLE
 40
0.0
  9
$DIMEXE
 40
1.25
  9
$DIMTP
 40
0.0
  9
$DIMTM
 40
0.0
  9
$DIMTXT
 40
2.5
  9
$DIMCEN
 40
2.5
  9
$DIMTSZ
 40
0.0
  9
$DIMTOL
 70
     0
  9
$DIMLIM
 70
     0
  9
$DIMTIH
 70
     0
  9
$DIMTOH
 70
     0
  9
$DIMSE1
 70
     0
  9
$DIMSE2
 70
     0
  9
$DIMTAD
 70
     1
  9
$DIMZIN
 70
     8
  9
$DIMBLK
  1

  9
$DIMASO
 70
     1
  9
$DIMSHO
 70
     1
  9
$DIMPOST
  1

  9
$DIMAPOST
  1

  9
$DIMALT
 70
     0
  9
$DIMALTD
 70
     3
  9
$DIMALTF
 40
0.03937007874016
  9
$DIMLFAC
 40
1.0
  9
$DIMTOFL
 70
     1
  9
$DIMTVP
 40
0.0
  9
$DIMTIX
 70
     0
  9
$DIMSOXD
 70
     0
  9
$DIMSAH
 70
     0
  9
$DIMBLK1
  1

  9
$DIMBLK2
  1

  9
$DIMSTYLE
  2
ISO-25
  9
$DIMCLRD
 70
     0
  9
$DIMCLRE
 70
     0
  9
$DIMCLRT
 70
     0
  9
$DIMTFAC
 40
1.0
  9
$DIMGAP
 40
0.625
  9
$DIMJUST
 70
     0
  9
$DIMSD1
 70
     0
  9
$DIMSD2
 70
     0
  9
$DIMTOLJ
 70
     0
  9
$DIMTZIN
 70
     8
  9
$DIMALTZ
 70
     0
  9
$DIMALTTZ
 70
     0
  9
$DIMFIT
 70
     3
  9
$DIMUPT
 70
     0
  9
$DIMUNIT
 70
     2
  9
$DIMDEC
 70
     2
  9
$DIMTDEC
 70
     2
  9
$DIMALTU
 70
     2
  9
$DIMALTTD
 70
     3
  9
$DIMTXSTY
  7
STANDARD
  9
$DIMAUNIT
 70
     0
  9
$LUNITS
 70
     2
  9
$LUPREC
 70
     4
  9
$SKETCHINC
 40
1.0
  9
$FILLETRAD
 40
10.0
  9
$AUNITS
 70
     0
  9
$AUPREC
 70
     0
  9
$MENU
  1
.
  9
$ELEVATION
 40
0.0
  9
$PELEVATION
 40
0.0
  9
$THICKNESS
 40
0.0
  9
$LIMCHECK
 70
     0
  9
$CHAMFERA
 40
0.0
  9
$CHAMFERB
 40
0.0
  9
$CHAMFERC
 40
0.0
  9
$CHAMFERD
 40
0.0
  9
$SKPOLY
 70
     0
  9
$TDCREATE
 40
2458046.457211447
  9
$TDUPDATE
 40
2458046.457212165
  9
$TDINDWG
 40
0.0000000116
  9
$TDUSRTIMER
 40
0.0000000116
  9
$USRTIMER
 70
     1
  9
$ANGBASE
 50
0.0
  9
$ANGDIR
 70
     0
  9
$PDMODE
 70
     0
  9
$PDSIZE
 40
0.0
  9
$PLINEWID
 40
0.0
  9
$COORDS
 70
     1
  9
$SPLFRAME
 70
     0
  9
$SPLINETYPE
 70
     6
  9
$SPLINESEGS
 70
     8
  9
$ATTDIA
 70
     0
  9
$ATTREQ
 70
     1
  9
$HANDLING
 70
     1
  9
$HANDSEED
  5
141
  9
$SURFTAB1
 70
     6
  9
$SURFTAB2
 70
     6
  9
$SURFTYPE
 70
     6
  9
$SURFU
 70
     6
  9
$SURFV
 70
     6
  9
$UCSNAME
  2

  9
$UCSORG
 10
0.0
 20
0.0
 30
0.0
  9
$UCSXDIR
 10
1.0
 20
0.0
 30
0.0
  9
$UCSYDIR
 10
0.0
 20
1.0
 30
0.0
  9
$PUCSNAME
  2

  9
$PUCSORG
 10
0.0
 20
0.0
 30
0.0
  9
$PUCSXDIR
 10
1.0
 20
0.0
 30
0.0
  9
$PUCSYDIR
 10
0.0
 20
1.0
 30
0.0
  9
$USERI1
 70
     0
  9
$USERI2
 70
     0
  9
$USERI3
 70
     0
  9
$USERI4
 70
     0
  9
$USERI5
 70
     0
  9
$USERR1
 40
0.0
  9
$USERR2
 40
0.0
  9
$USERR3
 40
0.0
  9
$USERR4
 40
0.0
  9
$USERR5
 40
0.0
  9
$WORLDVIEW
 70
     1
  9
$SHADEDGE
 70
     3
  9
$SHADEDIF
 70
    70
  9
$TILEMODE
 70
     1
  9
$MAXACTVP
 70
    64
  9
$PINSBASE
 10
0.0
 20
0.0
 30
0.0
  9
$PLIMCHECK
 70
     0
  9
$PEXTMIN
 10
1.000000000000000E+20
 20
1.000000000000000E+20
 30
1.000000000000000E+20
  9
$PEXTMAX
 10
-1.000000000000000E+20
 20
-1.000000000000000E+20
 30
-1.000000000000000E+20
  9
$PLIMMIN
 10
0.0
 20
0.0
  9
$PLIMMAX
 10
420.0
 20
297.0
  9
$UNITMODE
 70
     0
  9
$VISRETAIN
 70
     1
  9
$PLINEGEN
 70
     0
  9
$PSLTSCALE
 70
     1
  9
$TREEDEPTH
 70
  3020
  9
$PICKSTYLE
 70
     1
  9
$CMLSTYLE
  2
STANDARD
  9
$CMLJUST
 70
     0
  9
$CMLSCALE
 40
20.0
  9
$SAVEIMAGES
 70
     1
  0
ENDSEC
  0
SECTION
  2
CLASSES
  0
CLASS
  1
ACDBDICTIONARYWDFLT
  2
AcDbDictionaryWithDefault
  3
ObjectDBX Classes
 90
    32768
280
     0
281
     0
  0
CLASS
  1
VISUALSTYLE
  2
AcDbVisualStyle
  3
ObjectDBX Classes
 90
     4095
280
     0
281
     0
  0
CLASS
  1
MATERIAL
  2
AcDbMaterial
  3
ObjectDBX Classes
 90
     1153
280
     0
281
     0
  0
CLASS
  1
SCALE
  2
AcDbScale
  3
ObjectDBX Classes
 90
     1153
280
     0
281
     0
  0
CLASS
  1
TABLESTYLE
  2
AcDbTableStyle
  3
ObjectDBX Classes
 90
     4095
280
     0
281
     0
  0
CLASS
  1
MLEADERSTYLE
  2
AcDbMLeaderStyle
  3
ACDB_MLEADERSTYLE_CLASS
 90
     4095
280
     0
281
     0
  0
CLASS
  1
SUN
  2
AcDbSun
  3
SCENEOE
 90
     1153
280
     0
281
     0
  0
CLASS
  1
DICTIONARYVAR
  2
AcDbDictionaryVar
  3
ObjectDBX Classes
 90
        0
280
     0
281
     0
  0
CLASS
  1
XRECORD
  2
AcDbXrecord
  3
ObjectDBX Classes
 90
    32768
280
     0
281
     0
  0
CLASS
  1
LWPOLYLINE
  2
AcDbPolyline
  3
ObjectDBX Classes
 90
    32768
280
     0
281
     1
  0
CLASS
  1
HATCH
  2
AcDbHatch
  3
ObjectDBX Classes
 90
    32768
280
     0
281
     1
  0
CLASS
  1
ACDBPLACEHOLDER
  2
AcDbPlaceHolder
  3
ObjectDBX Classes
 90
        0
280
     0
281
     0
  0
CLASS
  1
LAYOUT
  2
AcDbLayout
  3
ObjectDBX Classes
 90
        0
280
     0
281
     0
  0
ENDSEC
  0
SECTION
  2
TABLES
  0
TABLE
  2
VPORT
  5
8
330
0
100
AcDbSymbolTable
 70
     1
  0
VPORT
  5
29
330
8
100
AcDbSymbolTableRecord
100
AcDbViewportTableRecord
  2
*ACTIVE
 70
     0
 10
0.0
 20
0.0
 11
1.0
 21
1.0
 12
-14.99999999999994
 22
0.0
 13
0.0
 23
0.0
 14
10.0
 24
10.0
 15
10.0
 25
10.0
 16
0.0
 26
0.0
 36
1.0
 17
0.0
 27
0.0
 37
0.0
 40
790.5
 41
1.352258064516129
 42
50.0
 43
0.0
 44
0.0
 50
0.0
 51
0.0
 71
     0
 72
   100
 73
     1
 74
     3
 75
     0
 76
     0
 77
     0
 78
     0
  0
ENDTAB
  0
TABLE
  2
LTYPE
  5
5
330
0
100
AcDbSymbolTable
 70
     1
  0
LTYPE
  5
14
330
5
100
AcDbSymbolTableRecord
100
AcDbLinetypeTableRecord
  2
BYBLOCK
 70
     0
  3

 72
    65
 73
     0
 40
0.0
  0
LTYPE
  5
15
330
5
100
AcDbSymbolTableRecord
100
AcDbLinetypeTableRecord
  2
BYLAYER
 70
     0
  3

 72
    65
 73
     0
 40
0.0
  0
LTYPE
  5
16
330
5
100
AcDbSymbolTableRecord
100
AcDbLinetypeTableRecord
  2
CONTINUOUS
 70
     0
  3
Solid line
 72
    65
 73
     0
 40
0.0
  0
ENDTAB
  0
TABLE
  2
LAYER
  5
2
330
0
100
AcDbSymbolTable
 70
     4
  0
LAYER
  5
10
330
2
100
AcDbSymbolTableRecord
100
AcDbLayerTableRecord
  2
0
 70
     0
 62
     7
  6
CONTINUOUS
  0
LAYER
  5
6E
330
2
100
AcDbSymbolTableRecord
100
AcDbLayerTableRecord
  2
THICK
 70
     0
 62
     7
  6
CONTINUOUS
  0
LAYER
  5
6F
330
2
100
AcDbSymbolTableRecord
100
AcDbLayerTableRecord
  2
HIDDEN
 70
     0
 62
     7
  6
CONTINUOUS
  0
LAYER
  5
70
330
2
100
AcDbSymbolTableRecord
100
AcDbLayerTableRecord
  2
HASHLINES
 70
     0
 62
     7
  6
CONTINUOUS
  0
ENDTAB
  0
TABLE
  2
STYLE
  5
3
330
0
100
AcDbSymbolTable
 70
     1
  0
STYLE
  5
11
330
3
100
AcDbSymbolTableRecord
100
AcDbTextStyleTableRecord
  2
STANDARD
 70
     0
 40
0.0
 41
1.0
 50
0.0
 71
     0
 42
2.5
  3
txt
  4

  0
ENDTAB
  0
TABLE
  2
VIEW
  5
6
330
0
100
AcDbSymbolTable
 70
     0
  0
ENDTAB
  0
TABLE
  2
UCS
  5
7
330
0
100
AcDbSymbolTable
 70
     0
  0
ENDTAB
  0
TABLE
  2
APPID
  5
9
330
0
100
AcDbSymbolTable
 70
     3
  0
APPID
  5
12
330
9
100
AcDbSymbolTableRecord
100
AcDbRegAppTableRecord
  2
ACAD
 70
     0
  0
APPID
  5
71
330
9
100
AcDbSymbolTableRecord
100
AcDbRegAppTableRecord
  2
DBPROPERTIES
 70
     0
  0
APPID
  5
140
330
9
100
AcDbSymbolTableRecord
100
AcDbRegAppTableRecord
  2
ACAD_MLEADERVER
 70
     0
  0
ENDTAB
  0
TABLE
  2
DIMSTYLE
  5
A
330
0
100
AcDbSymbolTable
 70
     1
  0
DIMSTYLE
105
27
330
A
100
AcDbSymbolTableRecord
100
AcDbDimStyleTableRecord
  2
ISO-25
 70
     0
  3

  4

  5

  6

  7

 40
1.0
 41
2.5
 42
0.625
 43
3.75
 44
1.25
 45
0.0
 46
0.0
 47
0.0
 48
0.0
140
2.5
141
2.5
142
0.0
143
0.03937007874016
144
1.0
145
0.0
146
1.0
147
0.625
 71
     0
 72
     0
 73
     0
 74
     0
 75
     0
 76
     0
 77
     1
 78
     8
170
     0
171
     3
172
     1
173
     0
174
     0
175
     0
176
     0
177
     0
178
     0
270
     2
271
     2
272
     2
273
     2
274
     3
340
11
275
     0
280
     0
281
     0
282
     0
283
     0
284
     8
285
     0
286
     0
287
     3
288
     0
  0
ENDTAB
  0
TABLE
  2
BLOCK_RECORD
  5
1
330
0
100
AcDbSymbolTable
 70
     0
  0
BLOCK_RECORD
  5
1F
330
1
100
AcDbSymbolTableRecord
100
AcDbBlockTableRecord
  2
*MODEL_SPACE
  0
BLOCK_RECORD
  5
1B
330
1
100
AcDbSymbolTableRecord
100
AcDbBlockTableRecord
  2
*PAPER_SPACE
  0
ENDTAB
  0
ENDSEC
  0
SECTION
  2
BLOCKS
  0
BLOCK
  5
20
330
1F
100
AcDbEntity
  8
0
100
AcDbBlockBegin
  2
*MODEL_SPACE
 70
     0
 10
0.0
 20
0.0
 30
0.0
  3
*MODEL_SPACE
  1

  0
ENDBLK
  5
21
330
1F
100
AcDbEntity
  8
0
100
AcDbBlockEnd
  0
BLOCK
  5
1C
330
1B
100
AcDbEntity
 67
     1
  8
0
100
AcDbBlockBegin
  2
*PAPER_SPACE
 70
     0
 10
0.0
 20
0.0
 30
0.0
  3
*PAPER_SPACE
  1

  0
ENDBLK
  5
1D
330
1B
100
AcDbEntity
 67
     1
  8
0
100
AcDbBlockEnd
  0
ENDSEC
  0
SECTION
  2
ENTITIES
  0
LINE
  5
72
330
1F
100
AcDbEntity
  8
HIDDEN
100
AcDbLine
 10
509.0
 20
382.5
 30
0.0
 11
509.0
 21
382.5
 31
0.0
1001
DBPROPERTIES
1002
{
1000
PbHidd
1002
}
  0
LINE
  5
73
330
1F
100
AcDbEntity
  8
THICK
100
AcDbLine
 10
509.0
 20
-382.5
 30
0.0
 11
509.0
 21
382.5
 31
0.0
1001
DBPROPERTIES
1002
{
1000
PbThick
1002
}
  0
LINE
  5
74
330
1F
100
AcDbEntity
  8
HIDDEN
100
AcDbLine
 10
509.0
 20
-382.5000000000001
 30
0.0
 11
509.0
 21
-382.5000000000001
 31
0.0
1001
DBPROPERTIES
1002
{
1000
PbHidd
1002
}
  0
ARC
  5
75
330
1F
100
AcDbEntity
  8
HIDDEN
100
AcDbCircle
 10
-202.0
 20
-44.5
 30
0.0
 40
201.0
100
AcDbArc
 50
180.0000198478428
 51
0.0
1001
DBPROPERTIES
1002
{
1000
PbHidd
1002
}
  0
ARC
  5
76
330
1F
100
AcDbEntity
  8
HIDDEN
100
AcDbCircle
 10
-202.0
 20
-44.5
 30
0.0
 40
197.0
100
AcDbArc
 50
180.0000198478428
 51
0.0
1001
DBPROPERTIES
1002
{
1000
PbHidd
1002
}
  0
ARC
  5
77
330
1F
100
AcDbEntity
  8
HIDDEN
100
AcDbCircle
 10
-159.05
 20
37.55000000000001
 30
0.0
 40
265.95
100
AcDbArc
 50
318.1467508686222
 51
0.0
1001
DBPROPERTIES
1002
{
1000
PbHidd
1002
}
  0
LINE
  5
78
330
1F
100
AcDbEntity
  8
HIDDEN
100
AcDbLine
 10
39.04455128801514
 20
-139.8984467387639
 30
0.0
 11
39.04455128801512
 21
-139.8984467387639
 31
0.0
1001
DBPROPERTIES
1002
{
1000
PbHidd
1002
}
  0
ARC
  5
79
330
1F
100
AcDbEntity
  8
HIDDEN
100
AcDbCircle
 10
-159.05
 20
37.55000000000001
 30
0.0
 40
261.95
100
AcDbArc
 50
212.5789906368704
 51
0.0
1001
DBPROPERTIES
1002
{
1000
PbHidd
1002
}
  0
LINE
  5
7A
330
1F
100
AcDbEntity
  8
HIDDEN
100
AcDbLine
 10
-379.7821906745819
 20
-103.5
 30
0.0
 11
-379.7821906745819
 21
-103.5
 31
0.0
1001
DBPROPERTIES
1002
{
1000
PbHidd
1002
}
  0
ARC
  5
7B
330
1F
100
AcDbEntity
  8
HIDDEN
100
AcDbCircle
 10
-159.05
 20
37.55000000000001
 30
0.0
 40
134.975
100
AcDbArc
 50
180.0000198478428
 51
0.0
1001
DBPROPERTIES
1002
{
1000
PbHidd
1002
}
  0
ARC
  5
7C
330
1F
100
AcDbEntity
  8
HIDDEN
100
AcDbCircle
 10
-159.05
 20
37.55000000000001
 30
0.0
 40
130.975
100
AcDbArc
 50
180.0000198478428
 51
0.0
1001
DBPROPERTIES
1002
{
1000
PbHidd
1002
}
  0
LINE
  5
7D
330
1F
100
AcDbEntity
  8
HIDDEN
100
AcDbLine
 10
-50.953413098582
 20
-36.40659892980595
 30
0.0
 11
-50.953413098582
 21
-36.40659892980595
 31
0.0
1001
DBPROPERTIES
1002
{
1000
PbHidd
1002
}
  0
LINE
  5
7E
330
1F
100
AcDbEntity
  8
HIDDEN
100
AcDbLine
 10
-40.953413098582
 20
-19.08609085411717
 30
0.0
 11
-40.953413098582
 21
-19.08609085411717
 31
0.0
1001
DBPROPERTIES
1002
{
1000
PbHidd
1002
}
  0
LINE
  5
7F
330
1F
100
AcDbEntity
  8
HIDDEN
100
AcDbLine
 10
-277.146586901418
 20
-19.08609085411717
 30
0.0
 11
-277.146586901418
 21
-19.08609085411717
 31
0.0
1001
DBPROPERTIES
1002
{
1000
PbHidd
1002
}
  0
LINE
  5
80
330
1F
100
AcDbEntity
  8
HIDDEN
100
AcDbLine
 10
-267.146586901418
 20
-36.40659892980595
 30
0.0
 11
-267.146586901418
 21
-36.40659892980595
 31
0.0
1001
DBPROPERTIES
1002
{
1000
PbHidd
1002
}
  0
ARC
  5
81
330
1F
100
AcDbEntity
  8
HIDDEN
100
AcDbCircle
 10
-159.05
 20
37.55000000000001
 30
0.0
 40
10.0
100
AcDbArc
 50
180.0000198478428
 51
0.0
1001
DBPROPERTIES
1002
{
1000
PbHidd
1002
}
  0
ARC
  5
82
330
1F
100
AcDbEntity
  8
HIDDEN
100
AcDbCircle
 10
171.2728487123536
 20
205.8578979684422
 30
0.0
 40
10.0
100
AcDbArc
 50
206.9999859941226
 51
27.0000058419654
1001
DBPROPERTIES
1002
{
1000
PbHidd
1002
}
  0
ARC
  5
83
330
1F
100
AcDbEntity
  8
HIDDEN
100
AcDbCircle
 10
171.2728487123536
 20
205.8578979684422
 30
0.0
 40
89.06299999999999
100
AcDbArc
 50
116.9999871179971
 51
206.9999859941226
1001
DBPROPERTIES
1002
{
1000
PbHidd
1002
}
  0
ARC
  5
84
330
1F
100
AcDbEntity
  8
HIDDEN
100
AcDbCircle
 10
171.2728487123536
 20
205.8578979684422
 30
0.0
 40
94.30199999999999
100
AcDbArc
 50
155.9424387627718
 51
206.9999859941226
1001
DBPROPERTIES
1002
{
1000
PbHidd
1002
}
  0
ARC
  5
85
330
1F
100
AcDbEntity
  8
HIDDEN
100
AcDbCircle
 10
171.2728487123536
 20
205.8578979684422
 30
0.0
 40
89.06299999999999
100
AcDbArc
 50
27.0000058419654
 51
116.9999871179971
1001
DBPROPERTIES
1002
{
1000
PbHidd
1002
}
  0
ARC
  5
86
330
1F
100
AcDbEntity
  8
HIDDEN
100
AcDbCircle
 10
171.2728487123536
 20
205.8578979684422
 30
0.0
 40
89.06299999999999
100
AcDbArc
 50
27.0000058419654
 51
116.9999871179971
1001
DBPROPERTIES
1002
{
1000
PbHidd
1002
}
  0
ARC
  5
87
330
1F
100
AcDbEntity
  8
HIDDEN
100
AcDbCircle
 10
171.2728487123536
 20
205.8578979684422
 30
0.0
 40
94.30199999999999
100
AcDbArc
 50
27.0000058419654
 51
155.9424387627718
1001
DBPROPERTIES
1002
{
1000
PbHidd
1002
}
  0
ARC
  5
88
330
1F
100
AcDbEntity
  8
HIDDEN
100
AcDbCircle
 10
171.2728487123536
 20
205.8578979684422
 30
0.0
 40
94.30199999999999
100
AcDbArc
 50
155.9424387627718
 51
206.9999859941226
1001
DBPROPERTIES
1002
{
1000
PbHidd
1002
}
  0
ARC
  5
89
330
1F
100
AcDbEntity
  8
HIDDEN
100
AcDbCircle
 10
171.2728487123536
 20
205.8578979684422
 30
0.0
 40
89.06299999999999
100
AcDbArc
 50
116.9999871179971
 51
206.9999859941226
1001
DBPROPERTIES
1002
{
1000
PbHidd
1002
}
  0
ARC
  5
8A
330
1F
100
AcDbEntity
  8
HIDDEN
100
AcDbCircle
 10
171.2728487123536
 20
205.8578979684422
 30
0.0
 40
94.30199999999999
100
AcDbArc
 50
258.057572921159
 51
27.0000058419654
1001
DBPROPERTIES
1002
{
1000
PbHidd
1002
}
  0
LINE
  5
8B
330
1F
100
AcDbEntity
  8
HIDDEN
100
AcDbLine
 10
151.7590349270451
 20
113.5969730026025
 30
0.0
 11
151.7590349270451
 21
113.5969730026025
 31
0.0
1001
DBPROPERTIES
1002
{
1000
PbHidd
1002
}
  0
ARC
  5
8C
330
1F
100
AcDbEntity
  8
HIDDEN
100
AcDbCircle
 10
-159.05
 20
37.55000000000001
 30
0.0
 40
104.78
100
AcDbArc
 50
313.260509495967
 51
0.0
1001
DBPROPERTIES
1002
{
1000
PbHidd
1002
}
  0
LINE
  5
8D
330
1F
100
AcDbEntity
  8
HIDDEN
100
AcDbLine
 10
-87.24255829893119
 20
-38.75556805599184
 30
0.0
 11
-87.24255829893119
 21
-38.75556805599184
 31
0.0
1001
DBPROPERTIES
1002
{
1000
PbHidd
1002
}
  0
ARC
  5
8E
330
1F
100
AcDbEntity
  8
HIDDEN
100
AcDbCircle
 10
-159.05
 20
37.55000000000001
 30
0.0
 40
117.8775
100
AcDbArc
 50
180.0000198478428
 51
0.0
1001
DBPROPERTIES
1002
{
1000
PbHidd
1002
}
  0
ARC
  5
8F
330
1F
100
AcDbEntity
  8
HIDDEN
100
AcDbCircle
 10
171.2728487123536
 20
205.8578979684422
 30
0.0
 40
52.39
100
AcDbArc
 50
206.9999859941226
 51
293.7523851915732
1001
DBPROPERTIES
1002
{
1000
PbHidd
1002
}
  0
LINE
  5
90
330
1F
100
AcDbEntity
  8
HIDDEN
100
AcDbLine
 10
192.3747442998946
 20
157.9056081105791
 30
0.0
 11
192.3747442998946
 21
157.9056081105791
 31
0.0
1001
DBPROPERTIES
1002
{
1000
PbHidd
1002
}
  0
ARC
  5
91
330
1F
100
AcDbEntity
  8
HIDDEN
100
AcDbCircle
 10
171.2728487123536
 20
205.8578979684422
 30
0.0
 40
62.86799999999999
100
AcDbArc
 50
206.9999859941226
 51
27.0000058419654
1001
DBPROPERTIES
1002
{
1000
PbHidd
1002
}
  0
ARC
  5
92
330
1F
100
AcDbEntity
  8
HIDDEN
100
AcDbCircle
 10
-159.05
 20
37.55000000000005
 30
0.0
 40
109.78
100
AcDbArc
 50
206.9999859941226
 51
306.999971555911
1001
DBPROPERTIES
1002
{
1000
PbHidd
1002
}
  0
LINE
  5
93
330
1F
100
AcDbEntity
  8
HIDDEN
100
AcDbLine
 10
-92.9827467583682
 20
-50.12420629299179
 30
0.0
 11
-92.9827467583682
 21
-50.12420629299179
 31
0.0
1001
DBPROPERTIES
1002
{
1000
PbHidd
1002
}
  0
ARC
  5
94
330
1F
100
AcDbEntity
  8
HIDDEN
100
AcDbCircle
 10
171.2728487123536
 20
205.8578979684422
 30
0.0
 40
57.38999999999999
100
AcDbArc
 50
306.999971555911
 51
27.0000058419654
1001
DBPROPERTIES
1002
{
1000
PbHidd
1002
}
  0
LINE
  5
95
330
1F
100
AcDbEntity
  8
HIDDEN
100
AcDbLine
 10
205.8110128910496
 20
160.0242060468281
 30
0.0
 11
205.8110128910496
 21
160.0242060468281
 31
0.0
1001
DBPROPERTIES
1002
{
1000
PbHidd
1002
}
  0
LINE
  5
96
330
1F
100
AcDbEntity
  8
HIDDEN
100
AcDbLine
 10
18.39844673876421
 20
-139.8984467387639
 30
0.0
 11
18.39844673876421
 21
-139.8984467387639
 31
0.0
1001
DBPROPERTIES
1002
{
1000
PbHidd
1002
}
  0
LINE
  5
97
330
1F
100
AcDbEntity
  8
HIDDEN
100
AcDbLine
 10
18.39844673876421
 20
-139.8984467387639
 30
0.0
 11
18.39844673876421
 21
-139.8984467387639
 31
0.0
1001
DBPROPERTIES
1002
{
1000
PbHidd
1002
}
  0
LINE
  5
98
330
1F
100
AcDbEntity
  8
HIDDEN
100
AcDbLine
 10
18.3984467387642
 20
-139.8984467387639
 30
0.0
 11
58.39844673876417
 21
-139.8984467387639
 31
0.0
1001
DBPROPERTIES
1002
{
1000
PbHidd
1002
}
  0
LINE
  5
99
330
1F
100
AcDbEntity
  8
HIDDEN
100
AcDbLine
 10
58.39844673876419
 20
-139.8984467387639
 30
0.0
 11
58.39844673876419
 21
-139.8984467387639
 31
0.0
1001
DBPROPERTIES
1002
{
1000
PbHidd
1002
}
  0
LINE
  5
9A
330
1F
100
AcDbEntity
  8
HIDDEN
100
AcDbLine
 10
-336.4984467387641
 20
-139.898446738764
 30
0.0
 11
-336.4984467387641
 21
-139.898446738764
 31
0.0
1001
DBPROPERTIES
1002
{
1000
PbHidd
1002
}
  0
ARC
  5
9B
330
1F
100
AcDbEntity
  8
HIDDEN
100
AcDbCircle
 10
-159.05
 20
37.55000000000007
 30
0.0
 40
250.95
100
AcDbArc
 50
225.0000280859525
 51
315.0000093619842
1001
DBPROPERTIES
1002
{
1000
PbHidd
1002
}
  0
LINE
  5
9C
330
1F
100
AcDbEntity
  8
HIDDEN
100
AcDbLine
 10
-376.4984467387642
 20
-317.6
 30
0.0
 11
-376.4984467387642
 21
-317.6
 31
0.0
1001
DBPROPERTIES
1002
{
1000
PbHidd
1002
}
  0
LINE
  5
9D
330
1F
100
AcDbEntity
  8
HIDDEN
100
AcDbLine
 10
58.3984467387641
 20
-317.6
 30
0.0
 11
58.3984467387641
 21
-317.6
 31
0.0
1001
DBPROPERTIES
1002
{
1000
PbHidd
1002
}
  0
LINE
  5
9E
330
1F
100
AcDbEntity
  8
HIDDEN
100
AcDbLine
 10
-376.4984467387642
 20
-317.6
 30
0.0
 11
58.39844673876411
 21
-317.6
 31
0.0
1001
DBPROPERTIES
1002
{
1000
PbHidd
1002
}
  0
LINE
  5
9F
330
1F
100
AcDbEntity
  8
HIDDEN
100
AcDbLine
 10
-357.1445512880151
 20
-139.898446738764
 30
0.0
 11
-357.1445512880151
 21
-139.898446738764
 31
0.0
1001
DBPROPERTIES
1002
{
1000
PbHidd
1002
}
  0
LINE
  5
A0
330
1F
100
AcDbEntity
  8
HIDDEN
100
AcDbLine
 10
-336.4984467387641
 20
-139.898446738764
 30
0.0
 11
-336.4984467387641
 21
-139.898446738764
 31
0.0
1001
DBPROPERTIES
1002
{
1000
PbHidd
1002
}
  0
LINE
  5
A1
330
1F
100
AcDbEntity
  8
HIDDEN
100
AcDbLine
 10
-376.4984467387641
 20
-139.898446738764
 30
0.0
 11
-376.4984467387641
 21
-139.898446738764
 31
0.0
1001
DBPROPERTIES
1002
{
1000
PbHidd
1002
}
  0
LINE
  5
A2
330
1F
100
AcDbEntity
  8
HIDDEN
100
AcDbLine
 10
-376.4984467387642
 20
-139.898446738764
 30
0.0
 11
-336.4984467387642
 21
-139.898446738764
 31
0.0
1001
DBPROPERTIES
1002
{
1000
PbHidd
1002
}
  0
LINE
  5
A3
330
1F
100
AcDbEntity
  8
HIDDEN
100
AcDbLine
 10
-376.4984467387642
 20
-317.6
 30
0.0
 11
-376.4984467387642
 21
-317.6
 31
0.0
1001
DBPROPERTIES
1002
{
1000
PbHidd
1002
}
  0
LINE
  5
A4
330
1F
100
AcDbEntity
  8
HIDDEN
100
AcDbLine
 10
-376.4984467387643
 20
-317.6
 30
0.0
 11
-376.4984467387642
 21
-139.898446738764
 31
0.0
1001
DBPROPERTIES
1002
{
1000
PbHidd
1002
}
  0
LINE
  5
A5
330
1F
100
AcDbEntity
  8
HIDDEN
100
AcDbLine
 10
-376.4984467387642
 20
-317.6
 30
0.0
 11
-376.4984467387642
 21
-317.6
 31
0.0
1001
DBPROPERTIES
1002
{
1000
PbHidd
1002
}
  0
LINE
  5
A6
330
1F
100
AcDbEntity
  8
HIDDEN
100
AcDbLine
 10
58.39844673876417
 20
-139.8984467387639
 30
0.0
 11
58.39844673876409
 21
-317.6
 31
0.0
1001
DBPROPERTIES
1002
{
1000
PbHidd
1002
}
  0
LINE
  5
A7
330
1F
100
AcDbEntity
  8
HIDDEN
100
AcDbLine
 10
58.3984467387641
 20
-317.6
 30
0.0
 11
58.3984467387641
 21
-317.6
 31
0.0
1001
DBPROPERTIES
1002
{
1000
PbHidd
1002
}
  0
LINE
  5
A8
330
1F
100
AcDbEntity
  8
HIDDEN
100
AcDbLine
 10
58.3984467387641
 20
-317.6
 30
0.0
 11
58.3984467387641
 21
-317.6
 31
0.0
1001
DBPROPERTIES
1002
{
1000
PbHidd
1002
}
  0
ARC
  5
A9
330
1F
100
AcDbEntity
  8
HIDDEN
100
AcDbCircle
 10
-159.05
 20
37.55000000000001
 30
0.0
 40
265.95
100
AcDbArc
 50
213.0522537756485
 51
221.853229283535
1001
DBPROPERTIES
1002
{
1000
PbHidd
1002
}
  0
LINE
  5
AA
330
1F
100
AcDbEntity
  8
HIDDEN
100
AcDbLine
 10
-381.9623145992612
 20
-107.5
 30
0.0
 11
-381.9623145992612
 21
-107.5
 31
0.0
1001
DBPROPERTIES
1002
{
1000
PbHidd
1002
}
  0
LINE
  5
AB
330
1F
100
AcDbEntity
  8
HIDDEN
100
AcDbLine
 10
458.1
 20
-317.6
 30
0.0
 11
458.1
 21
-317.6
 31
0.0
1001
DBPROPERTIES
1002
{
1000
PbHidd
1002
}
  0
LINE
  5
AC
330
1F
100
AcDbEntity
  8
HIDDEN
100
AcDbLine
 10
-458.1
 20
-317.6
 30
0.0
 11
-458.1
 21
-317.6
 31
0.0
1001
DBPROPERTIES
1002
{
1000
PbHidd
1002
}
  0
LINE
  5
AD
330
1F
100
AcDbEntity
  8
HIDDEN
100
AcDbLine
 10
-458.1
 20
-336.6
 30
0.0
 11
-458.1
 21
-336.6
 31
0.0
1001
DBPROPERTIES
1002
{
1000
PbHidd
1002
}
  0
LINE
  5
AE
330
1F
100
AcDbEntity
  8
HIDDEN
100
AcDbLine
 10
-458.1
 20
-336.6
 30
0.0
 11
-458.1
 21
-336.6
 31
0.0
1001
DBPROPERTIES
1002
{
1000
PbHidd
1002
}
  0
LINE
  5
AF
330
1F
100
AcDbEntity
  8
HIDDEN
100
AcDbLine
 10
-458.1
 20
336.6
 30
0.0
 11
-458.1
 21
336.6
 31
0.0
1001
DBPROPERTIES
1002
{
1000
PbHidd
1002
}
  0
LINE
  5
B0
330
1F
100
AcDbEntity
  8
HIDDEN
100
AcDbLine
 10
-458.1
 20
-336.6
 30
0.0
 11
-458.1
 21
336.6
 31
0.0
1001
DBPROPERTIES
1002
{
1000
PbHidd
1002
}
  0
LINE
  5
B1
330
1F
100
AcDbEntity
  8
HIDDEN
100
AcDbLine
 10
-458.1
 20
-336.6
 30
0.0
 11
-458.1
 21
-336.6
 31
0.0
1001
DBPROPERTIES
1002
{
1000
PbHidd
1002
}
  0
LINE
  5
B2
330
1F
100
AcDbEntity
  8
HIDDEN
100
AcDbLine
 10
-458.1
 20
-317.6
 30
0.0
 11
-458.1
 21
-317.6
 31
0.0
1001
DBPROPERTIES
1002
{
1000
PbHidd
1002
}
  0
LINE
  5
B3
330
1F
100
AcDbEntity
  8
HIDDEN
100
AcDbLine
 10
-458.1
 20
303.5
 30
0.0
 11
-458.1
 21
303.5
 31
0.0
1001
DBPROPERTIES
1002
{
1000
PbHidd
1002
}
  0
LINE
  5
B4
330
1F
100
AcDbEntity
  8
HIDDEN
100
AcDbLine
 10
-458.1
 20
-107.5
 30
0.0
 11
-458.1
 21
-107.5
 31
0.0
1001
DBPROPERTIES
1002
{
1000
PbHidd
1002
}
  0
LINE
  5
B5
330
1F
100
AcDbEntity
  8
HIDDEN
100
AcDbLine
 10
458.1
 20
-336.6
 30
0.0
 11
458.1
 21
-336.6
 31
0.0
1001
DBPROPERTIES
1002
{
1000
PbHidd
1002
}
  0
LINE
  5
B6
330
1F
100
AcDbEntity
  8
HIDDEN
100
AcDbLine
 10
458.1
 20
-336.6
 30
0.0
 11
458.1
 21
-336.6
 31
0.0
1001
DBPROPERTIES
1002
{
1000
PbHidd
1002
}
  0
LINE
  5
B7
330
1F
100
AcDbEntity
  8
HIDDEN
100
AcDbLine
 10
-458.1
 20
-317.6
 30
0.0
 11
458.1
 21
-317.6
 31
0.0
1001
DBPROPERTIES
1002
{
1000
PbHidd
1002
}
  0
LINE
  5
B8
330
1F
100
AcDbEntity
  8
HIDDEN
100
AcDbLine
 10
458.1
 20
-317.6
 30
0.0
 11
458.1
 21
-317.6
 31
0.0
1001
DBPROPERTIES
1002
{
1000
PbHidd
1002
}
  0
LINE
  5
B9
330
1F
100
AcDbEntity
  8
HIDDEN
100
AcDbLine
 10
-139.6240274428228
 20
153.8158014914868
 30
0.0
 11
120.3496448689323
 21
242.7254003834602
 31
0.0
1001
DBPROPERTIES
1002
{
1000
PbHidd
1002
}
  0
LINE
  5
BA
330
1F
100
AcDbEntity
  8
HIDDEN
100
AcDbLine
 10
-153.786888220595
 20
155.309945060481
 30
0.0
 11
128.3608960660346
 21
251.8029710892902
 31
0.0
1001
DBPROPERTIES
1002
{
1000
PbHidd
1002
}
  0
LINE
  5
BB
330
1F
100
AcDbEntity
  8
HIDDEN
100
AcDbLine
 10
183.2201807623394
 20
144.1355626198231
 30
0.0
 11
-60.68662370430974
 21
-27.4096121444889
 31
0.0
1001
DBPROPERTIES
1002
{
1000
PbHidd
1002
}
  0
LINE
  5
BC
330
1F
100
AcDbEntity
  8
HIDDEN
100
AcDbLine
 10
171.1673764876161
 20
142.98998644269
 30
0.0
 11
-53.570690548216
 21
-15.07338153164229
 31
0.0
1001
DBPROPERTIES
1002
{
1000
PbHidd
1002
}
  0
LINE
  5
BD
330
1F
100
AcDbEntity
  8
HIDDEN
100
AcDbLine
 10
192.3747442998945
 20
157.9056081105791
 30
0.0
 11
171.1673764876161
 21
142.9899864426899
 31
0.0
1001
DBPROPERTIES
1002
{
1000
PbHidd
1002
}
  0
LINE
  5
BE
330
1F
100
AcDbEntity
  8
HIDDEN
100
AcDbLine
 10
-53.57069054821601
 20
-15.07338153164229
 30
0.0
 11
-87.24255829893117
 21
-38.75556805599181
 31
0.0
1001
DBPROPERTIES
1002
{
1000
PbHidd
1002
}
  0
LINE
  5
BF
330
1F
100
AcDbEntity
  8
HIDDEN
100
AcDbLine
 10
144.8820143199213
 20
251.1153389043945
 30
0.0
 11
144.8820143199213
 21
251.1153389043945
 31
0.0
1001
DBPROPERTIES
1002
{
1000
PbHidd
1002
}
  0
LINE
  5
C0
330
1F
100
AcDbEntity
  8
HIDDEN
100
AcDbLine
 10
120.3496448689323
 20
242.7254003834603
 30
0.0
 11
144.8820143199213
 21
251.1153389043945
 31
0.0
1001
DBPROPERTIES
1002
{
1000
PbHidd
1002
}
  0
LINE
  5
C1
330
1F
100
AcDbEntity
  8
HIDDEN
100
AcDbLine
 10
-178.5751460859921
 20
140.4947282298646
 30
0.0
 11
-139.6240274428228
 21
153.8158014914868
 31
0.0
1001
DBPROPERTIES
1002
{
1000
PbHidd
1002
}
  0
LINE
  5
C2
330
1F
100
AcDbEntity
  8
HIDDEN
100
AcDbLine
 10
-178.5751460859921
 20
140.4947282298646
 30
0.0
 11
-178.5751460859921
 21
140.4947282298646
 31
0.0
1001
DBPROPERTIES
1002
{
1000
PbHidd
1002
}
  0
LINE
  5
C3
330
1F
100
AcDbEntity
  8
HIDDEN
100
AcDbLine
 10
-191.1465657444621
 20
142.5331361096221
 30
0.0
 11
-191.1465657444621
 21
142.5331361096221
 31
0.0
1001
DBPROPERTIES
1002
{
1000
PbHidd
1002
}
  0
LINE
  5
C4
330
1F
100
AcDbEntity
  8
HIDDEN
100
AcDbLine
 10
-153.7868882205952
 20
155.3099450604809
 30
0.0
 11
-191.146565744462
 21
142.5331361096221
 31
0.0
1001
DBPROPERTIES
1002
{
1000
PbHidd
1002
}
  0
LINE
  5
C5
330
1F
100
AcDbEntity
  8
HIDDEN
100
AcDbLine
 10
154.4936365783158
 20
260.7402279131609
 30
0.0
 11
128.3608960660345
 21
251.8029710892902
 31
0.0
1001
DBPROPERTIES
1002
{
1000
PbHidd
1002
}
  0
LINE
  5
C6
330
1F
100
AcDbEntity
  8
HIDDEN
100
AcDbLine
 10
154.4936365783158
 20
260.7402279131609
 30
0.0
 11
154.4936365783158
 21
260.7402279131609
 31
0.0
1001
DBPROPERTIES
1002
{
1000
PbHidd
1002
}
  0
ARC
  5
C7
330
1F
100
AcDbEntity
  8
HIDDEN
100
AcDbCircle
 10
171.2728487123536
 20
205.8578979684422
 30
0.0
 40
57.38999999999999
100
AcDbArc
 50
27.0000058419654
 51
106.9999828322403
1001
DBPROPERTIES
1002
{
1000
PbHidd
1002
}
  0
LINE
  5
C8
330
1F
100
AcDbEntity
  8
HIDDEN
100
AcDbLine
 10
183.2201807623396
 20
144.1355626198232
 30
0.0
 11
205.8110128910496
 21
160.0242060468281
 31
0.0
1001
DBPROPERTIES
1002
{
1000
PbHidd
1002
}
  0
LINE
  5
C9
330
1F
100
AcDbEntity
  8
HIDDEN
100
AcDbLine
 10
-92.98274675836818
 20
-50.12420629299178
 30
0.0
 11
-60.68662370430968
 21
-27.40961214448888
 31
0.0
1001
DBPROPERTIES
1002
{
1000
PbHidd
1002
}
  0
ARC
  5
CA
330
1F
100
AcDbEntity
  8
HIDDEN
100
AcDbCircle
 10
-159.05
 20
37.55000000000005
 30
0.0
 40
109.78
100
AcDbArc
 50
106.9999828322403
 51
206.9999859941226
1001
DBPROPERTIES
1002
{
1000
PbHidd
1002
}
  0
ARC
  5
CB
330
1F
100
AcDbEntity
  8
HIDDEN
100
AcDbCircle
 10
171.2728487123536
 20
205.8578979684422
 30
0.0
 40
52.39
100
AcDbArc
 50
120.2476264923576
 51
206.9999859941226
1001
DBPROPERTIES
1002
{
1000
PbHidd
1002
}
  0
ARC
  5
CC
330
1F
100
AcDbEntity
  8
HIDDEN
100
AcDbCircle
 10
-159.05
 20
37.55000000000001
 30
0.0
 40
104.78
100
AcDbArc
 50
0.0
 51
100.7395021879638
1001
DBPROPERTIES
1002
{
1000
PbHidd
1002
}
  0
ARC
  5
CD
330
1F
100
AcDbEntity
  8
HIDDEN
100
AcDbCircle
 10
171.2728487123536
 20
205.8578979684422
 30
0.0
 40
10.0
100
AcDbArc
 50
27.0000058419654
 51
206.9999859941226
1001
DBPROPERTIES
1002
{
1000
PbHidd
1002
}
  0
ARC
  5
CE
330
1F
100
AcDbEntity
  8
HIDDEN
100
AcDbCircle
 10
171.2728487123536
 20
205.8578979684422
 30
0.0
 40
62.86799999999999
100
AcDbArc
 50
27.0000058419654
 51
206.9999859941226
1001
DBPROPERTIES
1002
{
1000
PbHidd
1002
}
  0
ARC
  5
CF
330
1F
100
AcDbEntity
  8
HIDDEN
100
AcDbCircle
 10
-159.05
 20
37.55000000000001
 30
0.0
 40
10.0
100
AcDbArc
 50
0.0
 51
180.0000198478428
1001
DBPROPERTIES
1002
{
1000
PbHidd
1002
}
  0
ARC
  5
D0
330
1F
100
AcDbEntity
  8
HIDDEN
100
AcDbCircle
 10
-159.05
 20
37.55000000000001
 30
0.0
 40
117.8775
100
AcDbArc
 50
0.0
 51
180.0000198478428
1001
DBPROPERTIES
1002
{
1000
PbHidd
1002
}
  0
LINE
  5
D1
330
1F
100
AcDbEntity
  8
HIDDEN
100
AcDbLine
 10
35.42496061087571
 20
218.9580819461976
 30
0.0
 11
35.4249606108757
 21
218.9580819461976
 31
0.0
1001
DBPROPERTIES
1002
{
1000
PbHidd
1002
}
  0
LINE
  5
D2
330
1F
100
AcDbEntity
  8
HIDDEN
100
AcDbLine
 10
35.42496061087567
 20
218.9580819461976
 30
0.0
 11
85.16226053925146
 21
244.3005020488425
 31
0.0
1001
DBPROPERTIES
1002
{
1000
PbHidd
1002
}
  0
LINE
  5
D3
330
1F
100
AcDbEntity
  8
HIDDEN
100
AcDbLine
 10
85.16226053925152
 20
244.3005020488425
 30
0.0
 11
85.16226053925152
 21
244.3005020488425
 31
0.0
1001
DBPROPERTIES
1002
{
1000
PbHidd
1002
}
  0
LINE
  5
D4
330
1F
100
AcDbEntity
  8
HIDDEN
100
AcDbLine
 10
102.0217349986693
 20
88.25455289995756
 30
0.0
 11
151.7590349270451
 21
113.5969730026025
 31
0.0
1001
DBPROPERTIES
1002
{
1000
PbHidd
1002
}
  0
ARC
  5
D5
330
1F
100
AcDbEntity
  8
HIDDEN
100
AcDbCircle
 10
171.2728487123536
 20
205.8578979684422
 30
0.0
 40
94.30199999999999
100
AcDbArc
 50
206.9999859941226
 51
258.057572921159
1001
DBPROPERTIES
1002
{
1000
PbHidd
1002
}
  0
LINE
  5
D6
330
1F
100
AcDbEntity
  8
HIDDEN
100
AcDbLine
 10
102.0217349986693
 20
88.25455289995756
 30
0.0
 11
102.0217349986693
 21
88.25455289995756
 31
0.0
1001
DBPROPERTIES
1002
{
1000
PbHidd
1002
}
  0
ARC
  5
D7
330
1F
100
AcDbEntity
  8
HIDDEN
100
AcDbCircle
 10
171.2728487123536
 20
205.8578979684422
 30
0.0
 40
94.30199999999999
100
AcDbArc
 50
206.9999859941226
 51
258.057572921159
1001
DBPROPERTIES
1002
{
1000
PbHidd
1002
}
  0
ARC
  5
D8
330
1F
100
AcDbEntity
  8
HIDDEN
100
AcDbCircle
 10
171.2728487123536
 20
205.8578979684422
 30
0.0
 40
89.06299999999999
100
AcDbArc
 50
206.9999859941226
 51
27.0000058419654
1001
DBPROPERTIES
1002
{
1000
PbHidd
1002
}
  0
ARC
  5
D9
330
1F
100
AcDbEntity
  8
HIDDEN
100
AcDbCircle
 10
171.2728487123536
 20
205.8578979684422
 30
0.0
 40
89.06299999999999
100
AcDbArc
 50
206.9999859941226
 51
27.0000058419654
1001
DBPROPERTIES
1002
{
1000
PbHidd
1002
}
  0
LINE
  5
DA
330
1F
100
AcDbEntity
  8
HIDDEN
100
AcDbLine
 10
-169.05
 20
43.32350269189627
 30
0.0
 11
-169.05
 21
168.1426897839232
 31
0.0
1001
DBPROPERTIES
1002
{
1000
PbHidd
1002
}
  0
LINE
  5
DB
330
1F
100
AcDbEntity
  8
HIDDEN
100
AcDbLine
 10
-169.05
 20
168.1426897839232
 30
0.0
 11
-169.05
 21
168.1426897839232
 31
0.0
1001
DBPROPERTIES
1002
{
1000
PbHidd
1002
}
  0
LINE
  5
DC
330
1F
100
AcDbEntity
  8
HIDDEN
100
AcDbLine
 10
-169.05
 20
43.32350269189628
 30
0.0
 11
-169.05
 21
43.32350269189628
 31
0.0
1001
DBPROPERTIES
1002
{
1000
PbHidd
1002
}
  0
LINE
  5
DD
330
1F
100
AcDbEntity
  8
HIDDEN
100
AcDbLine
 10
-159.0500000000001
 20
26.00299461620747
 30
0.0
 11
-267.146586901418
 21
-36.40659892980592
 31
0.0
1001
DBPROPERTIES
1002
{
1000
PbHidd
1002
}
  0
LINE
  5
DE
330
1F
100
AcDbEntity
  8
HIDDEN
100
AcDbLine
 10
-159.05
 20
26.00299461620749
 30
0.0
 11
-159.05
 21
26.00299461620749
 31
0.0
1001
DBPROPERTIES
1002
{
1000
PbHidd
1002
}
  0
LINE
  5
DF
330
1F
100
AcDbEntity
  8
HIDDEN
100
AcDbLine
 10
-149.05
 20
43.32350269189624
 30
0.0
 11
-40.95341309858198
 21
-19.08609085411717
 31
0.0
1001
DBPROPERTIES
1002
{
1000
PbHidd
1002
}
  0
LINE
  5
E0
330
1F
100
AcDbEntity
  8
HIDDEN
100
AcDbLine
 10
-149.05
 20
43.32350269189628
 30
0.0
 11
-149.05
 21
43.32350269189628
 31
0.0
1001
DBPROPERTIES
1002
{
1000
PbHidd
1002
}
  0
LINE
  5
E1
330
1F
100
AcDbEntity
  8
HIDDEN
100
AcDbLine
 10
-149.05
 20
168.1426897839232
 30
0.0
 11
-149.05
 21
43.32350269189627
 31
0.0
1001
DBPROPERTIES
1002
{
1000
PbHidd
1002
}
  0
LINE
  5
E2
330
1F
100
AcDbEntity
  8
HIDDEN
100
AcDbLine
 10
-277.146586901418
 20
-19.08609085411715
 30
0.0
 11
-169.0500000000001
 21
43.32350269189624
 31
0.0
1001
DBPROPERTIES
1002
{
1000
PbHidd
1002
}
  0
LINE
  5
E3
330
1F
100
AcDbEntity
  8
HIDDEN
100
AcDbLine
 10
-50.95341309858198
 20
-36.40659892980594
 30
0.0
 11
-159.05
 21
26.00299461620747
 31
0.0
1001
DBPROPERTIES
1002
{
1000
PbHidd
1002
}
  0
LINE
  5
E4
330
1F
100
AcDbEntity
  8
HIDDEN
100
AcDbLine
 10
-149.05
 20
168.1426897839232
 30
0.0
 11
-149.05
 21
168.1426897839232
 31
0.0
1001
DBPROPERTIES
1002
{
1000
PbHidd
1002
}
  0
ARC
  5
E5
330
1F
100
AcDbEntity
  8
HIDDEN
100
AcDbCircle
 10
-159.05
 20
37.55000000000001
 30
0.0
 40
130.975
100
AcDbArc
 50
0.0
 51
180.0000198478428
1001
DBPROPERTIES
1002
{
1000
PbHidd
1002
}
  0
LINE
  5
E6
330
1F
100
AcDbEntity
  8
HIDDEN
100
AcDbLine
 10
-458.1
 20
-103.5
 30
0.0
 11
-458.1
 21
-103.5
 31
0.0
1001
DBPROPERTIES
1002
{
1000
PbHidd
1002
}
  0
LINE
  5
E7
330
1F
100
AcDbEntity
  8
HIDDEN
100
AcDbLine
 10
-458.1
 20
-103.5
 30
0.0
 11
-379.7821906745819
 21
-103.5
 31
0.0
1001
DBPROPERTIES
1002
{
1000
PbHidd
1002
}
  0
LINE
  5
E8
330
1F
100
AcDbEntity
  8
HIDDEN
100
AcDbLine
 10
-458.1
 20
303.5
 30
0.0
 11
-160.0500000000001
 21
303.5
 31
0.0
1001
DBPROPERTIES
1002
{
1000
PbHidd
1002
}
  0
LINE
  5
E9
330
1F
100
AcDbEntity
  8
HIDDEN
100
AcDbLine
 10
-160.0500000000001
 20
303.5
 30
0.0
 11
-160.0500000000001
 21
303.5
 31
0.0
1001
DBPROPERTIES
1002
{
1000
PbHidd
1002
}
  0
ARC
  5
EA
330
1F
100
AcDbEntity
  8
HIDDEN
100
AcDbCircle
 10
-159.05
 20
37.55000000000001
 30
0.0
 40
134.975
100
AcDbArc
 50
0.0
 51
180.0000198478428
1001
DBPROPERTIES
1002
{
1000
PbHidd
1002
}
  0
ARC
  5
EB
330
1F
100
AcDbEntity
  8
HIDDEN
100
AcDbCircle
 10
-159.05
 20
37.55000000000001
 30
0.0
 40
261.95
100
AcDbArc
 50
0.0
 51
89.99998127603165
1001
DBPROPERTIES
1002
{
1000
PbHidd
1002
}
  0
LINE
  5
EC
330
1F
100
AcDbEntity
  8
HIDDEN
100
AcDbLine
 10
-159.0500000000001
 20
299.5
 30
0.0
 11
-159.0500000000001
 21
299.5
 31
0.0
1001
DBPROPERTIES
1002
{
1000
PbHidd
1002
}
  0
LINE
  5
ED
330
1F
100
AcDbEntity
  8
HIDDEN
100
AcDbLine
 10
-458.1
 20
299.5
 30
0.0
 11
-159.0500000000001
 21
299.5
 31
0.0
1001
DBPROPERTIES
1002
{
1000
PbHidd
1002
}
  0
LINE
  5
EE
330
1F
100
AcDbEntity
  8
HIDDEN
100
AcDbLine
 10
-458.1
 20
299.5
 30
0.0
 11
-458.1
 21
299.5
 31
0.0
1001
DBPROPERTIES
1002
{
1000
PbHidd
1002
}
  0
LINE
  5
EF
330
1F
100
AcDbEntity
  8
HIDDEN
100
AcDbLine
 10
-458.1
 20
299.5
 30
0.0
 11
-458.1
 21
-103.5
 31
0.0
1001
DBPROPERTIES
1002
{
1000
PbHidd
1002
}
  0
LINE
  5
F0
330
1F
100
AcDbEntity
  8
HIDDEN
100
AcDbLine
 10
-458.1
 20
-107.5
 30
0.0
 11
-381.9623145992612
 21
-107.5
 31
0.0
1001
DBPROPERTIES
1002
{
1000
PbHidd
1002
}
  0
LINE
  5
F1
330
1F
100
AcDbEntity
  8
HIDDEN
100
AcDbLine
 10
-160.0500000000001
 20
303.5
 30
0.0
 11
-160.0500000000001
 21
303.4981199407133
 31
0.0
1001
DBPROPERTIES
1002
{
1000
PbHidd
1002
}
  0
LINE
  5
F2
330
1F
100
AcDbEntity
  8
HIDDEN
100
AcDbLine
 10
-160.0500000000001
 20
303.4981199407133
 30
0.0
 11
-160.0500000000001
 21
303.4981199407133
 31
0.0
1001
DBPROPERTIES
1002
{
1000
PbHidd
1002
}
  0
ARC
  5
F3
330
1F
100
AcDbEntity
  8
HIDDEN
100
AcDbCircle
 10
-159.05
 20
37.55000000000001
 30
0.0
 40
265.95
100
AcDbArc
 50
0.0
 51
90.21541340700084
1001
DBPROPERTIES
1002
{
1000
PbHidd
1002
}
  0
ARC
  5
F4
330
1F
100
AcDbEntity
  8
HIDDEN
100
AcDbCircle
 10
-202.0
 20
-44.5
 30
0.0
 40
197.0
100
AcDbArc
 50
0.0
 51
180.0000198478428
1001
DBPROPERTIES
1002
{
1000
PbHidd
1002
}
  0
ARC
  5
F5
330
1F
100
AcDbEntity
  8
HIDDEN
100
AcDbCircle
 10
-202.0
 20
-44.5
 30
0.0
 40
201.0
100
AcDbArc
 50
0.0
 51
180.0000198478428
1001
DBPROPERTIES
1002
{
1000
PbHidd
1002
}
  0
LINE
  5
F6
330
1F
100
AcDbEntity
  8
HIDDEN
100
AcDbLine
 10
-539.0
 20
295.5
 30
0.0
 11
-458.1
 21
295.5
 31
0.0
1001
DBPROPERTIES
1002
{
1000
PbHidd
1002
}
  0
LINE
  5
F7
330
1F
100
AcDbEntity
  8
HIDDEN
100
AcDbLine
 10
-539.0
 20
295.5
 30
0.0
 11
-539.0
 21
295.5
 31
0.0
1001
DBPROPERTIES
1002
{
1000
PbHidd
1002
}
  0
LINE
  5
F8
330
1F
100
AcDbEntity
  8
HIDDEN
100
AcDbLine
 10
-458.1
 20
295.5
 30
0.0
 11
-458.1
 21
295.5
 31
0.0
1001
DBPROPERTIES
1002
{
1000
PbHidd
1002
}
  0
LINE
  5
F9
330
1F
100
AcDbEntity
  8
HIDDEN
100
AcDbLine
 10
-539.0
 20
-99.5
 30
0.0
 11
-458.1
 21
-99.5
 31
0.0
1001
DBPROPERTIES
1002
{
1000
PbHidd
1002
}
  0
LINE
  5
FA
330
1F
100
AcDbEntity
  8
HIDDEN
100
AcDbLine
 10
-539.0
 20
-99.5
 30
0.0
 11
-539.0
 21
-99.5
 31
0.0
1001
DBPROPERTIES
1002
{
1000
PbHidd
1002
}
  0
LINE
  5
FB
330
1F
100
AcDbEntity
  8
HIDDEN
100
AcDbLine
 10
-458.1
 20
-99.5
 30
0.0
 11
-458.1
 21
-99.5
 31
0.0
1001
DBPROPERTIES
1002
{
1000
PbHidd
1002
}
  0
LINE
  5
FC
330
1F
100
AcDbEntity
  8
HIDDEN
100
AcDbLine
 10
458.1
 20
-336.6
 30
0.0
 11
458.1
 21
-336.6
 31
0.0
1001
DBPROPERTIES
1002
{
1000
PbHidd
1002
}
  0
LINE
  5
FD
330
1F
100
AcDbEntity
  8
HIDDEN
100
AcDbLine
 10
458.1
 20
336.6
 30
0.0
 11
458.1
 21
-336.6
 31
0.0
1001
DBPROPERTIES
1002
{
1000
PbHidd
1002
}
  0
LINE
  5
FE
330
1F
100
AcDbEntity
  8
HIDDEN
100
AcDbLine
 10
458.1
 20
336.6
 30
0.0
 11
458.1
 21
336.6
 31
0.0
1001
DBPROPERTIES
1002
{
1000
PbHidd
1002
}
  0
LINE
  5
FF
330
1F
100
AcDbEntity
  8
HIDDEN
100
AcDbLine
 10
-458.1
 20
-336.6
 30
0.0
 11
458.1
 21
-336.6
 31
0.0
1001
DBPROPERTIES
1002
{
1000
PbHidd
1002
}
  0
LINE
  5
100
330
1F
100
AcDbEntity
  8
HIDDEN
100
AcDbLine
 10
-458.1
 20
336.6
 30
0.0
 11
458.1
 21
336.6
 31
0.0
1001
DBPROPERTIES
1002
{
1000
PbHidd
1002
}
  0
LINE
  5
101
330
1F
100
AcDbEntity
  8
HIDDEN
100
AcDbLine
 10
-509.0
 20
-103.5
 30
0.0
 11
-509.0
 21
-103.5
 31
0.0
1001
DBPROPERTIES
1002
{
1000
PbHidd
1002
}
  0
LINE
  5
102
330
1F
100
AcDbEntity
  8
THICK
100
AcDbLine
 10
-539.0
 20
-103.5
 30
0.0
 11
-509.0
 21
-103.5
 31
0.0
1001
DBPROPERTIES
1002
{
1000
PbThick
1002
}
  0
LINE
  5
103
330
1F
100
AcDbEntity
  8
HIDDEN
100
AcDbLine
 10
-539.0
 20
-103.5
 30
0.0
 11
-539.0
 21
-103.5
 31
0.0
1001
DBPROPERTIES
1002
{
1000
PbHidd
1002
}
  0
LINE
  5
104
330
1F
100
AcDbEntity
  8
THICK
100
AcDbLine
 10
-539.0
 20
-103.5
 30
0.0
 11
-539.0
 21
299.5
 31
0.0
1001
DBPROPERTIES
1002
{
1000
PbThick
1002
}
  0
LINE
  5
105
330
1F
100
AcDbEntity
  8
HIDDEN
100
AcDbLine
 10
-539.0
 20
299.5
 30
0.0
 11
-539.0
 21
299.5
 31
0.0
1001
DBPROPERTIES
1002
{
1000
PbHidd
1002
}
  0
LINE
  5
106
330
1F
100
AcDbEntity
  8
THICK
100
AcDbLine
 10
-539.0
 20
299.5
 30
0.0
 11
-509.0
 21
299.5
 31
0.0
1001
DBPROPERTIES
1002
{
1000
PbThick
1002
}
  0
LINE
  5
107
330
1F
100
AcDbEntity
  8
HIDDEN
100
AcDbLine
 10
-509.0
 20
299.5
 30
0.0
 11
-509.0
 21
299.5
 31
0.0
1001
DBPROPERTIES
1002
{
1000
PbHidd
1002
}
  0
LINE
  5
108
330
1F
100
AcDbEntity
  8
THICK
100
AcDbLine
 10
-509.0000000000001
 20
-382.5
 30
0.0
 11
-504.0
 21
-382.5000000000001
 31
0.0
1001
DBPROPERTIES
1002
{
1000
PbThick
1002
}
  0
ARC
  5
109
330
1F
100
AcDbEntity
  8
THICK
100
AcDbCircle
 10
-504.0
 20
-382.4999999999999
 30
0.0
 40
5.0
100
AcDbArc
 50
180.0000198478428
 51
270.0000187239684
1001
DBPROPERTIES
1002
{
1000
PbThick
1002
}
  0
LINE
  5
10A
330
1F
100
AcDbEntity
  8
THICK
100
AcDbLine
 10
-503.9999999999999
 20
-387.5000000000001
 30
0.0
 11
-504.0
 21
-382.5000000000001
 31
0.0
1001
DBPROPERTIES
1002
{
1000
PbThick
1002
}
  0
LINE
  5
10B
330
1F
100
AcDbEntity
  8
THICK
100
AcDbLine
 10
-504.0
 20
-382.5000000000001
 30
0.0
 11
503.9999999999999
 21
-382.5000000000001
 31
0.0
1001
DBPROPERTIES
1002
{
1000
PbThick
1002
}
  0
LINE
  5
10C
330
1F
100
AcDbEntity
  8
THICK
100
AcDbLine
 10
-504.0
 20
-387.5
 30
0.0
 11
503.9999999999999
 21
-387.5
 31
0.0
1001
DBPROPERTIES
1002
{
1000
PbThick
1002
}
  0
LINE
  5
10D
330
1F
100
AcDbEntity
  8
THICK
100
AcDbLine
 10
504.0000000000001
 20
-387.5000000000001
 30
0.0
 11
504.0000000000001
 21
-382.5
 31
0.0
1001
DBPROPERTIES
1002
{
1000
PbThick
1002
}
  0
LINE
  5
10E
330
1F
100
AcDbEntity
  8
HIDDEN
100
AcDbLine
 10
-504.0
 20
-387.5
 30
0.0
 11
-504.0000000000001
 21
-387.5
 31
0.0
1001
DBPROPERTIES
1002
{
1000
PbHidd
1002
}
  0
LINE
  5
10F
330
1F
100
AcDbEntity
  8
HIDDEN
100
AcDbLine
 10
-508.9999999999999
 20
-382.4999999999999
 30
0.0
 11
-509.0000000000001
 21
-382.4999999999999
 31
0.0
1001
DBPROPERTIES
1002
{
1000
PbHidd
1002
}
  0
LINE
  5
110
330
1F
100
AcDbEntity
  8
HIDDEN
100
AcDbLine
 10
504.0000000000001
 20
-382.4999999999999
 30
0.0
 11
509.0000000000001
 21
-382.5
 31
0.0
1001
DBPROPERTIES
1002
{
1000
PbHidd
1002
}
  0
LINE
  5
111
330
1F
100
AcDbEntity
  8
HIDDEN
100
AcDbLine
 10
504.0
 20
-382.5
 30
0.0
 11
504.0
 21
-387.4999999999999
 31
0.0
1001
DBPROPERTIES
1002
{
1000
PbHidd
1002
}
  0
LINE
  5
112
330
1F
100
AcDbEntity
  8
HIDDEN
100
AcDbLine
 10
-504.0
 20
-382.4999999999999
 30
0.0
 11
504.0000000000001
 21
-382.4999999999999
 31
0.0
1001
DBPROPERTIES
1002
{
1000
PbHidd
1002
}
  0
LINE
  5
113
330
1F
100
AcDbEntity
  8
HIDDEN
100
AcDbLine
 10
-504.0
 20
-382.4999999999999
 30
0.0
 11
-504.0
 21
-387.4999999999999
 31
0.0
1001
DBPROPERTIES
1002
{
1000
PbHidd
1002
}
  0
LINE
  5
114
330
1F
100
AcDbEntity
  8
HIDDEN
100
AcDbLine
 10
-509.0
 20
382.5
 30
0.0
 11
-504.0
 21
382.5
 31
0.0
1001
DBPROPERTIES
1002
{
1000
PbHidd
1002
}
  0
LINE
  5
115
330
1F
100
AcDbEntity
  8
HIDDEN
100
AcDbLine
 10
-503.9999999999999
 20
387.5
 30
0.0
 11
-504.0
 21
382.5
 31
0.0
1001
DBPROPERTIES
1002
{
1000
PbHidd
1002
}
  0
LINE
  5
116
330
1F
100
AcDbEntity
  8
HIDDEN
100
AcDbLine
 10
-504.0
 20
382.5
 30
0.0
 11
504.0000000000001
 21
382.5
 31
0.0
1001
DBPROPERTIES
1002
{
1000
PbHidd
1002
}
  0
LINE
  5
117
330
1F
100
AcDbEntity
  8
HIDDEN
100
AcDbLine
 10
504.0000000000001
 20
387.5
 30
0.0
 11
504.0000000000001
 21
382.5
 31
0.0
1001
DBPROPERTIES
1002
{
1000
PbHidd
1002
}
  0
LINE
  5
118
330
1F
100
AcDbEntity
  8
THICK
100
AcDbLine
 10
508.9999999999999
 20
382.5
 30
0.0
 11
503.9999999999999
 21
382.5
 31
0.0
1001
DBPROPERTIES
1002
{
1000
PbThick
1002
}
  0
ARC
  5
119
330
1F
100
AcDbEntity
  8
THICK
100
AcDbCircle
 10
503.9999999999999
 20
382.5
 30
0.0
 40
5.0
100
AcDbArc
 50
0.0
 51
89.99998127603165
1001
DBPROPERTIES
1002
{
1000
PbThick
1002
}
  0
LINE
  5
11A
330
1F
100
AcDbEntity
  8
THICK
100
AcDbLine
 10
504.0
 20
382.5
 30
0.0
 11
504.0
 21
387.5
 31
0.0
1001
DBPROPERTIES
1002
{
1000
PbThick
1002
}
  0
LINE
  5
11B
330
1F
100
AcDbEntity
  8
THICK
100
AcDbLine
 10
-504.0
 20
382.5
 30
0.0
 11
503.9999999999999
 21
382.5
 31
0.0
1001
DBPROPERTIES
1002
{
1000
PbThick
1002
}
  0
LINE
  5
11C
330
1F
100
AcDbEntity
  8
THICK
100
AcDbLine
 10
-504.0
 20
387.5
 30
0.0
 11
503.9999999999999
 21
387.5
 31
0.0
1001
DBPROPERTIES
1002
{
1000
PbThick
1002
}
  0
LINE
  5
11D
330
1F
100
AcDbEntity
  8
THICK
100
AcDbLine
 10
-504.0
 20
387.5
 30
0.0
 11
-504.0
 21
382.5
 31
0.0
1001
DBPROPERTIES
1002
{
1000
PbThick
1002
}
  0
LINE
  5
11E
330
1F
100
AcDbEntity
  8
HIDDEN
100
AcDbLine
 10
504.0
 20
387.5
 30
0.0
 11
504.0
 21
387.5
 31
0.0
1001
DBPROPERTIES
1002
{
1000
PbHidd
1002
}
  0
LINE
  5
11F
330
1F
100
AcDbEntity
  8
THICK
100
AcDbLine
 10
503.9999999999999
 20
-382.5
 30
0.0
 11
508.9999999999999
 21
-382.5
 31
0.0
1001
DBPROPERTIES
1002
{
1000
PbThick
1002
}
  0
ARC
  5
120
330
1F
100
AcDbEntity
  8
THICK
100
AcDbCircle
 10
503.9999999999999
 20
-382.5
 30
0.0
 40
5.0
100
AcDbArc
 50
270.0000187239684
 51
0.0
1001
DBPROPERTIES
1002
{
1000
PbThick
1002
}
  0
LINE
  5
121
330
1F
100
AcDbEntity
  8
HIDDEN
100
AcDbLine
 10
503.9999999999999
 20
-387.5
 30
0.0
 11
503.9999999999999
 21
-387.5
 31
0.0
1001
DBPROPERTIES
1002
{
1000
PbHidd
1002
}
  0
LINE
  5
122
330
1F
100
AcDbEntity
  8
HIDDEN
100
AcDbLine
 10
-509.0
 20
-382.4999999999999
 30
0.0
 11
-504.0
 21
-382.5
 31
0.0
1001
DBPROPERTIES
1002
{
1000
PbHidd
1002
}
  0
LINE
  5
123
330
1F
100
AcDbEntity
  8
HIDDEN
100
AcDbLine
 10
504.0000000000001
 20
382.5
 30
0.0
 11
509.0000000000001
 21
382.5
 31
0.0
1001
DBPROPERTIES
1002
{
1000
PbHidd
1002
}
  0
LINE
  5
124
330
1F
100
AcDbEntity
  8
THICK
100
AcDbLine
 10
-509.0
 20
382.5
 30
0.0
 11
-504.0
 21
382.5
 31
0.0
1001
DBPROPERTIES
1002
{
1000
PbThick
1002
}
  0
ARC
  5
125
330
1F
100
AcDbEntity
  8
THICK
100
AcDbCircle
 10
-504.0
 20
382.4999999999999
 30
0.0
 40
5.0
100
AcDbArc
 50
89.99998127603165
 51
180.0000198478428
1001
DBPROPERTIES
1002
{
1000
PbThick
1002
}
  0
LINE
  5
126
330
1F
100
AcDbEntity
  8
HIDDEN
100
AcDbLine
 10
-504.0
 20
387.5
 30
0.0
 11
-504.0
 21
387.5
 31
0.0
1001
DBPROPERTIES
1002
{
1000
PbHidd
1002
}
  0
LINE
  5
127
330
1F
100
AcDbEntity
  8
HIDDEN
100
AcDbLine
 10
-509.0
 20
382.5
 30
0.0
 11
-509.0
 21
382.5
 31
0.0
1001
DBPROPERTIES
1002
{
1000
PbHidd
1002
}
  0
LINE
  5
128
330
1F
100
AcDbEntity
  8
THICK
100
AcDbLine
 10
503.9999999999999
 20
-382.5000000000001
 30
0.0
 11
503.9999999999999
 21
382.5
 31
0.0
1001
DBPROPERTIES
1002
{
1000
PbThick
1002
}
  0
LINE
  5
129
330
1F
100
AcDbEntity
  8
HIDDEN
100
AcDbLine
 10
504.0000000000001
 20
-382.4999999999999
 30
0.0
 11
504.0000000000001
 21
382.5
 31
0.0
1001
DBPROPERTIES
1002
{
1000
PbHidd
1002
}
  0
LINE
  5
12A
330
1F
100
AcDbEntity
  8
THICK
100
AcDbLine
 10
-504.0
 20
-382.5000000000001
 30
0.0
 11
-504.0
 21
382.5
 31
0.0
1001
DBPROPERTIES
1002
{
1000
PbThick
1002
}
  0
LINE
  5
12B
330
1F
100
AcDbEntity
  8
HIDDEN
100
AcDbLine
 10
-504.0
 20
-382.4999999999999
 30
0.0
 11
-504.0
 21
382.5
 31
0.0
1001
DBPROPERTIES
1002
{
1000
PbHidd
1002
}
  0
LINE
  5
12C
330
1F
100
AcDbEntity
  8
THICK
100
AcDbLine
 10
-509.0
 20
-382.4999999999999
 30
0.0
 11
-509.0
 21
382.5
 31
0.0
1001
DBPROPERTIES
1002
{
1000
PbThick
1002
}
  0
ENDSEC
  0
SECTION
  2
OBJECTS
  0
DICTIONARY
  5
C
330
0
100
AcDbDictionary
  3
ACAD_GROUP
350
D
  3
ACAD_LAYOUT
350
1A
  3
ACAD_MATERIAL
350
43
  3
ACAD_MLEADERSTYLE
350
6B
  3
ACAD_MLINESTYLE
350
17
  3
ACAD_PLOTSETTINGS
350
19
  3
ACAD_SCALELIST
350
47
  3
ACAD_VISUALSTYLE
350
2A
  3
ACDBVARIABLEDICTIONARY
350
12D
1001
ACAD
1000
TREAT_AS_HARD
1070
     0
  0
DICTIONARY
  5
D
102
{ACAD_REACTORS
330
C
102
}
330
C
100
AcDbDictionary
1001
ACAD
1000
TREAT_AS_HARD
1070
     0
  0
DICTIONARY
  5
1A
102
{ACAD_REACTORS
330
C
102
}
330
C
100
AcDbDictionary
1001
ACAD
1000
TREAT_AS_HARD
1070
     0
  0
DICTIONARY
  5
43
102
{ACAD_REACTORS
330
C
102
}
330
C
100
AcDbDictionary
  3
BYBLOCK
350
45
  3
BYLAYER
350
44
  3
GLOBAL
350
46
1001
ACAD
1000
TREAT_AS_HARD
1070
     0
  0
DICTIONARY
  5
6B
102
{ACAD_REACTORS
330
C
102
}
330
C
100
AcDbDictionary
  3
STANDARD
350
6C
1001
ACAD
1000
TREAT_AS_HARD
1070
     0
  0
DICTIONARY
  5
17
102
{ACAD_REACTORS
330
C
102
}
330
C
100
AcDbDictionary
  3
STANDARD
350
18
1001
ACAD
1000
TREAT_AS_HARD
1070
     0
  0
DICTIONARY
  5
19
102
{ACAD_REACTORS
330
C
102
}
330
C
100
AcDbDictionary
1001
ACAD
1000
TREAT_AS_HARD
1070
     0
  0
DICTIONARY
  5
47
102
{ACAD_REACTORS
330
C
102
}
330
C
100
AcDbDictionary
  3
A0
350
48
  3
A1
350
49
  3
A2
350
4A
  3
A3
350
4B
  3
A4
350
4C
  3
A5
350
4D
  3
A6
350
4E
  3
A7
350
4F
  3
A8
350
50
  3
A9
350
51
  3
B0
350
52
  3
B1
350
53
  3
B2
350
54
  3
B3
350
55
  3
B4
350
56
  3
B5
350
57
  3
B6
350
58
  3
B7
350
59
  3
B8
350
5A
  3
B9
350
5B
  3
C0
350
5C
  3
C1
350
5D
  3
C2
350
5E
  3
C3
350
5F
  3
C4
350
60
  3
C5
350
61
  3
C6
350
62
  3
C7
350
63
  3
C8
350
64
  3
C9
350
65
  3
D0
350
66
  3
D1
350
67
  3
D2
350
68
1001
ACAD
1000
TREAT_AS_HARD
1070
     0
  0
DICTIONARY
  5
2A
102
{ACAD_REACTORS
330
C
102
}
330
C
100
AcDbDictionary
  3
2DWIREFRAME
350
2F
  3
BASIC
350
32
  3
BRIGHTEN
350
36
  3
COLORCHANGE
350
3A
  3
CONCEPTUAL
350
34
  3
DIM
350
35
  3
EDGECOLOROFF
350
3D
  3
FACEPATTERN
350
39
  3
FLAT
350
2B
  3
FLATWITHEDGES
350
2C
  3
GOURAUD
350
2D
  3
GOURAUDWITHEDGES
350
2E
  3
HIDDEN
350
31
  3
JITTEROFF
350
3B
  3
LINEPATTERN
350
38
  3
OVERHANGOFF
350
3C
  3
REALISTIC
350
33
  3
SHADED
350
42
  3
SHADED_WITH_EDGES
350
41
  3
SHADES_OF_GRAY
350
3E
  3
SKETCHY
350
3F
  3
THICKEN
350
37
  3
WIREFRAME
350
30
  3
X-RAY
350
40
1001
ACAD
1000
TREAT_AS_HARD
1070
     0
  0
DICTIONARY
  5
12D
102
{ACAD_REACTORS
330
C
102
}
330
C
100
AcDbDictionary
  3
CANNOSCALE
350
138
  3
CENTEREXE
350
134
  3
CENTERLTYPEFILE
350
135
  3
CMLEADERSTYLE
350
12F
  3
CTABLESTYLE
350
12E
  3
DIMASSOC
350
136
  3
HIDETEXT
350
137
  3
MSLTSCALE
350
139
  3
PSOLHEIGHT
350
131
  3
PSOLWIDTH
350
130
1001
ACAD
1000
TREAT_AS_HARD
1070
     0
  0
MATERIAL
  5
45
102
{ACAD_REACTORS
330
43
102
}
102
{ACAD_XDICTIONARY
360
13C
102
}
330
43
100
AcDbMaterial
  1
BYBLOCK
  0
MATERIAL
  5
44
102
{ACAD_REACTORS
330
43
102
}
102
{ACAD_XDICTIONARY
360
13A
102
}
330
43
100
AcDbMaterial
  1
BYLAYER
  0
MATERIAL
  5
46
102
{ACAD_REACTORS
330
43
102
}
102
{ACAD_XDICTIONARY
360
13E
102
}
330
43
100
AcDbMaterial
  1
GLOBAL
  0
ACAD_PROXY_OBJECT
  5
6C
102
{ACAD_REACTORS
330
6B
102
}
330
6B
100
AcDbZombieObject
 90
      499
 91
      505
 93
      610
310
40901902A4063FBFFFFFE0000000000000020400000000000020404214DD185B99185C990000000000000104090141901A00000000000004100000000000000041025764000000000000039000
340
14
340
0
340
11
340
0
 94
        0
1001
ACAD_MLEADERVER
1070
     2
  0
MLINESTYLE
  5
18
102
{ACAD_REACTORS
330
17
102
}
330
17
100
AcDbMlineStyle
  2
Standard
 70
     0
  3

 62
   256
 51
90.0
 52
90.0
 71
     2
 49
0.5
 62
   256
  6
BYLAYER
 49
-0.5
 62
   256
  6
BYLAYER
  0
ACAD_PROXY_OBJECT
  5
48
102
{ACAD_REACTORS
330
47
102
}
330
47
100
AcDbZombieObject
 90
      499
 91
      503
 93
       41
310
903313A31580
  0
ACAD_PROXY_OBJECT
  5
49
102
{ACAD_REACTORS
330
47
102
}
330
47
100
AcDbZombieObject
 90
      499
 91
      503
 93
      105
310
903313A324000000000000004000
  0
ACAD_PROXY_OBJECT
  5
4A
102
{ACAD_REACTORS
330
47
102
}
330
47
100
AcDbZombieObject
 90
      499
 91
      503
 93
      105
310
903313A344000000000000104000
  0
ACAD_PROXY_OBJECT
  5
4B
102
{ACAD_REACTORS
330
47
102
}
330
47
100
AcDbZombieObject
 90
      499
 91
      503
 93
      105
310
903313A354000000000000144000
  0
ACAD_PROXY_OBJECT
  5
4C
102
{ACAD_REACTORS
330
47
102
}
330
47
100
AcDbZombieObject
 90
      499
 91
      503
 93
      105
310
903313A384000000000000204000
  0
ACAD_PROXY_OBJECT
  5
4D
102
{ACAD_REACTORS
330
47
102
}
330
47
100
AcDbZombieObject
 90
      499
 91
      503
 93
      113
310
904313A31304000000000000244000
  0
ACAD_PROXY_OBJECT
  5
4E
102
{ACAD_REACTORS
330
47
102
}
330
47
100
AcDbZombieObject
 90
      499
 91
      503
 93
      113
310
904313A31364000000000000304000
  0
ACAD_PROXY_OBJECT
  5
4F
102
{ACAD_REACTORS
330
47
102
}
330
47
100
AcDbZombieObject
 90
      499
 91
      503
 93
      113
310
904313A32304000000000000344000
  0
ACAD_PROXY_OBJECT
  5
50
102
{ACAD_REACTORS
330
47
102
}
330
47
100
AcDbZombieObject
 90
      499
 91
      503
 93
      113
310
904313A333040000000000003E4000
  0
ACAD_PROXY_OBJECT
  5
51
102
{ACAD_REACTORS
330
47
102
}
330
47
100
AcDbZombieObject
 90
      499
 91
      503
 93
      113
310
904313A34304000000000000444000
  0
ACAD_PROXY_OBJECT
  5
52
102
{ACAD_REACTORS
330
47
102
}
330
47
100
AcDbZombieObject
 90
      499
 91
      503
 93
      113
310
904313A35304000000000000494000
  0
ACAD_PROXY_OBJECT
  5
53
102
{ACAD_REACTORS
330
47
102
}
330
47
100
AcDbZombieObject
 90
      499
 91
      503
 93
      121
310
905313A3130304000000000000594000
  0
ACAD_PROXY_OBJECT
  5
54
102
{ACAD_REACTORS
330
47
102
}
330
47
100
AcDbZombieObject
 90
      499
 91
      503
 93
      105
310
903323A310000000000000010100
  0
ACAD_PROXY_OBJECT
  5
55
102
{ACAD_REACTORS
330
47
102
}
330
47
100
AcDbZombieObject
 90
      499
 91
      503
 93
      105
310
903343A310000000000000410100
  0
ACAD_PROXY_OBJECT
  5
56
102
{ACAD_REACTORS
330
47
102
}
330
47
100
AcDbZombieObject
 90
      499
 91
      503
 93
      105
310
903383A310000000000000810100
  0
ACAD_PROXY_OBJECT
  5
57
102
{ACAD_REACTORS
330
47
102
}
330
47
100
AcDbZombieObject
 90
      499
 91
      503
 93
      113
310
90431303A310000000000000910100
  0
ACAD_PROXY_OBJECT
  5
58
102
{ACAD_REACTORS
330
47
102
}
330
47
100
AcDbZombieObject
 90
      499
 91
      503
 93
      121
310
9053130303A310000000000001650100
  0
ACAD_PROXY_OBJECT
  5
59
102
{ACAD_REACTORS
330
47
102
}
330
47
100
AcDbZombieObject
 90
      499
 91
      503
 93
      257
310
90E312F31323822203D2031272D3022000000000000200FC000000000000284000
  0
ACAD_PROXY_OBJECT
  5
5A
102
{ACAD_REACTORS
330
47
102
}
330
47
100
AcDbZombieObject
 90
      499
 91
      503
 93
      249
310
90D312F363422203D2031272D3022000000000000240FC000000000000284000
  0
ACAD_PROXY_OBJECT
  5
5B
102
{ACAD_REACTORS
330
47
102
}
330
47
100
AcDbZombieObject
 90
      499
 91
      503
 93
      249
310
90D312F333222203D2031272D3022000000000000280FC000000000000284000
  0
ACAD_PROXY_OBJECT
  5
5C
102
{ACAD_REACTORS
330
47
102
}
330
47
100
AcDbZombieObject
 90
      499
 91
      503
 93
      249
310
90D312F313622203D2031272D30220000000000002C0FC000000000000284000
  0
ACAD_PROXY_OBJECT
  5
5D
102
{ACAD_REACTORS
330
47
102
}
330
47
100
AcDbZombieObject
 90
      499
 91
      503
 93
      249
310
90D332F333222203D2031272D30220000000000002E0FC000000000000284000
  0
ACAD_PROXY_OBJECT
  5
5E
102
{ACAD_REACTORS
330
47
102
}
330
47
100
AcDbZombieObject
 90
      499
 91
      503
 93
      241
310
90C312F3822203D2031272D3022000000000000300FC000000000000284000
  0
ACAD_PROXY_OBJECT
  5
5F
102
{ACAD_REACTORS
330
47
102
}
330
47
100
AcDbZombieObject
 90
      499
 91
      503
 93
      249
310
90D332F313622203D2031272D3022000000000000320FC000000000000284000
  0
ACAD_PROXY_OBJECT
  5
60
102
{ACAD_REACTORS
330
47
102
}
330
47
100
AcDbZombieObject
 90
      499
 91
      503
 93
      241
310
90C312F3422203D2031272D3022000000000000340FC000000000000284000
  0
ACAD_PROXY_OBJECT
  5
61
102
{ACAD_REACTORS
330
47
102
}
330
47
100
AcDbZombieObject
 90
      499
 91
      503
 93
      241
310
90C332F3822203D2031272D3022000000000000360FC000000000000284000
  0
ACAD_PROXY_OBJECT
  5
62
102
{ACAD_REACTORS
330
47
102
}
330
47
100
AcDbZombieObject
 90
      499
 91
      503
 93
      241
310
90C312F3222203D2031272D3022000000000000380FC000000000000284000
  0
ACAD_PROXY_OBJECT
  5
63
102
{ACAD_REACTORS
330
47
102
}
330
47
100
AcDbZombieObject
 90
      499
 91
      503
 93
      241
310
90C332F3422203D2031272D30220000000000003A0FC000000000000284000
  0
ACAD_PROXY_OBJECT
  5
64
102
{ACAD_REACTORS
330
47
102
}
330
47
100
AcDbZombieObject
 90
      499
 91
      503
 93
      161
310
90A3122203D2031272D30224000000000000284000
  0
ACAD_PROXY_OBJECT
  5
65
102
{ACAD_REACTORS
330
47
102
}
330
47
100
AcDbZombieObject
 90
      499
 91
      503
 93
      257
310
90E312D312F3222203D2031272D30220000000000003E0FC000000000000284000
  0
ACAD_PROXY_OBJECT
  5
66
102
{ACAD_REACTORS
330
47
102
}
330
47
100
AcDbZombieObject
 90
      499
 91
      503
 93
      225
310
90A3322203D2031272D302200000000000002100000000000000284000
  0
ACAD_PROXY_OBJECT
  5
67
102
{ACAD_REACTORS
330
47
102
}
330
47
100
AcDbZombieObject
 90
      499
 91
      503
 93
      225
310
90A3622203D2031272D302200000000000006100000000000000284000
  0
ACAD_PROXY_OBJECT
  5
68
102
{ACAD_REACTORS
330
47
102
}
330
47
100
AcDbZombieObject
 90
      499
 91
      503
 93
      249
310
90D31272D3022203D2031272D30220000000000000A100000000000000284000
  0
ACAD_PROXY_OBJECT
  5
2F
102
{ACAD_REACTORS
330
2A
102
}
330
2A
100
AcDbZombieObject
 90
      499
 91
      501
 93
      436
310
42CC9915DA5C99599C985B595049028333333333333E33F0000000000000F90107901411070040501600405405064090741402480A0340
1001
ACAD
1000
AcDbSavedByObjectVersion
1070
     0
  0
ACAD_PROXY_OBJECT
  5
32
102
{ACAD_REACTORS
330
2A
102
}
330
2A
100
AcDbZombieObject
 90
      499
 91
      501
 93
      388
310
4150985CDA58D07406404333333333333E33F0000000000000F90107A41107004050150841D405064090741402480A0350
1001
ACAD
1000
AcDbSavedByObjectVersion
1070
     0
  0
ACAD_PROXY_OBJECT
  5
36
102
{ACAD_REACTORS
330
2A
102
}
330
2A
100
AcDbZombieObject
 90
      499
 91
      501
 93
      428
310
42109C9A59DA1D195B90C409028333333333333E33F0000000000000F9010790141107004050150841D405064090741402480A029950
1001
ACAD
1000
AcDbSavedByObjectVersion
1070
     0
  0
ACAD_PROXY_OBJECT
  5
3A
102
{ACAD_REACTORS
330
2A
102
}
330
2A
100
AcDbZombieObject
 90
      499
 91
      501
 93
      452
310
42D0DBDB1BDC90DA185B99D95104090240C333333333333E33F0000000000000F90108901411070040501508421405064090741402480A0350
1001
ACAD
1000
AcDbSavedByObjectVersion
1070
     0
  0
ACAD_PROXY_OBJECT
  5
34
102
{ACAD_REACTORS
330
2A
102
}
330
2A
100
AcDbZombieObject
 90
      499
 91
      501
 93
      500
310
4290DBDB98D95C1D1D585B10940D028333333333333E33F0000000000000F90107902409070040501000000000018199010841D405064090740C02480A0340
1001
ACAD
1000
AcDbSavedByObjectVersion
1070
     0
  0
ACAD_PROXY_OBJECT
  5
35
102
{ACAD_REACTORS
330
2A
102
}
330
2A
100
AcDbZombieObject
 90
      499
 91
      501
 93
      412
310
40D11A5B50B409028333333333333E33F0000000000000F9010790141107004050150841D405064090741402480A02677FFFFFD0
1001
ACAD
1000
AcDbSavedByObjectVersion
1070
     0
  0
ACAD_PROXY_OBJECT
  5
3D
102
{ACAD_REACTORS
330
2A
102
}
330
2A
100
AcDbZombieObject
 90
      499
 91
      501
 93
      452
310
43115919D950DBDB1BDC93D999916409028333333333333E33F0000000000000F9010790141107004050150841D405064090741402480A0350
1001
ACAD
1000
AcDbSavedByObjectVersion
1070
     0
  0
ACAD_PROXY_OBJECT
  5
39
102
{ACAD_REACTORS
330
2A
102
}
330
2A
100
AcDbZombieObject
 90
      499
 91
      501
 93
      444
310
42D19858D95C185D1D195C9B90F409028333333333333E33F0000000000000F9010790141107004050150841D405064090741402480A0350
1001
ACAD
1000
AcDbSavedByObjectVersion
1070
     0
  0
ACAD_PROXY_OBJECT
  5
2B
102
{ACAD_REACTORS
330
2A
102
}
330
2A
100
AcDbZombieObject
 90
      499
 91
      501
 93
      380
310
41119B185D240901404333333333333E33F0000000000000F9010740A907004050150841D405064090741402480A1B50
1001
ACAD
1000
AcDbSavedByObjectVersion
1070
     0
  0
ACAD_PROXY_OBJECT
  5
2C
102
{ACAD_REACTORS
330
2A
102
}
330
2A
100
AcDbZombieObject
 90
      499
 91
      501
 93
      468
310
43519B185D15DA5D1A115919D95CD0140901404333333333333E33F0000000000000F90107409019070040501600405405064090741402480A1B50
1001
ACAD
1000
AcDbSavedByObjectVersion
1070
     0
  0
ACAD_PROXY_OBJECT
  5
2D
102
{ACAD_REACTORS
330
2A
102
}
330
2A
100
AcDbZombieObject
 90
      499
 91
      501
 93
      404
310
41D1DBDD5C985D5910240902404333333333333E33F0000000000000F9010740A9070040501641D405064090741402480A1B50
1001
ACAD
1000
AcDbSavedByObjectVersion
1070
     0
  0
ACAD_PROXY_OBJECT
  5
2E
102
{ACAD_REACTORS
330
2A
102
}
330
2A
100
AcDbZombieObject
 90
      499
 91
      501
 93
      492
310
4411DBDD5C985D5915DA5D1A115919D95CD0340902404333333333333E33F0000000000000F90107409019070040501600405405064090741402480A1B50
1001
ACAD
1000
AcDbSavedByObjectVersion
1070
     0
  0
ACAD_PROXY_OBJECT
  5
31
102
{ACAD_REACTORS
330
2A
102
}
330
2A
100
AcDbZombieObject
 90
      499
 91
      501
 93
      476
310
41921A5919195B90640502408333333333333E33F0000000000000F901079024090700405020000000000001110200405405064090740C02480A0340
1001
ACAD
1000
AcDbSavedByObjectVersion
1070
     0
  0
ACAD_PROXY_OBJECT
  5
3B
102
{ACAD_REACTORS
330
2A
102
}
330
2A
100
AcDbZombieObject
 90
      499
 91
      501
 93
      428
310
42529A5D1D195C93D999914409028333333333333E33F0000000000000F9010790141107004050150A41D405064090741402480A0350
1001
ACAD
1000
AcDbSavedByObjectVersion
1070
     0
  0
ACAD_PROXY_OBJECT
  5
38
102
{ACAD_REACTORS
330
2A
102
}
330
2A
100
AcDbZombieObject
 90
      499
 91
      501
 93
      444
310
42D31A5B995C185D1D195C9B90E409028333333333333E33F0000000000000F9010790141107004050750841D405064090741402483A0350
1001
ACAD
1000
AcDbSavedByObjectVersion
1070
     0
  0
ACAD_PROXY_OBJECT
  5
3C
102
{ACAD_REACTORS
330
2A
102
}
330
2A
100
AcDbZombieObject
 90
      499
 91
      501
 93
      444
310
42D3DD995C9A185B99D3D999915409028333333333333E33F0000000000000F9010790141107004050150941D405064090741402480A0350
1001
ACAD
1000
AcDbSavedByObjectVersion
1070
     0
  0
ACAD_PROXY_OBJECT
  5
33
102
{ACAD_REACTORS
330
2A
102
}
330
2A
100
AcDbZombieObject
 90
      499
 91
      501
 93
      428
310
425499585B1A5CDD1A58D08409038333333333333E33F0000000000000F9010740A907004050150800405405064090740C02480A1B40
1001
ACAD
1000
AcDbSavedByObjectVersion
1070
     0
  0
ACAD_PROXY_OBJECT
  5
42
102
{ACAD_REACTORS
330
2A
102
}
330
2A
100
AcDbZombieObject
 90
      499
 91
      501
 93
      420
310
4194DA1859195911B40902404333333333333E33F0000000000000F9010740A41107004050150800405405064090840C02480A0B40
1001
ACAD
1000
AcDbSavedByObjectVersion
1070
     0
  0
ACAD_PROXY_OBJECT
  5
41
102
{ACAD_REACTORS
330
2A
102
}
330
2A
100
AcDbZombieObject
 90
      499
 91
      501
 93
      516
310
4454DA18591959081DDA5D1A08195919D95CD1A40902404333333333333E33F0000000000000F901074090142907004050250800405405064090740C02480A0B40
1001
ACAD
1000
AcDbSavedByObjectVersion
1070
     0
  0
ACAD_PROXY_OBJECT
  5
3E
102
{ACAD_REACTORS
330
2A
102
}
330
2A
100
AcDbZombieObject
 90
      499
 91
      501
 93
      532
310
4394DA1859195CC81BD98811DC985E5174090240C333333333333E33F0000000000000F901079024090741D01000000000000111010841D405064090740C02480A0340
1001
ACAD
1000
AcDbSavedByObjectVersion
1070
     0
  0
ACAD_PROXY_OBJECT
  5
3F
102
{ACAD_REACTORS
330
2A
102
}
330
2A
100
AcDbZombieObject
 90
      499
 91
      501
 93
      476
310
41D4DAD95D18DA1E51840502408333333333333E33F0000000000000F901079024090741D01000000000000111010B41D405064090741802480A0340
1001
ACAD
1000
AcDbSavedByObjectVersion
1070
     0
  0
ACAD_PROXY_OBJECT
  5
37
102
{ACAD_REACTORS
330
2A
102
}
330
2A
100
AcDbZombieObject
 90
      499
 91
      501
 93
      412
310
41D51A1A58DAD95B90D409028333333333333E33F0000000000000F9010790141107004050150C41D405064090741402480A0350
1001
ACAD
1000
AcDbSavedByObjectVersion
1070
     0
  0
ACAD_PROXY_OBJECT
  5
30
102
{ACAD_REACTORS
330
2A
102
}
330
2A
100
AcDbZombieObject
 90
      499
 91
      501
 93
      420
310
4255DA5C99599C985B595059028333333333333E33F0000000000000F90107901411070040501600405405064090740C02480A0340
1001
ACAD
1000
AcDbSavedByObjectVersion
1070
     0
  0
ACAD_PROXY_OBJECT
  5
40
102
{ACAD_REACTORS
330
2A
102
}
330
2A
100
AcDbZombieObject
 90
      499
 91
      501
 93
      404
310
41560B54985E51940902404000000000000E03F0000000000000F9010740501907004050150841D405064090740C02480A1B40
1001
ACAD
1000
AcDbSavedByObjectVersion
1070
     0
  0
DICTIONARYVAR
  5
138
102
{ACAD_REACTORS
330
12D
102
}
330
12D
100
DictionaryVariables
280
     0
  1
1:1
  0
DICTIONARYVAR
  5
134
102
{ACAD_REACTORS
330
12D
102
}
330
12D
100
DictionaryVariables
280
     0
  1
3.500000
  0
DICTIONARYVAR
  5
135
102
{ACAD_REACTORS
330
12D
102
}
330
12D
100
DictionaryVariables
280
     0
  1
acadiso.lin
  0
DICTIONARYVAR
  5
12F
102
{ACAD_REACTORS
330
12D
102
}
330
12D
100
DictionaryVariables
280
     0
  1
Standard
  0
DICTIONARYVAR
  5
12E
102
{ACAD_REACTORS
330
12D
102
}
330
12D
100
DictionaryVariables
280
     0
  1
Standard
  0
DICTIONARYVAR
  5
136
102
{ACAD_REACTORS
330
12D
102
}
330
12D
100
DictionaryVariables
280
     0
  1
2
  0
DICTIONARYVAR
  5
137
102
{ACAD_REACTORS
330
12D
102
}
330
12D
100
DictionaryVariables
280
     0
  1
1
  0
DICTIONARYVAR
  5
139
102
{ACAD_REACTORS
330
12D
102
}
330
12D
100
DictionaryVariables
280
     0
  1
1
  0
DICTIONARYVAR
  5
131
102
{ACAD_REACTORS
330
12D
102
}
330
12D
100
DictionaryVariables
280
     0
  1
80.000000
  0
DICTIONARYVAR
  5
130
102
{ACAD_REACTORS
330
12D
102
}
330
12D
100
DictionaryVariables
280
     0
  1
5.000000
  0
DICTIONARY
  5
13C
330
45
100
AcDbDictionary
  3
ACAD_XREC_ROUNDTRIP
360
13D
1001
ACAD
1000
TREAT_AS_HARD
1070
     1
  0
DICTIONARY
  5
13A
330
44
100
AcDbDictionary
  3
ACAD_XREC_ROUNDTRIP
360
13B
1001
ACAD
1000
TREAT_AS_HARD
1070
     1
  0
DICTIONARY
  5
13E
330
46
100
AcDbDictionary
  3
ACAD_XREC_ROUNDTRIP
360
13F
1001
ACAD
1000
TREAT_AS_HARD
1070
     1
  0
XRECORD
  5
13D
102
{ACAD_REACTORS
330
13C
102
}
330
13C
100
AcDbXrecord
102
MATERIAL
148
0.0
149
0.0
149
0.0
 93
        0
 94
      127
282
     0
 72
     1
 77
     1
171
     1
175
     1
179
     1
273
     0
  0
XRECORD
  5
13B
102
{ACAD_REACTORS
330
13A
102
}
330
13A
100
AcDbXrecord
102
MATERIAL
148
0.0
149
0.0
149
0.0
 93
        0
 94
      127
282
     0
 72
     1
 77
     1
171
     1
175
     1
179
     1
273
     0
  0
XRECORD
  5
13F
102
{ACAD_REACTORS
330
13E
102
}
330
13E
100
AcDbXrecord
102
MATERIAL
148
0.0
149
0.0
149
0.0
 93
        0
 94
      127
282
     0
 72
     1
 77
     1
171
     1
175
     1
179
     1
273
     0
  0
ENDSEC
  0
EOF
