  0
SECTION
  2
HEADER
  9
$ACADVER
  1
AC1012
  9
$DWGCODEPAGE
  3
ansi_1252
  9
$INSBASE
 10
0.0
 20
0.0
 30
0.0
  9
$EXTMIN
 10
1.000000000000000E+20
 20
1.000000000000000E+20
 30
1.000000000000000E+20
  9
$EXTMAX
 10
-1.000000000000000E+20
 20
-1.000000000000000E+20
 30
-1.000000000000000E+20
  9
$LIMMIN
 10
0.0
 20
0.0
  9
$LIMMAX
 10
420.0
 20
297.0
  9
$ORTHOMODE
 70
     0
  9
$REGENMODE
 70
     1
  9
$FILLMODE
 70
     1
  9
$QTEXTMODE
 70
     0
  9
$MIRRTEXT
 70
     1
  9
$DRAGMODE
 70
     2
  9
$LTSCALE
 40
1.0
  9
$OSMODE
 70
    37
  9
$ATTMODE
 70
     1
  9
$TEXTSIZE
 40
2.5
  9
$TRACEWID
 40
1.0
  9
$TEXTSTYLE
  7
STANDARD
  9
$CLAYER
  8
0
  9
$CELTYPE
  6
BYLAYER
  9
$CECOLOR
 62
   256
  9
$CELTSCALE
 40
1.0
  9
$DELOBJ
 70
     1
  9
$DISPSILH
 70
     0
  9
$DIMSCALE
 40
1.0
  9
$DIMASZ
 40
2.5
  9
$DIMEXO
 40
0.625
  9
$DIMDLI
 40
3.75
  9
$DIMRND
 40
0.0
  9
$DIMDLE
 40
0.0
  9
$DIMEXE
 40
1.25
  9
$DIMTP
 40
0.0
  9
$DIMTM
 40
0.0
  9
$DIMTXT
 40
2.5
  9
$DIMCEN
 40
2.5
  9
$DIMTSZ
 40
0.0
  9
$DIMTOL
 70
     0
  9
$DIMLIM
 70
     0
  9
$DIMTIH
 70
     0
  9
$DIMTOH
 70
     0
  9
$DIMSE1
 70
     0
  9
$DIMSE2
 70
     0
  9
$DIMTAD
 70
     1
  9
$DIMZIN
 70
     8
  9
$DIMBLK
  1

  9
$DIMASO
 70
     1
  9
$DIMSHO
 70
     1
  9
$DIMPOST
  1

  9
$DIMAPOST
  1

  9
$DIMALT
 70
     0
  9
$DIMALTD
 70
     3
  9
$DIMALTF
 40
0.03937007874016
  9
$DIMLFAC
 40
1.0
  9
$DIMTOFL
 70
     1
  9
$DIMTVP
 40
0.0
  9
$DIMTIX
 70
     0
  9
$DIMSOXD
 70
     0
  9
$DIMSAH
 70
     0
  9
$DIMBLK1
  1

  9
$DIMBLK2
  1

  9
$DIMSTYLE
  2
ISO-25
  9
$DIMCLRD
 70
     0
  9
$DIMCLRE
 70
     0
  9
$DIMCLRT
 70
     0
  9
$DIMTFAC
 40
1.0
  9
$DIMGAP
 40
0.625
  9
$DIMJUST
 70
     0
  9
$DIMSD1
 70
     0
  9
$DIMSD2
 70
     0
  9
$DIMTOLJ
 70
     0
  9
$DIMTZIN
 70
     8
  9
$DIMALTZ
 70
     0
  9
$DIMALTTZ
 70
     0
  9
$DIMFIT
 70
     3
  9
$DIMUPT
 70
     0
  9
$DIMUNIT
 70
     2
  9
$DIMDEC
 70
     2
  9
$DIMTDEC
 70
     2
  9
$DIMALTU
 70
     2
  9
$DIMALTTD
 70
     3
  9
$DIMTXSTY
  7
STANDARD
  9
$DIMAUNIT
 70
     0
  9
$LUNITS
 70
     2
  9
$LUPREC
 70
     4
  9
$SKETCHINC
 40
1.0
  9
$FILLETRAD
 40
10.0
  9
$AUNITS
 70
     0
  9
$AUPREC
 70
     0
  9
$MENU
  1
.
  9
$ELEVATION
 40
0.0
  9
$PELEVATION
 40
0.0
  9
$THICKNESS
 40
0.0
  9
$LIMCHECK
 70
     0
  9
$CHAMFERA
 40
0.0
  9
$CHAMFERB
 40
0.0
  9
$CHAMFERC
 40
0.0
  9
$CHAMFERD
 40
0.0
  9
$SKPOLY
 70
     0
  9
$TDCREATE
 40
2457980.615171632
  9
$TDUPDATE
 40
2457980.615174699
  9
$TDINDWG
 40
0.0000000116
  9
$TDUSRTIMER
 40
0.0000000116
  9
$USRTIMER
 70
     1
  9
$ANGBASE
 50
0.0
  9
$ANGDIR
 70
     0
  9
$PDMODE
 70
     0
  9
$PDSIZE
 40
0.0
  9
$PLINEWID
 40
0.0
  9
$COORDS
 70
     1
  9
$SPLFRAME
 70
     0
  9
$SPLINETYPE
 70
     6
  9
$SPLINESEGS
 70
     8
  9
$ATTDIA
 70
     0
  9
$ATTREQ
 70
     1
  9
$HANDLING
 70
     1
  9
$HANDSEED
  5
504
  9
$SURFTAB1
 70
     6
  9
$SURFTAB2
 70
     6
  9
$SURFTYPE
 70
     6
  9
$SURFU
 70
     6
  9
$SURFV
 70
     6
  9
$UCSNAME
  2

  9
$UCSORG
 10
0.0
 20
0.0
 30
0.0
  9
$UCSXDIR
 10
1.0
 20
0.0
 30
0.0
  9
$UCSYDIR
 10
0.0
 20
1.0
 30
0.0
  9
$PUCSNAME
  2

  9
$PUCSORG
 10
0.0
 20
0.0
 30
0.0
  9
$PUCSXDIR
 10
1.0
 20
0.0
 30
0.0
  9
$PUCSYDIR
 10
0.0
 20
1.0
 30
0.0
  9
$USERI1
 70
     0
  9
$USERI2
 70
     0
  9
$USERI3
 70
     0
  9
$USERI4
 70
     0
  9
$USERI5
 70
     0
  9
$USERR1
 40
0.0
  9
$USERR2
 40
0.0
  9
$USERR3
 40
0.0
  9
$USERR4
 40
0.0
  9
$USERR5
 40
0.0
  9
$WORLDVIEW
 70
     1
  9
$SHADEDGE
 70
     3
  9
$SHADEDIF
 70
    70
  9
$TILEMODE
 70
     1
  9
$MAXACTVP
 70
    64
  9
$PINSBASE
 10
0.0
 20
0.0
 30
0.0
  9
$PLIMCHECK
 70
     0
  9
$PEXTMIN
 10
1.000000000000000E+20
 20
1.000000000000000E+20
 30
1.000000000000000E+20
  9
$PEXTMAX
 10
-1.000000000000000E+20
 20
-1.000000000000000E+20
 30
-1.000000000000000E+20
  9
$PLIMMIN
 10
0.0
 20
0.0
  9
$PLIMMAX
 10
420.0
 20
297.0
  9
$UNITMODE
 70
     0
  9
$VISRETAIN
 70
     1
  9
$PLINEGEN
 70
     0
  9
$PSLTSCALE
 70
     1
  9
$TREEDEPTH
 70
  3020
  9
$PICKSTYLE
 70
     1
  9
$CMLSTYLE
  2
STANDARD
  9
$CMLJUST
 70
     0
  9
$CMLSCALE
 40
20.0
  9
$SAVEIMAGES
 70
     1
  0
ENDSEC
  0
SECTION
  2
CLASSES
  0
CLASS
  1
ACDBDICTIONARYWDFLT
  2
AcDbDictionaryWithDefault
  3
ObjectDBX Classes
 90
    32768
280
     0
281
     0
  0
CLASS
  1
VISUALSTYLE
  2
AcDbVisualStyle
  3
ObjectDBX Classes
 90
     4095
280
     0
281
     0
  0
CLASS
  1
MATERIAL
  2
AcDbMaterial
  3
ObjectDBX Classes
 90
     1153
280
     0
281
     0
  0
CLASS
  1
SCALE
  2
AcDbScale
  3
ObjectDBX Classes
 90
     1153
280
     0
281
     0
  0
CLASS
  1
TABLESTYLE
  2
AcDbTableStyle
  3
ObjectDBX Classes
 90
     4095
280
     0
281
     0
  0
CLASS
  1
MLEADERSTYLE
  2
AcDbMLeaderStyle
  3
ACDB_MLEADERSTYLE_CLASS
 90
     4095
280
     0
281
     0
  0
CLASS
  1
SUN
  2
AcDbSun
  3
SCENEOE
 90
     1153
280
     0
281
     0
  0
CLASS
  1
DICTIONARYVAR
  2
AcDbDictionaryVar
  3
ObjectDBX Classes
 90
        0
280
     0
281
     0
  0
CLASS
  1
XRECORD
  2
AcDbXrecord
  3
ObjectDBX Classes
 90
    32768
280
     0
281
     0
  0
CLASS
  1
LWPOLYLINE
  2
AcDbPolyline
  3
ObjectDBX Classes
 90
    32768
280
     0
281
     1
  0
CLASS
  1
HATCH
  2
AcDbHatch
  3
ObjectDBX Classes
 90
    32768
280
     0
281
     1
  0
CLASS
  1
ACDBPLACEHOLDER
  2
AcDbPlaceHolder
  3
ObjectDBX Classes
 90
        0
280
     0
281
     0
  0
CLASS
  1
LAYOUT
  2
AcDbLayout
  3
ObjectDBX Classes
 90
        0
280
     0
281
     0
  0
ENDSEC
  0
SECTION
  2
TABLES
  0
TABLE
  2
VPORT
  5
8
330
0
100
AcDbSymbolTable
 70
     1
  0
VPORT
  5
29
330
8
100
AcDbSymbolTableRecord
100
AcDbViewportTableRecord
  2
*ACTIVE
 70
     0
 10
0.0
 20
0.0
 11
1.0
 21
1.0
 12
0.0
 22
0.0
 13
0.0
 23
0.0
 14
10.0
 24
10.0
 15
10.0
 25
10.0
 16
0.0
 26
0.0
 36
1.0
 17
0.0000000000000568
 27
0.0
 37
0.0
 40
822.12
 41
1.0
 42
50.0
 43
0.0
 44
0.0
 50
0.0
 51
0.0
 71
     0
 72
   100
 73
     1
 74
     3
 75
     0
 76
     0
 77
     0
 78
     0
  0
ENDTAB
  0
TABLE
  2
LTYPE
  5
5
330
0
100
AcDbSymbolTable
 70
     1
  0
LTYPE
  5
14
330
5
100
AcDbSymbolTableRecord
100
AcDbLinetypeTableRecord
  2
BYBLOCK
 70
     0
  3

 72
    65
 73
     0
 40
0.0
  0
LTYPE
  5
15
330
5
100
AcDbSymbolTableRecord
100
AcDbLinetypeTableRecord
  2
BYLAYER
 70
     0
  3

 72
    65
 73
     0
 40
0.0
  0
LTYPE
  5
16
330
5
100
AcDbSymbolTableRecord
100
AcDbLinetypeTableRecord
  2
CONTINUOUS
 70
     0
  3
Solid line
 72
    65
 73
     0
 40
0.0
  0
ENDTAB
  0
TABLE
  2
LAYER
  5
2
330
0
100
AcDbSymbolTable
 70
     4
  0
LAYER
  5
10
330
2
100
AcDbSymbolTableRecord
100
AcDbLayerTableRecord
  2
0
 70
     0
 62
     7
  6
CONTINUOUS
  0
LAYER
  5
6E
330
2
100
AcDbSymbolTableRecord
100
AcDbLayerTableRecord
  2
THICK
 70
     0
 62
     7
  6
CONTINUOUS
  0
LAYER
  5
6F
330
2
100
AcDbSymbolTableRecord
100
AcDbLayerTableRecord
  2
HIDDEN
 70
     0
 62
     7
  6
CONTINUOUS
  0
LAYER
  5
70
330
2
100
AcDbSymbolTableRecord
100
AcDbLayerTableRecord
  2
HASHLINES
 70
     0
 62
     7
  6
CONTINUOUS
  0
ENDTAB
  0
TABLE
  2
STYLE
  5
3
330
0
100
AcDbSymbolTable
 70
     1
  0
STYLE
  5
11
330
3
100
AcDbSymbolTableRecord
100
AcDbTextStyleTableRecord
  2
STANDARD
 70
     0
 40
0.0
 41
1.0
 50
0.0
 71
     0
 42
2.5
  3
txt
  4

  0
ENDTAB
  0
TABLE
  2
VIEW
  5
6
330
0
100
AcDbSymbolTable
 70
     0
  0
ENDTAB
  0
TABLE
  2
UCS
  5
7
330
0
100
AcDbSymbolTable
 70
     0
  0
ENDTAB
  0
TABLE
  2
APPID
  5
9
330
0
100
AcDbSymbolTable
 70
     3
  0
APPID
  5
12
330
9
100
AcDbSymbolTableRecord
100
AcDbRegAppTableRecord
  2
ACAD
 70
     0
  0
APPID
  5
71
330
9
100
AcDbSymbolTableRecord
100
AcDbRegAppTableRecord
  2
DBPROPERTIES
 70
     0
  0
APPID
  5
503
330
9
100
AcDbSymbolTableRecord
100
AcDbRegAppTableRecord
  2
ACAD_MLEADERVER
 70
     0
  0
ENDTAB
  0
TABLE
  2
DIMSTYLE
  5
A
330
0
100
AcDbSymbolTable
 70
     1
  0
DIMSTYLE
105
27
330
A
100
AcDbSymbolTableRecord
100
AcDbDimStyleTableRecord
  2
ISO-25
 70
     0
  3

  4

  5

  6

  7

 40
1.0
 41
2.5
 42
0.625
 43
3.75
 44
1.25
 45
0.0
 46
0.0
 47
0.0
 48
0.0
140
2.5
141
2.5
142
0.0
143
0.03937007874016
144
1.0
145
0.0
146
1.0
147
0.625
 71
     0
 72
     0
 73
     0
 74
     0
 75
     0
 76
     0
 77
     1
 78
     8
170
     0
171
     3
172
     1
173
     0
174
     0
175
     0
176
     0
177
     0
178
     0
270
     2
271
     2
272
     2
273
     2
274
     3
340
11
275
     0
280
     0
281
     0
282
     0
283
     0
284
     8
285
     0
286
     0
287
     3
288
     0
  0
ENDTAB
  0
TABLE
  2
BLOCK_RECORD
  5
1
330
0
100
AcDbSymbolTable
 70
     0
  0
BLOCK_RECORD
  5
1F
330
1
100
AcDbSymbolTableRecord
100
AcDbBlockTableRecord
  2
*MODEL_SPACE
  0
BLOCK_RECORD
  5
1B
330
1
100
AcDbSymbolTableRecord
100
AcDbBlockTableRecord
  2
*PAPER_SPACE
  0
ENDTAB
  0
ENDSEC
  0
SECTION
  2
BLOCKS
  0
BLOCK
  5
20
330
1F
100
AcDbEntity
  8
0
100
AcDbBlockBegin
  2
*MODEL_SPACE
 70
     0
 10
0.0
 20
0.0
 30
0.0
  3
*MODEL_SPACE
  1

  0
ENDBLK
  5
21
330
1F
100
AcDbEntity
  8
0
100
AcDbBlockEnd
  0
BLOCK
  5
1C
330
1B
100
AcDbEntity
 67
     1
  8
0
100
AcDbBlockBegin
  2
*PAPER_SPACE
 70
     0
 10
0.0
 20
0.0
 30
0.0
  3
*PAPER_SPACE
  1

  0
ENDBLK
  5
1D
330
1B
100
AcDbEntity
 67
     1
  8
0
100
AcDbBlockEnd
  0
ENDSEC
  0
SECTION
  2
ENTITIES
  0
ARC
  5
72
330
1F
100
AcDbEntity
  8
THICK
100
AcDbCircle
 10
0.0
 20
0.0
 30
0.0
 40
392.0
100
AcDbArc
 50
180.0000198478428
 51
270.0000187239684
1001
DBPROPERTIES
1002
{
1000
PbThick
1002
}
  0
ARC
  5
73
330
1F
100
AcDbEntity
  8
THICK
100
AcDbCircle
 10
0.0
 20
0.0
 30
0.0
 40
392.0
100
AcDbArc
 50
270.0000187239684
 51
0.0
1001
DBPROPERTIES
1002
{
1000
PbThick
1002
}
  0
ARC
  5
74
330
1F
100
AcDbEntity
  8
THICK
100
AcDbCircle
 10
0.0
 20
0.0
 30
0.0
 40
392.0
100
AcDbArc
 50
0.0
 51
180.0000198478428
1001
DBPROPERTIES
1002
{
1000
PbThick
1002
}
  0
ARC
  5
75
330
1F
100
AcDbEntity
  8
THICK
100
AcDbCircle
 10
147.3331214605598
 20
355.6936200168453
 30
0.0
 40
6.0
100
AcDbArc
 50
247.5000234049604
 51
67.49998595702374
1001
DBPROPERTIES
1002
{
1000
PbThick
1002
}
  0
ARC
  5
76
330
1F
100
AcDbEntity
  8
THICK
100
AcDbCircle
 10
147.3331214605598
 20
355.6936200168453
 30
0.0
 40
6.0
100
AcDbArc
 50
67.49998595702374
 51
247.5000234049604
1001
DBPROPERTIES
1002
{
1000
PbThick
1002
}
  0
ARC
  5
77
330
1F
100
AcDbEntity
  8
THICK
100
AcDbCircle
 10
272.2361107568208
 20
272.2361107568207
 30
0.0
 40
5.999999999999999
100
AcDbArc
 50
225.0000280859525
 51
44.99999063801582
1001
DBPROPERTIES
1002
{
1000
PbThick
1002
}
  0
ARC
  5
78
330
1F
100
AcDbEntity
  8
THICK
100
AcDbCircle
 10
272.2361107568208
 20
272.2361107568207
 30
0.0
 40
5.999999999999999
100
AcDbArc
 50
44.99999063801582
 51
225.0000280859525
1001
DBPROPERTIES
1002
{
1000
PbThick
1002
}
  0
ARC
  5
79
330
1F
100
AcDbEntity
  8
THICK
100
AcDbCircle
 10
355.6936200168453
 20
147.3331214605596
 30
0.0
 40
5.999999999999999
100
AcDbArc
 50
202.5000327669446
 51
22.49999531900791
1001
DBPROPERTIES
1002
{
1000
PbThick
1002
}
  0
ARC
  5
7A
330
1F
100
AcDbEntity
  8
THICK
100
AcDbCircle
 10
355.6936200168453
 20
147.3331214605596
 30
0.0
 40
5.999999999999999
100
AcDbArc
 50
22.49999531900791
 51
202.5000327669446
1001
DBPROPERTIES
1002
{
1000
PbThick
1002
}
  0
ARC
  5
7B
330
1F
100
AcDbEntity
  8
THICK
100
AcDbCircle
 10
385.0
 20
-0.0000000000000943
 30
0.0
 40
6.0
100
AcDbArc
 50
180.0000198478428
 51
0.0
1001
DBPROPERTIES
1002
{
1000
PbThick
1002
}
  0
ARC
  5
7C
330
1F
100
AcDbEntity
  8
THICK
100
AcDbCircle
 10
385.0
 20
-0.0000000000000943
 30
0.0
 40
6.0
100
AcDbArc
 50
0.0
 51
180.0000198478428
1001
DBPROPERTIES
1002
{
1000
PbThick
1002
}
  0
ARC
  5
7D
330
1F
100
AcDbEntity
  8
THICK
100
AcDbCircle
 10
355.6936200168453
 20
-147.3331214605598
 30
0.0
 40
6.0
100
AcDbArc
 50
157.4999672330554
 51
337.500004680992
1001
DBPROPERTIES
1002
{
1000
PbThick
1002
}
  0
ARC
  5
7E
330
1F
100
AcDbEntity
  8
THICK
100
AcDbCircle
 10
355.6936200168453
 20
-147.3331214605598
 30
0.0
 40
6.0
100
AcDbArc
 50
337.500004680992
 51
157.4999672330554
1001
DBPROPERTIES
1002
{
1000
PbThick
1002
}
  0
ARC
  5
7F
330
1F
100
AcDbEntity
  8
THICK
100
AcDbCircle
 10
272.2361107568208
 20
-272.2361107568208
 30
0.0
 40
6.0
100
AcDbArc
 50
134.9999719140475
 51
315.0000093619842
1001
DBPROPERTIES
1002
{
1000
PbThick
1002
}
  0
ARC
  5
80
330
1F
100
AcDbEntity
  8
THICK
100
AcDbCircle
 10
272.2361107568208
 20
-272.2361107568208
 30
0.0
 40
6.0
100
AcDbArc
 50
315.0000093619842
 51
134.9999719140475
1001
DBPROPERTIES
1002
{
1000
PbThick
1002
}
  0
ARC
  5
81
330
1F
100
AcDbEntity
  8
THICK
100
AcDbCircle
 10
147.3331214605595
 20
-355.6936200168454
 30
0.0
 40
5.999999999999999
100
AcDbArc
 50
112.4999765950396
 51
292.5000140429763
1001
DBPROPERTIES
1002
{
1000
PbThick
1002
}
  0
ARC
  5
82
330
1F
100
AcDbEntity
  8
THICK
100
AcDbCircle
 10
147.3331214605595
 20
-355.6936200168454
 30
0.0
 40
5.999999999999999
100
AcDbArc
 50
292.5000140429763
 51
112.4999765950396
1001
DBPROPERTIES
1002
{
1000
PbThick
1002
}
  0
ARC
  5
83
330
1F
100
AcDbEntity
  8
THICK
100
AcDbCircle
 10
-0.0000000000000707
 20
-385.0
 30
0.0
 40
6.0
100
AcDbArc
 50
89.99998127603165
 51
270.0000187239684
1001
DBPROPERTIES
1002
{
1000
PbThick
1002
}
  0
ARC
  5
84
330
1F
100
AcDbEntity
  8
THICK
100
AcDbCircle
 10
-0.0000000000000707
 20
-385.0
 30
0.0
 40
6.0
100
AcDbArc
 50
270.0000187239684
 51
89.99998127603165
1001
DBPROPERTIES
1002
{
1000
PbThick
1002
}
  0
ARC
  5
85
330
1F
100
AcDbEntity
  8
THICK
100
AcDbCircle
 10
-147.3331214605596
 20
-355.6936200168454
 30
0.0
 40
6.0
100
AcDbArc
 50
67.49998595702374
 51
247.5000234049604
1001
DBPROPERTIES
1002
{
1000
PbThick
1002
}
  0
ARC
  5
86
330
1F
100
AcDbEntity
  8
THICK
100
AcDbCircle
 10
-147.3331214605596
 20
-355.6936200168454
 30
0.0
 40
6.0
100
AcDbArc
 50
247.5000234049604
 51
67.49998595702374
1001
DBPROPERTIES
1002
{
1000
PbThick
1002
}
  0
ARC
  5
87
330
1F
100
AcDbEntity
  8
THICK
100
AcDbCircle
 10
-272.2361107568208
 20
-272.2361107568208
 30
0.0
 40
5.999999999999999
100
AcDbArc
 50
44.99999063801582
 51
225.0000280859525
1001
DBPROPERTIES
1002
{
1000
PbThick
1002
}
  0
ARC
  5
88
330
1F
100
AcDbEntity
  8
THICK
100
AcDbCircle
 10
-272.2361107568208
 20
-272.2361107568208
 30
0.0
 40
5.999999999999999
100
AcDbArc
 50
225.0000280859525
 51
44.99999063801582
1001
DBPROPERTIES
1002
{
1000
PbThick
1002
}
  0
ARC
  5
89
330
1F
100
AcDbEntity
  8
THICK
100
AcDbCircle
 10
-355.6936200168454
 20
-147.3331214605595
 30
0.0
 40
5.999999999999999
100
AcDbArc
 50
22.49999531900791
 51
202.5000327669446
1001
DBPROPERTIES
1002
{
1000
PbThick
1002
}
  0
ARC
  5
8A
330
1F
100
AcDbEntity
  8
THICK
100
AcDbCircle
 10
-355.6936200168454
 20
-147.3331214605595
 30
0.0
 40
5.999999999999999
100
AcDbArc
 50
202.5000327669446
 51
22.49999531900791
1001
DBPROPERTIES
1002
{
1000
PbThick
1002
}
  0
ARC
  5
8B
330
1F
100
AcDbEntity
  8
THICK
100
AcDbCircle
 10
-385.0
 20
0.0000000000000471
 30
0.0
 40
6.0
100
AcDbArc
 50
0.0
 51
180.0000198478428
1001
DBPROPERTIES
1002
{
1000
PbThick
1002
}
  0
ARC
  5
8C
330
1F
100
AcDbEntity
  8
THICK
100
AcDbCircle
 10
-385.0
 20
0.0000000000000471
 30
0.0
 40
6.0
100
AcDbArc
 50
180.0000198478428
 51
0.0
1001
DBPROPERTIES
1002
{
1000
PbThick
1002
}
  0
ARC
  5
8D
330
1F
100
AcDbEntity
  8
THICK
100
AcDbCircle
 10
-355.6936200168454
 20
147.3331214605596
 30
0.0
 40
6.0
100
AcDbArc
 50
337.500004680992
 51
157.4999672330554
1001
DBPROPERTIES
1002
{
1000
PbThick
1002
}
  0
ARC
  5
8E
330
1F
100
AcDbEntity
  8
THICK
100
AcDbCircle
 10
-355.6936200168454
 20
147.3331214605596
 30
0.0
 40
6.0
100
AcDbArc
 50
157.4999672330554
 51
337.500004680992
1001
DBPROPERTIES
1002
{
1000
PbThick
1002
}
  0
ARC
  5
8F
330
1F
100
AcDbEntity
  8
THICK
100
AcDbCircle
 10
-272.2361107568208
 20
272.2361107568208
 30
0.0
 40
5.999999999999999
100
AcDbArc
 50
315.0000093619842
 51
134.9999719140475
1001
DBPROPERTIES
1002
{
1000
PbThick
1002
}
  0
ARC
  5
90
330
1F
100
AcDbEntity
  8
THICK
100
AcDbCircle
 10
-272.2361107568208
 20
272.2361107568208
 30
0.0
 40
5.999999999999999
100
AcDbArc
 50
134.9999719140475
 51
315.0000093619842
1001
DBPROPERTIES
1002
{
1000
PbThick
1002
}
  0
ARC
  5
91
330
1F
100
AcDbEntity
  8
THICK
100
AcDbCircle
 10
-147.3331214605595
 20
355.6936200168454
 30
0.0
 40
5.999999999999999
100
AcDbArc
 50
292.5000140429763
 51
112.4999765950396
1001
DBPROPERTIES
1002
{
1000
PbThick
1002
}
  0
ARC
  5
92
330
1F
100
AcDbEntity
  8
THICK
100
AcDbCircle
 10
-147.3331214605595
 20
355.6936200168454
 30
0.0
 40
5.999999999999999
100
AcDbArc
 50
112.4999765950396
 51
292.5000140429763
1001
DBPROPERTIES
1002
{
1000
PbThick
1002
}
  0
ARC
  5
93
330
1F
100
AcDbEntity
  8
THICK
100
AcDbCircle
 10
0.0000000000000236
 20
385.0
 30
0.0
 40
6.0
100
AcDbArc
 50
270.0000187239684
 51
89.99998127603165
1001
DBPROPERTIES
1002
{
1000
PbThick
1002
}
  0
ARC
  5
94
330
1F
100
AcDbEntity
  8
THICK
100
AcDbCircle
 10
0.0000000000000236
 20
385.0
 30
0.0
 40
6.0
100
AcDbArc
 50
89.99998127603165
 51
270.0000187239684
1001
DBPROPERTIES
1002
{
1000
PbThick
1002
}
  0
ARC
  5
95
330
1F
100
AcDbEntity
  8
THICK
100
AcDbCircle
 10
0.0
 20
0.0
 30
0.0
 40
355.0
100
AcDbArc
 50
270.0000187239684
 51
89.99998127603165
1001
DBPROPERTIES
1002
{
1000
PbThick
1002
}
  0
ARC
  5
96
330
1F
100
AcDbEntity
  8
THICK
100
AcDbCircle
 10
0.0
 20
0.0
 30
0.0
 40
355.0
100
AcDbArc
 50
89.99998127603165
 51
270.0000187239684
1001
DBPROPERTIES
1002
{
1000
PbThick
1002
}
  0
ARC
  5
97
330
1F
100
AcDbEntity
  8
THICK
100
AcDbCircle
 10
0.0000000000000007
 20
0.0
 30
0.0
 40
118.3333333333333
100
AcDbArc
 50
270.0000187239684
 51
299.6417037761639
1001
DBPROPERTIES
1002
{
1000
PbThick
1002
}
  0
ELLIPSE
  5
98
330
1F
100
AcDbEntity
  8
HIDDEN
100
AcDbEllipse
 10
0.0
 20
0.0
 30
0.0
 11
-115.3664696081824
 21
26.33164385149722
 31
0.0
210
0.0
220
0.0
230
1.0
 40
0.9999999999999998
 41
-1.346396851538483
 42
-1.252787278709768
1001
DBPROPERTIES
1002
{
1000
PbHidd
1002
}
  0
ARC
  5
99
330
1F
100
AcDbEntity
  8
HIDDEN
100
AcDbCircle
 10
0.0000000000000007
 20
0.0
 30
0.0
 40
118.3333333333333
100
AcDbArc
 50
249.6491307987166
 51
252.1333612068448
1001
DBPROPERTIES
1002
{
1000
PbHidd
1002
}
  0
ARC
  5
9A
330
1F
100
AcDbEntity
  8
THICK
100
AcDbCircle
 10
0.0000000000000007
 20
0.0
 30
0.0
 40
118.3333333333333
100
AcDbArc
 50
252.1333612068448
 51
270.0000187239684
1001
DBPROPERTIES
1002
{
1000
PbThick
1002
}
  0
ELLIPSE
  5
9B
330
1F
100
AcDbEntity
  8
HIDDEN
100
AcDbEllipse
 10
0.0
 20
0.0
 30
0.0
 11
-92.51672542538354
 21
73.77962655328351
 31
0.0
210
0.0
220
0.0
230
1.0
 40
0.9999999999999999
 41
1.863742210523338
 42
1.888805374880025
1001
DBPROPERTIES
1002
{
1000
PbHidd
1002
}
  0
ARC
  5
9C
330
1F
100
AcDbEntity
  8
HIDDEN
100
AcDbCircle
 10
0.0000000000000007
 20
0.0
 30
0.0
 40
118.3333333333333
100
AcDbArc
 50
198.220553699333
 51
200.7047841074612
1001
DBPROPERTIES
1002
{
1000
PbHidd
1002
}
  0
ARC
  5
9D
330
1F
100
AcDbEntity
  8
THICK
100
AcDbCircle
 10
0.0000000000000007
 20
0.0
 30
0.0
 40
118.3333333333333
100
AcDbArc
 50
200.7047841074612
 51
248.2131266767803
1001
DBPROPERTIES
1002
{
1000
PbThick
1002
}
  0
ELLIPSE
  5
9E
330
1F
100
AcDbEntity
  8
HIDDEN
100
AcDbEllipse
 10
0.0
 20
0.0
 30
0.0
 11
7.245587593449067E-15
 21
118.3333333333333
 31
0.0
210
0.0
220
0.0
230
1.0
 40
0.9999999999999999
 41
1.863742210523338
 42
1.888805374880025
1001
DBPROPERTIES
1002
{
1000
PbHidd
1002
}
  0
ARC
  5
9F
330
1F
100
AcDbEntity
  8
THICK
100
AcDbCircle
 10
0.0000000000000007
 20
0.0
 30
0.0
 40
118.3333333333333
100
AcDbArc
 50
180.0000198478428
 51
196.7845495773966
1001
DBPROPERTIES
1002
{
1000
PbThick
1002
}
  0
ARC
  5
A0
330
1F
100
AcDbEntity
  8
HIDDEN
100
AcDbCircle
 10
0.0000000000000007
 20
0.0
 30
0.0
 40
118.3333333333333
100
AcDbArc
 50
146.792016295635
 51
149.2762467037632
1001
DBPROPERTIES
1002
{
1000
PbHidd
1002
}
  0
ARC
  5
A1
330
1F
100
AcDbEntity
  8
THICK
100
AcDbCircle
 10
0.0000000000000007
 20
0.0
 30
0.0
 40
118.3333333333333
100
AcDbArc
 50
149.2762467037632
 51
180.0000198478428
1001
DBPROPERTIES
1002
{
1000
PbThick
1002
}
  0
ELLIPSE
  5
A2
330
1F
100
AcDbEntity
  8
HIDDEN
100
AcDbEllipse
 10
0.0
 20
0.0
 30
0.0
 11
92.51672542538356
 21
73.77962655328345
 31
0.0
210
0.0
220
0.0
230
1.0
 40
0.9999999999999999
 41
1.863742210523338
 42
1.888805374880025
1001
DBPROPERTIES
1002
{
1000
PbHidd
1002
}
  0
ARC
  5
A3
330
1F
100
AcDbEntity
  8
HIDDEN
100
AcDbCircle
 10
0.0000000000000007
 20
0.0
 30
0.0
 40
118.3333333333333
100
AcDbArc
 50
95.36343919625129
 51
97.84766960437952
1001
DBPROPERTIES
1002
{
1000
PbHidd
1002
}
  0
ARC
  5
A4
330
1F
100
AcDbEntity
  8
THICK
100
AcDbCircle
 10
0.0000000000000007
 20
0.0
 30
0.0
 40
118.3333333333333
100
AcDbArc
 50
97.84766960437952
 51
145.3560121736986
1001
DBPROPERTIES
1002
{
1000
PbThick
1002
}
  0
ARC
  5
A5
330
1F
100
AcDbEntity
  8
HIDDEN
100
AcDbCircle
 10
0.0000000000000007
 20
0.0
 30
0.0
 40
118.3333333333333
100
AcDbArc
 50
43.93486209686763
 51
46.41909250499585
1001
DBPROPERTIES
1002
{
1000
PbHidd
1002
}
  0
ARC
  5
A6
330
1F
100
AcDbEntity
  8
THICK
100
AcDbCircle
 10
0.0000000000000007
 20
0.0
 30
0.0
 40
118.3333333333333
100
AcDbArc
 50
46.41909250499585
 51
89.99998127603165
1001
DBPROPERTIES
1002
{
1000
PbThick
1002
}
  0
ELLIPSE
  5
A7
330
1F
100
AcDbEntity
  8
HIDDEN
100
AcDbEllipse
 10
0.0
 20
0.0
 30
0.0
 11
-51.342909128911
 21
106.614649368453
 31
0.0
210
0.0
220
0.0
230
1.0
 40
1.0
 41
-1.277850443066455
 42
-1.252787278709767
1001
DBPROPERTIES
1002
{
1000
PbHidd
1002
}
  0
ARC
  5
A8
330
1F
100
AcDbEntity
  8
THICK
100
AcDbCircle
 10
0.0000000000000007
 20
0.0
 30
0.0
 40
118.3333333333333
100
AcDbArc
 50
0.0
 51
42.49885797493125
1001
DBPROPERTIES
1002
{
1000
PbThick
1002
}
  0
ARC
  5
A9
330
1F
100
AcDbEntity
  8
HIDDEN
100
AcDbCircle
 10
0.0000000000000007
 20
0.0
 30
0.0
 40
118.3333333333333
100
AcDbArc
 50
352.5062849974839
 51
354.9905154056122
1001
DBPROPERTIES
1002
{
1000
PbHidd
1002
}
  0
ARC
  5
AA
330
1F
100
AcDbEntity
  8
THICK
100
AcDbCircle
 10
0.0000000000000007
 20
0.0
 30
0.0
 40
118.3333333333333
100
AcDbArc
 50
354.9905154056122
 51
0.0
1001
DBPROPERTIES
1002
{
1000
PbThick
1002
}
  0
ELLIPSE
  5
AB
330
1F
100
AcDbEntity
  8
HIDDEN
100
AcDbEllipse
 10
0.0
 20
0.0
 30
0.0
 11
51.34290912891107
 21
106.614649368453
 31
0.0
210
0.0
220
0.0
230
1.0
 40
0.9999999999999998
 41
-1.277850443066455
 42
-1.252787278709768
1001
DBPROPERTIES
1002
{
1000
PbHidd
1002
}
  0
ARC
  5
AC
330
1F
100
AcDbEntity
  8
HIDDEN
100
AcDbCircle
 10
0.0000000000000007
 20
0.0
 30
0.0
 40
118.3333333333333
100
AcDbArc
 50
301.0777078981004
 51
303.5619383062285
1001
DBPROPERTIES
1002
{
1000
PbHidd
1002
}
  0
ARC
  5
AD
330
1F
100
AcDbEntity
  8
THICK
100
AcDbCircle
 10
0.0000000000000007
 20
0.0
 30
0.0
 40
118.3333333333333
100
AcDbArc
 50
303.5619383062285
 51
351.0702808755476
1001
DBPROPERTIES
1002
{
1000
PbThick
1002
}
  0
ELLIPSE
  5
AE
330
1F
100
AcDbEntity
  8
HIDDEN
100
AcDbEllipse
 10
0.0
 20
0.0
 30
0.0
 11
115.3664696081825
 21
26.3316438514972
 31
0.0
210
0.0
220
0.0
230
1.0
 40
0.9999999999999998
 41
-1.79519580205131
 42
-1.252787278709768
1001
DBPROPERTIES
1002
{
1000
PbHidd
1002
}
  0
ARC
  5
AF
330
1F
100
AcDbEntity
  8
THICK
100
AcDbCircle
 10
0.0
 20
0.0
 30
0.0
 40
107.3333333333333
100
AcDbArc
 50
0.0
 51
89.99998127603165
1001
DBPROPERTIES
1002
{
1000
PbThick
1002
}
  0
LINE
  5
B0
330
1F
100
AcDbEntity
  8
THICK
100
AcDbLine
 10
87.24609375
 20
79.94308471679688
 30
0.0
 11
86.9312973022461
 21
80.27261352539062
 31
0.0
1001
DBPROPERTIES
1002
{
1000
PbThick
1002
}
  0
LINE
  5
B1
330
1F
100
AcDbEntity
  8
THICK
100
AcDbLine
 10
86.9312973022461
 20
80.27261352539062
 30
0.0
 11
86.59149932861328
 21
80.60032653808594
 31
0.0
1001
DBPROPERTIES
1002
{
1000
PbThick
1002
}
  0
LINE
  5
B2
330
1F
100
AcDbEntity
  8
THICK
100
AcDbLine
 10
86.59149932861328
 20
80.60032653808594
 30
0.0
 11
86.22834777832031
 21
80.92289733886719
 31
0.0
1001
DBPROPERTIES
1002
{
1000
PbThick
1002
}
  0
LINE
  5
B3
330
1F
100
AcDbEntity
  8
THICK
100
AcDbLine
 10
86.22834777832031
 20
80.92289733886719
 30
0.0
 11
85.84392547607422
 21
81.23735809326172
 31
0.0
1001
DBPROPERTIES
1002
{
1000
PbThick
1002
}
  0
LINE
  5
B4
330
1F
100
AcDbEntity
  8
THICK
100
AcDbLine
 10
85.84392547607422
 20
81.23735809326172
 30
0.0
 11
85.44087219238281
 21
81.54119110107422
 31
0.0
1001
DBPROPERTIES
1002
{
1000
PbThick
1002
}
  0
LINE
  5
B5
330
1F
100
AcDbEntity
  8
THICK
100
AcDbLine
 10
85.44087219238281
 20
81.54119110107422
 30
0.0
 11
85.0219497680664
 21
81.83198547363281
 31
0.0
1001
DBPROPERTIES
1002
{
1000
PbThick
1002
}
  0
LINE
  5
B6
330
1F
100
AcDbEntity
  8
THICK
100
AcDbLine
 10
85.0219497680664
 20
81.83198547363281
 30
0.0
 11
84.59052276611328
 21
82.10791015625
 31
0.0
1001
DBPROPERTIES
1002
{
1000
PbThick
1002
}
  0
LINE
  5
B7
330
1F
100
AcDbEntity
  8
THICK
100
AcDbLine
 10
84.59052276611328
 20
82.10791015625
 30
0.0
 11
84.15022277832031
 21
82.36730194091797
 31
0.0
1001
DBPROPERTIES
1002
{
1000
PbThick
1002
}
  0
LINE
  5
B8
330
1F
100
AcDbEntity
  8
THICK
100
AcDbLine
 10
84.15022277832031
 20
82.36730194091797
 30
0.0
 11
83.70500183105469
 21
82.6087875366211
 31
0.0
1001
DBPROPERTIES
1002
{
1000
PbThick
1002
}
  0
LINE
  5
B9
330
1F
100
AcDbEntity
  8
THICK
100
AcDbLine
 10
83.70500183105469
 20
82.6087875366211
 30
0.0
 11
83.25930786132812
 21
82.83149719238281
 31
0.0
1001
DBPROPERTIES
1002
{
1000
PbThick
1002
}
  0
LINE
  5
BA
330
1F
100
AcDbEntity
  8
THICK
100
AcDbLine
 10
83.25930786132812
 20
82.83149719238281
 30
0.0
 11
82.8096923828125
 21
83.0381851196289
 31
0.0
1001
DBPROPERTIES
1002
{
1000
PbThick
1002
}
  0
LINE
  5
BB
330
1F
100
AcDbEntity
  8
THICK
100
AcDbLine
 10
82.8096923828125
 20
83.0381851196289
 30
0.0
 11
82.3360595703125
 21
83.23784637451172
 31
0.0
1001
DBPROPERTIES
1002
{
1000
PbThick
1002
}
  0
LINE
  5
BC
330
1F
100
AcDbEntity
  8
THICK
100
AcDbLine
 10
82.3360595703125
 20
83.23784637451172
 30
0.0
 11
81.83973693847656
 21
83.42849731445312
 31
0.0
1001
DBPROPERTIES
1002
{
1000
PbThick
1002
}
  0
LINE
  5
BD
330
1F
100
AcDbEntity
  8
THICK
100
AcDbLine
 10
81.83973693847656
 20
83.42849731445312
 30
0.0
 11
81.32382202148438
 21
83.60765075683594
 31
0.0
1001
DBPROPERTIES
1002
{
1000
PbThick
1002
}
  0
LINE
  5
BE
330
1F
100
AcDbEntity
  8
THICK
100
AcDbLine
 10
81.32382202148438
 20
83.60765075683594
 30
0.0
 11
80.79188537597656
 21
83.77339935302734
 31
0.0
1001
DBPROPERTIES
1002
{
1000
PbThick
1002
}
  0
LINE
  5
BF
330
1F
100
AcDbEntity
  8
THICK
100
AcDbLine
 10
80.79188537597656
 20
83.77339935302734
 30
0.0
 11
80.76248168945312
 21
84.02409362792969
 31
0.0
1001
DBPROPERTIES
1002
{
1000
PbThick
1002
}
  0
LINE
  5
C0
330
1F
100
AcDbEntity
  8
THICK
100
AcDbLine
 10
80.76248168945312
 20
84.02409362792969
 30
0.0
 11
80.72434997558594
 21
84.27072143554688
 31
0.0
1001
DBPROPERTIES
1002
{
1000
PbThick
1002
}
  0
LINE
  5
C1
330
1F
100
AcDbEntity
  8
THICK
100
AcDbLine
 10
80.72434997558594
 20
84.27072143554688
 30
0.0
 11
80.67793273925781
 21
84.51244354248047
 31
0.0
1001
DBPROPERTIES
1002
{
1000
PbThick
1002
}
  0
LINE
  5
C2
330
1F
100
AcDbEntity
  8
THICK
100
AcDbLine
 10
80.67793273925781
 20
84.51244354248047
 30
0.0
 11
80.6239013671875
 21
84.74849700927734
 31
0.0
1001
DBPROPERTIES
1002
{
1000
PbThick
1002
}
  0
LINE
  5
C3
330
1F
100
AcDbEntity
  8
THICK
100
AcDbLine
 10
80.6239013671875
 20
84.74849700927734
 30
0.0
 11
80.5630874633789
 21
84.97816467285156
 31
0.0
1001
DBPROPERTIES
1002
{
1000
PbThick
1002
}
  0
LINE
  5
C4
330
1F
100
AcDbEntity
  8
THICK
100
AcDbLine
 10
80.5630874633789
 20
84.97816467285156
 30
0.0
 11
80.4963150024414
 21
85.20071411132812
 31
0.0
1001
DBPROPERTIES
1002
{
1000
PbThick
1002
}
  0
LINE
  5
C5
330
1F
100
AcDbEntity
  8
HIDDEN
100
AcDbLine
 10
80.4963150024414
 20
85.20071411132812
 30
0.0
 11
81.02377319335938
 21
84.97566223144531
 31
0.0
1001
DBPROPERTIES
1002
{
1000
PbHidd
1002
}
  0
LINE
  5
C6
330
1F
100
AcDbEntity
  8
HIDDEN
100
AcDbLine
 10
81.02377319335938
 20
84.97566223144531
 30
0.0
 11
81.5392837524414
 21
84.7335205078125
 31
0.0
1001
DBPROPERTIES
1002
{
1000
PbHidd
1002
}
  0
LINE
  5
C7
330
1F
100
AcDbEntity
  8
HIDDEN
100
AcDbLine
 10
81.5392837524414
 20
84.7335205078125
 30
0.0
 11
82.0555419921875
 21
84.46723175048828
 31
0.0
1001
DBPROPERTIES
1002
{
1000
PbHidd
1002
}
  0
LINE
  5
C8
330
1F
100
AcDbEntity
  8
HIDDEN
100
AcDbLine
 10
82.0555419921875
 20
84.46723175048828
 30
0.0
 11
82.56591796875
 21
84.17797088623047
 31
0.0
1001
DBPROPERTIES
1002
{
1000
PbHidd
1002
}
  0
LINE
  5
C9
330
1F
100
AcDbEntity
  8
HIDDEN
100
AcDbLine
 10
82.56591796875
 20
84.17797088623047
 30
0.0
 11
83.06459045410156
 21
83.86774444580078
 31
0.0
1001
DBPROPERTIES
1002
{
1000
PbHidd
1002
}
  0
LINE
  5
CA
330
1F
100
AcDbEntity
  8
HIDDEN
100
AcDbLine
 10
83.06459045410156
 20
83.86774444580078
 30
0.0
 11
83.54605102539062
 21
83.53885650634766
 31
0.0
1001
DBPROPERTIES
1002
{
1000
PbHidd
1002
}
  0
LINE
  5
CB
330
1F
100
AcDbEntity
  8
HIDDEN
100
AcDbLine
 10
83.54605102539062
 20
83.53885650634766
 30
0.0
 11
84.00566101074219
 21
83.19427490234375
 31
0.0
1001
DBPROPERTIES
1002
{
1000
PbHidd
1002
}
  0
LINE
  5
CC
330
1F
100
AcDbEntity
  8
HIDDEN
100
AcDbLine
 10
84.00566101074219
 20
83.19427490234375
 30
0.0
 11
84.4393081665039
 21
82.83755493164062
 31
0.0
1001
DBPROPERTIES
1002
{
1000
PbHidd
1002
}
  0
LINE
  5
CD
330
1F
100
AcDbEntity
  8
HIDDEN
100
AcDbLine
 10
84.4393081665039
 20
82.83755493164062
 30
0.0
 11
84.84339904785156
 21
82.47268676757812
 31
0.0
1001
DBPROPERTIES
1002
{
1000
PbHidd
1002
}
  0
LINE
  5
CE
330
1F
100
AcDbEntity
  8
HIDDEN
100
AcDbLine
 10
84.84339904785156
 20
82.47268676757812
 30
0.0
 11
85.21527099609375
 21
82.10441589355469
 31
0.0
1001
DBPROPERTIES
1002
{
1000
PbHidd
1002
}
  0
ARC
  5
CF
330
1F
100
AcDbEntity
  8
THICK
100
AcDbCircle
 10
0.0000000000000007
 20
0.0
 30
0.0
 40
118.3333333333333
100
AcDbArc
 50
89.99998127603165
 51
93.92743507431493
1001
DBPROPERTIES
1002
{
1000
PbThick
1002
}
  0
LINE
  5
D0
330
1F
100
AcDbEntity
  8
THICK
100
AcDbLine
 10
-8.104974746704102
 20
118.0554428100586
 30
0.0
 11
-8.558882713317871
 21
118.014778137207
 31
0.0
1001
DBPROPERTIES
1002
{
1000
PbThick
1002
}
  0
LINE
  5
D1
330
1F
100
AcDbEntity
  8
THICK
100
AcDbLine
 10
-8.558882713317871
 20
118.014778137207
 30
0.0
 11
-9.026951789855957
 21
117.9534454345703
 31
0.0
1001
DBPROPERTIES
1002
{
1000
PbThick
1002
}
  0
LINE
  5
D2
330
1F
100
AcDbEntity
  8
THICK
100
AcDbLine
 10
-9.026951789855957
 20
117.9534454345703
 30
0.0
 11
-9.505570411682129
 21
117.8706359863281
 31
0.0
1001
DBPROPERTIES
1002
{
1000
PbThick
1002
}
  0
LINE
  5
D3
330
1F
100
AcDbEntity
  8
THICK
100
AcDbLine
 10
-9.505570411682129
 20
117.8706359863281
 30
0.0
 11
-9.991117477416992
 21
117.7661437988281
 31
0.0
1001
DBPROPERTIES
1002
{
1000
PbThick
1002
}
  0
LINE
  5
D4
330
1F
100
AcDbEntity
  8
THICK
100
AcDbLine
 10
-9.991117477416992
 20
117.7661437988281
 30
0.0
 11
-10.47995853424072
 21
117.6404647827148
 31
0.0
1001
DBPROPERTIES
1002
{
1000
PbThick
1002
}
  0
LINE
  5
D5
330
1F
100
AcDbEntity
  8
THICK
100
AcDbLine
 10
-10.47995853424072
 20
117.6404647827148
 30
0.0
 11
-10.96850395202637
 21
117.4942474365234
 31
0.0
1001
DBPROPERTIES
1002
{
1000
PbThick
1002
}
  0
LINE
  5
D6
330
1F
100
AcDbEntity
  8
THICK
100
AcDbLine
 10
-10.96850395202637
 20
117.4942474365234
 30
0.0
 11
-11.45322322845459
 21
117.3289794921875
 31
0.0
1001
DBPROPERTIES
1002
{
1000
PbThick
1002
}
  0
LINE
  5
D7
330
1F
100
AcDbEntity
  8
THICK
100
AcDbLine
 10
-11.45322322845459
 20
117.3289794921875
 30
0.0
 11
-11.93054580688477
 21
117.1464614868164
 31
0.0
1001
DBPROPERTIES
1002
{
1000
PbThick
1002
}
  0
LINE
  5
D8
330
1F
100
AcDbEntity
  8
THICK
100
AcDbLine
 10
-11.93054580688477
 20
117.1464614868164
 30
0.0
 11
-12.39693832397461
 21
116.9489364624023
 31
0.0
1001
DBPROPERTIES
1002
{
1000
PbThick
1002
}
  0
LINE
  5
D9
330
1F
100
AcDbEntity
  8
THICK
100
AcDbLine
 10
-12.39693832397461
 20
116.9489364624023
 30
0.0
 11
-12.84894466400146
 21
116.7393417358398
 31
0.0
1001
DBPROPERTIES
1002
{
1000
PbThick
1002
}
  0
LINE
  5
DA
330
1F
100
AcDbEntity
  8
THICK
100
AcDbLine
 10
-12.84894466400146
 20
116.7393417358398
 30
0.0
 11
-13.29086780548096
 21
116.5166854858398
 31
0.0
1001
DBPROPERTIES
1002
{
1000
PbThick
1002
}
  0
LINE
  5
DB
330
1F
100
AcDbEntity
  8
THICK
100
AcDbLine
 10
-13.29086780548096
 20
116.5166854858398
 30
0.0
 11
-13.74227333068848
 21
116.270866394043
 31
0.0
1001
DBPROPERTIES
1002
{
1000
PbThick
1002
}
  0
LINE
  5
DC
330
1F
100
AcDbEntity
  8
THICK
100
AcDbLine
 10
-13.74227333068848
 20
116.270866394043
 30
0.0
 11
-14.20078659057617
 21
116.0017013549805
 31
0.0
1001
DBPROPERTIES
1002
{
1000
PbThick
1002
}
  0
LINE
  5
DD
330
1F
100
AcDbEntity
  8
THICK
100
AcDbLine
 10
-14.20078659057617
 20
116.0017013549805
 30
0.0
 11
-14.66252136230469
 21
115.7100448608398
 31
0.0
1001
DBPROPERTIES
1002
{
1000
PbThick
1002
}
  0
LINE
  5
DE
330
1F
100
AcDbEntity
  8
THICK
100
AcDbLine
 10
-14.66252136230469
 20
115.7100448608398
 30
0.0
 11
-15.12376308441162
 21
115.3974990844727
 31
0.0
1001
DBPROPERTIES
1002
{
1000
PbThick
1002
}
  0
LINE
  5
DF
330
1F
100
AcDbEntity
  8
THICK
100
AcDbLine
 10
-15.12376308441162
 20
115.3974990844727
 30
0.0
 11
-15.33809566497803
 21
115.5308151245117
 31
0.0
1001
DBPROPERTIES
1002
{
1000
PbThick
1002
}
  0
LINE
  5
E0
330
1F
100
AcDbEntity
  8
THICK
100
AcDbLine
 10
-15.33809566497803
 20
115.5308151245117
 30
0.0
 11
-15.5546932220459
 21
115.6547775268555
 31
0.0
1001
DBPROPERTIES
1002
{
1000
PbThick
1002
}
  0
LINE
  5
E1
330
1F
100
AcDbEntity
  8
THICK
100
AcDbLine
 10
-15.5546932220459
 20
115.6547775268555
 30
0.0
 11
-15.77262401580811
 21
115.7691955566406
 31
0.0
1001
DBPROPERTIES
1002
{
1000
PbThick
1002
}
  0
LINE
  5
E2
330
1F
100
AcDbEntity
  8
THICK
100
AcDbLine
 10
-15.77262401580811
 20
115.7691955566406
 30
0.0
 11
-15.99086380004883
 21
115.8741302490234
 31
0.0
1001
DBPROPERTIES
1002
{
1000
PbThick
1002
}
  0
LINE
  5
E3
330
1F
100
AcDbEntity
  8
THICK
100
AcDbLine
 10
-15.99086380004883
 20
115.8741302490234
 30
0.0
 11
-16.20833778381348
 21
115.9697799682617
 31
0.0
1001
DBPROPERTIES
1002
{
1000
PbThick
1002
}
  0
LINE
  5
E4
330
1F
100
AcDbEntity
  8
THICK
100
AcDbLine
 10
-16.20833778381348
 20
115.9697799682617
 30
0.0
 11
-16.42397117614746
 21
116.0563278198242
 31
0.0
1001
DBPROPERTIES
1002
{
1000
PbThick
1002
}
  0
LINE
  5
E5
330
1F
100
AcDbEntity
  8
HIDDEN
100
AcDbLine
 10
-16.42397117614746
 20
116.0563278198242
 30
0.0
 11
-15.91915035247803
 21
116.3283996582031
 31
0.0
1001
DBPROPERTIES
1002
{
1000
PbHidd
1002
}
  0
LINE
  5
E6
330
1F
100
AcDbEntity
  8
HIDDEN
100
AcDbLine
 10
-15.91915035247803
 20
116.3283996582031
 30
0.0
 11
-15.40842342376709
 21
116.5804672241211
 31
0.0
1001
DBPROPERTIES
1002
{
1000
PbHidd
1002
}
  0
LINE
  5
E7
330
1F
100
AcDbEntity
  8
HIDDEN
100
AcDbLine
 10
-15.40842342376709
 20
116.5804672241211
 30
0.0
 11
-14.87834548950195
 21
116.8180618286133
 31
0.0
1001
DBPROPERTIES
1002
{
1000
PbHidd
1002
}
  0
LINE
  5
E8
330
1F
100
AcDbEntity
  8
HIDDEN
100
AcDbLine
 10
-14.87834548950195
 20
116.8180618286133
 30
0.0
 11
-14.33398151397705
 21
117.0367431640625
 31
0.0
1001
DBPROPERTIES
1002
{
1000
PbHidd
1002
}
  0
LINE
  5
E9
330
1F
100
AcDbEntity
  8
HIDDEN
100
AcDbLine
 10
-14.33398151397705
 20
117.0367431640625
 30
0.0
 11
-13.78052139282227
 21
117.2331924438477
 31
0.0
1001
DBPROPERTIES
1002
{
1000
PbHidd
1002
}
  0
LINE
  5
EA
330
1F
100
AcDbEntity
  8
HIDDEN
100
AcDbLine
 10
-13.78052139282227
 20
117.2331924438477
 30
0.0
 11
-13.22319602966309
 21
117.4045562744141
 31
0.0
1001
DBPROPERTIES
1002
{
1000
PbHidd
1002
}
  0
LINE
  5
EB
330
1F
100
AcDbEntity
  8
HIDDEN
100
AcDbLine
 10
-13.22319602966309
 20
117.4045562744141
 30
0.0
 11
-12.66722679138184
 21
117.5490570068359
 31
0.0
1001
DBPROPERTIES
1002
{
1000
PbHidd
1002
}
  0
LINE
  5
EC
330
1F
100
AcDbEntity
  8
HIDDEN
100
AcDbLine
 10
-12.66722679138184
 20
117.5490570068359
 30
0.0
 11
-12.11795711517334
 21
117.6656799316406
 31
0.0
1001
DBPROPERTIES
1002
{
1000
PbHidd
1002
}
  0
LINE
  5
ED
330
1F
100
AcDbEntity
  8
HIDDEN
100
AcDbLine
 10
-12.11795711517334
 20
117.6656799316406
 30
0.0
 11
-11.58075046539307
 21
117.7541198730469
 31
0.0
1001
DBPROPERTIES
1002
{
1000
PbHidd
1002
}
  0
LINE
  5
EE
330
1F
100
AcDbEntity
  8
HIDDEN
100
AcDbLine
 10
-11.58075046539307
 20
117.7541198730469
 30
0.0
 11
-11.06096172332764
 21
117.8152465820312
 31
0.0
1001
DBPROPERTIES
1002
{
1000
PbHidd
1002
}
  0
LINE
  5
EF
330
1F
100
AcDbEntity
  8
THICK
100
AcDbLine
 10
-97.35282897949219
 20
67.26963806152344
 30
0.0
 11
-97.60404968261719
 21
66.889404296875
 31
0.0
1001
DBPROPERTIES
1002
{
1000
PbThick
1002
}
  0
LINE
  5
F0
330
1F
100
AcDbEntity
  8
THICK
100
AcDbLine
 10
-97.60404968261719
 20
66.889404296875
 30
0.0
 11
-97.84793090820312
 21
66.48521423339844
 31
0.0
1001
DBPROPERTIES
1002
{
1000
PbThick
1002
}
  0
LINE
  5
F1
330
1F
100
AcDbEntity
  8
THICK
100
AcDbLine
 10
-97.84793090820312
 20
66.48521423339844
 30
0.0
 11
-98.08160400390625
 21
66.05938720703125
 31
0.0
1001
DBPROPERTIES
1002
{
1000
PbThick
1002
}
  0
LINE
  5
F2
330
1F
100
AcDbEntity
  8
THICK
100
AcDbLine
 10
-98.08160400390625
 20
66.05938720703125
 30
0.0
 11
-98.30264282226562
 21
65.6146240234375
 31
0.0
1001
DBPROPERTIES
1002
{
1000
PbThick
1002
}
  0
LINE
  5
F3
330
1F
100
AcDbEntity
  8
THICK
100
AcDbLine
 10
-98.30264282226562
 20
65.6146240234375
 30
0.0
 11
-98.50917053222656
 21
65.15406799316406
 31
0.0
1001
DBPROPERTIES
1002
{
1000
PbThick
1002
}
  0
LINE
  5
F4
330
1F
100
AcDbEntity
  8
THICK
100
AcDbLine
 10
-98.50917053222656
 20
65.15406799316406
 30
0.0
 11
-98.69945526123047
 21
64.68094635009766
 31
0.0
1001
DBPROPERTIES
1002
{
1000
PbThick
1002
}
  0
LINE
  5
F5
330
1F
100
AcDbEntity
  8
THICK
100
AcDbLine
 10
-98.69945526123047
 20
64.68094635009766
 30
0.0
 11
-98.87245178222656
 21
64.19892883300781
 31
0.0
1001
DBPROPERTIES
1002
{
1000
PbThick
1002
}
  0
LINE
  5
F6
330
1F
100
AcDbEntity
  8
THICK
100
AcDbLine
 10
-98.87245178222656
 20
64.19892883300781
 30
0.0
 11
-99.0273666381836
 21
63.71194839477539
 31
0.0
1001
DBPROPERTIES
1002
{
1000
PbThick
1002
}
  0
LINE
  5
F7
330
1F
100
AcDbEntity
  8
THICK
100
AcDbLine
 10
-99.0273666381836
 20
63.71194839477539
 30
0.0
 11
-99.16372680664062
 21
63.22415542602539
 31
0.0
1001
DBPROPERTIES
1002
{
1000
PbThick
1002
}
  0
LINE
  5
F8
330
1F
100
AcDbEntity
  8
THICK
100
AcDbLine
 10
-99.16372680664062
 20
63.22415542602539
 30
0.0
 11
-99.28168487548828
 21
62.74008178710938
 31
0.0
1001
DBPROPERTIES
1002
{
1000
PbThick
1002
}
  0
LINE
  5
F9
330
1F
100
AcDbEntity
  8
THICK
100
AcDbLine
 10
-99.28168487548828
 20
62.74008178710938
 30
0.0
 11
-99.38313293457031
 21
62.2557487487793
 31
0.0
1001
DBPROPERTIES
1002
{
1000
PbThick
1002
}
  0
LINE
  5
FA
330
1F
100
AcDbEntity
  8
THICK
100
AcDbLine
 10
-99.38313293457031
 20
62.2557487487793
 30
0.0
 11
-99.47239685058594
 21
61.74956130981445
 31
0.0
1001
DBPROPERTIES
1002
{
1000
PbThick
1002
}
  0
LINE
  5
FB
330
1F
100
AcDbEntity
  8
THICK
100
AcDbLine
 10
-99.47239685058594
 20
61.74956130981445
 30
0.0
 11
-99.5478286743164
 21
61.2232551574707
 31
0.0
1001
DBPROPERTIES
1002
{
1000
PbThick
1002
}
  0
LINE
  5
FC
330
1F
100
AcDbEntity
  8
THICK
100
AcDbLine
 10
-99.5478286743164
 20
61.2232551574707
 30
0.0
 11
-99.6076889038086
 21
60.68041229248047
 31
0.0
1001
DBPROPERTIES
1002
{
1000
PbThick
1002
}
  0
LINE
  5
FD
330
1F
100
AcDbEntity
  8
THICK
100
AcDbLine
 10
-99.6076889038086
 20
60.68041229248047
 30
0.0
 11
-99.65090942382812
 21
60.12493133544922
 31
0.0
1001
DBPROPERTIES
1002
{
1000
PbThick
1002
}
  0
LINE
  5
FE
330
1F
100
AcDbEntity
  8
THICK
100
AcDbLine
 10
-99.65090942382812
 20
60.12493133544922
 30
0.0
 11
-99.88877868652344
 21
60.04047775268555
 31
0.0
1001
DBPROPERTIES
1002
{
1000
PbThick
1002
}
  0
LINE
  5
FF
330
1F
100
AcDbEntity
  8
THICK
100
AcDbLine
 10
-99.88877868652344
 20
60.04047775268555
 30
0.0
 11
-100.120735168457
 21
59.94842529296875
 31
0.0
1001
DBPROPERTIES
1002
{
1000
PbThick
1002
}
  0
LINE
  5
100
330
1F
100
AcDbEntity
  8
THICK
100
AcDbLine
 10
-100.120735168457
 20
59.94842529296875
 30
0.0
 11
-100.3460693359375
 21
59.8493766784668
 31
0.0
1001
DBPROPERTIES
1002
{
1000
PbThick
1002
}
  0
LINE
  5
101
330
1F
100
AcDbEntity
  8
THICK
100
AcDbLine
 10
-100.3460693359375
 20
59.8493766784668
 30
0.0
 11
-100.5641860961914
 21
59.74417877197266
 31
0.0
1001
DBPROPERTIES
1002
{
1000
PbThick
1002
}
  0
LINE
  5
102
330
1F
100
AcDbEntity
  8
THICK
100
AcDbLine
 10
-100.5641860961914
 20
59.74417877197266
 30
0.0
 11
-100.7745590209961
 21
59.63378524780273
 31
0.0
1001
DBPROPERTIES
1002
{
1000
PbThick
1002
}
  0
LINE
  5
103
330
1F
100
AcDbEntity
  8
THICK
100
AcDbLine
 10
-100.7745590209961
 20
59.63378524780273
 30
0.0
 11
-100.9766693115234
 21
59.51915740966797
 31
0.0
1001
DBPROPERTIES
1002
{
1000
PbThick
1002
}
  0
LINE
  5
104
330
1F
100
AcDbEntity
  8
HIDDEN
100
AcDbLine
 10
-100.9766693115234
 20
59.51915740966797
 30
0.0
 11
-100.8746337890625
 21
60.08347702026367
 31
0.0
1001
DBPROPERTIES
1002
{
1000
PbHidd
1002
}
  0
LINE
  5
105
330
1F
100
AcDbEntity
  8
HIDDEN
100
AcDbLine
 10
-100.8746337890625
 20
60.08347702026367
 30
0.0
 11
-100.7532730102539
 21
60.63994216918945
 31
0.0
1001
DBPROPERTIES
1002
{
1000
PbHidd
1002
}
  0
LINE
  5
106
330
1F
100
AcDbEntity
  8
HIDDEN
100
AcDbLine
 10
-100.7532730102539
 20
60.63994216918945
 30
0.0
 11
-100.6085357666016
 21
61.20251083374023
 31
0.0
1001
DBPROPERTIES
1002
{
1000
PbHidd
1002
}
  0
LINE
  5
107
330
1F
100
AcDbEntity
  8
HIDDEN
100
AcDbLine
 10
-100.6085357666016
 20
61.20251083374023
 30
0.0
 11
-100.4401016235352
 21
61.76445770263672
 31
0.0
1001
DBPROPERTIES
1002
{
1000
PbHidd
1002
}
  0
LINE
  5
108
330
1F
100
AcDbEntity
  8
HIDDEN
100
AcDbLine
 10
-100.4401016235352
 20
61.76445770263672
 30
0.0
 11
-100.2486190795898
 21
62.31965637207031
 31
0.0
1001
DBPROPERTIES
1002
{
1000
PbHidd
1002
}
  0
LINE
  5
109
330
1F
100
AcDbEntity
  8
HIDDEN
100
AcDbLine
 10
-100.2486190795898
 20
62.31965637207031
 30
0.0
 11
-100.0351028442383
 21
62.86223220825195
 31
0.0
1001
DBPROPERTIES
1002
{
1000
PbHidd
1002
}
  0
LINE
  5
10A
330
1F
100
AcDbEntity
  8
HIDDEN
100
AcDbLine
 10
-100.0351028442383
 20
62.86223220825195
 30
0.0
 11
-99.80143737792969
 21
63.38700103759766
 31
0.0
1001
DBPROPERTIES
1002
{
1000
PbHidd
1002
}
  0
LINE
  5
10B
330
1F
100
AcDbEntity
  8
HIDDEN
100
AcDbLine
 10
-99.80143737792969
 20
63.38700103759766
 30
0.0
 11
-99.55015563964844
 21
63.88915252685547
 31
0.0
1001
DBPROPERTIES
1002
{
1000
PbHidd
1002
}
  0
LINE
  5
10C
330
1F
100
AcDbEntity
  8
HIDDEN
100
AcDbLine
 10
-99.55015563964844
 20
63.88915252685547
 30
0.0
 11
-99.28435516357422
 21
64.36429595947266
 31
0.0
1001
DBPROPERTIES
1002
{
1000
PbHidd
1002
}
  0
LINE
  5
10D
330
1F
100
AcDbEntity
  8
HIDDEN
100
AcDbLine
 10
-99.28435516357422
 20
64.36429595947266
 30
0.0
 11
-99.00806427001953
 21
64.80879974365234
 31
0.0
1001
DBPROPERTIES
1002
{
1000
PbHidd
1002
}
  0
ARC
  5
10E
330
1F
100
AcDbEntity
  8
THICK
100
AcDbCircle
 10
0.0
 20
0.0
 30
0.0
 40
107.3333333333333
100
AcDbArc
 50
89.99998127603165
 51
180.0000198478428
1001
DBPROPERTIES
1002
{
1000
PbThick
1002
}
  0
ARC
  5
10F
330
1F
100
AcDbEntity
  8
HIDDEN
100
AcDbCircle
 10
0.0
 20
0.0
 30
0.0
 40
116.3934426229508
100
AcDbArc
 50
89.99998127603165
 51
270.0000187239684
1001
DBPROPERTIES
1002
{
1000
PbHidd
1002
}
  0
ARC
  5
110
330
1F
100
AcDbEntity
  8
HIDDEN
100
AcDbCircle
 10
0.0
 20
0.0000000000000265
 30
0.0
 40
131.0
100
AcDbArc
 50
180.0000198478428
 51
182.9999871674622
1001
DBPROPERTIES
1002
{
1000
PbHidd
1002
}
  0
ARC
  5
111
330
1F
100
AcDbEntity
  8
HIDDEN
100
AcDbCircle
 10
0.0
 20
0.0000000000000265
 30
0.0
 40
131.0
100
AcDbArc
 50
356.999992984695
 51
0.0
1001
DBPROPERTIES
1002
{
1000
PbHidd
1002
}
  0
ARC
  5
112
330
1F
100
AcDbEntity
  8
HIDDEN
100
AcDbCircle
 10
0.0
 20
0.0000000000000196
 30
0.0
 40
142.0
100
AcDbArc
 50
81.0000175258962
 51
89.99998127603165
1001
DBPROPERTIES
1002
{
1000
PbHidd
1002
}
  0
LINE
  5
113
330
1F
100
AcDbEntity
  8
HIDDEN
100
AcDbLine
 10
22.21369403571292
 20
140.2517443645095
 30
0.0
 11
22.21369403571292
 21
140.2517443645095
 31
0.0
1001
DBPROPERTIES
1002
{
1000
PbHidd
1002
}
  0
ARC
  5
114
330
1F
100
AcDbEntity
  8
HIDDEN
100
AcDbCircle
 10
0.0
 20
0.0000000000000147
 30
0.0
 40
144.8979591836735
100
AcDbArc
 50
270.0000187239684
 51
299.6394119449834
1001
DBPROPERTIES
1002
{
1000
PbHidd
1002
}
  0
ARC
  5
115
330
1F
100
AcDbEntity
  8
THICK
100
AcDbCircle
 10
0.0
 20
0.0000000000000147
 30
0.0
 40
144.8979591836735
100
AcDbArc
 50
299.6394119449834
 51
316.9184439474207
1001
DBPROPERTIES
1002
{
1000
PbThick
1002
}
  0
ARC
  5
116
330
1F
100
AcDbEntity
  8
HIDDEN
100
AcDbCircle
 10
0.0
 20
0.0000000000000147
 30
0.0
 40
144.8979591836735
100
AcDbArc
 50
316.9184439474207
 51
351.0679890443671
1001
DBPROPERTIES
1002
{
1000
PbHidd
1002
}
  0
ARC
  5
117
330
1F
100
AcDbEntity
  8
THICK
100
AcDbCircle
 10
0.0
 20
0.0000000000000147
 30
0.0
 40
144.8979591836735
100
AcDbArc
 50
351.0679890443671
 51
8.347021046804372
1001
DBPROPERTIES
1002
{
1000
PbThick
1002
}
  0
ARC
  5
118
330
1F
100
AcDbEntity
  8
HIDDEN
100
AcDbCircle
 10
0.0
 20
0.0000000000000147
 30
0.0
 40
144.8979591836735
100
AcDbArc
 50
8.347021046804372
 51
42.49656614375072
1001
DBPROPERTIES
1002
{
1000
PbHidd
1002
}
  0
ARC
  5
119
330
1F
100
AcDbEntity
  8
THICK
100
AcDbCircle
 10
0.0
 20
0.0000000000000147
 30
0.0
 40
144.8979591836735
100
AcDbArc
 50
42.49656614375072
 51
59.77559814618803
1001
DBPROPERTIES
1002
{
1000
PbThick
1002
}
  0
ARC
  5
11A
330
1F
100
AcDbEntity
  8
HIDDEN
100
AcDbCircle
 10
0.0
 20
0.0000000000000147
 30
0.0
 40
144.8979591836735
100
AcDbArc
 50
59.77559814618803
 51
89.99998127603165
1001
DBPROPERTIES
1002
{
1000
PbHidd
1002
}
  0
LINE
  5
11B
330
1F
100
AcDbEntity
  8
HIDDEN
100
AcDbLine
 10
13.15547435738683
 20
-144.2995220713694
 30
0.0
 11
13.15547435738683
 21
-144.2995220713694
 31
0.0
1001
DBPROPERTIES
1002
{
1000
PbHidd
1002
}
  0
LINE
  5
11C
330
1F
100
AcDbEntity
  8
HIDDEN
100
AcDbLine
 10
17.13356193885993
 20
-143.8814082182988
 30
0.0
 11
17.13356193885993
 21
-143.8814082182988
 31
0.0
1001
DBPROPERTIES
1002
{
1000
PbHidd
1002
}
  0
LINE
  5
11D
330
1F
100
AcDbEntity
  8
HIDDEN
100
AcDbLine
 10
144.2995220713694
 20
13.15547435738682
 30
0.0
 11
144.2995220713694
 21
13.15547435738682
 31
0.0
1001
DBPROPERTIES
1002
{
1000
PbHidd
1002
}
  0
LINE
  5
11E
330
1F
100
AcDbEntity
  8
HIDDEN
100
AcDbLine
 10
143.8814082182988
 20
17.13356193885992
 30
0.0
 11
143.8814082182988
 21
17.13356193885992
 31
0.0
1001
DBPROPERTIES
1002
{
1000
PbHidd
1002
}
  0
LINE
  5
11F
330
1F
100
AcDbEntity
  8
HIDDEN
100
AcDbLine
 10
143.8814082182988
 20
-17.13356193885997
 30
0.0
 11
143.8814082182988
 21
-17.13356193885997
 31
0.0
1001
DBPROPERTIES
1002
{
1000
PbHidd
1002
}
  0
LINE
  5
120
330
1F
100
AcDbEntity
  8
HIDDEN
100
AcDbLine
 10
144.2995220713694
 20
-13.15547435738688
 30
0.0
 11
144.2995220713694
 21
-13.15547435738688
 31
0.0
1001
DBPROPERTIES
1002
{
1000
PbHidd
1002
}
  0
LINE
  5
121
330
1F
100
AcDbEntity
  8
HIDDEN
100
AcDbLine
 10
17.13356193885998
 20
143.8814082182988
 30
0.0
 11
17.13356193885998
 21
143.8814082182988
 31
0.0
1001
DBPROPERTIES
1002
{
1000
PbHidd
1002
}
  0
LINE
  5
122
330
1F
100
AcDbEntity
  8
HIDDEN
100
AcDbLine
 10
13.15547435738689
 20
144.2995220713695
 30
0.0
 11
13.15547435738689
 21
144.2995220713695
 31
0.0
1001
DBPROPERTIES
1002
{
1000
PbHidd
1002
}
  0
ARC
  5
123
330
1F
100
AcDbEntity
  8
HIDDEN
100
AcDbCircle
 10
0.0
 20
0.0000000000000196
 30
0.0
 40
101.4285714285714
100
AcDbArc
 50
270.0000187239684
 51
273.0000257392733
1001
DBPROPERTIES
1002
{
1000
PbHidd
1002
}
  0
LINE
  5
124
330
1F
100
AcDbEntity
  8
HIDDEN
100
AcDbLine
 10
5.308361276069961
 20
-101.2895670965353
 30
0.0
 11
5.308361276069961
 21
-101.2895670965353
 31
0.0
1001
DBPROPERTIES
1002
{
1000
PbHidd
1002
}
  0
ARC
  5
125
330
1F
100
AcDbEntity
  8
THICK
100
AcDbCircle
 10
0.0
 20
0.0000000000000025
 30
0.0
 40
180.2271722750469
100
AcDbArc
 50
347.7085656041765
 51
0.0
1001
DBPROPERTIES
1002
{
1000
PbThick
1002
}
  0
ARC
  5
126
330
1F
100
AcDbEntity
  8
HIDDEN
100
AcDbCircle
 10
0.0
 20
0.0000000000000025
 30
0.0
 40
180.2271722750469
100
AcDbArc
 50
320.4001938768717
 51
347.7085656041765
1001
DBPROPERTIES
1002
{
1000
PbHidd
1002
}
  0
ARC
  5
127
330
1F
100
AcDbEntity
  8
THICK
100
AcDbCircle
 10
0.0
 20
0.0000000000000025
 30
0.0
 40
180.2271722750469
100
AcDbArc
 50
296.2799885047928
 51
320.4001938768717
1001
DBPROPERTIES
1002
{
1000
PbThick
1002
}
  0
ARC
  5
128
330
1F
100
AcDbEntity
  8
HIDDEN
100
AcDbCircle
 10
0.0
 20
0.0000000000000025
 30
0.0
 40
180.2271722750469
100
AcDbArc
 50
268.9716167774881
 51
296.2799885047928
1001
DBPROPERTIES
1002
{
1000
PbHidd
1002
}
  0
ARC
  5
129
330
1F
100
AcDbEntity
  8
THICK
100
AcDbCircle
 10
0.0
 20
0.0000000000000025
 30
0.0
 40
180.2271722750469
100
AcDbArc
 50
244.8514114054092
 51
268.9716167774881
1001
DBPROPERTIES
1002
{
1000
PbThick
1002
}
  0
ARC
  5
12A
330
1F
100
AcDbEntity
  8
HIDDEN
100
AcDbCircle
 10
0.0
 20
0.0000000000000025
 30
0.0
 40
180.2271722750469
100
AcDbArc
 50
217.5430396781044
 51
244.8514114054092
1001
DBPROPERTIES
1002
{
1000
PbHidd
1002
}
  0
ARC
  5
12B
330
1F
100
AcDbEntity
  8
THICK
100
AcDbCircle
 10
0.0
 20
0.0000000000000025
 30
0.0
 40
180.2271722750469
100
AcDbArc
 50
193.4228343060255
 51
217.5430396781044
1001
DBPROPERTIES
1002
{
1000
PbThick
1002
}
  0
ARC
  5
12C
330
1F
100
AcDbEntity
  8
HIDDEN
100
AcDbCircle
 10
0.0
 20
0.0000000000000025
 30
0.0
 40
180.2271722750469
100
AcDbArc
 50
179.9999801521572
 51
193.4228343060255
1001
DBPROPERTIES
1002
{
1000
PbHidd
1002
}
  0
ARC
  5
12D
330
1F
100
AcDbEntity
  8
HIDDEN
100
AcDbCircle
 10
0.0
 20
0.0000000000000028
 30
0.0
 40
182.6271722750469
100
AcDbArc
 50
180.0000198478428
 51
185.3725481013194
1001
DBPROPERTIES
1002
{
1000
PbHidd
1002
}
  0
ARC
  5
12E
330
1F
100
AcDbEntity
  8
HIDDEN
100
AcDbCircle
 10
0.0
 20
0.0000000000000028
 30
0.0
 40
182.6271722750469
100
AcDbArc
 50
185.3725481013194
 51
186.6274975599944
1001
DBPROPERTIES
1002
{
1000
PbHidd
1002
}
  0
ARC
  5
12F
330
1F
100
AcDbEntity
  8
THICK
100
AcDbCircle
 10
0.0
 20
0.0000000000000028
 30
0.0
 40
182.6271722750469
100
AcDbArc
 50
244.6717891366357
 51
263.3725013161311
1001
DBPROPERTIES
1002
{
1000
PbThick
1002
}
  0
ARC
  5
130
330
1F
100
AcDbEntity
  8
HIDDEN
100
AcDbCircle
 10
0.0
 20
0.0000000000000028
 30
0.0
 40
182.6271722750469
100
AcDbArc
 50
217.7291363699628
 51
244.6717891366357
1001
DBPROPERTIES
1002
{
1000
PbHidd
1002
}
  0
ARC
  5
131
330
1F
100
AcDbEntity
  8
THICK
100
AcDbCircle
 10
0.0
 20
0.0000000000000028
 30
0.0
 40
182.6271722750469
100
AcDbArc
 50
193.243212037252
 51
217.7291363699628
1001
DBPROPERTIES
1002
{
1000
PbThick
1002
}
  0
ARC
  5
132
330
1F
100
AcDbEntity
  8
HIDDEN
100
AcDbCircle
 10
0.0
 20
0.0000000000000028
 30
0.0
 40
182.6271722750469
100
AcDbArc
 50
186.6274975599944
 51
193.243212037252
1001
DBPROPERTIES
1002
{
1000
PbHidd
1002
}
  0
ARC
  5
133
330
1F
100
AcDbEntity
  8
THICK
100
AcDbCircle
 10
0.0
 20
0.0000000000000028
 30
0.0
 40
182.6271722750469
100
AcDbArc
 50
263.3725013161311
 51
264.6274507748061
1001
DBPROPERTIES
1002
{
1000
PbThick
1002
}
  0
ARC
  5
134
330
1F
100
AcDbEntity
  8
HIDDEN
100
AcDbCircle
 10
0.0
 20
0.0000000000000028
 30
0.0
 40
182.6271722750469
100
AcDbArc
 50
269.1577134693465
 51
275.372529377351
1001
DBPROPERTIES
1002
{
1000
PbHidd
1002
}
  0
ARC
  5
135
330
1F
100
AcDbEntity
  8
THICK
100
AcDbCircle
 10
0.0
 20
0.0000000000000028
 30
0.0
 40
182.6271722750469
100
AcDbArc
 50
264.6274507748061
 51
269.1577134693465
1001
DBPROPERTIES
1002
{
1000
PbThick
1002
}
  0
ARC
  5
136
330
1F
100
AcDbEntity
  8
HIDDEN
100
AcDbCircle
 10
0.0
 20
0.0000000000000028
 30
0.0
 40
182.6271722750469
100
AcDbArc
 50
275.372529377351
 51
276.6274788360261
1001
DBPROPERTIES
1002
{
1000
PbHidd
1002
}
  0
ARC
  5
137
330
1F
100
AcDbEntity
  8
THICK
100
AcDbCircle
 10
0.0
 20
0.0000000000000028
 30
0.0
 40
182.6271722750469
100
AcDbArc
 50
347.528943335403
 51
353.3725398879423
1001
DBPROPERTIES
1002
{
1000
PbThick
1002
}
  0
ARC
  5
138
330
1F
100
AcDbEntity
  8
HIDDEN
100
AcDbCircle
 10
0.0
 20
0.0000000000000028
 30
0.0
 40
182.6271722750469
100
AcDbArc
 50
320.5862905687302
 51
347.528943335403
1001
DBPROPERTIES
1002
{
1000
PbHidd
1002
}
  0
ARC
  5
139
330
1F
100
AcDbEntity
  8
THICK
100
AcDbCircle
 10
0.0
 20
0.0000000000000028
 30
0.0
 40
182.6271722750469
100
AcDbArc
 50
296.1003662360193
 51
320.5862905687302
1001
DBPROPERTIES
1002
{
1000
PbThick
1002
}
  0
ARC
  5
13A
330
1F
100
AcDbEntity
  8
HIDDEN
100
AcDbCircle
 10
0.0
 20
0.0000000000000028
 30
0.0
 40
182.6271722750469
100
AcDbArc
 50
276.6274788360261
 51
296.1003662360193
1001
DBPROPERTIES
1002
{
1000
PbHidd
1002
}
  0
ARC
  5
13B
330
1F
100
AcDbEntity
  8
THICK
100
AcDbCircle
 10
0.0
 20
0.0000000000000028
 30
0.0
 40
182.6271722750469
100
AcDbArc
 50
353.3725398879423
 51
354.6274893466173
1001
DBPROPERTIES
1002
{
1000
PbThick
1002
}
  0
ARC
  5
13C
330
1F
100
AcDbEntity
  8
THICK
100
AcDbCircle
 10
0.0
 20
0.0000000000000028
 30
0.0
 40
182.6271722750469
100
AcDbArc
 50
354.6274893466173
 51
0.0
1001
DBPROPERTIES
1002
{
1000
PbThick
1002
}
  0
ARC
  5
13D
330
1F
100
AcDbEntity
  8
HIDDEN
100
AcDbCircle
 10
0.0
 20
0.0000000000000028
 30
0.0
 40
177.4558909829367
100
AcDbArc
 50
0.0
 51
5.35423329971803
1001
DBPROPERTIES
1002
{
1000
PbHidd
1002
}
  0
ARC
  5
13E
330
1F
100
AcDbEntity
  8
THICK
100
AcDbCircle
 10
0.0
 20
0.0000000000000025
 30
0.0
 40
175.0558909829367
100
AcDbArc
 50
0.0
 51
5.345409749673014
1001
DBPROPERTIES
1002
{
1000
PbThick
1002
}
  0
ARC
  5
13F
330
1F
100
AcDbEntity
  8
HIDDEN
100
AcDbCircle
 10
0.0
 20
0.0000000000000025
 30
0.0
 40
175.0558909829367
100
AcDbArc
 50
174.6546100981698
 51
180.0000198478428
1001
DBPROPERTIES
1002
{
1000
PbHidd
1002
}
  0
ARC
  5
140
330
1F
100
AcDbEntity
  8
HIDDEN
100
AcDbCircle
 10
0.0
 20
0.0000000000000028
 30
0.0
 40
177.4558909829367
100
AcDbArc
 50
174.6457865481248
 51
180.0000198478428
1001
DBPROPERTIES
1002
{
1000
PbHidd
1002
}
  0
ARC
  5
141
330
1F
100
AcDbEntity
  8
HIDDEN
100
AcDbCircle
 10
0.0
 20
0.0000000000000162
 30
0.0
 40
88.75
100
AcDbArc
 50
270.0000187239684
 51
273.0000257392733
1001
DBPROPERTIES
1002
{
1000
PbHidd
1002
}
  0
LINE
  5
142
330
1F
100
AcDbEntity
  8
HIDDEN
100
AcDbLine
 10
4.644816116561216
 20
-88.62837120946841
 30
0.0
 11
4.644816116561216
 21
-88.62837120946841
 31
0.0
1001
DBPROPERTIES
1002
{
1000
PbHidd
1002
}
  0
LINE
  5
143
330
1F
100
AcDbEntity
  8
HIDDEN
100
AcDbLine
 10
-3.091310482083246
 20
-58.98571785283682
 30
0.0
 11
-3.091310482083246
 21
-58.98571785283682
 31
0.0
1001
DBPROPERTIES
1002
{
1000
PbHidd
1002
}
  0
LINE
  5
144
330
1F
100
AcDbEntity
  8
HIDDEN
100
AcDbLine
 10
-4.644816116561312
 20
-88.62837120946838
 30
0.0
 11
-3.091310482083249
 21
-58.98571785283681
 31
0.0
1001
DBPROPERTIES
1002
{
1000
PbHidd
1002
}
  0
LINE
  5
145
330
1F
100
AcDbEntity
  8
HIDDEN
100
AcDbLine
 10
-4.644816116561314
 20
-88.62837120946841
 30
0.0
 11
-4.644816116561314
 21
-88.62837120946841
 31
0.0
1001
DBPROPERTIES
1002
{
1000
PbHidd
1002
}
  0
ARC
  5
146
330
1F
100
AcDbEntity
  8
HIDDEN
100
AcDbCircle
 10
0.0
 20
0.0000000000000162
 30
0.0
 40
88.75
100
AcDbArc
 50
267.0000117086634
 51
270.0000187239684
1001
DBPROPERTIES
1002
{
1000
PbHidd
1002
}
  0
LINE
  5
147
330
1F
100
AcDbEntity
  8
HIDDEN
100
AcDbLine
 10
9.240062401709622
 20
-58.33945798448613
 30
0.0
 11
9.240062401709622
 21
-58.33945798448613
 31
0.0
1001
DBPROPERTIES
1002
{
1000
PbHidd
1002
}
  0
LINE
  5
148
330
1F
100
AcDbEntity
  8
HIDDEN
100
AcDbLine
 10
13.88355877232046
 20
-87.65734022781844
 30
0.0
 11
9.240062401709618
 21
-58.33945798448613
 31
0.0
1001
DBPROPERTIES
1002
{
1000
PbHidd
1002
}
  0
LINE
  5
149
330
1F
100
AcDbEntity
  8
HIDDEN
100
AcDbLine
 10
13.88355877232046
 20
-87.65734022781847
 30
0.0
 11
13.88355877232046
 21
-87.65734022781847
 31
0.0
1001
DBPROPERTIES
1002
{
1000
PbHidd
1002
}
  0
ARC
  5
14A
330
1F
100
AcDbEntity
  8
HIDDEN
100
AcDbCircle
 10
0.0
 20
0.0000000000000162
 30
0.0
 40
88.75
100
AcDbArc
 50
278.9999824741038
 51
284.9999965047138
1001
DBPROPERTIES
1002
{
1000
PbHidd
1002
}
  0
LINE
  5
14B
330
1F
100
AcDbEntity
  8
HIDDEN
100
AcDbLine
 10
22.9701902528487
 20
-85.7259170831548
 30
0.0
 11
22.9701902528487
 21
-85.7259170831548
 31
0.0
1001
DBPROPERTIES
1002
{
1000
PbHidd
1002
}
  0
LINE
  5
14C
330
1F
100
AcDbEntity
  8
HIDDEN
100
AcDbLine
 10
-15.28757826405558
 20
-57.05401880614095
 30
0.0
 11
-15.28757826405558
 21
-57.05401880614095
 31
0.0
1001
DBPROPERTIES
1002
{
1000
PbHidd
1002
}
  0
LINE
  5
14D
330
1F
100
AcDbEntity
  8
HIDDEN
100
AcDbLine
 10
-22.97019025284875
 20
-85.72591708315477
 30
0.0
 11
-15.28757826405558
 21
-57.05401880614095
 31
0.0
1001
DBPROPERTIES
1002
{
1000
PbHidd
1002
}
  0
LINE
  5
14E
330
1F
100
AcDbEntity
  8
HIDDEN
100
AcDbLine
 10
-22.97019025284875
 20
-85.7259170831548
 30
0.0
 11
-22.97019025284875
 21
-85.7259170831548
 31
0.0
1001
DBPROPERTIES
1002
{
1000
PbHidd
1002
}
  0
ARC
  5
14F
330
1F
100
AcDbEntity
  8
HIDDEN
100
AcDbCircle
 10
0.0
 20
0.0000000000000162
 30
0.0
 40
88.75
100
AcDbArc
 50
254.9999836474434
 51
260.9999976780534
1001
DBPROPERTIES
1002
{
1000
PbHidd
1002
}
  0
LINE
  5
150
330
1F
100
AcDbEntity
  8
HIDDEN
100
AcDbLine
 10
-13.88355877232052
 20
-87.65734022781845
 30
0.0
 11
-13.88355877232052
 21
-87.65734022781845
 31
0.0
1001
DBPROPERTIES
1002
{
1000
PbHidd
1002
}
  0
LINE
  5
151
330
1F
100
AcDbEntity
  8
HIDDEN
100
AcDbLine
 10
21.16760021980905
 20
-55.14348385843472
 30
0.0
 11
21.16760021980905
 21
-55.14348385843472
 31
0.0
1001
DBPROPERTIES
1002
{
1000
PbHidd
1002
}
  0
LINE
  5
152
330
1F
100
AcDbEntity
  8
HIDDEN
100
AcDbLine
 10
31.80515552214536
 20
-82.85526285162663
 30
0.0
 11
21.16760021980904
 21
-55.14348385843472
 31
0.0
1001
DBPROPERTIES
1002
{
1000
PbHidd
1002
}
  0
LINE
  5
153
330
1F
100
AcDbEntity
  8
HIDDEN
100
AcDbLine
 10
31.80515552214536
 20
-82.85526285162666
 30
0.0
 11
31.80515552214536
 21
-82.85526285162666
 31
0.0
1001
DBPROPERTIES
1002
{
1000
PbHidd
1002
}
  0
ARC
  5
154
330
1F
100
AcDbEntity
  8
HIDDEN
100
AcDbCircle
 10
0.0
 20
0.0000000000000162
 30
0.0
 40
88.75
100
AcDbArc
 50
291.0000105353237
 51
297.0000245659338
1001
DBPROPERTIES
1002
{
1000
PbHidd
1002
}
  0
LINE
  5
155
330
1F
100
AcDbEntity
  8
HIDDEN
100
AcDbLine
 10
40.29165685188473
 20
-79.07682902171766
 30
0.0
 11
40.29165685188473
 21
-79.07682902171766
 31
0.0
1001
DBPROPERTIES
1002
{
1000
PbHidd
1002
}
  0
LINE
  5
156
330
1F
100
AcDbEntity
  8
HIDDEN
100
AcDbLine
 10
-26.81570551794924
 20
-52.62878536205958
 30
0.0
 11
-26.81570551794924
 21
-52.62878536205958
 31
0.0
1001
DBPROPERTIES
1002
{
1000
PbHidd
1002
}
  0
LINE
  5
157
330
1F
100
AcDbEntity
  8
HIDDEN
100
AcDbLine
 10
-40.29165685188478
 20
-79.0768290217176
 30
0.0
 11
-26.81570551794924
 21
-52.62878536205957
 31
0.0
1001
DBPROPERTIES
1002
{
1000
PbHidd
1002
}
  0
LINE
  5
158
330
1F
100
AcDbEntity
  8
HIDDEN
100
AcDbLine
 10
-40.2916568518848
 20
-79.07682902171761
 30
0.0
 11
-40.2916568518848
 21
-79.07682902171761
 31
0.0
1001
DBPROPERTIES
1002
{
1000
PbHidd
1002
}
  0
ARC
  5
159
330
1F
100
AcDbEntity
  8
HIDDEN
100
AcDbCircle
 10
0.0
 20
0.0000000000000162
 30
0.0
 40
88.75
100
AcDbArc
 50
243.0000128820029
 51
249.0000269126129
1001
DBPROPERTIES
1002
{
1000
PbHidd
1002
}
  0
LINE
  5
15A
330
1F
100
AcDbEntity
  8
HIDDEN
100
AcDbLine
 10
-31.80515552214542
 20
-82.85526285162663
 30
0.0
 11
-31.80515552214542
 21
-82.85526285162663
 31
0.0
1001
DBPROPERTIES
1002
{
1000
PbHidd
1002
}
  0
LINE
  5
15B
330
1F
100
AcDbEntity
  8
HIDDEN
100
AcDbLine
 10
32.17001233488757
 20
-49.53747487997639
 30
0.0
 11
32.17001233488757
 21
-49.53747487997639
 31
0.0
1001
DBPROPERTIES
1002
{
1000
PbHidd
1002
}
  0
LINE
  5
15C
330
1F
100
AcDbEntity
  8
HIDDEN
100
AcDbLine
 10
48.33671435758359
 20
-74.43201290515637
 30
0.0
 11
32.17001233488757
 21
-49.53747487997639
 31
0.0
1001
DBPROPERTIES
1002
{
1000
PbHidd
1002
}
  0
LINE
  5
15D
330
1F
100
AcDbEntity
  8
HIDDEN
100
AcDbLine
 10
48.3367143575836
 20
-74.4320129051564
 30
0.0
 11
48.3367143575836
 21
-74.4320129051564
 31
0.0
1001
DBPROPERTIES
1002
{
1000
PbHidd
1002
}
  0
ARC
  5
15E
330
1F
100
AcDbEntity
  8
HIDDEN
100
AcDbCircle
 10
0.0
 20
0.0000000000000162
 30
0.0
 40
88.75
100
AcDbArc
 50
302.9999813007643
 51
308.9999953313742
1001
DBPROPERTIES
1002
{
1000
PbHidd
1002
}
  0
LINE
  5
15F
330
1F
100
AcDbEntity
  8
HIDDEN
100
AcDbLine
 10
55.85218470567303
 20
-68.97170407930619
 30
0.0
 11
55.85218470567303
 21
-68.97170407930619
 31
0.0
1001
DBPROPERTIES
1002
{
1000
PbHidd
1002
}
  0
LINE
  5
160
330
1F
100
AcDbEntity
  8
HIDDEN
100
AcDbLine
 10
-37.17185776467709
 20
-45.90342145672506
 30
0.0
 11
-37.17185776467709
 21
-45.90342145672506
 31
0.0
1001
DBPROPERTIES
1002
{
1000
PbHidd
1002
}
  0
LINE
  5
161
330
1F
100
AcDbEntity
  8
HIDDEN
100
AcDbLine
 10
-55.8521847056731
 20
-68.97170407930611
 30
0.0
 11
-37.17185776467709
 21
-45.90342145672505
 31
0.0
1001
DBPROPERTIES
1002
{
1000
PbHidd
1002
}
  0
LINE
  5
162
330
1F
100
AcDbEntity
  8
HIDDEN
100
AcDbLine
 10
-55.8521847056731
 20
-68.97170407930614
 30
0.0
 11
-55.8521847056731
 21
-68.97170407930614
 31
0.0
1001
DBPROPERTIES
1002
{
1000
PbHidd
1002
}
  0
ARC
  5
163
330
1F
100
AcDbEntity
  8
HIDDEN
100
AcDbCircle
 10
0.0
 20
0.0000000000000162
 30
0.0
 40
88.75
100
AcDbArc
 50
230.999984820783
 51
236.999998851393
1001
DBPROPERTIES
1002
{
1000
PbHidd
1002
}
  0
LINE
  5
164
330
1F
100
AcDbEntity
  8
HIDDEN
100
AcDbLine
 10
-48.33671435758369
 20
-74.43201290515634
 30
0.0
 11
-48.33671435758369
 21
-74.43201290515634
 31
0.0
1001
DBPROPERTIES
1002
{
1000
PbHidd
1002
}
  0
LINE
  5
165
330
1F
100
AcDbEntity
  8
HIDDEN
100
AcDbLine
 10
41.76644054208538
 20
-41.76644054208541
 30
0.0
 11
41.76644054208538
 21
-41.76644054208541
 31
0.0
1001
DBPROPERTIES
1002
{
1000
PbHidd
1002
}
  0
LINE
  5
166
330
1F
100
AcDbEntity
  8
HIDDEN
100
AcDbLine
 10
62.75572683030605
 20
-62.75572683030609
 30
0.0
 11
41.76644054208538
 21
-41.76644054208541
 31
0.0
1001
DBPROPERTIES
1002
{
1000
PbHidd
1002
}
  0
LINE
  5
167
330
1F
100
AcDbEntity
  8
HIDDEN
100
AcDbLine
 10
62.75572683030606
 20
-62.75572683030611
 30
0.0
 11
62.75572683030606
 21
-62.7557268303061
 31
0.0
1001
DBPROPERTIES
1002
{
1000
PbHidd
1002
}
  0
ARC
  5
168
330
1F
100
AcDbEntity
  8
HIDDEN
100
AcDbCircle
 10
0.0
 20
0.0000000000000162
 30
0.0
 40
88.75
100
AcDbArc
 50
315.0000093619842
 51
321.0000233925941
1001
DBPROPERTIES
1002
{
1000
PbHidd
1002
}
  0
LINE
  5
169
330
1F
100
AcDbEntity
  8
HIDDEN
100
AcDbLine
 10
68.97170407930614
 20
-55.85218470567309
 30
0.0
 11
68.97170407930614
 21
-55.8521847056731
 31
0.0
1001
DBPROPERTIES
1002
{
1000
PbHidd
1002
}
  0
LINE
  5
16A
330
1F
100
AcDbEntity
  8
HIDDEN
100
AcDbLine
 10
-45.90342145672508
 20
-37.17185776467704
 30
0.0
 11
-45.90342145672508
 21
-37.17185776467704
 31
0.0
1001
DBPROPERTIES
1002
{
1000
PbHidd
1002
}
  0
LINE
  5
16B
330
1F
100
AcDbEntity
  8
HIDDEN
100
AcDbLine
 10
-68.97170407930615
 20
-55.85218470567304
 30
0.0
 11
-45.90342145672507
 21
-37.17185776467704
 31
0.0
1001
DBPROPERTIES
1002
{
1000
PbHidd
1002
}
  0
LINE
  5
16C
330
1F
100
AcDbEntity
  8
HIDDEN
100
AcDbLine
 10
-68.97170407930618
 20
-55.85218470567306
 30
0.0
 11
-68.97170407930618
 21
-55.85218470567305
 31
0.0
1001
DBPROPERTIES
1002
{
1000
PbHidd
1002
}
  0
ARC
  5
16D
330
1F
100
AcDbEntity
  8
HIDDEN
100
AcDbCircle
 10
0.0
 20
0.0000000000000162
 30
0.0
 40
88.75
100
AcDbArc
 50
219.0000140553425
 51
225.0000280859525
1001
DBPROPERTIES
1002
{
1000
PbHidd
1002
}
  0
LINE
  5
16E
330
1F
100
AcDbEntity
  8
HIDDEN
100
AcDbLine
 10
-62.75572683030611
 20
-62.75572683030605
 30
0.0
 11
-62.75572683030611
 21
-62.75572683030607
 31
0.0
1001
DBPROPERTIES
1002
{
1000
PbHidd
1002
}
  0
LINE
  5
16F
330
1F
100
AcDbEntity
  8
HIDDEN
100
AcDbLine
 10
49.53747487997637
 20
-32.17001233488762
 30
0.0
 11
49.53747487997637
 21
-32.17001233488762
 31
0.0
1001
DBPROPERTIES
1002
{
1000
PbHidd
1002
}
  0
LINE
  5
170
330
1F
100
AcDbEntity
  8
HIDDEN
100
AcDbLine
 10
74.43201290515634
 20
-48.33671435758367
 30
0.0
 11
49.53747487997636
 21
-32.17001233488762
 31
0.0
1001
DBPROPERTIES
1002
{
1000
PbHidd
1002
}
  0
LINE
  5
171
330
1F
100
AcDbEntity
  8
HIDDEN
100
AcDbLine
 10
74.43201290515636
 20
-48.33671435758369
 30
0.0
 11
74.43201290515636
 21
-48.33671435758367
 31
0.0
1001
DBPROPERTIES
1002
{
1000
PbHidd
1002
}
  0
ARC
  5
172
330
1F
100
AcDbEntity
  8
HIDDEN
100
AcDbCircle
 10
0.0
 20
0.0000000000000162
 30
0.0
 40
88.75
100
AcDbArc
 50
326.9999801274246
 51
332.9999941580346
1001
DBPROPERTIES
1002
{
1000
PbHidd
1002
}
  0
LINE
  5
173
330
1F
100
AcDbEntity
  8
HIDDEN
100
AcDbLine
 10
79.07682902171763
 20
-40.2916568518848
 30
0.0
 11
79.07682902171763
 21
-40.29165685188481
 31
0.0
1001
DBPROPERTIES
1002
{
1000
PbHidd
1002
}
  0
LINE
  5
174
330
1F
100
AcDbEntity
  8
HIDDEN
100
AcDbLine
 10
-52.6287853620596
 20
-26.81570551794922
 30
0.0
 11
-52.6287853620596
 21
-26.81570551794922
 31
0.0
1001
DBPROPERTIES
1002
{
1000
PbHidd
1002
}
  0
LINE
  5
175
330
1F
100
AcDbEntity
  8
HIDDEN
100
AcDbLine
 10
-79.07682902171764
 20
-40.29165685188475
 30
0.0
 11
-52.6287853620596
 21
-26.81570551794922
 31
0.0
1001
DBPROPERTIES
1002
{
1000
PbHidd
1002
}
  0
LINE
  5
176
330
1F
100
AcDbEntity
  8
HIDDEN
100
AcDbLine
 10
-79.07682902171766
 20
-40.29165685188476
 30
0.0
 11
-79.07682902171766
 21
-40.29165685188475
 31
0.0
1001
DBPROPERTIES
1002
{
1000
PbHidd
1002
}
  0
ARC
  5
177
330
1F
100
AcDbEntity
  8
HIDDEN
100
AcDbCircle
 10
0.0
 20
0.0000000000000162
 30
0.0
 40
88.75
100
AcDbArc
 50
206.9999859941226
 51
213.0000000247326
1001
DBPROPERTIES
1002
{
1000
PbHidd
1002
}
  0
LINE
  5
178
330
1F
100
AcDbEntity
  8
HIDDEN
100
AcDbLine
 10
-74.43201290515638
 20
-48.33671435758362
 30
0.0
 11
-74.43201290515638
 21
-48.33671435758364
 31
0.0
1001
DBPROPERTIES
1002
{
1000
PbHidd
1002
}
  0
LINE
  5
179
330
1F
100
AcDbEntity
  8
HIDDEN
100
AcDbLine
 10
55.1434838584347
 20
-21.1676002198091
 30
0.0
 11
55.1434838584347
 21
-21.1676002198091
 31
0.0
1001
DBPROPERTIES
1002
{
1000
PbHidd
1002
}
  0
LINE
  5
17A
330
1F
100
AcDbEntity
  8
HIDDEN
100
AcDbLine
 10
82.85526285162662
 20
-31.80515552214545
 30
0.0
 11
55.14348385843469
 21
-21.1676002198091
 31
0.0
1001
DBPROPERTIES
1002
{
1000
PbHidd
1002
}
  0
LINE
  5
17B
330
1F
100
AcDbEntity
  8
HIDDEN
100
AcDbLine
 10
82.85526285162663
 20
-31.80515552214545
 30
0.0
 11
82.85526285162663
 21
-31.80515552214544
 31
0.0
1001
DBPROPERTIES
1002
{
1000
PbHidd
1002
}
  0
ARC
  5
17C
330
1F
100
AcDbEntity
  8
HIDDEN
100
AcDbCircle
 10
0.0
 20
0.0000000000000162
 30
0.0
 40
88.75
100
AcDbArc
 50
339.0000081886445
 51
345.0000222192546
1001
DBPROPERTIES
1002
{
1000
PbHidd
1002
}
  0
LINE
  5
17D
330
1F
100
AcDbEntity
  8
HIDDEN
100
AcDbLine
 10
85.7259170831548
 20
-22.97019025284877
 30
0.0
 11
85.7259170831548
 21
-22.97019025284878
 31
0.0
1001
DBPROPERTIES
1002
{
1000
PbHidd
1002
}
  0
LINE
  5
17E
330
1F
100
AcDbEntity
  8
HIDDEN
100
AcDbLine
 10
-57.05401880614097
 20
-15.28757826405554
 30
0.0
 11
-57.05401880614097
 21
-15.28757826405554
 31
0.0
1001
DBPROPERTIES
1002
{
1000
PbHidd
1002
}
  0
LINE
  5
17F
330
1F
100
AcDbEntity
  8
HIDDEN
100
AcDbLine
 10
-85.7259170831548
 20
-22.97019025284869
 30
0.0
 11
-57.05401880614096
 21
-15.28757826405554
 31
0.0
1001
DBPROPERTIES
1002
{
1000
PbHidd
1002
}
  0
LINE
  5
180
330
1F
100
AcDbEntity
  8
HIDDEN
100
AcDbLine
 10
-85.72591708315483
 20
-22.9701902528487
 30
0.0
 11
-85.72591708315483
 21
-22.97019025284869
 31
0.0
1001
DBPROPERTIES
1002
{
1000
PbHidd
1002
}
  0
ARC
  5
181
330
1F
100
AcDbEntity
  8
HIDDEN
100
AcDbCircle
 10
0.0
 20
0.0000000000000162
 30
0.0
 40
88.75
100
AcDbArc
 50
195.0000152286821
 51
200.9999719635126
1001
DBPROPERTIES
1002
{
1000
PbHidd
1002
}
  0
LINE
  5
182
330
1F
100
AcDbEntity
  8
HIDDEN
100
AcDbLine
 10
-82.85526285162666
 20
-31.80515552214537
 30
0.0
 11
-82.85526285162666
 21
-31.80515552214538
 31
0.0
1001
DBPROPERTIES
1002
{
1000
PbHidd
1002
}
  0
LINE
  5
183
330
1F
100
AcDbEntity
  8
HIDDEN
100
AcDbLine
 10
58.33945798448612
 20
-9.240062401709654
 30
0.0
 11
58.33945798448612
 21
-9.240062401709654
 31
0.0
1001
DBPROPERTIES
1002
{
1000
PbHidd
1002
}
  0
LINE
  5
184
330
1F
100
AcDbEntity
  8
HIDDEN
100
AcDbLine
 10
87.65734022781842
 20
-13.88355877232051
 30
0.0
 11
58.33945798448612
 21
-9.240062401709654
 31
0.0
1001
DBPROPERTIES
1002
{
1000
PbHidd
1002
}
  0
LINE
  5
185
330
1F
100
AcDbEntity
  8
HIDDEN
100
AcDbLine
 10
87.65734022781847
 20
-13.88355877232052
 30
0.0
 11
87.65734022781847
 21
-13.88355877232051
 31
0.0
1001
DBPROPERTIES
1002
{
1000
PbHidd
1002
}
  0
ARC
  5
186
330
1F
100
AcDbEntity
  8
HIDDEN
100
AcDbCircle
 10
0.0
 20
0.0000000000000162
 30
0.0
 40
88.75
100
AcDbArc
 50
350.9999789540851
 51
356.999992984695
1001
DBPROPERTIES
1002
{
1000
PbHidd
1002
}
  0
LINE
  5
187
330
1F
100
AcDbEntity
  8
HIDDEN
100
AcDbLine
 10
88.62837120946841
 20
-4.644816116561284
 30
0.0
 11
88.62837120946841
 21
-4.644816116561294
 31
0.0
1001
DBPROPERTIES
1002
{
1000
PbHidd
1002
}
  0
LINE
  5
188
330
1F
100
AcDbEntity
  8
HIDDEN
100
AcDbLine
 10
-58.98571785283683
 20
-3.091310482083196
 30
0.0
 11
-58.98571785283683
 21
-3.091310482083196
 31
0.0
1001
DBPROPERTIES
1002
{
1000
PbHidd
1002
}
  0
LINE
  5
189
330
1F
100
AcDbEntity
  8
HIDDEN
100
AcDbLine
 10
-88.62837120946838
 20
-4.644816116561234
 30
0.0
 11
-58.98571785283682
 21
-3.091310482083196
 31
0.0
1001
DBPROPERTIES
1002
{
1000
PbHidd
1002
}
  0
LINE
  5
18A
330
1F
100
AcDbEntity
  8
HIDDEN
100
AcDbLine
 10
-88.62837120946841
 20
-4.64481611656124
 30
0.0
 11
-88.62837120946841
 21
-4.64481611656123
 31
0.0
1001
DBPROPERTIES
1002
{
1000
PbHidd
1002
}
  0
ARC
  5
18B
330
1F
100
AcDbEntity
  8
HIDDEN
100
AcDbCircle
 10
0.0
 20
0.0000000000000162
 30
0.0
 40
88.75
100
AcDbArc
 50
182.9999871674622
 51
189.0000011980722
1001
DBPROPERTIES
1002
{
1000
PbHidd
1002
}
  0
LINE
  5
18C
330
1F
100
AcDbEntity
  8
HIDDEN
100
AcDbLine
 10
-87.65734022781848
 20
-13.88355877232046
 30
0.0
 11
-87.65734022781848
 21
-13.88355877232046
 31
0.0
1001
DBPROPERTIES
1002
{
1000
PbHidd
1002
}
  0
LINE
  5
18D
330
1F
100
AcDbEntity
  8
HIDDEN
100
AcDbLine
 10
58.98571785283684
 20
3.091310482083165
 30
0.0
 11
58.98571785283684
 21
3.091310482083165
 31
0.0
1001
DBPROPERTIES
1002
{
1000
PbHidd
1002
}
  0
LINE
  5
18E
330
1F
100
AcDbEntity
  8
HIDDEN
100
AcDbLine
 10
88.62837120946841
 20
4.644816116561186
 30
0.0
 11
58.98571785283683
 21
3.091310482083163
 31
0.0
1001
DBPROPERTIES
1002
{
1000
PbHidd
1002
}
  0
LINE
  5
18F
330
1F
100
AcDbEntity
  8
HIDDEN
100
AcDbLine
 10
88.62837120946843
 20
4.644816116561183
 30
0.0
 11
88.62837120946843
 21
4.644816116561194
 31
0.0
1001
DBPROPERTIES
1002
{
1000
PbHidd
1002
}
  0
ARC
  5
190
330
1F
100
AcDbEntity
  8
HIDDEN
100
AcDbCircle
 10
0.0
 20
0.0000000000000162
 30
0.0
 40
88.75
100
AcDbArc
 50
3.00000701530499
 51
9.000021045914972
1001
DBPROPERTIES
1002
{
1000
PbHidd
1002
}
  0
LINE
  5
191
330
1F
100
AcDbEntity
  8
HIDDEN
100
AcDbLine
 10
87.6573402278185
 20
13.88355877232042
 30
0.0
 11
87.6573402278185
 21
13.88355877232041
 31
0.0
1001
DBPROPERTIES
1002
{
1000
PbHidd
1002
}
  0
LINE
  5
192
330
1F
100
AcDbEntity
  8
HIDDEN
100
AcDbLine
 10
-58.33945798448612
 20
9.240062401709647
 30
0.0
 11
-58.33945798448612
 21
9.240062401709647
 31
0.0
1001
DBPROPERTIES
1002
{
1000
PbHidd
1002
}
  0
LINE
  5
193
330
1F
100
AcDbEntity
  8
HIDDEN
100
AcDbLine
 10
-87.65734022781842
 20
13.8835587723205
 30
0.0
 11
-58.33945798448612
 21
9.240062401709649
 31
0.0
1001
DBPROPERTIES
1002
{
1000
PbHidd
1002
}
  0
LINE
  5
194
330
1F
100
AcDbEntity
  8
HIDDEN
100
AcDbLine
 10
-87.65734022781848
 20
13.88355877232051
 30
0.0
 11
-87.65734022781848
 21
13.88355877232052
 31
0.0
1001
DBPROPERTIES
1002
{
1000
PbHidd
1002
}
  0
ARC
  5
195
330
1F
100
AcDbEntity
  8
HIDDEN
100
AcDbCircle
 10
0.0
 20
0.0000000000000162
 30
0.0
 40
88.75
100
AcDbArc
 50
170.9999988019279
 51
177.0000128325378
1001
DBPROPERTIES
1002
{
1000
PbHidd
1002
}
  0
LINE
  5
196
330
1F
100
AcDbEntity
  8
HIDDEN
100
AcDbLine
 10
-88.62837120946841
 20
4.644816116561288
 30
0.0
 11
-88.62837120946841
 21
4.644816116561278
 31
0.0
1001
DBPROPERTIES
1002
{
1000
PbHidd
1002
}
  0
LINE
  5
197
330
1F
100
AcDbEntity
  8
HIDDEN
100
AcDbLine
 10
57.05401880614097
 20
15.28757826405552
 30
0.0
 11
57.05401880614097
 21
15.28757826405552
 31
0.0
1001
DBPROPERTIES
1002
{
1000
PbHidd
1002
}
  0
LINE
  5
198
330
1F
100
AcDbEntity
  8
HIDDEN
100
AcDbLine
 10
85.7259170831548
 20
22.97019025284866
 30
0.0
 11
57.05401880614096
 21
15.28757826405552
 31
0.0
1001
DBPROPERTIES
1002
{
1000
PbHidd
1002
}
  0
LINE
  5
199
330
1F
100
AcDbEntity
  8
HIDDEN
100
AcDbLine
 10
85.72591708315483
 20
22.97019025284866
 30
0.0
 11
85.72591708315483
 21
22.97019025284867
 31
0.0
1001
DBPROPERTIES
1002
{
1000
PbHidd
1002
}
  0
ARC
  5
19A
330
1F
100
AcDbEntity
  8
HIDDEN
100
AcDbCircle
 10
0.0
 20
0.0000000000000162
 30
0.0
 40
88.75
100
AcDbArc
 50
14.99997778074544
 51
20.99999181135542
1001
DBPROPERTIES
1002
{
1000
PbHidd
1002
}
  0
LINE
  5
19B
330
1F
100
AcDbEntity
  8
HIDDEN
100
AcDbLine
 10
82.85526285162668
 20
31.80515552214536
 30
0.0
 11
82.85526285162668
 21
31.80515552214534
 31
0.0
1001
DBPROPERTIES
1002
{
1000
PbHidd
1002
}
  0
LINE
  5
19C
330
1F
100
AcDbEntity
  8
HIDDEN
100
AcDbLine
 10
-55.14348385843471
 20
21.16760021980907
 30
0.0
 11
-55.14348385843471
 21
21.16760021980907
 31
0.0
1001
DBPROPERTIES
1002
{
1000
PbHidd
1002
}
  0
LINE
  5
19D
330
1F
100
AcDbEntity
  8
HIDDEN
100
AcDbLine
 10
-82.85526285162663
 20
31.80515552214541
 30
0.0
 11
-55.14348385843471
 21
21.16760021980908
 31
0.0
1001
DBPROPERTIES
1002
{
1000
PbHidd
1002
}
  0
LINE
  5
19E
330
1F
100
AcDbEntity
  8
HIDDEN
100
AcDbLine
 10
-82.85526285162666
 20
31.80515552214542
 30
0.0
 11
-82.85526285162666
 21
31.80515552214543
 31
0.0
1001
DBPROPERTIES
1002
{
1000
PbHidd
1002
}
  0
ARC
  5
19F
330
1F
100
AcDbEntity
  8
HIDDEN
100
AcDbCircle
 10
0.0
 20
0.0000000000000162
 30
0.0
 40
88.75
100
AcDbArc
 50
159.0000280364874
 51
164.9999847713179
1001
DBPROPERTIES
1002
{
1000
PbHidd
1002
}
  0
LINE
  5
1A0
330
1F
100
AcDbEntity
  8
HIDDEN
100
AcDbLine
 10
-85.7259170831548
 20
22.97019025284873
 30
0.0
 11
-85.7259170831548
 21
22.97019025284872
 31
0.0
1001
DBPROPERTIES
1002
{
1000
PbHidd
1002
}
  0
LINE
  5
1A1
330
1F
100
AcDbEntity
  8
HIDDEN
100
AcDbLine
 10
52.6287853620596
 20
26.81570551794921
 30
0.0
 11
52.6287853620596
 21
26.81570551794921
 31
0.0
1001
DBPROPERTIES
1002
{
1000
PbHidd
1002
}
  0
LINE
  5
1A2
330
1F
100
AcDbEntity
  8
HIDDEN
100
AcDbLine
 10
79.07682902171766
 20
40.29165685188475
 30
0.0
 11
52.6287853620596
 21
26.81570551794921
 31
0.0
1001
DBPROPERTIES
1002
{
1000
PbHidd
1002
}
  0
LINE
  5
1A3
330
1F
100
AcDbEntity
  8
HIDDEN
100
AcDbLine
 10
79.07682902171767
 20
40.29165685188475
 30
0.0
 11
79.07682902171767
 21
40.29165685188477
 31
0.0
1001
DBPROPERTIES
1002
{
1000
PbHidd
1002
}
  0
ARC
  5
1A4
330
1F
100
AcDbEntity
  8
HIDDEN
100
AcDbCircle
 10
0.0
 20
0.0000000000000162
 30
0.0
 40
88.75
100
AcDbArc
 50
27.0000058419654
 51
33.00001987257539
1001
DBPROPERTIES
1002
{
1000
PbHidd
1002
}
  0
LINE
  5
1A5
330
1F
100
AcDbEntity
  8
HIDDEN
100
AcDbLine
 10
74.4320129051564
 20
48.33671435758365
 30
0.0
 11
74.4320129051564
 21
48.33671435758363
 31
0.0
1001
DBPROPERTIES
1002
{
1000
PbHidd
1002
}
  0
LINE
  5
1A6
330
1F
100
AcDbEntity
  8
HIDDEN
100
AcDbLine
 10
-49.53747487997636
 20
32.1700123348876
 30
0.0
 11
-49.53747487997636
 21
32.1700123348876
 31
0.0
1001
DBPROPERTIES
1002
{
1000
PbHidd
1002
}
  0
LINE
  5
1A7
330
1F
100
AcDbEntity
  8
HIDDEN
100
AcDbLine
 10
-74.43201290515637
 20
48.33671435758367
 30
0.0
 11
-49.53747487997635
 21
32.1700123348876
 31
0.0
1001
DBPROPERTIES
1002
{
1000
PbHidd
1002
}
  0
LINE
  5
1A8
330
1F
100
AcDbEntity
  8
HIDDEN
100
AcDbLine
 10
-74.43201290515638
 20
48.33671435758368
 30
0.0
 11
-74.43201290515638
 21
48.33671435758369
 31
0.0
1001
DBPROPERTIES
1002
{
1000
PbHidd
1002
}
  0
ARC
  5
1A9
330
1F
100
AcDbEntity
  8
HIDDEN
100
AcDbCircle
 10
0.0
 20
0.0000000000000162
 30
0.0
 40
88.75
100
AcDbArc
 50
146.9999999752674
 51
153.0000140058774
1001
DBPROPERTIES
1002
{
1000
PbHidd
1002
}
  0
LINE
  5
1AA
330
1F
100
AcDbEntity
  8
HIDDEN
100
AcDbLine
 10
-79.07682902171766
 20
40.29165685188481
 30
0.0
 11
-79.07682902171766
 21
40.2916568518848
 31
0.0
1001
DBPROPERTIES
1002
{
1000
PbHidd
1002
}
  0
LINE
  5
1AB
330
1F
100
AcDbEntity
  8
HIDDEN
100
AcDbLine
 10
45.90342145672511
 20
37.17185776467703
 30
0.0
 11
45.90342145672511
 21
37.17185776467703
 31
0.0
1001
DBPROPERTIES
1002
{
1000
PbHidd
1002
}
  0
LINE
  5
1AC
330
1F
100
AcDbEntity
  8
HIDDEN
100
AcDbLine
 10
68.9717040793062
 20
55.85218470567301
 30
0.0
 11
45.90342145672511
 21
37.17185776467702
 31
0.0
1001
DBPROPERTIES
1002
{
1000
PbHidd
1002
}
  0
LINE
  5
1AD
330
1F
100
AcDbEntity
  8
HIDDEN
100
AcDbLine
 10
68.97170407930622
 20
55.85218470567301
 30
0.0
 11
68.97170407930622
 21
55.85218470567303
 31
0.0
1001
DBPROPERTIES
1002
{
1000
PbHidd
1002
}
  0
ARC
  5
1AE
330
1F
100
AcDbEntity
  8
HIDDEN
100
AcDbCircle
 10
0.0
 20
0.0000000000000162
 30
0.0
 40
88.75
100
AcDbArc
 50
38.99997660740585
 51
44.99999063801582
1001
DBPROPERTIES
1002
{
1000
PbHidd
1002
}
  0
LINE
  5
1AF
330
1F
100
AcDbEntity
  8
HIDDEN
100
AcDbLine
 10
62.75572683030617
 20
62.75572683030605
 30
0.0
 11
62.75572683030617
 21
62.75572683030604
 31
0.0
1001
DBPROPERTIES
1002
{
1000
PbHidd
1002
}
  0
LINE
  5
1B0
330
1F
100
AcDbEntity
  8
HIDDEN
100
AcDbLine
 10
-41.7664405420854
 20
41.76644054208541
 30
0.0
 11
-41.7664405420854
 21
41.76644054208541
 31
0.0
1001
DBPROPERTIES
1002
{
1000
PbHidd
1002
}
  0
LINE
  5
1B1
330
1F
100
AcDbEntity
  8
HIDDEN
100
AcDbLine
 10
-62.75572683030608
 20
62.75572683030609
 30
0.0
 11
-41.7664405420854
 21
41.76644054208541
 31
0.0
1001
DBPROPERTIES
1002
{
1000
PbHidd
1002
}
  0
LINE
  5
1B2
330
1F
100
AcDbEntity
  8
HIDDEN
100
AcDbLine
 10
-62.75572683030609
 20
62.7557268303061
 30
0.0
 11
-62.75572683030609
 21
62.75572683030612
 31
0.0
1001
DBPROPERTIES
1002
{
1000
PbHidd
1002
}
  0
ARC
  5
1B3
330
1F
100
AcDbEntity
  8
HIDDEN
100
AcDbCircle
 10
0.0
 20
0.0000000000000162
 30
0.0
 40
88.75
100
AcDbArc
 50
134.9999719140475
 51
140.9999859446575
1001
DBPROPERTIES
1002
{
1000
PbHidd
1002
}
  0
LINE
  5
1B4
330
1F
100
AcDbEntity
  8
HIDDEN
100
AcDbLine
 10
-68.97170407930618
 20
55.85218470567309
 30
0.0
 11
-68.97170407930618
 21
55.85218470567307
 31
0.0
1001
DBPROPERTIES
1002
{
1000
PbHidd
1002
}
  0
LINE
  5
1B5
330
1F
100
AcDbEntity
  8
HIDDEN
100
AcDbLine
 10
37.17185776467709
 20
45.90342145672506
 30
0.0
 11
37.17185776467709
 21
45.90342145672506
 31
0.0
1001
DBPROPERTIES
1002
{
1000
PbHidd
1002
}
  0
LINE
  5
1B6
330
1F
100
AcDbEntity
  8
HIDDEN
100
AcDbLine
 10
55.85218470567311
 20
68.97170407930614
 30
0.0
 11
37.17185776467709
 21
45.90342145672505
 31
0.0
1001
DBPROPERTIES
1002
{
1000
PbHidd
1002
}
  0
LINE
  5
1B7
330
1F
100
AcDbEntity
  8
HIDDEN
100
AcDbLine
 10
55.85218470567312
 20
68.97170407930615
 30
0.0
 11
55.85218470567312
 21
68.97170407930615
 31
0.0
1001
DBPROPERTIES
1002
{
1000
PbHidd
1002
}
  0
ARC
  5
1B8
330
1F
100
AcDbEntity
  8
HIDDEN
100
AcDbCircle
 10
0.0
 20
0.0000000000000162
 30
0.0
 40
88.75
100
AcDbArc
 50
51.00000466862581
 51
57.0000186992358
1001
DBPROPERTIES
1002
{
1000
PbHidd
1002
}
  0
LINE
  5
1B9
330
1F
100
AcDbEntity
  8
HIDDEN
100
AcDbLine
 10
48.33671435758371
 20
74.43201290515637
 30
0.0
 11
48.33671435758371
 21
74.43201290515637
 31
0.0
1001
DBPROPERTIES
1002
{
1000
PbHidd
1002
}
  0
LINE
  5
1BA
330
1F
100
AcDbEntity
  8
HIDDEN
100
AcDbLine
 10
-32.17001233488759
 20
49.53747487997637
 30
0.0
 11
-32.17001233488759
 21
49.53747487997637
 31
0.0
1001
DBPROPERTIES
1002
{
1000
PbHidd
1002
}
  0
LINE
  5
1BB
330
1F
100
AcDbEntity
  8
HIDDEN
100
AcDbLine
 10
-48.33671435758363
 20
74.43201290515637
 30
0.0
 11
-32.17001233488757
 21
49.53747487997636
 31
0.0
1001
DBPROPERTIES
1002
{
1000
PbHidd
1002
}
  0
LINE
  5
1BC
330
1F
100
AcDbEntity
  8
HIDDEN
100
AcDbLine
 10
-48.33671435758365
 20
74.4320129051564
 30
0.0
 11
-48.33671435758365
 21
74.4320129051564
 31
0.0
1001
DBPROPERTIES
1002
{
1000
PbHidd
1002
}
  0
ARC
  5
1BD
330
1F
100
AcDbEntity
  8
HIDDEN
100
AcDbCircle
 10
0.0
 20
0.0000000000000162
 30
0.0
 40
88.75
100
AcDbArc
 50
123.000001148607
 51
129.000015179217
1001
DBPROPERTIES
1002
{
1000
PbHidd
1002
}
  0
LINE
  5
1BE
330
1F
100
AcDbEntity
  8
HIDDEN
100
AcDbLine
 10
-55.85218470567307
 20
68.97170407930618
 30
0.0
 11
-55.85218470567307
 21
68.97170407930618
 31
0.0
1001
DBPROPERTIES
1002
{
1000
PbHidd
1002
}
  0
LINE
  5
1BF
330
1F
100
AcDbEntity
  8
HIDDEN
100
AcDbLine
 10
26.81570551794925
 20
52.62878536205958
 30
0.0
 11
26.81570551794925
 21
52.62878536205958
 31
0.0
1001
DBPROPERTIES
1002
{
1000
PbHidd
1002
}
  0
LINE
  5
1C0
330
1F
100
AcDbEntity
  8
HIDDEN
100
AcDbLine
 10
40.29165685188482
 20
79.07682902171763
 30
0.0
 11
26.81570551794925
 21
52.62878536205957
 31
0.0
1001
DBPROPERTIES
1002
{
1000
PbHidd
1002
}
  0
LINE
  5
1C1
330
1F
100
AcDbEntity
  8
HIDDEN
100
AcDbLine
 10
40.29165685188483
 20
79.07682902171764
 30
0.0
 11
40.29165685188483
 21
79.07682902171764
 31
0.0
1001
DBPROPERTIES
1002
{
1000
PbHidd
1002
}
  0
ARC
  5
1C2
330
1F
100
AcDbEntity
  8
HIDDEN
100
AcDbCircle
 10
0.0
 20
0.0000000000000162
 30
0.0
 40
88.75
100
AcDbArc
 50
62.99997543406626
 51
68.99998946467625
1001
DBPROPERTIES
1002
{
1000
PbHidd
1002
}
  0
LINE
  5
1C3
330
1F
100
AcDbEntity
  8
HIDDEN
100
AcDbLine
 10
31.80515552214543
 20
82.85526285162666
 30
0.0
 11
31.80515552214543
 21
82.85526285162666
 31
0.0
1001
DBPROPERTIES
1002
{
1000
PbHidd
1002
}
  0
LINE
  5
1C4
330
1F
100
AcDbEntity
  8
HIDDEN
100
AcDbLine
 10
-21.16760021980906
 20
55.14348385843472
 30
0.0
 11
-21.16760021980906
 21
55.14348385843472
 31
0.0
1001
DBPROPERTIES
1002
{
1000
PbHidd
1002
}
  0
LINE
  5
1C5
330
1F
100
AcDbEntity
  8
HIDDEN
100
AcDbLine
 10
-31.80515552214538
 20
82.85526285162666
 30
0.0
 11
-21.16760021980905
 21
55.14348385843472
 31
0.0
1001
DBPROPERTIES
1002
{
1000
PbHidd
1002
}
  0
LINE
  5
1C6
330
1F
100
AcDbEntity
  8
HIDDEN
100
AcDbLine
 10
-31.80515552214539
 20
82.85526285162668
 30
0.0
 11
-31.80515552214539
 21
82.85526285162668
 31
0.0
1001
DBPROPERTIES
1002
{
1000
PbHidd
1002
}
  0
ARC
  5
1C7
330
1F
100
AcDbEntity
  8
HIDDEN
100
AcDbCircle
 10
0.0
 20
0.0000000000000162
 30
0.0
 40
88.75
100
AcDbArc
 50
110.9999730873871
 51
116.9999871179971
1001
DBPROPERTIES
1002
{
1000
PbHidd
1002
}
  0
LINE
  5
1C8
330
1F
100
AcDbEntity
  8
HIDDEN
100
AcDbLine
 10
-40.29165685188477
 20
79.07682902171767
 30
0.0
 11
-40.29165685188477
 21
79.07682902171767
 31
0.0
1001
DBPROPERTIES
1002
{
1000
PbHidd
1002
}
  0
LINE
  5
1C9
330
1F
100
AcDbEntity
  8
HIDDEN
100
AcDbLine
 10
15.28757826405561
 20
57.05401880614095
 30
0.0
 11
15.28757826405561
 21
57.05401880614095
 31
0.0
1001
DBPROPERTIES
1002
{
1000
PbHidd
1002
}
  0
LINE
  5
1CA
330
1F
100
AcDbEntity
  8
HIDDEN
100
AcDbLine
 10
22.9701902528488
 20
85.7259170831548
 30
0.0
 11
15.28757826405561
 21
57.05401880614095
 31
0.0
1001
DBPROPERTIES
1002
{
1000
PbHidd
1002
}
  0
LINE
  5
1CB
330
1F
100
AcDbEntity
  8
HIDDEN
100
AcDbLine
 10
22.9701902528488
 20
85.72591708315481
 30
0.0
 11
22.9701902528488
 21
85.72591708315481
 31
0.0
1001
DBPROPERTIES
1002
{
1000
PbHidd
1002
}
  0
ARC
  5
1CC
330
1F
100
AcDbEntity
  8
HIDDEN
100
AcDbCircle
 10
0.0
 20
0.0000000000000162
 30
0.0
 40
88.75
100
AcDbArc
 50
75.00000349528622
 51
81.0000175258962
1001
DBPROPERTIES
1002
{
1000
PbHidd
1002
}
  0
LINE
  5
1CD
330
1F
100
AcDbEntity
  8
HIDDEN
100
AcDbLine
 10
13.88355877232058
 20
87.65734022781848
 30
0.0
 11
13.88355877232058
 21
87.65734022781848
 31
0.0
1001
DBPROPERTIES
1002
{
1000
PbHidd
1002
}
  0
LINE
  5
1CE
330
1F
100
AcDbEntity
  8
HIDDEN
100
AcDbLine
 10
-9.24006240170963
 20
58.33945798448613
 30
0.0
 11
-9.24006240170963
 21
58.33945798448613
 31
0.0
1001
DBPROPERTIES
1002
{
1000
PbHidd
1002
}
  0
LINE
  5
1CF
330
1F
100
AcDbEntity
  8
HIDDEN
100
AcDbLine
 10
-13.88355877232048
 20
87.65734022781847
 30
0.0
 11
-9.240062401709627
 21
58.33945798448613
 31
0.0
1001
DBPROPERTIES
1002
{
1000
PbHidd
1002
}
  0
LINE
  5
1D0
330
1F
100
AcDbEntity
  8
HIDDEN
100
AcDbLine
 10
-13.88355877232048
 20
87.6573402278185
 30
0.0
 11
-13.88355877232048
 21
87.6573402278185
 31
0.0
1001
DBPROPERTIES
1002
{
1000
PbHidd
1002
}
  0
ARC
  5
1D1
330
1F
100
AcDbEntity
  8
HIDDEN
100
AcDbCircle
 10
0.0
 20
0.0000000000000162
 30
0.0
 40
88.75
100
AcDbArc
 50
99.00000232194662
 51
105.0000163525566
1001
DBPROPERTIES
1002
{
1000
PbHidd
1002
}
  0
LINE
  5
1D2
330
1F
100
AcDbEntity
  8
HIDDEN
100
AcDbLine
 10
-22.97019025284871
 20
85.72591708315483
 30
0.0
 11
-22.97019025284871
 21
85.72591708315483
 31
0.0
1001
DBPROPERTIES
1002
{
1000
PbHidd
1002
}
  0
ARC
  5
1D3
330
1F
100
AcDbEntity
  8
HIDDEN
100
AcDbCircle
 10
0.0
 20
0.0000000000000147
 30
0.0
 40
144.8979591836735
100
AcDbArc
 50
89.99998127603165
 51
93.92508594735487
1001
DBPROPERTIES
1002
{
1000
PbHidd
1002
}
  0
ARC
  5
1D4
330
1F
100
AcDbEntity
  8
THICK
100
AcDbCircle
 10
0.0
 20
0.0000000000000147
 30
0.0
 40
144.8979591836735
100
AcDbArc
 50
93.92508594735487
 51
111.2041752455717
1001
DBPROPERTIES
1002
{
1000
PbThick
1002
}
  0
ARC
  5
1D5
330
1F
100
AcDbEntity
  8
HIDDEN
100
AcDbCircle
 10
0.0
 20
0.0000000000000147
 30
0.0
 40
144.8979591836735
100
AcDbArc
 50
111.2041752455717
 51
145.3536630467385
1001
DBPROPERTIES
1002
{
1000
PbHidd
1002
}
  0
ARC
  5
1D6
330
1F
100
AcDbEntity
  8
THICK
100
AcDbCircle
 10
0.0
 20
0.0000000000000147
 30
0.0
 40
144.8979591836735
100
AcDbArc
 50
145.3536630467385
 51
162.6327523449553
1001
DBPROPERTIES
1002
{
1000
PbThick
1002
}
  0
ARC
  5
1D7
330
1F
100
AcDbEntity
  8
HIDDEN
100
AcDbCircle
 10
0.0
 20
0.0000000000000147
 30
0.0
 40
144.8979591836735
100
AcDbArc
 50
162.6327523449553
 51
196.782257746216
1001
DBPROPERTIES
1002
{
1000
PbHidd
1002
}
  0
ARC
  5
1D8
330
1F
100
AcDbEntity
  8
THICK
100
AcDbCircle
 10
0.0
 20
0.0000000000000147
 30
0.0
 40
144.8979591836735
100
AcDbArc
 50
196.782257746216
 51
214.0613470444329
1001
DBPROPERTIES
1002
{
1000
PbThick
1002
}
  0
ARC
  5
1D9
330
1F
100
AcDbEntity
  8
HIDDEN
100
AcDbCircle
 10
0.0
 20
0.0000000000000147
 30
0.0
 40
144.8979591836735
100
AcDbArc
 50
214.0613470444329
 51
248.2108348455997
1001
DBPROPERTIES
1002
{
1000
PbHidd
1002
}
  0
ARC
  5
1DA
330
1F
100
AcDbEntity
  8
THICK
100
AcDbCircle
 10
0.0
 20
0.0000000000000147
 30
0.0
 40
144.8979591836735
100
AcDbArc
 50
248.2108348455997
 51
265.4898668480371
1001
DBPROPERTIES
1002
{
1000
PbThick
1002
}
  0
ARC
  5
1DB
330
1F
100
AcDbEntity
  8
HIDDEN
100
AcDbCircle
 10
0.0
 20
0.0000000000000147
 30
0.0
 40
144.8979591836735
100
AcDbArc
 50
265.4898668480371
 51
270.0000187239684
1001
DBPROPERTIES
1002
{
1000
PbHidd
1002
}
  0
ARC
  5
1DC
330
1F
100
AcDbEntity
  8
HIDDEN
100
AcDbCircle
 10
0.0
 20
0.0000000000000028
 30
0.0
 40
177.4558909829367
100
AcDbArc
 50
186.6457749136591
 51
263.3542239624664
1001
DBPROPERTIES
1002
{
1000
PbHidd
1002
}
  0
LINE
  5
1DD
330
1F
100
AcDbEntity
  8
HIDDEN
100
AcDbLine
 10
-21.07763670551488
 20
-181.4067729829567
 30
0.0
 11
-20.775648916088
 21
-178.5335510936244
 31
0.0
1001
DBPROPERTIES
1002
{
1000
PbHidd
1002
}
  0
LINE
  5
1DE
330
1F
100
AcDbEntity
  8
HIDDEN
100
AcDbLine
 10
-178.5335510936245
 20
-20.775648916088
 30
0.0
 11
-181.4067729829567
 21
-21.07763670551486
 31
0.0
1001
DBPROPERTIES
1002
{
1000
PbHidd
1002
}
  0
LINE
  5
1DF
330
1F
100
AcDbEntity
  8
HIDDEN
100
AcDbLine
 10
-16.79756133461491
 20
-178.951664946695
 30
0.0
 11
-17.09954912404179
 21
-181.8248868360273
 31
0.0
1001
DBPROPERTIES
1002
{
1000
PbHidd
1002
}
  0
ARC
  5
1E0
330
1F
100
AcDbEntity
  8
HIDDEN
100
AcDbCircle
 10
0.0
 20
0.0000000000000028
 30
0.0
 40
177.4558909829367
100
AcDbArc
 50
264.6457854242503
 51
275.3542520236864
1001
DBPROPERTIES
1002
{
1000
PbHidd
1002
}
  0
LINE
  5
1E1
330
1F
100
AcDbEntity
  8
HIDDEN
100
AcDbLine
 10
17.09954912404174
 20
-181.8248868360273
 30
0.0
 11
16.79756133461487
 21
-178.951664946695
 31
0.0
1001
DBPROPERTIES
1002
{
1000
PbHidd
1002
}
  0
ARC
  5
1E2
330
1F
100
AcDbEntity
  8
HIDDEN
100
AcDbCircle
 10
0.0
 20
0.0000000000000028
 30
0.0
 40
182.6271722750469
100
AcDbArc
 50
174.6274518986806
 51
180.0000198478428
1001
DBPROPERTIES
1002
{
1000
PbHidd
1002
}
  0
LINE
  5
1E3
330
1F
100
AcDbEntity
  8
HIDDEN
100
AcDbLine
 10
-178.9516649466952
 20
16.79756133461493
 30
0.0
 11
-181.8248868360274
 21
17.0995491240418
 31
0.0
1001
DBPROPERTIES
1002
{
1000
PbHidd
1002
}
  0
ARC
  5
1E4
330
1F
100
AcDbEntity
  8
HIDDEN
100
AcDbCircle
 10
0.0
 20
0.0000000000000028
 30
0.0
 40
177.4558909829367
100
AcDbArc
 50
180.0000198478428
 51
185.3542134518752
1001
DBPROPERTIES
1002
{
1000
PbHidd
1002
}
  0
LINE
  5
1E5
330
1F
100
AcDbEntity
  8
HIDDEN
100
AcDbLine
 10
-181.8248868360274
 20
-17.09954912404176
 30
0.0
 11
-178.9516649466952
 21
-16.7975613346149
 31
0.0
1001
DBPROPERTIES
1002
{
1000
PbHidd
1002
}
  0
ARC
  5
1E6
330
1F
100
AcDbEntity
  8
HIDDEN
100
AcDbCircle
 10
0.0
 20
0.0000000000000028
 30
0.0
 40
177.4558909829367
100
AcDbArc
 50
276.6457561896908
 51
353.3542625342776
1001
DBPROPERTIES
1002
{
1000
PbHidd
1002
}
  0
LINE
  5
1E7
330
1F
100
AcDbEntity
  8
HIDDEN
100
AcDbLine
 10
181.4067729829567
 20
-21.07763670551491
 30
0.0
 11
178.5335510936242
 21
-20.77564891608801
 31
0.0
1001
DBPROPERTIES
1002
{
1000
PbHidd
1002
}
  0
LINE
  5
1E8
330
1F
100
AcDbEntity
  8
HIDDEN
100
AcDbLine
 10
20.77564891608796
 20
-178.5335510936244
 30
0.0
 11
21.07763670551483
 21
-181.4067729829567
 31
0.0
1001
DBPROPERTIES
1002
{
1000
PbHidd
1002
}
  0
ARC
  5
1E9
330
1F
100
AcDbEntity
  8
HIDDEN
100
AcDbCircle
 10
0.0
 20
0.0000000000000028
 30
0.0
 40
182.6271722750469
100
AcDbArc
 50
166.3005416704853
 51
173.3725024400056
1001
DBPROPERTIES
1002
{
1000
PbHidd
1002
}
  0
ARC
  5
1EA
330
1F
100
AcDbEntity
  8
THICK
100
AcDbCircle
 10
0.0
 20
0.0000000000000028
 30
0.0
 40
182.6271722750469
100
AcDbArc
 50
141.8146173377745
 51
166.3005416704853
1001
DBPROPERTIES
1002
{
1000
PbThick
1002
}
  0
ARC
  5
1EB
330
1F
100
AcDbEntity
  8
HIDDEN
100
AcDbCircle
 10
0.0
 20
0.0000000000000028
 30
0.0
 40
182.6271722750469
100
AcDbArc
 50
114.8719645711017
 51
141.8146173377745
1001
DBPROPERTIES
1002
{
1000
PbHidd
1002
}
  0
ARC
  5
1EC
330
1F
100
AcDbEntity
  8
THICK
100
AcDbCircle
 10
0.0
 20
0.0000000000000028
 30
0.0
 40
182.6271722750469
100
AcDbArc
 50
96.62749868386891
 51
114.8719645711017
1001
DBPROPERTIES
1002
{
1000
PbThick
1002
}
  0
LINE
  5
1ED
330
1F
100
AcDbEntity
  8
HIDDEN
100
AcDbLine
 10
-20.77564891608795
 20
178.5335510936244
 30
0.0
 11
-21.07763670551482
 21
181.4067729829567
 31
0.0
1001
DBPROPERTIES
1002
{
1000
PbHidd
1002
}
  0
ARC
  5
1EE
330
1F
100
AcDbEntity
  8
HIDDEN
100
AcDbCircle
 10
0.0
 20
0.0000000000000028
 30
0.0
 40
177.4558909829367
100
AcDbArc
 50
96.64577603753358
 51
173.3542250863409
1001
DBPROPERTIES
1002
{
1000
PbHidd
1002
}
  0
LINE
  5
1EF
330
1F
100
AcDbEntity
  8
HIDDEN
100
AcDbLine
 10
-181.4067729829568
 20
21.0776367055149
 30
0.0
 11
-178.5335510936246
 21
20.77564891608803
 31
0.0
1001
DBPROPERTIES
1002
{
1000
PbHidd
1002
}
  0
LINE
  5
1F0
330
1F
100
AcDbEntity
  8
HIDDEN
100
AcDbLine
 10
178.9516649466948
 20
-16.79756133461492
 30
0.0
 11
181.8248868360273
 21
-17.09954912404181
 31
0.0
1001
DBPROPERTIES
1002
{
1000
PbHidd
1002
}
  0
ARC
  5
1F1
330
1F
100
AcDbEntity
  8
HIDDEN
100
AcDbCircle
 10
0.0
 20
0.0000000000000028
 30
0.0
 40
177.4558909829367
100
AcDbArc
 50
354.645766700282
 51
0.0
1001
DBPROPERTIES
1002
{
1000
PbHidd
1002
}
  0
LINE
  5
1F2
330
1F
100
AcDbEntity
  8
HIDDEN
100
AcDbLine
 10
181.8248868360272
 20
17.09954912404173
 30
0.0
 11
178.9516649466948
 21
16.79756133461484
 31
0.0
1001
DBPROPERTIES
1002
{
1000
PbHidd
1002
}
  0
ARC
  5
1F3
330
1F
100
AcDbEntity
  8
THICK
100
AcDbCircle
 10
0.0
 20
0.0000000000000028
 30
0.0
 40
182.6271722750469
100
AcDbArc
 50
0.0
 51
5.372510653382703
1001
DBPROPERTIES
1002
{
1000
PbThick
1002
}
  0
ARC
  5
1F4
330
1F
100
AcDbEntity
  8
THICK
100
AcDbCircle
 10
0.0
 20
0.0000000000000028
 30
0.0
 40
182.6271722750469
100
AcDbArc
 50
90.3860402383908
 51
95.37254922519386
1001
DBPROPERTIES
1002
{
1000
PbThick
1002
}
  0
ARC
  5
1F5
330
1F
100
AcDbEntity
  8
HIDDEN
100
AcDbCircle
 10
0.0
 20
0.0000000000000028
 30
0.0
 40
182.6271722750469
100
AcDbArc
 50
84.62747062264896
 51
90.3860402383908
1001
DBPROPERTIES
1002
{
1000
PbHidd
1002
}
  0
LINE
  5
1F6
330
1F
100
AcDbEntity
  8
HIDDEN
100
AcDbLine
 10
16.79756133461496
 20
178.951664946695
 30
0.0
 11
17.09954912404184
 21
181.8248868360273
 31
0.0
1001
DBPROPERTIES
1002
{
1000
PbHidd
1002
}
  0
ARC
  5
1F7
330
1F
100
AcDbEntity
  8
HIDDEN
100
AcDbCircle
 10
0.0
 20
0.0000000000000028
 30
0.0
 40
177.4558909829367
100
AcDbArc
 50
84.64574797631363
 51
95.3542145757497
1001
DBPROPERTIES
1002
{
1000
PbHidd
1002
}
  0
LINE
  5
1F8
330
1F
100
AcDbEntity
  8
HIDDEN
100
AcDbLine
 10
-17.09954912404172
 20
181.8248868360273
 30
0.0
 11
-16.79756133461484
 21
178.951664946695
 31
0.0
1001
DBPROPERTIES
1002
{
1000
PbHidd
1002
}
  0
ARC
  5
1F9
330
1F
100
AcDbEntity
  8
THICK
100
AcDbCircle
 10
0.0
 20
0.0000000000000025
 30
0.0
 40
175.0558909829367
100
AcDbArc
 50
245.2556904256535
 51
263.3454004124214
1001
DBPROPERTIES
1002
{
1000
PbThick
1002
}
  0
ARC
  5
1FA
330
1F
100
AcDbEntity
  8
HIDDEN
100
AcDbCircle
 10
0.0
 20
0.0000000000000025
 30
0.0
 40
175.0558909829367
100
AcDbArc
 50
217.1242648256433
 51
245.2556904256535
1001
DBPROPERTIES
1002
{
1000
PbHidd
1002
}
  0
ARC
  5
1FB
330
1F
100
AcDbEntity
  8
THICK
100
AcDbCircle
 10
0.0
 20
0.0000000000000025
 30
0.0
 40
175.0558909829367
100
AcDbArc
 50
193.8271133262698
 51
217.1242648256433
1001
DBPROPERTIES
1002
{
1000
PbThick
1002
}
  0
ARC
  5
1FC
330
1F
100
AcDbEntity
  8
HIDDEN
100
AcDbCircle
 10
0.0
 20
0.0000000000000025
 30
0.0
 40
175.0558909829367
100
AcDbArc
 50
186.6545984637041
 51
193.8271133262698
1001
DBPROPERTIES
1002
{
1000
PbHidd
1002
}
  0
ARC
  5
1FD
330
1F
100
AcDbEntity
  8
HIDDEN
100
AcDbCircle
 10
0.0
 20
0.0000000000000025
 30
0.0
 40
175.0558909829367
100
AcDbArc
 50
268.5528419250269
 51
275.3453711778619
1001
DBPROPERTIES
1002
{
1000
PbHidd
1002
}
  0
ARC
  5
1FE
330
1F
100
AcDbEntity
  8
THICK
100
AcDbCircle
 10
0.0
 20
0.0000000000000025
 30
0.0
 40
175.0558909829367
100
AcDbArc
 50
264.6546089742953
 51
268.5528419250269
1001
DBPROPERTIES
1002
{
1000
PbThick
1002
}
  0
ARC
  5
1FF
330
1F
100
AcDbEntity
  8
HIDDEN
100
AcDbCircle
 10
0.0
 20
0.0000000000000025
 30
0.0
 40
175.0558909829367
100
AcDbArc
 50
180.0000198478428
 51
185.3453899018302
1001
DBPROPERTIES
1002
{
1000
PbHidd
1002
}
  0
ARC
  5
200
330
1F
100
AcDbEntity
  8
THICK
100
AcDbCircle
 10
0.0
 20
0.0000000000000025
 30
0.0
 40
175.0558909829367
100
AcDbArc
 50
348.1128446244208
 51
353.3453816884531
1001
DBPROPERTIES
1002
{
1000
PbThick
1002
}
  0
ARC
  5
201
330
1F
100
AcDbEntity
  8
HIDDEN
100
AcDbCircle
 10
0.0
 20
0.0000000000000025
 30
0.0
 40
175.0558909829367
100
AcDbArc
 50
319.9814190244106
 51
348.1128446244208
1001
DBPROPERTIES
1002
{
1000
PbHidd
1002
}
  0
ARC
  5
202
330
1F
100
AcDbEntity
  8
THICK
100
AcDbCircle
 10
0.0
 20
0.0000000000000025
 30
0.0
 40
175.0558909829367
100
AcDbArc
 50
296.6842675250371
 51
319.9814190244106
1001
DBPROPERTIES
1002
{
1000
PbThick
1002
}
  0
ARC
  5
203
330
1F
100
AcDbEntity
  8
HIDDEN
100
AcDbCircle
 10
0.0
 20
0.0000000000000025
 30
0.0
 40
175.0558909829367
100
AcDbArc
 50
276.6546370355153
 51
296.6842675250371
1001
DBPROPERTIES
1002
{
1000
PbHidd
1002
}
  0
ARC
  5
204
330
1F
100
AcDbEntity
  8
HIDDEN
100
AcDbCircle
 10
0.0
 20
0.0000000000000025
 30
0.0
 40
175.0558909829367
100
AcDbArc
 50
165.6957274219452
 51
173.3454015362959
1001
DBPROPERTIES
1002
{
1000
PbHidd
1002
}
  0
ARC
  5
205
330
1F
100
AcDbEntity
  8
THICK
100
AcDbCircle
 10
0.0
 20
0.0000000000000025
 30
0.0
 40
175.0558909829367
100
AcDbArc
 50
142.3985759225718
 51
165.6957274219452
1001
DBPROPERTIES
1002
{
1000
PbThick
1002
}
  0
ARC
  5
206
330
1F
100
AcDbEntity
  8
HIDDEN
100
AcDbCircle
 10
0.0
 20
0.0000000000000025
 30
0.0
 40
175.0558909829367
100
AcDbArc
 50
114.2671503225616
 51
142.3985759225718
1001
DBPROPERTIES
1002
{
1000
PbHidd
1002
}
  0
ARC
  5
207
330
1F
100
AcDbEntity
  8
THICK
100
AcDbCircle
 10
0.0
 20
0.0000000000000025
 30
0.0
 40
175.0558909829367
100
AcDbArc
 50
96.65459958757862
 51
114.2671503225616
1001
DBPROPERTIES
1002
{
1000
PbThick
1002
}
  0
ARC
  5
208
330
1F
100
AcDbEntity
  8
THICK
100
AcDbCircle
 10
0.0
 20
0.0000000000000025
 30
0.0
 40
175.0558909829367
100
AcDbArc
 50
354.654590250327
 51
0.0
1001
DBPROPERTIES
1002
{
1000
PbThick
1002
}
  0
ARC
  5
209
330
1F
100
AcDbEntity
  8
THICK
100
AcDbCircle
 10
0.0
 20
0.0000000000000025
 30
0.0
 40
175.0558909829367
100
AcDbArc
 50
90.96999882318815
 51
95.34539102570469
1001
DBPROPERTIES
1002
{
1000
PbThick
1002
}
  0
ARC
  5
20A
330
1F
100
AcDbEntity
  8
HIDDEN
100
AcDbCircle
 10
0.0
 20
0.0000000000000025
 30
0.0
 40
175.0558909829367
100
AcDbArc
 50
84.65462882213815
 51
90.96999882318815
1001
DBPROPERTIES
1002
{
1000
PbHidd
1002
}
  0
ARC
  5
20B
330
1F
100
AcDbEntity
  8
HIDDEN
100
AcDbCircle
 10
0.0
 20
0.0000000000000025
 30
0.0
 40
175.0558909829367
100
AcDbArc
 50
62.83857322317791
 51
83.3453629644847
1001
DBPROPERTIES
1002
{
1000
PbHidd
1002
}
  0
ARC
  5
20C
330
1F
100
AcDbEntity
  8
THICK
100
AcDbCircle
 10
0.0
 20
0.0000000000000025
 30
0.0
 40
175.0558909829367
100
AcDbArc
 50
39.54142172380448
 51
62.83857322317791
1001
DBPROPERTIES
1002
{
1000
PbThick
1002
}
  0
ARC
  5
20D
330
1F
100
AcDbEntity
  8
HIDDEN
100
AcDbCircle
 10
0.0
 20
0.0000000000000025
 30
0.0
 40
175.0558909829367
100
AcDbArc
 50
11.40999612379424
 51
39.54142172380448
1001
DBPROPERTIES
1002
{
1000
PbHidd
1002
}
  0
ARC
  5
20E
330
1F
100
AcDbEntity
  8
THICK
100
AcDbCircle
 10
0.0
 20
0.0000000000000025
 30
0.0
 40
175.0558909829367
100
AcDbArc
 50
6.654618311546947
 51
11.40999612379424
1001
DBPROPERTIES
1002
{
1000
PbThick
1002
}
  0
ARC
  5
20F
330
1F
100
AcDbEntity
  8
HIDDEN
100
AcDbCircle
 10
0.0
 20
0.0000000000000028
 30
0.0
 40
177.4558909829367
100
AcDbArc
 50
6.645737465722418
 51
83.35424381030924
1001
DBPROPERTIES
1002
{
1000
PbHidd
1002
}
  0
ARC
  5
210
330
1F
100
AcDbEntity
  8
HIDDEN
100
AcDbCircle
 10
0.0
 20
0.0000000000000025
 30
0.0
 40
180.2271722750469
100
AcDbArc
 50
166.1145022744064
 51
180.0000198478428
1001
DBPROPERTIES
1002
{
1000
PbHidd
1002
}
  0
ARC
  5
211
330
1F
100
AcDbEntity
  8
THICK
100
AcDbCircle
 10
0.0
 20
0.0000000000000025
 30
0.0
 40
180.2271722750469
100
AcDbArc
 50
141.994239606548
 51
166.1145022744064
1001
DBPROPERTIES
1002
{
1000
PbThick
1002
}
  0
ARC
  5
212
330
1F
100
AcDbEntity
  8
HIDDEN
100
AcDbCircle
 10
0.0
 20
0.0000000000000025
 30
0.0
 40
180.2271722750469
100
AcDbArc
 50
114.6859251750227
 51
141.994239606548
1001
DBPROPERTIES
1002
{
1000
PbHidd
1002
}
  0
ARC
  5
213
330
1F
100
AcDbEntity
  8
THICK
100
AcDbCircle
 10
0.0
 20
0.0000000000000025
 30
0.0
 40
180.2271722750469
100
AcDbArc
 50
90.56571980294383
 51
114.6859251750227
1001
DBPROPERTIES
1002
{
1000
PbThick
1002
}
  0
ARC
  5
214
330
1F
100
AcDbEntity
  8
HIDDEN
100
AcDbCircle
 10
0.0
 20
0.0000000000000025
 30
0.0
 40
180.2271722750469
100
AcDbArc
 50
63.25734807563903
 51
90.56571980294383
1001
DBPROPERTIES
1002
{
1000
PbHidd
1002
}
  0
ARC
  5
215
330
1F
100
AcDbEntity
  8
THICK
100
AcDbCircle
 10
0.0
 20
0.0000000000000025
 30
0.0
 40
180.2271722750469
100
AcDbArc
 50
39.13714270356017
 51
63.25734807563903
1001
DBPROPERTIES
1002
{
1000
PbThick
1002
}
  0
ARC
  5
216
330
1F
100
AcDbEntity
  8
HIDDEN
100
AcDbCircle
 10
0.0
 20
0.0000000000000025
 30
0.0
 40
180.2271722750469
100
AcDbArc
 50
11.82877097625536
 51
39.13714270356017
1001
DBPROPERTIES
1002
{
1000
PbHidd
1002
}
  0
ARC
  5
217
330
1F
100
AcDbEntity
  8
THICK
100
AcDbCircle
 10
0.0
 20
0.0000000000000025
 30
0.0
 40
180.2271722750469
100
AcDbArc
 50
0.0
 51
11.82877097625536
1001
DBPROPERTIES
1002
{
1000
PbThick
1002
}
  0
LINE
  5
218
330
1F
100
AcDbEntity
  8
HIDDEN
100
AcDbLine
 10
20.77564891608806
 20
178.5335510936244
 30
0.0
 11
16.79756133461494
 21
178.951664946695
 31
0.0
1001
DBPROPERTIES
1002
{
1000
PbHidd
1002
}
  0
LINE
  5
219
330
1F
100
AcDbEntity
  8
THICK
100
AcDbLine
 10
178.9516649466949
 20
16.79756133461486
 30
0.0
 11
178.5335510936243
 21
20.77564891608796
 31
0.0
1001
DBPROPERTIES
1002
{
1000
PbThick
1002
}
  0
LINE
  5
21A
330
1F
100
AcDbEntity
  8
THICK
100
AcDbLine
 10
178.5335510936243
 20
-20.77564891608802
 30
0.0
 11
178.9516649466949
 21
-16.79756133461493
 31
0.0
1001
DBPROPERTIES
1002
{
1000
PbThick
1002
}
  0
LINE
  5
21B
330
1F
100
AcDbEntity
  8
HIDDEN
100
AcDbLine
 10
16.79756133461488
 20
-178.951664946695
 30
0.0
 11
20.77564891608797
 21
-178.5335510936244
 31
0.0
1001
DBPROPERTIES
1002
{
1000
PbHidd
1002
}
  0
LINE
  5
21C
330
1F
100
AcDbEntity
  8
THICK
100
AcDbLine
 10
-20.775648916088
 20
-178.5335510936245
 30
0.0
 11
-16.79756133461491
 21
-178.9516649466951
 31
0.0
1001
DBPROPERTIES
1002
{
1000
PbThick
1002
}
  0
LINE
  5
21D
330
1F
100
AcDbEntity
  8
HIDDEN
100
AcDbLine
 10
-178.9516649466952
 20
-16.7975613346149
 30
0.0
 11
-178.5335510936246
 21
-20.775648916088
 31
0.0
1001
DBPROPERTIES
1002
{
1000
PbHidd
1002
}
  0
LINE
  5
21E
330
1F
100
AcDbEntity
  8
HIDDEN
100
AcDbLine
 10
-178.5335510936246
 20
20.77564891608802
 30
0.0
 11
-178.9516649466952
 21
16.79756133461493
 31
0.0
1001
DBPROPERTIES
1002
{
1000
PbHidd
1002
}
  0
LINE
  5
21F
330
1F
100
AcDbEntity
  8
THICK
100
AcDbLine
 10
-16.79756133461484
 20
178.951664946695
 30
0.0
 11
-20.77564891608795
 21
178.5335510936245
 31
0.0
1001
DBPROPERTIES
1002
{
1000
PbThick
1002
}
  0
ARC
  5
220
330
1F
100
AcDbEntity
  8
THICK
100
AcDbCircle
 10
0.0
 20
0.0000000000000028
 30
0.0
 40
182.6271722750469
100
AcDbArc
 50
5.372510653382703
 51
6.627460112057745
1001
DBPROPERTIES
1002
{
1000
PbThick
1002
}
  0
ARC
  5
221
330
1F
100
AcDbEntity
  8
HIDDEN
100
AcDbCircle
 10
0.0
 20
0.0000000000000028
 30
0.0
 40
182.6271722750469
100
AcDbArc
 50
63.44338747171801
 51
83.37252116397391
1001
DBPROPERTIES
1002
{
1000
PbHidd
1002
}
  0
ARC
  5
222
330
1F
100
AcDbEntity
  8
THICK
100
AcDbCircle
 10
0.0
 20
0.0000000000000028
 30
0.0
 40
182.6271722750469
100
AcDbArc
 50
38.95752043478666
 51
63.44338747171801
1001
DBPROPERTIES
1002
{
1000
PbThick
1002
}
  0
ARC
  5
223
330
1F
100
AcDbEntity
  8
HIDDEN
100
AcDbCircle
 10
0.0
 20
0.0000000000000028
 30
0.0
 40
182.6271722750469
100
AcDbArc
 50
12.01486766811385
 51
38.95752043478666
1001
DBPROPERTIES
1002
{
1000
PbHidd
1002
}
  0
ARC
  5
224
330
1F
100
AcDbEntity
  8
THICK
100
AcDbCircle
 10
0.0
 20
0.0000000000000028
 30
0.0
 40
182.6271722750469
100
AcDbArc
 50
6.627460112057745
 51
12.01486766811385
1001
DBPROPERTIES
1002
{
1000
PbThick
1002
}
  0
ARC
  5
225
330
1F
100
AcDbEntity
  8
HIDDEN
100
AcDbCircle
 10
0.0
 20
0.0000000000000028
 30
0.0
 40
182.627172275047
100
AcDbArc
 50
83.37252116397391
 51
84.62747062264896
1001
DBPROPERTIES
1002
{
1000
PbHidd
1002
}
  0
ARC
  5
226
330
1F
100
AcDbEntity
  8
THICK
100
AcDbCircle
 10
0.0
 20
0.0000000000000028
 30
0.0
 40
182.627172275047
100
AcDbArc
 50
95.37254922519386
 51
96.62749868386891
1001
DBPROPERTIES
1002
{
1000
PbThick
1002
}
  0
ARC
  5
227
330
1F
100
AcDbEntity
  8
HIDDEN
100
AcDbCircle
 10
0.0
 20
0.0000000000000028
 30
0.0
 40
182.6271722750469
100
AcDbArc
 50
173.3725024400056
 51
174.6274518986806
1001
DBPROPERTIES
1002
{
1000
PbHidd
1002
}
  0
LINE
  5
228
330
1F
100
AcDbEntity
  8
HIDDEN
100
AcDbLine
 10
21.07763670551492
 20
181.4067729829567
 30
0.0
 11
20.77564891608804
 21
178.5335510936244
 31
0.0
1001
DBPROPERTIES
1002
{
1000
PbHidd
1002
}
  0
LINE
  5
229
330
1F
100
AcDbEntity
  8
HIDDEN
100
AcDbLine
 10
178.5335510936242
 20
20.77564891608794
 30
0.0
 11
181.4067729829567
 21
21.07763670551483
 31
0.0
1001
DBPROPERTIES
1002
{
1000
PbHidd
1002
}
  0
LINE
  5
22A
330
1F
100
AcDbEntity
  8
HIDDEN
100
AcDbLine
 10
18.27457836783699
 20
154.7374543718417
 30
0.0
 11
20.77564891608804
 21
178.5335510936244
 31
0.0
1001
DBPROPERTIES
1002
{
1000
PbHidd
1002
}
  0
LINE
  5
22B
330
1F
100
AcDbEntity
  8
HIDDEN
100
AcDbLine
 10
16.79756133461494
 20
178.951664946695
 30
0.0
 11
14.2964907863639
 21
155.1555682249123
 31
0.0
1001
DBPROPERTIES
1002
{
1000
PbHidd
1002
}
  0
LINE
  5
22C
330
1F
100
AcDbEntity
  8
HIDDEN
100
AcDbLine
 10
14.29649078636389
 20
155.1555682249123
 30
0.0
 11
18.27457836783698
 21
154.7374543718417
 31
0.0
1001
DBPROPERTIES
1002
{
1000
PbHidd
1002
}
  0
LINE
  5
22D
330
1F
100
AcDbEntity
  8
THICK
100
AcDbLine
 10
34.56455981396195
 20
347.9933637368205
 30
0.0
 11
30.88900945191882
 21
313.0228380224925
 31
0.0
1001
DBPROPERTIES
1002
{
1000
PbThick
1002
}
  0
LINE
  5
22E
330
1F
100
AcDbEntity
  8
HIDDEN
100
AcDbLine
 10
30.88900945191882
 20
313.0228380224925
 30
0.0
 11
17.09954912404183
 21
181.8248868360274
 31
0.0
1001
DBPROPERTIES
1002
{
1000
PbHidd
1002
}
  0
LINE
  5
22F
330
1F
100
AcDbEntity
  8
HIDDEN
100
AcDbLine
 10
34.56455981396195
 20
347.9933637368205
 30
0.0
 11
34.56455981396195
 21
347.9933637368205
 31
0.0
1001
DBPROPERTIES
1002
{
1000
PbHidd
1002
}
  0
LINE
  5
230
330
1F
100
AcDbEntity
  8
THICK
100
AcDbLine
 10
35.06629643764668
 20
352.7670688345882
 30
0.0
 11
34.56455981396195
 21
347.9933637368205
 31
0.0
1001
DBPROPERTIES
1002
{
1000
PbThick
1002
}
  0
LINE
  5
231
330
1F
100
AcDbEntity
  8
HIDDEN
100
AcDbLine
 10
35.06629643764668
 20
352.7670688345882
 30
0.0
 11
35.06629643764668
 21
352.7670688345882
 31
0.0
1001
DBPROPERTIES
1002
{
1000
PbHidd
1002
}
  0
LINE
  5
232
330
1F
100
AcDbEntity
  8
HIDDEN
100
AcDbLine
 10
14.29649078636389
 20
155.1555682249123
 30
0.0
 11
13.15547435738688
 21
144.2995220713694
 31
0.0
1001
DBPROPERTIES
1002
{
1000
PbHidd
1002
}
  0
LINE
  5
233
330
1F
100
AcDbEntity
  8
THICK
100
AcDbLine
 10
-14.29649078636383
 20
155.1555682249123
 30
0.0
 11
-16.79756133461486
 21
178.951664946695
 31
0.0
1001
DBPROPERTIES
1002
{
1000
PbThick
1002
}
  0
LINE
  5
234
330
1F
100
AcDbEntity
  8
THICK
100
AcDbLine
 10
-20.77564891608796
 20
178.5335510936244
 30
0.0
 11
-18.27457836783692
 21
154.7374543718417
 31
0.0
1001
DBPROPERTIES
1002
{
1000
PbThick
1002
}
  0
LINE
  5
235
330
1F
100
AcDbEntity
  8
THICK
100
AcDbLine
 10
-18.27457836783691
 20
154.7374543718417
 30
0.0
 11
-14.29649078636382
 21
155.1555682249123
 31
0.0
1001
DBPROPERTIES
1002
{
1000
PbThick
1002
}
  0
LINE
  5
236
330
1F
100
AcDbEntity
  8
THICK
100
AcDbLine
 10
-38.54264739543487
 20
347.5752498837498
 30
0.0
 11
-21.07763670551482
 21
181.4067729829567
 31
0.0
1001
DBPROPERTIES
1002
{
1000
PbThick
1002
}
  0
LINE
  5
237
330
1F
100
AcDbEntity
  8
HIDDEN
100
AcDbLine
 10
-38.54264739543487
 20
347.5752498837498
 30
0.0
 11
-38.54264739543487
 21
347.5752498837498
 31
0.0
1001
DBPROPERTIES
1002
{
1000
PbHidd
1002
}
  0
LINE
  5
238
330
1F
100
AcDbEntity
  8
THICK
100
AcDbLine
 10
-39.0443840191196
 20
352.3489549815176
 30
0.0
 11
-38.54264739543487
 21
347.5752498837498
 31
0.0
1001
DBPROPERTIES
1002
{
1000
PbThick
1002
}
  0
LINE
  5
239
330
1F
100
AcDbEntity
  8
HIDDEN
100
AcDbLine
 10
-39.0443840191196
 20
352.3489549815176
 30
0.0
 11
-39.0443840191196
 21
352.3489549815176
 31
0.0
1001
DBPROPERTIES
1002
{
1000
PbHidd
1002
}
  0
LINE
  5
23A
330
1F
100
AcDbEntity
  8
HIDDEN
100
AcDbLine
 10
-17.13356193885991
 20
143.8814082182988
 30
0.0
 11
-17.13356193885991
 21
143.8814082182988
 31
0.0
1001
DBPROPERTIES
1002
{
1000
PbHidd
1002
}
  0
LINE
  5
23B
330
1F
100
AcDbEntity
  8
THICK
100
AcDbLine
 10
-18.27457836783691
 20
154.7374543718417
 30
0.0
 11
-17.13356193885991
 21
143.8814082182988
 31
0.0
1001
DBPROPERTIES
1002
{
1000
PbThick
1002
}
  0
LINE
  5
23C
330
1F
100
AcDbEntity
  8
THICK
100
AcDbLine
 10
154.7374543718417
 20
-18.27457836783698
 30
0.0
 11
178.5335510936243
 21
-20.77564891608801
 31
0.0
1001
DBPROPERTIES
1002
{
1000
PbThick
1002
}
  0
LINE
  5
23D
330
1F
100
AcDbEntity
  8
THICK
100
AcDbLine
 10
178.9516649466949
 20
-16.79756133461492
 30
0.0
 11
155.1555682249123
 21
-14.29649078636389
 31
0.0
1001
DBPROPERTIES
1002
{
1000
PbThick
1002
}
  0
LINE
  5
23E
330
1F
100
AcDbEntity
  8
THICK
100
AcDbLine
 10
155.1555682249123
 20
-14.29649078636388
 30
0.0
 11
154.7374543718417
 21
-18.27457836783697
 31
0.0
1001
DBPROPERTIES
1002
{
1000
PbThick
1002
}
  0
LINE
  5
23F
330
1F
100
AcDbEntity
  8
THICK
100
AcDbLine
 10
347.9933637368205
 20
-34.56455981396193
 30
0.0
 11
181.8248868360273
 21
-17.09954912404181
 31
0.0
1001
DBPROPERTIES
1002
{
1000
PbThick
1002
}
  0
LINE
  5
240
330
1F
100
AcDbEntity
  8
HIDDEN
100
AcDbLine
 10
347.9933637368205
 20
-34.56455981396193
 30
0.0
 11
347.9933637368205
 21
-34.56455981396193
 31
0.0
1001
DBPROPERTIES
1002
{
1000
PbHidd
1002
}
  0
LINE
  5
241
330
1F
100
AcDbEntity
  8
THICK
100
AcDbLine
 10
352.7670688345882
 20
-35.06629643764666
 30
0.0
 11
347.9933637368205
 21
-34.56455981396193
 31
0.0
1001
DBPROPERTIES
1002
{
1000
PbThick
1002
}
  0
LINE
  5
242
330
1F
100
AcDbEntity
  8
HIDDEN
100
AcDbLine
 10
352.7670688345882
 20
-35.06629643764666
 30
0.0
 11
352.7670688345882
 21
-35.06629643764666
 31
0.0
1001
DBPROPERTIES
1002
{
1000
PbHidd
1002
}
  0
LINE
  5
243
330
1F
100
AcDbEntity
  8
THICK
100
AcDbLine
 10
155.1555682249123
 20
-14.29649078636388
 30
0.0
 11
144.2995220713694
 21
-13.15547435738687
 31
0.0
1001
DBPROPERTIES
1002
{
1000
PbThick
1002
}
  0
LINE
  5
244
330
1F
100
AcDbEntity
  8
THICK
100
AcDbLine
 10
155.1555682249123
 20
14.29649078636384
 30
0.0
 11
178.9516649466949
 21
16.79756133461486
 31
0.0
1001
DBPROPERTIES
1002
{
1000
PbThick
1002
}
  0
LINE
  5
245
330
1F
100
AcDbEntity
  8
THICK
100
AcDbLine
 10
178.5335510936243
 20
20.77564891608795
 30
0.0
 11
154.7374543718417
 21
18.27457836783693
 31
0.0
1001
DBPROPERTIES
1002
{
1000
PbThick
1002
}
  0
LINE
  5
246
330
1F
100
AcDbEntity
  8
THICK
100
AcDbLine
 10
154.7374543718417
 20
18.27457836783692
 30
0.0
 11
155.1555682249123
 21
14.29649078636383
 31
0.0
1001
DBPROPERTIES
1002
{
1000
PbThick
1002
}
  0
LINE
  5
247
330
1F
100
AcDbEntity
  8
THICK
100
AcDbLine
 10
347.5752498837498
 20
38.54264739543489
 30
0.0
 11
181.4067729829567
 21
21.07763670551483
 31
0.0
1001
DBPROPERTIES
1002
{
1000
PbThick
1002
}
  0
LINE
  5
248
330
1F
100
AcDbEntity
  8
HIDDEN
100
AcDbLine
 10
347.5752498837498
 20
38.54264739543489
 30
0.0
 11
347.5752498837498
 21
38.54264739543489
 31
0.0
1001
DBPROPERTIES
1002
{
1000
PbHidd
1002
}
  0
LINE
  5
249
330
1F
100
AcDbEntity
  8
THICK
100
AcDbLine
 10
352.3489549815176
 20
39.04438401911963
 30
0.0
 11
347.5752498837498
 21
38.54264739543489
 31
0.0
1001
DBPROPERTIES
1002
{
1000
PbThick
1002
}
  0
LINE
  5
24A
330
1F
100
AcDbEntity
  8
HIDDEN
100
AcDbLine
 10
352.3489549815176
 20
39.04438401911963
 30
0.0
 11
352.3489549815176
 21
39.04438401911963
 31
0.0
1001
DBPROPERTIES
1002
{
1000
PbHidd
1002
}
  0
LINE
  5
24B
330
1F
100
AcDbEntity
  8
THICK
100
AcDbLine
 10
154.7374543718417
 20
18.27457836783692
 30
0.0
 11
143.8814082182988
 21
17.13356193885991
 31
0.0
1001
DBPROPERTIES
1002
{
1000
PbThick
1002
}
  0
LINE
  5
24C
330
1F
100
AcDbEntity
  8
THICK
100
AcDbLine
 10
-18.27457836783697
 20
-154.7374543718417
 30
0.0
 11
-20.77564891608802
 21
-178.5335510936245
 31
0.0
1001
DBPROPERTIES
1002
{
1000
PbThick
1002
}
  0
LINE
  5
24D
330
1F
100
AcDbEntity
  8
THICK
100
AcDbLine
 10
-16.79756133461493
 20
-178.951664946695
 30
0.0
 11
-14.29649078636388
 21
-155.1555682249123
 31
0.0
1001
DBPROPERTIES
1002
{
1000
PbThick
1002
}
  0
LINE
  5
24E
330
1F
100
AcDbEntity
  8
THICK
100
AcDbLine
 10
-14.29649078636388
 20
-155.1555682249123
 30
0.0
 11
-18.27457836783697
 21
-154.7374543718417
 31
0.0
1001
DBPROPERTIES
1002
{
1000
PbThick
1002
}
  0
LINE
  5
24F
330
1F
100
AcDbEntity
  8
THICK
100
AcDbLine
 10
-34.56455981396191
 20
-347.9933637368205
 30
0.0
 11
-17.0995491240418
 21
-181.8248868360273
 31
0.0
1001
DBPROPERTIES
1002
{
1000
PbThick
1002
}
  0
LINE
  5
250
330
1F
100
AcDbEntity
  8
HIDDEN
100
AcDbLine
 10
-34.56455981396191
 20
-347.9933637368205
 30
0.0
 11
-34.56455981396191
 21
-347.9933637368205
 31
0.0
1001
DBPROPERTIES
1002
{
1000
PbHidd
1002
}
  0
LINE
  5
251
330
1F
100
AcDbEntity
  8
THICK
100
AcDbLine
 10
-35.06629643764664
 20
-352.7670688345882
 30
0.0
 11
-34.56455981396191
 21
-347.9933637368205
 31
0.0
1001
DBPROPERTIES
1002
{
1000
PbThick
1002
}
  0
LINE
  5
252
330
1F
100
AcDbEntity
  8
HIDDEN
100
AcDbLine
 10
-35.06629643764664
 20
-352.7670688345882
 30
0.0
 11
-35.06629643764664
 21
-352.7670688345882
 31
0.0
1001
DBPROPERTIES
1002
{
1000
PbHidd
1002
}
  0
LINE
  5
253
330
1F
100
AcDbEntity
  8
HIDDEN
100
AcDbLine
 10
-13.15547435738686
 20
-144.2995220713694
 30
0.0
 11
-13.15547435738686
 21
-144.2995220713694
 31
0.0
1001
DBPROPERTIES
1002
{
1000
PbHidd
1002
}
  0
LINE
  5
254
330
1F
100
AcDbEntity
  8
THICK
100
AcDbLine
 10
-14.29649078636388
 20
-155.1555682249123
 30
0.0
 11
-13.15547435738686
 21
-144.2995220713694
 31
0.0
1001
DBPROPERTIES
1002
{
1000
PbThick
1002
}
  0
LINE
  5
255
330
1F
100
AcDbEntity
  8
HIDDEN
100
AcDbLine
 10
14.29649078636385
 20
-155.1555682249123
 30
0.0
 11
16.79756133461488
 21
-178.951664946695
 31
0.0
1001
DBPROPERTIES
1002
{
1000
PbHidd
1002
}
  0
LINE
  5
256
330
1F
100
AcDbEntity
  8
HIDDEN
100
AcDbLine
 10
20.77564891608797
 20
-178.5335510936244
 30
0.0
 11
18.27457836783694
 21
-154.7374543718417
 31
0.0
1001
DBPROPERTIES
1002
{
1000
PbHidd
1002
}
  0
LINE
  5
257
330
1F
100
AcDbEntity
  8
HIDDEN
100
AcDbLine
 10
18.27457836783693
 20
-154.7374543718417
 30
0.0
 11
14.29649078636384
 21
-155.1555682249123
 31
0.0
1001
DBPROPERTIES
1002
{
1000
PbHidd
1002
}
  0
LINE
  5
258
330
1F
100
AcDbEntity
  8
THICK
100
AcDbLine
 10
38.54264739543491
 20
-347.5752498837498
 30
0.0
 11
35.08839886991807
 21
-314.7102704965215
 31
0.0
1001
DBPROPERTIES
1002
{
1000
PbThick
1002
}
  0
LINE
  5
259
330
1F
100
AcDbEntity
  8
HIDDEN
100
AcDbLine
 10
35.08839886991807
 20
-314.7102704965215
 30
0.0
 11
21.07763670551486
 21
-181.4067729829568
 31
0.0
1001
DBPROPERTIES
1002
{
1000
PbHidd
1002
}
  0
LINE
  5
25A
330
1F
100
AcDbEntity
  8
HIDDEN
100
AcDbLine
 10
38.54264739543491
 20
-347.5752498837498
 30
0.0
 11
38.54264739543491
 21
-347.5752498837498
 31
0.0
1001
DBPROPERTIES
1002
{
1000
PbHidd
1002
}
  0
LINE
  5
25B
330
1F
100
AcDbEntity
  8
THICK
100
AcDbLine
 10
39.04438401911965
 20
-352.3489549815176
 30
0.0
 11
38.54264739543491
 21
-347.5752498837498
 31
0.0
1001
DBPROPERTIES
1002
{
1000
PbThick
1002
}
  0
LINE
  5
25C
330
1F
100
AcDbEntity
  8
HIDDEN
100
AcDbLine
 10
39.04438401911965
 20
-352.3489549815176
 30
0.0
 11
39.04438401911965
 21
-352.3489549815176
 31
0.0
1001
DBPROPERTIES
1002
{
1000
PbHidd
1002
}
  0
LINE
  5
25D
330
1F
100
AcDbEntity
  8
HIDDEN
100
AcDbLine
 10
18.27457836783693
 20
-154.7374543718417
 30
0.0
 11
17.13356193885992
 21
-143.8814082182988
 31
0.0
1001
DBPROPERTIES
1002
{
1000
PbHidd
1002
}
  0
LINE
  5
25E
330
1F
100
AcDbEntity
  8
HIDDEN
100
AcDbLine
 10
-154.7374543718417
 20
18.27457836783696
 30
0.0
 11
-178.5335510936246
 21
20.77564891608802
 31
0.0
1001
DBPROPERTIES
1002
{
1000
PbHidd
1002
}
  0
LINE
  5
25F
330
1F
100
AcDbEntity
  8
HIDDEN
100
AcDbLine
 10
-178.9516649466952
 20
16.79756133461493
 30
0.0
 11
-155.1555682249123
 21
14.29649078636387
 31
0.0
1001
DBPROPERTIES
1002
{
1000
PbHidd
1002
}
  0
LINE
  5
260
330
1F
100
AcDbEntity
  8
HIDDEN
100
AcDbLine
 10
-155.1555682249123
 20
14.29649078636387
 30
0.0
 11
-154.7374543718417
 21
18.27457836783696
 31
0.0
1001
DBPROPERTIES
1002
{
1000
PbHidd
1002
}
  0
LINE
  5
261
330
1F
100
AcDbEntity
  8
THICK
100
AcDbLine
 10
-347.9933637368205
 20
34.56455981396189
 30
0.0
 11
-316.5876905642699
 21
31.26369055215718
 31
0.0
1001
DBPROPERTIES
1002
{
1000
PbThick
1002
}
  0
LINE
  5
262
330
1F
100
AcDbEntity
  8
HIDDEN
100
AcDbLine
 10
-316.5876905642699
 20
31.26369055215718
 30
0.0
 11
-181.8248868360275
 21
17.09954912404181
 31
0.0
1001
DBPROPERTIES
1002
{
1000
PbHidd
1002
}
  0
LINE
  5
263
330
1F
100
AcDbEntity
  8
HIDDEN
100
AcDbLine
 10
-347.9933637368205
 20
34.56455981396189
 30
0.0
 11
-347.9933637368205
 21
34.56455981396189
 31
0.0
1001
DBPROPERTIES
1002
{
1000
PbHidd
1002
}
  0
LINE
  5
264
330
1F
100
AcDbEntity
  8
THICK
100
AcDbLine
 10
-352.7670688345882
 20
35.06629643764662
 30
0.0
 11
-347.9933637368205
 21
34.56455981396189
 31
0.0
1001
DBPROPERTIES
1002
{
1000
PbThick
1002
}
  0
LINE
  5
265
330
1F
100
AcDbEntity
  8
HIDDEN
100
AcDbLine
 10
-352.7670688345882
 20
35.06629643764662
 30
0.0
 11
-352.7670688345882
 21
35.06629643764662
 31
0.0
1001
DBPROPERTIES
1002
{
1000
PbHidd
1002
}
  0
LINE
  5
266
330
1F
100
AcDbEntity
  8
HIDDEN
100
AcDbLine
 10
-144.2995220713694
 20
13.15547435738686
 30
0.0
 11
-144.2995220713694
 21
13.15547435738686
 31
0.0
1001
DBPROPERTIES
1002
{
1000
PbHidd
1002
}
  0
LINE
  5
267
330
1F
100
AcDbEntity
  8
HIDDEN
100
AcDbLine
 10
-155.1555682249123
 20
14.29649078636387
 30
0.0
 11
-144.2995220713694
 21
13.15547435738686
 31
0.0
1001
DBPROPERTIES
1002
{
1000
PbHidd
1002
}
  0
LINE
  5
268
330
1F
100
AcDbEntity
  8
HIDDEN
100
AcDbLine
 10
-155.1555682249123
 20
-14.29649078636385
 30
0.0
 11
-178.9516649466952
 21
-16.79756133461491
 31
0.0
1001
DBPROPERTIES
1002
{
1000
PbHidd
1002
}
  0
LINE
  5
269
330
1F
100
AcDbEntity
  8
HIDDEN
100
AcDbLine
 10
-178.5335510936245
 20
-20.775648916088
 30
0.0
 11
-154.7374543718417
 21
-18.27457836783695
 31
0.0
1001
DBPROPERTIES
1002
{
1000
PbHidd
1002
}
  0
LINE
  5
26A
330
1F
100
AcDbEntity
  8
HIDDEN
100
AcDbLine
 10
-154.7374543718417
 20
-18.27457836783694
 30
0.0
 11
-155.1555682249123
 21
-14.29649078636385
 31
0.0
1001
DBPROPERTIES
1002
{
1000
PbHidd
1002
}
  0
LINE
  5
26B
330
1F
100
AcDbEntity
  8
THICK
100
AcDbLine
 10
-347.5752498837498
 20
-38.54264739543493
 30
0.0
 11
-314.3272929394407
 21
-35.04814630665718
 31
0.0
1001
DBPROPERTIES
1002
{
1000
PbThick
1002
}
  0
LINE
  5
26C
330
1F
100
AcDbEntity
  8
HIDDEN
100
AcDbLine
 10
-314.3272929394407
 20
-35.04814630665718
 30
0.0
 11
-181.4067729829569
 21
-21.07763670551488
 31
0.0
1001
DBPROPERTIES
1002
{
1000
PbHidd
1002
}
  0
LINE
  5
26D
330
1F
100
AcDbEntity
  8
HIDDEN
100
AcDbLine
 10
-347.5752498837498
 20
-38.54264739543493
 30
0.0
 11
-347.5752498837498
 21
-38.54264739543493
 31
0.0
1001
DBPROPERTIES
1002
{
1000
PbHidd
1002
}
  0
LINE
  5
26E
330
1F
100
AcDbEntity
  8
THICK
100
AcDbLine
 10
-352.3489549815176
 20
-39.04438401911967
 30
0.0
 11
-347.5752498837498
 21
-38.54264739543493
 31
0.0
1001
DBPROPERTIES
1002
{
1000
PbThick
1002
}
  0
LINE
  5
26F
330
1F
100
AcDbEntity
  8
HIDDEN
100
AcDbLine
 10
-352.3489549815176
 20
-39.04438401911967
 30
0.0
 11
-352.3489549815176
 21
-39.04438401911967
 31
0.0
1001
DBPROPERTIES
1002
{
1000
PbHidd
1002
}
  0
LINE
  5
270
330
1F
100
AcDbEntity
  8
HIDDEN
100
AcDbLine
 10
-143.8814082182988
 20
-17.13356193885994
 30
0.0
 11
-143.8814082182988
 21
-17.13356193885994
 31
0.0
1001
DBPROPERTIES
1002
{
1000
PbHidd
1002
}
  0
LINE
  5
271
330
1F
100
AcDbEntity
  8
HIDDEN
100
AcDbLine
 10
-154.7374543718417
 20
-18.27457836783694
 30
0.0
 11
-143.8814082182988
 21
-17.13356193885993
 31
0.0
1001
DBPROPERTIES
1002
{
1000
PbHidd
1002
}
  0
LINE
  5
272
330
1F
100
AcDbEntity
  8
HIDDEN
100
AcDbLine
 10
17.13356193885998
 20
143.8814082182988
 30
0.0
 11
18.27457836783699
 21
154.7374543718417
 31
0.0
1001
DBPROPERTIES
1002
{
1000
PbHidd
1002
}
  0
LINE
  5
273
330
1F
100
AcDbEntity
  8
HIDDEN
100
AcDbLine
 10
21.07763670551492
 20
181.4067729829567
 30
0.0
 11
35.02167828322001
 21
314.0754665180756
 31
0.0
1001
DBPROPERTIES
1002
{
1000
PbHidd
1002
}
  0
LINE
  5
274
330
1F
100
AcDbEntity
  8
THICK
100
AcDbLine
 10
35.02167828322001
 20
314.0754665180756
 30
0.0
 11
38.54264739543504
 21
347.5752498837498
 31
0.0
1001
DBPROPERTIES
1002
{
1000
PbThick
1002
}
  0
LINE
  5
275
330
1F
100
AcDbEntity
  8
HIDDEN
100
AcDbLine
 10
38.54264739543504
 20
347.5752498837498
 30
0.0
 11
38.54264739543504
 21
347.5752498837498
 31
0.0
1001
DBPROPERTIES
1002
{
1000
PbHidd
1002
}
  0
LINE
  5
276
330
1F
100
AcDbEntity
  8
THICK
100
AcDbLine
 10
34.56455981396195
 20
347.9933637368205
 30
0.0
 11
38.54264739543504
 21
347.5752498837498
 31
0.0
1001
DBPROPERTIES
1002
{
1000
PbThick
1002
}
  0
LINE
  5
277
330
1F
100
AcDbEntity
  8
THICK
100
AcDbLine
 10
38.54264739543504
 20
347.5752498837498
 30
0.0
 11
39.04438401911978
 21
352.3489549815176
 31
0.0
1001
DBPROPERTIES
1002
{
1000
PbThick
1002
}
  0
LINE
  5
278
330
1F
100
AcDbEntity
  8
THICK
100
AcDbLine
 10
35.06629643764668
 20
352.7670688345882
 30
0.0
 11
39.04438401911978
 21
352.3489549815176
 31
0.0
1001
DBPROPERTIES
1002
{
1000
PbThick
1002
}
  0
LINE
  5
279
330
1F
100
AcDbEntity
  8
HIDDEN
100
AcDbLine
 10
39.04438401911978
 20
352.3489549815176
 30
0.0
 11
39.04438401911978
 21
352.3489549815176
 31
0.0
1001
DBPROPERTIES
1002
{
1000
PbHidd
1002
}
  0
LINE
  5
27A
330
1F
100
AcDbEntity
  8
HIDDEN
100
AcDbLine
 10
16.65272244724162
 20
177.5736149850811
 30
0.0
 11
20.63081002871471
 21
177.1555011320105
 31
0.0
1001
DBPROPERTIES
1002
{
1000
PbHidd
1002
}
  0
LINE
  5
27B
330
1F
100
AcDbEntity
  8
HIDDEN
100
AcDbLine
 10
14.04562247452153
 20
152.7687156760284
 30
0.0
 11
18.02371005599462
 21
152.3506018229578
 31
0.0
1001
DBPROPERTIES
1002
{
1000
PbHidd
1002
}
  0
LINE
  5
27C
330
1F
100
AcDbEntity
  8
THICK
100
AcDbLine
 10
-13.15547435738682
 20
144.2995220713694
 30
0.0
 11
-14.29649078636382
 21
155.1555682249123
 31
0.0
1001
DBPROPERTIES
1002
{
1000
PbThick
1002
}
  0
LINE
  5
27D
330
1F
100
AcDbEntity
  8
THICK
100
AcDbLine
 10
-17.09954912404173
 20
181.8248868360273
 30
0.0
 11
-34.56455981396177
 21
347.9933637368205
 31
0.0
1001
DBPROPERTIES
1002
{
1000
PbThick
1002
}
  0
LINE
  5
27E
330
1F
100
AcDbEntity
  8
HIDDEN
100
AcDbLine
 10
-34.56455981396177
 20
347.9933637368205
 30
0.0
 11
-34.56455981396177
 21
347.9933637368205
 31
0.0
1001
DBPROPERTIES
1002
{
1000
PbHidd
1002
}
  0
LINE
  5
27F
330
1F
100
AcDbEntity
  8
THICK
100
AcDbLine
 10
-38.54264739543487
 20
347.5752498837498
 30
0.0
 11
-34.56455981396178
 21
347.9933637368205
 31
0.0
1001
DBPROPERTIES
1002
{
1000
PbThick
1002
}
  0
LINE
  5
280
330
1F
100
AcDbEntity
  8
THICK
100
AcDbLine
 10
-34.56455981396177
 20
347.9933637368205
 30
0.0
 11
-35.06629643764651
 21
352.7670688345882
 31
0.0
1001
DBPROPERTIES
1002
{
1000
PbThick
1002
}
  0
LINE
  5
281
330
1F
100
AcDbEntity
  8
THICK
100
AcDbLine
 10
-39.0443840191196
 20
352.3489549815176
 30
0.0
 11
-35.06629643764651
 21
352.7670688345882
 31
0.0
1001
DBPROPERTIES
1002
{
1000
PbThick
1002
}
  0
LINE
  5
282
330
1F
100
AcDbEntity
  8
HIDDEN
100
AcDbLine
 10
-35.06629643764651
 20
352.7670688345882
 30
0.0
 11
-35.06629643764651
 21
352.7670688345882
 31
0.0
1001
DBPROPERTIES
1002
{
1000
PbHidd
1002
}
  0
LINE
  5
283
330
1F
100
AcDbEntity
  8
HIDDEN
100
AcDbLine
 10
-20.63081002871462
 20
177.1555011320105
 30
0.0
 11
-16.65272244724153
 21
177.5736149850811
 31
0.0
1001
DBPROPERTIES
1002
{
1000
PbHidd
1002
}
  0
LINE
  5
284
330
1F
100
AcDbEntity
  8
HIDDEN
100
AcDbLine
 10
-18.02371005599454
 20
152.3506018229578
 30
0.0
 11
-14.04562247452145
 21
152.7687156760284
 31
0.0
1001
DBPROPERTIES
1002
{
1000
PbHidd
1002
}
  0
LINE
  5
285
330
1F
100
AcDbEntity
  8
HIDDEN
100
AcDbLine
 10
-13.15547435738682
 20
144.2995220713695
 30
0.0
 11
-13.15547435738682
 21
144.2995220713695
 31
0.0
1001
DBPROPERTIES
1002
{
1000
PbHidd
1002
}
  0
LINE
  5
286
330
1F
100
AcDbEntity
  8
THICK
100
AcDbLine
 10
143.8814082182988
 20
-17.13356193885997
 30
0.0
 11
154.7374543718417
 21
-18.27457836783698
 31
0.0
1001
DBPROPERTIES
1002
{
1000
PbThick
1002
}
  0
LINE
  5
287
330
1F
100
AcDbEntity
  8
THICK
100
AcDbLine
 10
181.4067729829567
 20
-21.07763670551491
 30
0.0
 11
347.5752498837498
 21
-38.54264739543502
 31
0.0
1001
DBPROPERTIES
1002
{
1000
PbThick
1002
}
  0
LINE
  5
288
330
1F
100
AcDbEntity
  8
HIDDEN
100
AcDbLine
 10
347.5752498837498
 20
-38.54264739543502
 30
0.0
 11
347.5752498837498
 21
-38.54264739543502
 31
0.0
1001
DBPROPERTIES
1002
{
1000
PbHidd
1002
}
  0
LINE
  5
289
330
1F
100
AcDbEntity
  8
THICK
100
AcDbLine
 10
347.9933637368205
 20
-34.56455981396193
 30
0.0
 11
347.5752498837498
 21
-38.54264739543502
 31
0.0
1001
DBPROPERTIES
1002
{
1000
PbThick
1002
}
  0
LINE
  5
28A
330
1F
100
AcDbEntity
  8
THICK
100
AcDbLine
 10
347.5752498837498
 20
-38.54264739543502
 30
0.0
 11
352.3489549815176
 21
-39.04438401911975
 31
0.0
1001
DBPROPERTIES
1002
{
1000
PbThick
1002
}
  0
LINE
  5
28B
330
1F
100
AcDbEntity
  8
THICK
100
AcDbLine
 10
352.7670688345882
 20
-35.06629643764666
 30
0.0
 11
352.3489549815176
 21
-39.04438401911975
 31
0.0
1001
DBPROPERTIES
1002
{
1000
PbThick
1002
}
  0
LINE
  5
28C
330
1F
100
AcDbEntity
  8
HIDDEN
100
AcDbLine
 10
352.3489549815176
 20
-39.04438401911975
 30
0.0
 11
352.3489549815176
 21
-39.04438401911975
 31
0.0
1001
DBPROPERTIES
1002
{
1000
PbHidd
1002
}
  0
LINE
  5
28D
330
1F
100
AcDbEntity
  8
HIDDEN
100
AcDbLine
 10
177.5736149850811
 20
-16.65272244724161
 30
0.0
 11
177.1555011320105
 21
-20.6308100287147
 31
0.0
1001
DBPROPERTIES
1002
{
1000
PbHidd
1002
}
  0
LINE
  5
28E
330
1F
100
AcDbEntity
  8
HIDDEN
100
AcDbLine
 10
152.7687156760284
 20
-14.04562247452152
 30
0.0
 11
152.3506018229578
 21
-18.02371005599461
 31
0.0
1001
DBPROPERTIES
1002
{
1000
PbHidd
1002
}
  0
LINE
  5
28F
330
1F
100
AcDbEntity
  8
THICK
100
AcDbLine
 10
144.2995220713694
 20
13.15547435738683
 30
0.0
 11
155.1555682249123
 21
14.29649078636383
 31
0.0
1001
DBPROPERTIES
1002
{
1000
PbThick
1002
}
  0
LINE
  5
290
330
1F
100
AcDbEntity
  8
THICK
100
AcDbLine
 10
181.8248868360273
 20
17.09954912404174
 30
0.0
 11
347.9933637368205
 21
34.56455981396179
 31
0.0
1001
DBPROPERTIES
1002
{
1000
PbThick
1002
}
  0
LINE
  5
291
330
1F
100
AcDbEntity
  8
HIDDEN
100
AcDbLine
 10
347.9933637368205
 20
34.56455981396179
 30
0.0
 11
347.9933637368205
 21
34.56455981396179
 31
0.0
1001
DBPROPERTIES
1002
{
1000
PbHidd
1002
}
  0
LINE
  5
292
330
1F
100
AcDbEntity
  8
THICK
100
AcDbLine
 10
347.5752498837498
 20
38.54264739543489
 30
0.0
 11
347.9933637368205
 21
34.5645598139618
 31
0.0
1001
DBPROPERTIES
1002
{
1000
PbThick
1002
}
  0
LINE
  5
293
330
1F
100
AcDbEntity
  8
THICK
100
AcDbLine
 10
347.9933637368205
 20
34.56455981396179
 30
0.0
 11
352.7670688345882
 21
35.06629643764653
 31
0.0
1001
DBPROPERTIES
1002
{
1000
PbThick
1002
}
  0
LINE
  5
294
330
1F
100
AcDbEntity
  8
THICK
100
AcDbLine
 10
352.3489549815176
 20
39.04438401911963
 30
0.0
 11
352.7670688345882
 21
35.06629643764654
 31
0.0
1001
DBPROPERTIES
1002
{
1000
PbThick
1002
}
  0
LINE
  5
295
330
1F
100
AcDbEntity
  8
HIDDEN
100
AcDbLine
 10
352.7670688345882
 20
35.06629643764653
 30
0.0
 11
352.7670688345882
 21
35.06629643764653
 31
0.0
1001
DBPROPERTIES
1002
{
1000
PbHidd
1002
}
  0
LINE
  5
296
330
1F
100
AcDbEntity
  8
HIDDEN
100
AcDbLine
 10
177.1555011320105
 20
20.63081002871463
 30
0.0
 11
177.5736149850811
 21
16.65272244724154
 31
0.0
1001
DBPROPERTIES
1002
{
1000
PbHidd
1002
}
  0
LINE
  5
297
330
1F
100
AcDbEntity
  8
HIDDEN
100
AcDbLine
 10
152.3506018229578
 20
18.02371005599455
 30
0.0
 11
152.7687156760284
 21
14.04562247452146
 31
0.0
1001
DBPROPERTIES
1002
{
1000
PbHidd
1002
}
  0
LINE
  5
298
330
1F
100
AcDbEntity
  8
THICK
100
AcDbLine
 10
-17.13356193885996
 20
-143.8814082182988
 30
0.0
 11
-18.27457836783697
 21
-154.7374543718417
 31
0.0
1001
DBPROPERTIES
1002
{
1000
PbThick
1002
}
  0
LINE
  5
299
330
1F
100
AcDbEntity
  8
THICK
100
AcDbLine
 10
-21.07763670551489
 20
-181.4067729829567
 30
0.0
 11
-38.542647395435
 21
-347.5752498837498
 31
0.0
1001
DBPROPERTIES
1002
{
1000
PbThick
1002
}
  0
LINE
  5
29A
330
1F
100
AcDbEntity
  8
HIDDEN
100
AcDbLine
 10
-38.542647395435
 20
-347.5752498837498
 30
0.0
 11
-38.542647395435
 21
-347.5752498837498
 31
0.0
1001
DBPROPERTIES
1002
{
1000
PbHidd
1002
}
  0
LINE
  5
29B
330
1F
100
AcDbEntity
  8
THICK
100
AcDbLine
 10
-34.56455981396191
 20
-347.9933637368205
 30
0.0
 11
-38.542647395435
 21
-347.5752498837498
 31
0.0
1001
DBPROPERTIES
1002
{
1000
PbThick
1002
}
  0
LINE
  5
29C
330
1F
100
AcDbEntity
  8
THICK
100
AcDbLine
 10
-38.542647395435
 20
-347.5752498837498
 30
0.0
 11
-39.04438401911973
 21
-352.3489549815176
 31
0.0
1001
DBPROPERTIES
1002
{
1000
PbThick
1002
}
  0
LINE
  5
29D
330
1F
100
AcDbEntity
  8
THICK
100
AcDbLine
 10
-35.06629643764664
 20
-352.7670688345882
 30
0.0
 11
-39.04438401911973
 21
-352.3489549815176
 31
0.0
1001
DBPROPERTIES
1002
{
1000
PbThick
1002
}
  0
LINE
  5
29E
330
1F
100
AcDbEntity
  8
HIDDEN
100
AcDbLine
 10
-39.04438401911973
 20
-352.3489549815176
 30
0.0
 11
-39.04438401911973
 21
-352.3489549815176
 31
0.0
1001
DBPROPERTIES
1002
{
1000
PbHidd
1002
}
  0
LINE
  5
29F
330
1F
100
AcDbEntity
  8
HIDDEN
100
AcDbLine
 10
-16.6527224472416
 20
-177.5736149850811
 30
0.0
 11
-20.63081002871469
 21
-177.1555011320105
 31
0.0
1001
DBPROPERTIES
1002
{
1000
PbHidd
1002
}
  0
LINE
  5
2A0
330
1F
100
AcDbEntity
  8
HIDDEN
100
AcDbLine
 10
-14.04562247452151
 20
-152.7687156760284
 30
0.0
 11
-18.0237100559946
 21
-152.3506018229578
 31
0.0
1001
DBPROPERTIES
1002
{
1000
PbHidd
1002
}
  0
LINE
  5
2A1
330
1F
100
AcDbEntity
  8
HIDDEN
100
AcDbLine
 10
-17.13356193885996
 20
-143.8814082182988
 30
0.0
 11
-17.13356193885996
 21
-143.8814082182988
 31
0.0
1001
DBPROPERTIES
1002
{
1000
PbHidd
1002
}
  0
LINE
  5
2A2
330
1F
100
AcDbEntity
  8
HIDDEN
100
AcDbLine
 10
13.15547435738683
 20
-144.2995220713694
 30
0.0
 11
14.29649078636384
 21
-155.1555682249123
 31
0.0
1001
DBPROPERTIES
1002
{
1000
PbHidd
1002
}
  0
LINE
  5
2A3
330
1F
100
AcDbEntity
  8
HIDDEN
100
AcDbLine
 10
17.09954912404176
 20
-181.8248868360274
 30
0.0
 11
30.96343010872882
 21
-313.7309032743065
 31
0.0
1001
DBPROPERTIES
1002
{
1000
PbHidd
1002
}
  0
LINE
  5
2A4
330
1F
100
AcDbEntity
  8
THICK
100
AcDbLine
 10
30.96343010872882
 20
-313.7309032743065
 30
0.0
 11
34.56455981396181
 21
-347.9933637368205
 31
0.0
1001
DBPROPERTIES
1002
{
1000
PbThick
1002
}
  0
LINE
  5
2A5
330
1F
100
AcDbEntity
  8
HIDDEN
100
AcDbLine
 10
34.56455981396181
 20
-347.9933637368205
 30
0.0
 11
34.56455981396181
 21
-347.9933637368205
 31
0.0
1001
DBPROPERTIES
1002
{
1000
PbHidd
1002
}
  0
LINE
  5
2A6
330
1F
100
AcDbEntity
  8
THICK
100
AcDbLine
 10
38.54264739543491
 20
-347.5752498837498
 30
0.0
 11
34.56455981396182
 21
-347.9933637368205
 31
0.0
1001
DBPROPERTIES
1002
{
1000
PbThick
1002
}
  0
LINE
  5
2A7
330
1F
100
AcDbEntity
  8
THICK
100
AcDbLine
 10
34.56455981396181
 20
-347.9933637368205
 30
0.0
 11
35.06629643764655
 21
-352.7670688345882
 31
0.0
1001
DBPROPERTIES
1002
{
1000
PbThick
1002
}
  0
LINE
  5
2A8
330
1F
100
AcDbEntity
  8
THICK
100
AcDbLine
 10
39.04438401911965
 20
-352.3489549815176
 30
0.0
 11
35.06629643764656
 21
-352.7670688345882
 31
0.0
1001
DBPROPERTIES
1002
{
1000
PbThick
1002
}
  0
LINE
  5
2A9
330
1F
100
AcDbEntity
  8
HIDDEN
100
AcDbLine
 10
35.06629643764655
 20
-352.7670688345882
 30
0.0
 11
35.06629643764655
 21
-352.7670688345882
 31
0.0
1001
DBPROPERTIES
1002
{
1000
PbHidd
1002
}
  0
LINE
  5
2AA
330
1F
100
AcDbEntity
  8
HIDDEN
100
AcDbLine
 10
20.63081002871465
 20
-177.1555011320105
 30
0.0
 11
16.65272244724155
 21
-177.5736149850811
 31
0.0
1001
DBPROPERTIES
1002
{
1000
PbHidd
1002
}
  0
LINE
  5
2AB
330
1F
100
AcDbEntity
  8
HIDDEN
100
AcDbLine
 10
18.02371005599456
 20
-152.3506018229578
 30
0.0
 11
14.04562247452147
 21
-152.7687156760284
 31
0.0
1001
DBPROPERTIES
1002
{
1000
PbHidd
1002
}
  0
LINE
  5
2AC
330
1F
100
AcDbEntity
  8
HIDDEN
100
AcDbLine
 10
-143.8814082182988
 20
17.13356193885995
 30
0.0
 11
-154.7374543718417
 21
18.27457836783696
 31
0.0
1001
DBPROPERTIES
1002
{
1000
PbHidd
1002
}
  0
LINE
  5
2AD
330
1F
100
AcDbEntity
  8
HIDDEN
100
AcDbLine
 10
-181.4067729829569
 20
21.0776367055149
 30
0.0
 11
-314.9518636837516
 21
35.11379133710733
 31
0.0
1001
DBPROPERTIES
1002
{
1000
PbHidd
1002
}
  0
LINE
  5
2AE
330
1F
100
AcDbEntity
  8
THICK
100
AcDbLine
 10
-314.9518636837516
 20
35.11379133710733
 30
0.0
 11
-347.5752498837498
 21
38.54264739543498
 31
0.0
1001
DBPROPERTIES
1002
{
1000
PbThick
1002
}
  0
LINE
  5
2AF
330
1F
100
AcDbEntity
  8
HIDDEN
100
AcDbLine
 10
-347.5752498837498
 20
38.54264739543498
 30
0.0
 11
-347.5752498837498
 21
38.54264739543498
 31
0.0
1001
DBPROPERTIES
1002
{
1000
PbHidd
1002
}
  0
LINE
  5
2B0
330
1F
100
AcDbEntity
  8
THICK
100
AcDbLine
 10
-347.9933637368205
 20
34.56455981396189
 30
0.0
 11
-347.5752498837498
 21
38.54264739543498
 31
0.0
1001
DBPROPERTIES
1002
{
1000
PbThick
1002
}
  0
LINE
  5
2B1
330
1F
100
AcDbEntity
  8
THICK
100
AcDbLine
 10
-347.5752498837498
 20
38.54264739543498
 30
0.0
 11
-352.3489549815176
 21
39.04438401911971
 31
0.0
1001
DBPROPERTIES
1002
{
1000
PbThick
1002
}
  0
LINE
  5
2B2
330
1F
100
AcDbEntity
  8
THICK
100
AcDbLine
 10
-352.7670688345882
 20
35.06629643764662
 30
0.0
 11
-352.3489549815176
 21
39.04438401911971
 31
0.0
1001
DBPROPERTIES
1002
{
1000
PbThick
1002
}
  0
LINE
  5
2B3
330
1F
100
AcDbEntity
  8
HIDDEN
100
AcDbLine
 10
-352.3489549815176
 20
39.04438401911971
 30
0.0
 11
-352.3489549815176
 21
39.04438401911971
 31
0.0
1001
DBPROPERTIES
1002
{
1000
PbHidd
1002
}
  0
LINE
  5
2B4
330
1F
100
AcDbEntity
  8
HIDDEN
100
AcDbLine
 10
-177.5736149850811
 20
16.65272244724159
 30
0.0
 11
-177.1555011320105
 21
20.63081002871468
 31
0.0
1001
DBPROPERTIES
1002
{
1000
PbHidd
1002
}
  0
LINE
  5
2B5
330
1F
100
AcDbEntity
  8
HIDDEN
100
AcDbLine
 10
-152.7687156760284
 20
14.0456224745215
 30
0.0
 11
-152.3506018229578
 21
18.02371005599459
 31
0.0
1001
DBPROPERTIES
1002
{
1000
PbHidd
1002
}
  0
LINE
  5
2B6
330
1F
100
AcDbEntity
  8
HIDDEN
100
AcDbLine
 10
-143.8814082182988
 20
17.13356193885995
 30
0.0
 11
-143.8814082182988
 21
17.13356193885995
 31
0.0
1001
DBPROPERTIES
1002
{
1000
PbHidd
1002
}
  0
LINE
  5
2B7
330
1F
100
AcDbEntity
  8
HIDDEN
100
AcDbLine
 10
-144.2995220713694
 20
-13.15547435738684
 30
0.0
 11
-155.1555682249123
 21
-14.29649078636385
 31
0.0
1001
DBPROPERTIES
1002
{
1000
PbHidd
1002
}
  0
LINE
  5
2B8
330
1F
100
AcDbEntity
  8
HIDDEN
100
AcDbLine
 10
-181.8248868360275
 20
-17.09954912404178
 30
0.0
 11
-316.0360671122014
 21
-31.20571259107286
 31
0.0
1001
DBPROPERTIES
1002
{
1000
PbHidd
1002
}
  0
LINE
  5
2B9
330
1F
100
AcDbEntity
  8
THICK
100
AcDbLine
 10
-316.0360671122014
 20
-31.20571259107286
 30
0.0
 11
-347.9933637368205
 21
-34.56455981396184
 31
0.0
1001
DBPROPERTIES
1002
{
1000
PbThick
1002
}
  0
LINE
  5
2BA
330
1F
100
AcDbEntity
  8
HIDDEN
100
AcDbLine
 10
-347.9933637368205
 20
-34.56455981396184
 30
0.0
 11
-347.9933637368205
 21
-34.56455981396184
 31
0.0
1001
DBPROPERTIES
1002
{
1000
PbHidd
1002
}
  0
LINE
  5
2BB
330
1F
100
AcDbEntity
  8
THICK
100
AcDbLine
 10
-347.5752498837498
 20
-38.54264739543493
 30
0.0
 11
-347.9933637368205
 21
-34.56455981396184
 31
0.0
1001
DBPROPERTIES
1002
{
1000
PbThick
1002
}
  0
LINE
  5
2BC
330
1F
100
AcDbEntity
  8
THICK
100
AcDbLine
 10
-347.9933637368205
 20
-34.56455981396184
 30
0.0
 11
-352.7670688345882
 21
-35.06629643764657
 31
0.0
1001
DBPROPERTIES
1002
{
1000
PbThick
1002
}
  0
LINE
  5
2BD
330
1F
100
AcDbEntity
  8
THICK
100
AcDbLine
 10
-352.3489549815176
 20
-39.04438401911967
 30
0.0
 11
-352.7670688345882
 21
-35.06629643764658
 31
0.0
1001
DBPROPERTIES
1002
{
1000
PbThick
1002
}
  0
LINE
  5
2BE
330
1F
100
AcDbEntity
  8
HIDDEN
100
AcDbLine
 10
-352.7670688345882
 20
-35.06629643764657
 30
0.0
 11
-352.7670688345882
 21
-35.06629643764657
 31
0.0
1001
DBPROPERTIES
1002
{
1000
PbHidd
1002
}
  0
LINE
  5
2BF
330
1F
100
AcDbEntity
  8
HIDDEN
100
AcDbLine
 10
-177.1555011320105
 20
-20.63081002871466
 30
0.0
 11
-177.5736149850811
 21
-16.65272244724157
 31
0.0
1001
DBPROPERTIES
1002
{
1000
PbHidd
1002
}
  0
LINE
  5
2C0
330
1F
100
AcDbEntity
  8
HIDDEN
100
AcDbLine
 10
-152.3506018229578
 20
-18.02371005599457
 30
0.0
 11
-152.7687156760284
 21
-14.04562247452148
 31
0.0
1001
DBPROPERTIES
1002
{
1000
PbHidd
1002
}
  0
LINE
  5
2C1
330
1F
100
AcDbEntity
  8
HIDDEN
100
AcDbLine
 10
-144.2995220713694
 20
-13.15547435738684
 30
0.0
 11
-144.2995220713694
 21
-13.15547435738684
 31
0.0
1001
DBPROPERTIES
1002
{
1000
PbHidd
1002
}
  0
ARC
  5
2C2
330
1F
100
AcDbEntity
  8
HIDDEN
100
AcDbCircle
 10
0.0
 20
0.0000000000000196
 30
0.0
 40
101.4285714285714
100
AcDbArc
 50
267.0000117086634
 51
270.0000187239684
1001
DBPROPERTIES
1002
{
1000
PbHidd
1002
}
  0
LINE
  5
2C3
330
1F
100
AcDbEntity
  8
HIDDEN
100
AcDbLine
 10
-5.308361276070074
 20
-101.2895670965353
 30
0.0
 11
-5.308361276070074
 21
-101.2895670965353
 31
0.0
1001
DBPROPERTIES
1002
{
1000
PbHidd
1002
}
  0
LINE
  5
2C4
330
1F
100
AcDbEntity
  8
HIDDEN
100
AcDbLine
 10
26.25164600325565
 20
-97.97247666646263
 30
0.0
 11
26.25164600325565
 21
-97.97247666646263
 31
0.0
1001
DBPROPERTIES
1002
{
1000
PbHidd
1002
}
  0
ARC
  5
2C5
330
1F
100
AcDbEntity
  8
HIDDEN
100
AcDbCircle
 10
0.0
 20
0.0000000000000196
 30
0.0
 40
101.4285714285714
100
AcDbArc
 50
278.9999824741038
 51
284.9999965047138
1001
DBPROPERTIES
1002
{
1000
PbHidd
1002
}
  0
LINE
  5
2C6
330
1F
100
AcDbEntity
  8
HIDDEN
100
AcDbLine
 10
15.86692431122339
 20
-100.1798174032211
 30
0.0
 11
15.86692431122339
 21
-100.1798174032211
 31
0.0
1001
DBPROPERTIES
1002
{
1000
PbHidd
1002
}
  0
LINE
  5
2C7
330
1F
100
AcDbEntity
  8
HIDDEN
100
AcDbLine
 10
-15.86692431122345
 20
-100.1798174032211
 30
0.0
 11
-15.86692431122345
 21
-100.1798174032211
 31
0.0
1001
DBPROPERTIES
1002
{
1000
PbHidd
1002
}
  0
ARC
  5
2C8
330
1F
100
AcDbEntity
  8
HIDDEN
100
AcDbCircle
 10
0.0
 20
0.0000000000000196
 30
0.0
 40
101.4285714285714
100
AcDbArc
 50
254.9999836474434
 51
260.9999976780534
1001
DBPROPERTIES
1002
{
1000
PbHidd
1002
}
  0
LINE
  5
2C9
330
1F
100
AcDbEntity
  8
HIDDEN
100
AcDbLine
 10
-26.25164600325571
 20
-97.97247666646261
 30
0.0
 11
-26.25164600325571
 21
-97.97247666646261
 31
0.0
1001
DBPROPERTIES
1002
{
1000
PbHidd
1002
}
  0
LINE
  5
2CA
330
1F
100
AcDbEntity
  8
HIDDEN
100
AcDbLine
 10
46.04760783072542
 20
-90.37351888196304
 30
0.0
 11
46.04760783072542
 21
-90.37351888196304
 31
0.0
1001
DBPROPERTIES
1002
{
1000
PbHidd
1002
}
  0
ARC
  5
2CB
330
1F
100
AcDbEntity
  8
HIDDEN
100
AcDbCircle
 10
0.0
 20
0.0000000000000196
 30
0.0
 40
101.4285714285714
100
AcDbArc
 50
291.0000105353237
 51
297.0000245659338
1001
DBPROPERTIES
1002
{
1000
PbHidd
1002
}
  0
LINE
  5
2CC
330
1F
100
AcDbEntity
  8
HIDDEN
100
AcDbLine
 10
36.34874916816613
 20
-94.6917289732876
 30
0.0
 11
36.34874916816613
 21
-94.6917289732876
 31
0.0
1001
DBPROPERTIES
1002
{
1000
PbHidd
1002
}
  0
LINE
  5
2CD
330
1F
100
AcDbEntity
  8
HIDDEN
100
AcDbLine
 10
-36.34874916816619
 20
-94.69172897328758
 30
0.0
 11
-36.34874916816619
 21
-94.69172897328758
 31
0.0
1001
DBPROPERTIES
1002
{
1000
PbHidd
1002
}
  0
ARC
  5
2CE
330
1F
100
AcDbEntity
  8
HIDDEN
100
AcDbCircle
 10
0.0
 20
0.0000000000000196
 30
0.0
 40
101.4285714285714
100
AcDbArc
 50
243.0000128820029
 51
249.0000269126129
1001
DBPROPERTIES
1002
{
1000
PbHidd
1002
}
  0
LINE
  5
2CF
330
1F
100
AcDbEntity
  8
HIDDEN
100
AcDbLine
 10
-46.04760783072548
 20
-90.373518881963
 30
0.0
 11
-46.04760783072548
 21
-90.373518881963
 31
0.0
1001
DBPROPERTIES
1002
{
1000
PbHidd
1002
}
  0
LINE
  5
2D0
330
1F
100
AcDbEntity
  8
HIDDEN
100
AcDbLine
 10
63.83106823505489
 20
-78.82480466206421
 30
0.0
 11
63.83106823505489
 21
-78.82480466206421
 31
0.0
1001
DBPROPERTIES
1002
{
1000
PbHidd
1002
}
  0
ARC
  5
2D1
330
1F
100
AcDbEntity
  8
HIDDEN
100
AcDbCircle
 10
0.0
 20
0.0000000000000196
 30
0.0
 40
101.4285714285714
100
AcDbArc
 50
302.9999813007643
 51
308.9999953313742
1001
DBPROPERTIES
1002
{
1000
PbHidd
1002
}
  0
LINE
  5
2D2
330
1F
100
AcDbEntity
  8
HIDDEN
100
AcDbLine
 10
55.24195926580983
 20
-85.065157605893
 30
0.0
 11
55.24195926580983
 21
-85.065157605893
 31
0.0
1001
DBPROPERTIES
1002
{
1000
PbHidd
1002
}
  0
LINE
  5
2D3
330
1F
100
AcDbEntity
  8
HIDDEN
100
AcDbLine
 10
-55.24195926580994
 20
-85.06515760589295
 30
0.0
 11
-55.24195926580994
 21
-85.06515760589295
 31
0.0
1001
DBPROPERTIES
1002
{
1000
PbHidd
1002
}
  0
ARC
  5
2D4
330
1F
100
AcDbEntity
  8
HIDDEN
100
AcDbCircle
 10
0.0
 20
0.0000000000000196
 30
0.0
 40
101.4285714285714
100
AcDbArc
 50
230.999984820783
 51
236.999998851393
1001
DBPROPERTIES
1002
{
1000
PbHidd
1002
}
  0
LINE
  5
2D5
330
1F
100
AcDbEntity
  8
HIDDEN
100
AcDbLine
 10
-63.83106823505499
 20
-78.82480466206414
 30
0.0
 11
-63.83106823505499
 21
-78.82480466206414
 31
0.0
1001
DBPROPERTIES
1002
{
1000
PbHidd
1002
}
  0
LINE
  5
2D6
330
1F
100
AcDbEntity
  8
HIDDEN
100
AcDbLine
 10
78.82480466206417
 20
-63.83106823505496
 30
0.0
 11
78.82480466206417
 21
-63.83106823505496
 31
0.0
1001
DBPROPERTIES
1002
{
1000
PbHidd
1002
}
  0
ARC
  5
2D7
330
1F
100
AcDbEntity
  8
HIDDEN
100
AcDbCircle
 10
0.0
 20
0.0000000000000196
 30
0.0
 40
101.4285714285714
100
AcDbArc
 50
315.0000093619842
 51
321.0000233925941
1001
DBPROPERTIES
1002
{
1000
PbHidd
1002
}
  0
LINE
  5
2D8
330
1F
100
AcDbEntity
  8
HIDDEN
100
AcDbLine
 10
71.72083066320694
 20
-71.72083066320697
 30
0.0
 11
71.72083066320694
 21
-71.72083066320697
 31
0.0
1001
DBPROPERTIES
1002
{
1000
PbHidd
1002
}
  0
LINE
  5
2D9
330
1F
100
AcDbEntity
  8
HIDDEN
100
AcDbLine
 10
-71.72083066320697
 20
-71.72083066320694
 30
0.0
 11
-71.72083066320697
 21
-71.72083066320694
 31
0.0
1001
DBPROPERTIES
1002
{
1000
PbHidd
1002
}
  0
ARC
  5
2DA
330
1F
100
AcDbEntity
  8
HIDDEN
100
AcDbCircle
 10
0.0
 20
0.0000000000000196
 30
0.0
 40
101.4285714285714
100
AcDbArc
 50
219.0000140553425
 51
225.0000280859525
1001
DBPROPERTIES
1002
{
1000
PbHidd
1002
}
  0
LINE
  5
2DB
330
1F
100
AcDbEntity
  8
HIDDEN
100
AcDbLine
 10
-78.8248046620642
 20
-63.83106823505491
 30
0.0
 11
-78.8248046620642
 21
-63.83106823505491
 31
0.0
1001
DBPROPERTIES
1002
{
1000
PbHidd
1002
}
  0
LINE
  5
2DC
330
1F
100
AcDbEntity
  8
HIDDEN
100
AcDbLine
 10
90.37351888196301
 20
-46.04760783072549
 30
0.0
 11
90.37351888196301
 21
-46.04760783072549
 31
0.0
1001
DBPROPERTIES
1002
{
1000
PbHidd
1002
}
  0
ARC
  5
2DD
330
1F
100
AcDbEntity
  8
HIDDEN
100
AcDbCircle
 10
0.0
 20
0.0000000000000196
 30
0.0
 40
101.4285714285714
100
AcDbArc
 50
326.9999801274246
 51
332.9999941580346
1001
DBPROPERTIES
1002
{
1000
PbHidd
1002
}
  0
LINE
  5
2DE
330
1F
100
AcDbEntity
  8
HIDDEN
100
AcDbLine
 10
85.06515760589298
 20
-55.24195926580992
 30
0.0
 11
85.06515760589298
 21
-55.24195926580992
 31
0.0
1001
DBPROPERTIES
1002
{
1000
PbHidd
1002
}
  0
LINE
  5
2DF
330
1F
100
AcDbEntity
  8
HIDDEN
100
AcDbLine
 10
-85.065157605893
 20
-55.24195926580987
 30
0.0
 11
-85.065157605893
 21
-55.24195926580987
 31
0.0
1001
DBPROPERTIES
1002
{
1000
PbHidd
1002
}
  0
ARC
  5
2E0
330
1F
100
AcDbEntity
  8
HIDDEN
100
AcDbCircle
 10
0.0
 20
0.0000000000000196
 30
0.0
 40
101.4285714285714
100
AcDbArc
 50
206.9999859941226
 51
213.0000000247326
1001
DBPROPERTIES
1002
{
1000
PbHidd
1002
}
  0
LINE
  5
2E1
330
1F
100
AcDbEntity
  8
HIDDEN
100
AcDbLine
 10
-90.37351888196304
 20
-46.04760783072543
 30
0.0
 11
-90.37351888196304
 21
-46.04760783072543
 31
0.0
1001
DBPROPERTIES
1002
{
1000
PbHidd
1002
}
  0
LINE
  5
2E2
330
1F
100
AcDbEntity
  8
HIDDEN
100
AcDbLine
 10
97.97247666646263
 20
-26.25164600325575
 30
0.0
 11
97.97247666646263
 21
-26.25164600325574
 31
0.0
1001
DBPROPERTIES
1002
{
1000
PbHidd
1002
}
  0
ARC
  5
2E3
330
1F
100
AcDbEntity
  8
HIDDEN
100
AcDbCircle
 10
0.0
 20
0.0000000000000196
 30
0.0
 40
101.4285714285714
100
AcDbArc
 50
339.0000081886445
 51
345.0000222192546
1001
DBPROPERTIES
1002
{
1000
PbHidd
1002
}
  0
LINE
  5
2E4
330
1F
100
AcDbEntity
  8
HIDDEN
100
AcDbLine
 10
94.69172897328758
 20
-36.34874916816623
 30
0.0
 11
94.69172897328758
 21
-36.34874916816623
 31
0.0
1001
DBPROPERTIES
1002
{
1000
PbHidd
1002
}
  0
LINE
  5
2E5
330
1F
100
AcDbEntity
  8
HIDDEN
100
AcDbLine
 10
-94.69172897328761
 20
-36.34874916816614
 30
0.0
 11
-94.69172897328761
 21
-36.34874916816614
 31
0.0
1001
DBPROPERTIES
1002
{
1000
PbHidd
1002
}
  0
ARC
  5
2E6
330
1F
100
AcDbEntity
  8
HIDDEN
100
AcDbCircle
 10
0.0
 20
0.0000000000000196
 30
0.0
 40
101.4285714285714
100
AcDbArc
 50
195.0000152286821
 51
200.9999719635126
1001
DBPROPERTIES
1002
{
1000
PbHidd
1002
}
  0
LINE
  5
2E7
330
1F
100
AcDbEntity
  8
HIDDEN
100
AcDbLine
 10
-97.97247666646265
 20
-26.25164600325565
 30
0.0
 11
-97.97247666646265
 21
-26.25164600325566
 31
0.0
1001
DBPROPERTIES
1002
{
1000
PbHidd
1002
}
  0
LINE
  5
2E8
330
1F
100
AcDbEntity
  8
HIDDEN
100
AcDbLine
 10
101.2895670965353
 20
-5.308361276070049
 30
0.0
 11
101.2895670965353
 21
-5.308361276070042
 31
0.0
1001
DBPROPERTIES
1002
{
1000
PbHidd
1002
}
  0
ARC
  5
2E9
330
1F
100
AcDbEntity
  8
HIDDEN
100
AcDbCircle
 10
0.0
 20
0.0000000000000196
 30
0.0
 40
101.4285714285714
100
AcDbArc
 50
350.9999789540851
 51
356.999992984695
1001
DBPROPERTIES
1002
{
1000
PbHidd
1002
}
  0
LINE
  5
2EA
330
1F
100
AcDbEntity
  8
HIDDEN
100
AcDbLine
 10
100.1798174032211
 20
-15.86692431122344
 30
0.0
 11
100.1798174032211
 21
-15.86692431122345
 31
0.0
1001
DBPROPERTIES
1002
{
1000
PbHidd
1002
}
  0
LINE
  5
2EB
330
1F
100
AcDbEntity
  8
HIDDEN
100
AcDbLine
 10
-100.1798174032211
 20
-15.86692431122339
 30
0.0
 11
-100.1798174032211
 21
-15.86692431122338
 31
0.0
1001
DBPROPERTIES
1002
{
1000
PbHidd
1002
}
  0
ARC
  5
2EC
330
1F
100
AcDbEntity
  8
HIDDEN
100
AcDbCircle
 10
0.0
 20
0.0000000000000196
 30
0.0
 40
101.4285714285714
100
AcDbArc
 50
182.9999871674622
 51
189.0000011980722
1001
DBPROPERTIES
1002
{
1000
PbHidd
1002
}
  0
LINE
  5
2ED
330
1F
100
AcDbEntity
  8
HIDDEN
100
AcDbLine
 10
-101.2895670965353
 20
-5.308361276069981
 30
0.0
 11
-101.2895670965353
 21
-5.308361276069988
 31
0.0
1001
DBPROPERTIES
1002
{
1000
PbHidd
1002
}
  0
LINE
  5
2EE
330
1F
100
AcDbEntity
  8
HIDDEN
100
AcDbLine
 10
100.1798174032211
 20
15.86692431122333
 30
0.0
 11
100.1798174032211
 21
15.86692431122333
 31
0.0
1001
DBPROPERTIES
1002
{
1000
PbHidd
1002
}
  0
ARC
  5
2EF
330
1F
100
AcDbEntity
  8
HIDDEN
100
AcDbCircle
 10
0.0
 20
0.0000000000000196
 30
0.0
 40
101.4285714285714
100
AcDbArc
 50
3.00000701530499
 51
9.000021045914972
1001
DBPROPERTIES
1002
{
1000
PbHidd
1002
}
  0
LINE
  5
2F0
330
1F
100
AcDbEntity
  8
HIDDEN
100
AcDbLine
 10
101.2895670965354
 20
5.308361276069932
 30
0.0
 11
101.2895670965354
 21
5.308361276069925
 31
0.0
1001
DBPROPERTIES
1002
{
1000
PbHidd
1002
}
  0
LINE
  5
2F1
330
1F
100
AcDbEntity
  8
HIDDEN
100
AcDbLine
 10
-101.2895670965353
 20
5.308361276070032
 30
0.0
 11
-101.2895670965353
 21
5.308361276070039
 31
0.0
1001
DBPROPERTIES
1002
{
1000
PbHidd
1002
}
  0
ARC
  5
2F2
330
1F
100
AcDbEntity
  8
HIDDEN
100
AcDbCircle
 10
0.0
 20
0.0000000000000196
 30
0.0
 40
101.4285714285714
100
AcDbArc
 50
170.9999988019279
 51
177.0000128325378
1001
DBPROPERTIES
1002
{
1000
PbHidd
1002
}
  0
LINE
  5
2F3
330
1F
100
AcDbEntity
  8
HIDDEN
100
AcDbLine
 10
-100.1798174032211
 20
15.86692431122344
 30
0.0
 11
-100.1798174032211
 21
15.86692431122344
 31
0.0
1001
DBPROPERTIES
1002
{
1000
PbHidd
1002
}
  0
LINE
  5
2F4
330
1F
100
AcDbEntity
  8
HIDDEN
100
AcDbLine
 10
94.69172897328764
 20
36.34874916816612
 30
0.0
 11
94.69172897328764
 21
36.34874916816612
 31
0.0
1001
DBPROPERTIES
1002
{
1000
PbHidd
1002
}
  0
ARC
  5
2F5
330
1F
100
AcDbEntity
  8
HIDDEN
100
AcDbCircle
 10
0.0
 20
0.0000000000000196
 30
0.0
 40
101.4285714285714
100
AcDbArc
 50
14.99997778074544
 51
20.99999181135542
1001
DBPROPERTIES
1002
{
1000
PbHidd
1002
}
  0
LINE
  5
2F6
330
1F
100
AcDbEntity
  8
HIDDEN
100
AcDbLine
 10
97.97247666646267
 20
26.25164600325562
 30
0.0
 11
97.97247666646267
 21
26.25164600325561
 31
0.0
1001
DBPROPERTIES
1002
{
1000
PbHidd
1002
}
  0
LINE
  5
2F7
330
1F
100
AcDbEntity
  8
HIDDEN
100
AcDbLine
 10
-97.97247666646265
 20
26.25164600325569
 30
0.0
 11
-97.97247666646265
 21
26.2516460032557
 31
0.0
1001
DBPROPERTIES
1002
{
1000
PbHidd
1002
}
  0
ARC
  5
2F8
330
1F
100
AcDbEntity
  8
HIDDEN
100
AcDbCircle
 10
0.0
 20
0.0000000000000196
 30
0.0
 40
101.4285714285714
100
AcDbArc
 50
159.0000280364874
 51
164.9999847713179
1001
DBPROPERTIES
1002
{
1000
PbHidd
1002
}
  0
LINE
  5
2F9
330
1F
100
AcDbEntity
  8
HIDDEN
100
AcDbLine
 10
-94.69172897328761
 20
36.3487491681662
 30
0.0
 11
-94.69172897328761
 21
36.3487491681662
 31
0.0
1001
DBPROPERTIES
1002
{
1000
PbHidd
1002
}
  0
LINE
  5
2FA
330
1F
100
AcDbEntity
  8
HIDDEN
100
AcDbLine
 10
85.06515760589303
 20
55.24195926580988
 30
0.0
 11
85.06515760589303
 21
55.24195926580988
 31
0.0
1001
DBPROPERTIES
1002
{
1000
PbHidd
1002
}
  0
ARC
  5
2FB
330
1F
100
AcDbEntity
  8
HIDDEN
100
AcDbCircle
 10
0.0
 20
0.0000000000000196
 30
0.0
 40
101.4285714285714
100
AcDbArc
 50
27.0000058419654
 51
33.00001987257539
1001
DBPROPERTIES
1002
{
1000
PbHidd
1002
}
  0
LINE
  5
2FC
330
1F
100
AcDbEntity
  8
HIDDEN
100
AcDbLine
 10
90.37351888196305
 20
46.04760783072544
 30
0.0
 11
90.37351888196305
 21
46.04760783072544
 31
0.0
1001
DBPROPERTIES
1002
{
1000
PbHidd
1002
}
  0
LINE
  5
2FD
330
1F
100
AcDbEntity
  8
HIDDEN
100
AcDbLine
 10
-90.37351888196304
 20
46.0476078307255
 30
0.0
 11
-90.37351888196304
 21
46.0476078307255
 31
0.0
1001
DBPROPERTIES
1002
{
1000
PbHidd
1002
}
  0
ARC
  5
2FE
330
1F
100
AcDbEntity
  8
HIDDEN
100
AcDbCircle
 10
0.0
 20
0.0000000000000196
 30
0.0
 40
101.4285714285714
100
AcDbArc
 50
146.9999999752674
 51
153.0000140058774
1001
DBPROPERTIES
1002
{
1000
PbHidd
1002
}
  0
LINE
  5
2FF
330
1F
100
AcDbEntity
  8
HIDDEN
100
AcDbLine
 10
-85.065157605893
 20
55.24195926580993
 30
0.0
 11
-85.065157605893
 21
55.24195926580993
 31
0.0
1001
DBPROPERTIES
1002
{
1000
PbHidd
1002
}
  0
LINE
  5
300
330
1F
100
AcDbEntity
  8
HIDDEN
100
AcDbLine
 10
71.72083066320704
 20
71.72083066320693
 30
0.0
 11
71.72083066320704
 21
71.72083066320693
 31
0.0
1001
DBPROPERTIES
1002
{
1000
PbHidd
1002
}
  0
ARC
  5
301
330
1F
100
AcDbEntity
  8
HIDDEN
100
AcDbCircle
 10
0.0
 20
0.0000000000000196
 30
0.0
 40
101.4285714285714
100
AcDbArc
 50
38.99997660740585
 51
44.99999063801582
1001
DBPROPERTIES
1002
{
1000
PbHidd
1002
}
  0
LINE
  5
302
330
1F
100
AcDbEntity
  8
HIDDEN
100
AcDbLine
 10
78.82480466206425
 20
63.83106823505489
 30
0.0
 11
78.82480466206425
 21
63.83106823505489
 31
0.0
1001
DBPROPERTIES
1002
{
1000
PbHidd
1002
}
  0
LINE
  5
303
330
1F
100
AcDbEntity
  8
HIDDEN
100
AcDbLine
 10
-78.8248046620642
 20
63.83106823505496
 30
0.0
 11
-78.8248046620642
 21
63.83106823505496
 31
0.0
1001
DBPROPERTIES
1002
{
1000
PbHidd
1002
}
  0
ARC
  5
304
330
1F
100
AcDbEntity
  8
HIDDEN
100
AcDbCircle
 10
0.0
 20
0.0000000000000196
 30
0.0
 40
101.4285714285714
100
AcDbArc
 50
134.9999719140475
 51
140.9999859446575
1001
DBPROPERTIES
1002
{
1000
PbHidd
1002
}
  0
LINE
  5
305
330
1F
100
AcDbEntity
  8
HIDDEN
100
AcDbLine
 10
-71.72083066320697
 20
71.72083066320698
 30
0.0
 11
-71.72083066320697
 21
71.72083066320698
 31
0.0
1001
DBPROPERTIES
1002
{
1000
PbHidd
1002
}
  0
LINE
  5
306
330
1F
100
AcDbEntity
  8
HIDDEN
100
AcDbLine
 10
55.24195926580996
 20
85.06515760589299
 30
0.0
 11
55.24195926580996
 21
85.06515760589299
 31
0.0
1001
DBPROPERTIES
1002
{
1000
PbHidd
1002
}
  0
ARC
  5
307
330
1F
100
AcDbEntity
  8
HIDDEN
100
AcDbCircle
 10
0.0
 20
0.0000000000000196
 30
0.0
 40
101.4285714285714
100
AcDbArc
 50
51.00000466862581
 51
57.0000186992358
1001
DBPROPERTIES
1002
{
1000
PbHidd
1002
}
  0
LINE
  5
308
330
1F
100
AcDbEntity
  8
HIDDEN
100
AcDbLine
 10
63.83106823505501
 20
78.82480466206418
 30
0.0
 11
63.83106823505501
 21
78.82480466206418
 31
0.0
1001
DBPROPERTIES
1002
{
1000
PbHidd
1002
}
  0
LINE
  5
309
330
1F
100
AcDbEntity
  8
HIDDEN
100
AcDbLine
 10
-63.83106823505495
 20
78.82480466206421
 30
0.0
 11
-63.83106823505495
 21
78.82480466206421
 31
0.0
1001
DBPROPERTIES
1002
{
1000
PbHidd
1002
}
  0
ARC
  5
30A
330
1F
100
AcDbEntity
  8
HIDDEN
100
AcDbCircle
 10
0.0
 20
0.0000000000000196
 30
0.0
 40
101.4285714285714
100
AcDbArc
 50
123.000001148607
 51
129.000015179217
1001
DBPROPERTIES
1002
{
1000
PbHidd
1002
}
  0
LINE
  5
30B
330
1F
100
AcDbEntity
  8
HIDDEN
100
AcDbLine
 10
-55.24195926580989
 20
85.06515760589303
 30
0.0
 11
-55.24195926580989
 21
85.06515760589303
 31
0.0
1001
DBPROPERTIES
1002
{
1000
PbHidd
1002
}
  0
LINE
  5
30C
330
1F
100
AcDbEntity
  8
HIDDEN
100
AcDbLine
 10
36.34874916816621
 20
94.69172897328762
 30
0.0
 11
36.34874916816621
 21
94.69172897328762
 31
0.0
1001
DBPROPERTIES
1002
{
1000
PbHidd
1002
}
  0
ARC
  5
30D
330
1F
100
AcDbEntity
  8
HIDDEN
100
AcDbCircle
 10
0.0
 20
0.0000000000000196
 30
0.0
 40
101.4285714285714
100
AcDbArc
 50
62.99997543406626
 51
68.99998946467625
1001
DBPROPERTIES
1002
{
1000
PbHidd
1002
}
  0
LINE
  5
30E
330
1F
100
AcDbEntity
  8
HIDDEN
100
AcDbLine
 10
46.04760783072552
 20
90.37351888196302
 30
0.0
 11
46.04760783072552
 21
90.37351888196302
 31
0.0
1001
DBPROPERTIES
1002
{
1000
PbHidd
1002
}
  0
LINE
  5
30F
330
1F
100
AcDbEntity
  8
HIDDEN
100
AcDbLine
 10
-46.04760783072545
 20
90.37351888196307
 30
0.0
 11
-46.04760783072545
 21
90.37351888196307
 31
0.0
1001
DBPROPERTIES
1002
{
1000
PbHidd
1002
}
  0
ARC
  5
310
330
1F
100
AcDbEntity
  8
HIDDEN
100
AcDbCircle
 10
0.0
 20
0.0000000000000196
 30
0.0
 40
101.4285714285714
100
AcDbArc
 50
110.9999730873871
 51
116.9999871179971
1001
DBPROPERTIES
1002
{
1000
PbHidd
1002
}
  0
LINE
  5
311
330
1F
100
AcDbEntity
  8
HIDDEN
100
AcDbLine
 10
-36.34874916816616
 20
94.69172897328762
 30
0.0
 11
-36.34874916816616
 21
94.69172897328762
 31
0.0
1001
DBPROPERTIES
1002
{
1000
PbHidd
1002
}
  0
LINE
  5
312
330
1F
100
AcDbEntity
  8
HIDDEN
100
AcDbLine
 10
15.86692431122352
 20
100.1798174032211
 30
0.0
 11
15.86692431122352
 21
100.1798174032211
 31
0.0
1001
DBPROPERTIES
1002
{
1000
PbHidd
1002
}
  0
ARC
  5
313
330
1F
100
AcDbEntity
  8
HIDDEN
100
AcDbCircle
 10
0.0
 20
0.0000000000000196
 30
0.0
 40
101.4285714285714
100
AcDbArc
 50
75.00000349528622
 51
81.0000175258962
1001
DBPROPERTIES
1002
{
1000
PbHidd
1002
}
  0
LINE
  5
314
330
1F
100
AcDbEntity
  8
HIDDEN
100
AcDbLine
 10
26.25164600325577
 20
97.97247666646264
 30
0.0
 11
26.25164600325577
 21
97.97247666646264
 31
0.0
1001
DBPROPERTIES
1002
{
1000
PbHidd
1002
}
  0
ARC
  5
315
330
1F
100
AcDbEntity
  8
HIDDEN
100
AcDbCircle
 10
0.0
 20
0.0000000000000196
 30
0.0
 40
101.4285714285714
100
AcDbArc
 50
99.00000232194662
 51
105.0000163525566
1001
DBPROPERTIES
1002
{
1000
PbHidd
1002
}
  0
LINE
  5
316
330
1F
100
AcDbEntity
  8
HIDDEN
100
AcDbLine
 10
-15.86692431122341
 20
100.1798174032211
 30
0.0
 11
-15.86692431122341
 21
100.1798174032211
 31
0.0
1001
DBPROPERTIES
1002
{
1000
PbHidd
1002
}
  0
LINE
  5
317
330
1F
100
AcDbEntity
  8
HIDDEN
100
AcDbLine
 10
-26.25164600325567
 20
97.97247666646267
 30
0.0
 11
-26.25164600325567
 21
97.97247666646267
 31
0.0
1001
DBPROPERTIES
1002
{
1000
PbHidd
1002
}
  0
ARC
  5
318
330
1F
100
AcDbEntity
  8
HIDDEN
100
AcDbCircle
 10
0.0
 20
0.0000000000000196
 30
0.0
 40
142.0
100
AcDbArc
 50
89.99998127603165
 51
99.00000232194662
1001
DBPROPERTIES
1002
{
1000
PbHidd
1002
}
  0
LINE
  5
319
330
1F
100
AcDbEntity
  8
HIDDEN
100
AcDbLine
 10
-15.8669243112234
 20
100.1798174032211
 30
0.0
 11
-22.21369403571276
 21
140.2517443645095
 31
0.0
1001
DBPROPERTIES
1002
{
1000
PbHidd
1002
}
  0
LINE
  5
31A
330
1F
100
AcDbEntity
  8
HIDDEN
100
AcDbLine
 10
-36.75230440455792
 20
137.1614673330477
 30
0.0
 11
-26.25164600325566
 21
97.97247666646264
 31
0.0
1001
DBPROPERTIES
1002
{
1000
PbHidd
1002
}
  0
ARC
  5
31B
330
1F
100
AcDbEntity
  8
HIDDEN
100
AcDbCircle
 10
0.0
 20
0.0000000000000196
 30
0.0
 40
142.0
100
AcDbArc
 50
105.0000163525566
 51
110.9999730873871
1001
DBPROPERTIES
1002
{
1000
PbHidd
1002
}
  0
LINE
  5
31C
330
1F
100
AcDbEntity
  8
HIDDEN
100
AcDbLine
 10
-36.34874916816614
 20
94.69172897328758
 30
0.0
 11
-50.88824883543259
 21
132.5684205626026
 31
0.0
1001
DBPROPERTIES
1002
{
1000
PbHidd
1002
}
  0
LINE
  5
31D
330
1F
100
AcDbEntity
  8
HIDDEN
100
AcDbLine
 10
-64.46665096301561
 20
126.5229264347482
 30
0.0
 11
-46.04760783072544
 21
90.37351888196304
 31
0.0
1001
DBPROPERTIES
1002
{
1000
PbHidd
1002
}
  0
ARC
  5
31E
330
1F
100
AcDbEntity
  8
HIDDEN
100
AcDbCircle
 10
0.0
 20
0.0000000000000196
 30
0.0
 40
142.0
100
AcDbArc
 50
116.9999871179971
 51
123.000001148607
1001
DBPROPERTIES
1002
{
1000
PbHidd
1002
}
  0
LINE
  5
31F
330
1F
100
AcDbEntity
  8
HIDDEN
100
AcDbLine
 10
-55.24195926580986
 20
85.06515760589298
 30
0.0
 11
-77.33874297213379
 21
119.0912206482502
 31
0.0
1001
DBPROPERTIES
1002
{
1000
PbHidd
1002
}
  0
LINE
  5
320
330
1F
100
AcDbEntity
  8
HIDDEN
100
AcDbLine
 10
-89.36349552907683
 20
110.3547265268898
 30
0.0
 11
-63.8310682350549
 21
78.82480466206414
 31
0.0
1001
DBPROPERTIES
1002
{
1000
PbHidd
1002
}
  0
ARC
  5
321
330
1F
100
AcDbEntity
  8
HIDDEN
100
AcDbCircle
 10
0.0
 20
0.0000000000000196
 30
0.0
 40
142.0
100
AcDbArc
 50
129.000015179217
 51
134.9999719140475
1001
DBPROPERTIES
1002
{
1000
PbHidd
1002
}
  0
LINE
  5
322
330
1F
100
AcDbEntity
  8
HIDDEN
100
AcDbLine
 10
-71.72083066320693
 20
71.72083066320694
 30
0.0
 11
-100.4091629284897
 21
100.4091629284897
 31
0.0
1001
DBPROPERTIES
1002
{
1000
PbHidd
1002
}
  0
LINE
  5
323
330
1F
100
AcDbEntity
  8
HIDDEN
100
AcDbLine
 10
-110.3547265268898
 20
89.36349552907691
 30
0.0
 11
-78.82480466206417
 21
63.83106823505494
 31
0.0
1001
DBPROPERTIES
1002
{
1000
PbHidd
1002
}
  0
ARC
  5
324
330
1F
100
AcDbEntity
  8
HIDDEN
100
AcDbCircle
 10
0.0
 20
0.0000000000000196
 30
0.0
 40
142.0
100
AcDbArc
 50
140.9999859446575
 51
146.9999999752674
1001
DBPROPERTIES
1002
{
1000
PbHidd
1002
}
  0
LINE
  5
325
330
1F
100
AcDbEntity
  8
HIDDEN
100
AcDbLine
 10
-85.06515760589295
 20
55.24195926580989
 30
0.0
 11
-119.0912206482501
 21
77.33874297213383
 31
0.0
1001
DBPROPERTIES
1002
{
1000
PbHidd
1002
}
  0
LINE
  5
326
330
1F
100
AcDbEntity
  8
HIDDEN
100
AcDbLine
 10
-126.5229264347481
 20
64.46665096301564
 30
0.0
 11
-90.37351888196298
 21
46.04760783072547
 31
0.0
1001
DBPROPERTIES
1002
{
1000
PbHidd
1002
}
  0
ARC
  5
327
330
1F
100
AcDbEntity
  8
HIDDEN
100
AcDbCircle
 10
0.0
 20
0.0000000000000196
 30
0.0
 40
142.0
100
AcDbArc
 50
153.0000140058774
 51
159.0000280364874
1001
DBPROPERTIES
1002
{
1000
PbHidd
1002
}
  0
LINE
  5
328
330
1F
100
AcDbEntity
  8
HIDDEN
100
AcDbLine
 10
-94.69172897328755
 20
36.34874916816618
 30
0.0
 11
-132.5684205626025
 21
50.88824883543263
 31
0.0
1001
DBPROPERTIES
1002
{
1000
PbHidd
1002
}
  0
LINE
  5
329
330
1F
100
AcDbEntity
  8
HIDDEN
100
AcDbLine
 10
-137.1614673330477
 20
36.75230440455795
 30
0.0
 11
-97.97247666646263
 21
26.25164600325569
 31
0.0
1001
DBPROPERTIES
1002
{
1000
PbHidd
1002
}
  0
ARC
  5
32A
330
1F
100
AcDbEntity
  8
HIDDEN
100
AcDbCircle
 10
0.0
 20
0.0000000000000196
 30
0.0
 40
142.0
100
AcDbArc
 50
164.9999847713179
 51
170.9999988019279
1001
DBPROPERTIES
1002
{
1000
PbHidd
1002
}
  0
LINE
  5
32B
330
1F
100
AcDbEntity
  8
HIDDEN
100
AcDbLine
 10
-100.1798174032211
 20
15.86692431122343
 30
0.0
 11
-140.2517443645094
 21
22.21369403571279
 31
0.0
1001
DBPROPERTIES
1002
{
1000
PbHidd
1002
}
  0
LINE
  5
32C
330
1F
100
AcDbEntity
  8
HIDDEN
100
AcDbLine
 10
-141.8053939351494
 20
7.431705786498046
 30
0.0
 11
-101.2895670965353
 21
5.308361276070033
 31
0.0
1001
DBPROPERTIES
1002
{
1000
PbHidd
1002
}
  0
ARC
  5
32D
330
1F
100
AcDbEntity
  8
HIDDEN
100
AcDbCircle
 10
0.0
 20
0.0000000000000196
 30
0.0
 40
142.0
100
AcDbArc
 50
177.0000128325378
 51
182.9999871674622
1001
DBPROPERTIES
1002
{
1000
PbHidd
1002
}
  0
LINE
  5
32E
330
1F
100
AcDbEntity
  8
HIDDEN
100
AcDbLine
 10
-101.2895670965353
 20
-5.308361276069981
 30
0.0
 11
-141.8053939351494
 21
-7.431705786497973
 31
0.0
1001
DBPROPERTIES
1002
{
1000
PbHidd
1002
}
  0
LINE
  5
32F
330
1F
100
AcDbEntity
  8
HIDDEN
100
AcDbLine
 10
-140.2517443645095
 20
-22.21369403571273
 30
0.0
 11
-100.1798174032211
 21
-15.86692431122338
 31
0.0
1001
DBPROPERTIES
1002
{
1000
PbHidd
1002
}
  0
ARC
  5
330
330
1F
100
AcDbEntity
  8
HIDDEN
100
AcDbCircle
 10
0.0
 20
0.0000000000000196
 30
0.0
 40
142.0
100
AcDbArc
 50
189.0000011980722
 51
195.0000152286821
1001
DBPROPERTIES
1002
{
1000
PbHidd
1002
}
  0
LINE
  5
331
330
1F
100
AcDbEntity
  8
HIDDEN
100
AcDbLine
 10
-97.97247666646258
 20
-26.25164600325564
 30
0.0
 11
-137.1614673330476
 21
-36.75230440455788
 31
0.0
1001
DBPROPERTIES
1002
{
1000
PbHidd
1002
}
  0
LINE
  5
332
330
1F
100
AcDbEntity
  8
HIDDEN
100
AcDbLine
 10
-132.5684205626025
 20
-50.88824883543256
 30
0.0
 11
-94.69172897328757
 21
-36.34874916816613
 31
0.0
1001
DBPROPERTIES
1002
{
1000
PbHidd
1002
}
  0
ARC
  5
333
330
1F
100
AcDbEntity
  8
HIDDEN
100
AcDbCircle
 10
0.0
 20
0.0000000000000196
 30
0.0
 40
142.0
100
AcDbArc
 50
200.9999719635126
 51
206.9999859941226
1001
DBPROPERTIES
1002
{
1000
PbHidd
1002
}
  0
LINE
  5
334
330
1F
100
AcDbEntity
  8
HIDDEN
100
AcDbLine
 10
-90.37351888196298
 20
-46.04760783072541
 30
0.0
 11
-126.5229264347482
 21
-64.46665096301557
 31
0.0
1001
DBPROPERTIES
1002
{
1000
PbHidd
1002
}
  0
LINE
  5
335
330
1F
100
AcDbEntity
  8
HIDDEN
100
AcDbLine
 10
-119.0912206482502
 20
-77.33874297213382
 30
0.0
 11
-85.065157605893
 21
-55.24195926580987
 31
0.0
1001
DBPROPERTIES
1002
{
1000
PbHidd
1002
}
  0
ARC
  5
336
330
1F
100
AcDbEntity
  8
HIDDEN
100
AcDbCircle
 10
0.0
 20
0.0000000000000196
 30
0.0
 40
142.0
100
AcDbArc
 50
213.0000000247326
 51
219.0000140553425
1001
DBPROPERTIES
1002
{
1000
PbHidd
1002
}
  0
LINE
  5
337
330
1F
100
AcDbEntity
  8
HIDDEN
100
AcDbLine
 10
-78.82480466206417
 20
-63.83106823505489
 30
0.0
 11
-110.3547265268898
 21
-89.36349552907683
 31
0.0
1001
DBPROPERTIES
1002
{
1000
PbHidd
1002
}
  0
LINE
  5
338
330
1F
100
AcDbEntity
  8
HIDDEN
100
AcDbLine
 10
-100.4091629284897
 20
-100.4091629284897
 30
0.0
 11
-71.72083066320695
 21
-71.72083066320693
 31
0.0
1001
DBPROPERTIES
1002
{
1000
PbHidd
1002
}
  0
ARC
  5
339
330
1F
100
AcDbEntity
  8
HIDDEN
100
AcDbCircle
 10
0.0
 20
0.0000000000000196
 30
0.0
 40
142.0
100
AcDbArc
 50
225.0000280859525
 51
230.999984820783
1001
DBPROPERTIES
1002
{
1000
PbHidd
1002
}
  0
LINE
  5
33A
330
1F
100
AcDbEntity
  8
HIDDEN
100
AcDbLine
 10
-63.83106823505494
 20
-78.82480466206408
 30
0.0
 11
-89.36349552907689
 21
-110.3547265268897
 31
0.0
1001
DBPROPERTIES
1002
{
1000
PbHidd
1002
}
  0
LINE
  5
33B
330
1F
100
AcDbEntity
  8
HIDDEN
100
AcDbLine
 10
-77.33874297213386
 20
-119.0912206482501
 30
0.0
 11
-55.2419592658099
 21
-85.06515760589292
 31
0.0
1001
DBPROPERTIES
1002
{
1000
PbHidd
1002
}
  0
ARC
  5
33C
330
1F
100
AcDbEntity
  8
HIDDEN
100
AcDbCircle
 10
0.0
 20
0.0000000000000196
 30
0.0
 40
142.0
100
AcDbArc
 50
236.999998851393
 51
243.0000128820029
1001
DBPROPERTIES
1002
{
1000
PbHidd
1002
}
  0
LINE
  5
33D
330
1F
100
AcDbEntity
  8
HIDDEN
100
AcDbLine
 10
-46.04760783072545
 20
-90.37351888196295
 30
0.0
 11
-64.46665096301562
 21
-126.5229264347481
 31
0.0
1001
DBPROPERTIES
1002
{
1000
PbHidd
1002
}
  0
LINE
  5
33E
330
1F
100
AcDbEntity
  8
HIDDEN
100
AcDbLine
 10
-50.88824883543265
 20
-132.5684205626026
 30
0.0
 11
-36.34874916816617
 21
-94.69172897328754
 31
0.0
1001
DBPROPERTIES
1002
{
1000
PbHidd
1002
}
  0
ARC
  5
33F
330
1F
100
AcDbEntity
  8
HIDDEN
100
AcDbCircle
 10
0.0
 20
0.0000000000000196
 30
0.0
 40
142.0
100
AcDbArc
 50
249.0000269126129
 51
254.9999836474434
1001
DBPROPERTIES
1002
{
1000
PbHidd
1002
}
  0
LINE
  5
340
330
1F
100
AcDbEntity
  8
HIDDEN
100
AcDbLine
 10
-26.2516460032557
 20
-97.97247666646257
 30
0.0
 11
-36.75230440455796
 21
-137.1614673330475
 31
0.0
1001
DBPROPERTIES
1002
{
1000
PbHidd
1002
}
  0
LINE
  5
341
330
1F
100
AcDbEntity
  8
HIDDEN
100
AcDbLine
 10
-22.21369403571282
 20
-140.2517443645095
 30
0.0
 11
-15.86692431122344
 21
-100.1798174032211
 31
0.0
1001
DBPROPERTIES
1002
{
1000
PbHidd
1002
}
  0
ARC
  5
342
330
1F
100
AcDbEntity
  8
HIDDEN
100
AcDbCircle
 10
0.0
 20
0.0000000000000196
 30
0.0
 40
142.0
100
AcDbArc
 50
260.9999976780534
 51
267.0000117086634
1001
DBPROPERTIES
1002
{
1000
PbHidd
1002
}
  0
LINE
  5
343
330
1F
100
AcDbEntity
  8
HIDDEN
100
AcDbLine
 10
-5.30836127607007
 20
-101.2895670965353
 30
0.0
 11
-7.431705786498097
 21
-141.8053939351494
 31
0.0
1001
DBPROPERTIES
1002
{
1000
PbHidd
1002
}
  0
LINE
  5
344
330
1F
100
AcDbEntity
  8
HIDDEN
100
AcDbLine
 10
7.431705786497941
 20
-141.8053939351494
 30
0.0
 11
5.308361276069958
 21
-101.2895670965353
 31
0.0
1001
DBPROPERTIES
1002
{
1000
PbHidd
1002
}
  0
ARC
  5
345
330
1F
100
AcDbEntity
  8
HIDDEN
100
AcDbCircle
 10
0.0
 20
0.0000000000000196
 30
0.0
 40
142.0
100
AcDbArc
 50
273.0000257392733
 51
278.9999824741038
1001
DBPROPERTIES
1002
{
1000
PbHidd
1002
}
  0
LINE
  5
346
330
1F
100
AcDbEntity
  8
HIDDEN
100
AcDbLine
 10
15.86692431122338
 20
-100.1798174032211
 30
0.0
 11
22.21369403571273
 21
-140.2517443645094
 31
0.0
1001
DBPROPERTIES
1002
{
1000
PbHidd
1002
}
  0
LINE
  5
347
330
1F
100
AcDbEntity
  8
HIDDEN
100
AcDbLine
 10
36.75230440455789
 20
-137.1614673330476
 30
0.0
 11
26.25164600325564
 21
-97.9724766664626
 31
0.0
1001
DBPROPERTIES
1002
{
1000
PbHidd
1002
}
  0
ARC
  5
348
330
1F
100
AcDbEntity
  8
HIDDEN
100
AcDbCircle
 10
0.0
 20
0.0000000000000196
 30
0.0
 40
142.0
100
AcDbArc
 50
284.9999965047138
 51
291.0000105353237
1001
DBPROPERTIES
1002
{
1000
PbHidd
1002
}
  0
LINE
  5
349
330
1F
100
AcDbEntity
  8
HIDDEN
100
AcDbLine
 10
36.34874916816611
 20
-94.69172897328755
 30
0.0
 11
50.88824883543253
 21
-132.5684205626025
 31
0.0
1001
DBPROPERTIES
1002
{
1000
PbHidd
1002
}
  0
LINE
  5
34A
330
1F
100
AcDbEntity
  8
HIDDEN
100
AcDbLine
 10
64.46665096301555
 20
-126.5229264347482
 30
0.0
 11
46.0476078307254
 21
-90.37351888196301
 31
0.0
1001
DBPROPERTIES
1002
{
1000
PbHidd
1002
}
  0
ARC
  5
34B
330
1F
100
AcDbEntity
  8
HIDDEN
100
AcDbCircle
 10
0.0
 20
0.0000000000000196
 30
0.0
 40
142.0
100
AcDbArc
 50
297.0000245659338
 51
302.9999813007643
1001
DBPROPERTIES
1002
{
1000
PbHidd
1002
}
  0
LINE
  5
34C
330
1F
100
AcDbEntity
  8
HIDDEN
100
AcDbLine
 10
55.24195926580981
 20
-85.06515760589298
 30
0.0
 11
77.33874297213373
 21
-119.0912206482502
 31
0.0
1001
DBPROPERTIES
1002
{
1000
PbHidd
1002
}
  0
LINE
  5
34D
330
1F
100
AcDbEntity
  8
HIDDEN
100
AcDbLine
 10
89.36349552907677
 20
-110.3547265268898
 30
0.0
 11
63.83106823505486
 21
-78.82480466206417
 31
0.0
1001
DBPROPERTIES
1002
{
1000
PbHidd
1002
}
  0
ARC
  5
34E
330
1F
100
AcDbEntity
  8
HIDDEN
100
AcDbCircle
 10
0.0
 20
0.0000000000000196
 30
0.0
 40
142.0
100
AcDbArc
 50
308.9999953313742
 51
315.0000093619842
1001
DBPROPERTIES
1002
{
1000
PbHidd
1002
}
  0
LINE
  5
34F
330
1F
100
AcDbEntity
  8
HIDDEN
100
AcDbLine
 10
71.7208306632069
 20
-71.72083066320695
 30
0.0
 11
100.4091629284896
 21
-100.4091629284897
 31
0.0
1001
DBPROPERTIES
1002
{
1000
PbHidd
1002
}
  0
LINE
  5
350
330
1F
100
AcDbEntity
  8
HIDDEN
100
AcDbLine
 10
110.3547265268897
 20
-89.36349552907689
 30
0.0
 11
78.82480466206412
 21
-63.83106823505493
 31
0.0
1001
DBPROPERTIES
1002
{
1000
PbHidd
1002
}
  0
ARC
  5
351
330
1F
100
AcDbEntity
  8
HIDDEN
100
AcDbCircle
 10
0.0
 20
0.0000000000000196
 30
0.0
 40
142.0
100
AcDbArc
 50
321.0000233925941
 51
326.9999801274246
1001
DBPROPERTIES
1002
{
1000
PbHidd
1002
}
  0
LINE
  5
352
330
1F
100
AcDbEntity
  8
HIDDEN
100
AcDbLine
 10
85.06515760589295
 20
-55.2419592658099
 30
0.0
 11
119.0912206482501
 21
-77.33874297213387
 31
0.0
1001
DBPROPERTIES
1002
{
1000
PbHidd
1002
}
  0
LINE
  5
353
330
1F
100
AcDbEntity
  8
HIDDEN
100
AcDbLine
 10
126.5229264347482
 20
-64.46665096301567
 30
0.0
 11
90.37351888196298
 21
-46.04760783072548
 31
0.0
1001
DBPROPERTIES
1002
{
1000
PbHidd
1002
}
  0
ARC
  5
354
330
1F
100
AcDbEntity
  8
HIDDEN
100
AcDbCircle
 10
0.0
 20
0.0000000000000196
 30
0.0
 40
142.0
100
AcDbArc
 50
332.9999941580346
 51
339.0000081886445
1001
DBPROPERTIES
1002
{
1000
PbHidd
1002
}
  0
LINE
  5
355
330
1F
100
AcDbEntity
  8
HIDDEN
100
AcDbLine
 10
94.69172897328754
 20
-36.34874916816622
 30
0.0
 11
132.5684205626025
 21
-50.8882488354327
 31
0.0
1001
DBPROPERTIES
1002
{
1000
PbHidd
1002
}
  0
LINE
  5
356
330
1F
100
AcDbEntity
  8
HIDDEN
100
AcDbLine
 10
137.1614673330477
 20
-36.75230440455803
 30
0.0
 11
97.9724766664626
 21
-26.25164600325573
 31
0.0
1001
DBPROPERTIES
1002
{
1000
PbHidd
1002
}
  0
ARC
  5
357
330
1F
100
AcDbEntity
  8
HIDDEN
100
AcDbCircle
 10
0.0
 20
0.0000000000000196
 30
0.0
 40
142.0
100
AcDbArc
 50
345.0000222192546
 51
350.9999789540851
1001
DBPROPERTIES
1002
{
1000
PbHidd
1002
}
  0
LINE
  5
358
330
1F
100
AcDbEntity
  8
HIDDEN
100
AcDbLine
 10
100.1798174032211
 20
-15.86692431122344
 30
0.0
 11
140.2517443645094
 21
-22.21369403571281
 31
0.0
1001
DBPROPERTIES
1002
{
1000
PbHidd
1002
}
  0
LINE
  5
359
330
1F
100
AcDbEntity
  8
HIDDEN
100
AcDbLine
 10
141.8053939351494
 20
-7.43170578649806
 30
0.0
 11
101.2895670965353
 21
-5.308361276070043
 31
0.0
1001
DBPROPERTIES
1002
{
1000
PbHidd
1002
}
  0
ARC
  5
35A
330
1F
100
AcDbEntity
  8
HIDDEN
100
AcDbCircle
 10
0.0
 20
0.0000000000000196
 30
0.0
 40
142.0
100
AcDbArc
 50
356.999992984695
 51
3.00000701530499
1001
DBPROPERTIES
1002
{
1000
PbHidd
1002
}
  0
LINE
  5
35B
330
1F
100
AcDbEntity
  8
HIDDEN
100
AcDbLine
 10
101.2895670965353
 20
5.308361276069926
 30
0.0
 11
141.8053939351494
 21
7.431705786497893
 31
0.0
1001
DBPROPERTIES
1002
{
1000
PbHidd
1002
}
  0
LINE
  5
35C
330
1F
100
AcDbEntity
  8
HIDDEN
100
AcDbLine
 10
140.2517443645095
 20
22.21369403571266
 30
0.0
 11
100.1798174032211
 21
15.86692431122333
 31
0.0
1001
DBPROPERTIES
1002
{
1000
PbHidd
1002
}
  0
ARC
  5
35D
330
1F
100
AcDbEntity
  8
HIDDEN
100
AcDbCircle
 10
0.0
 20
0.0000000000000196
 30
0.0
 40
142.0
100
AcDbArc
 50
9.000021045914972
 51
14.99997778074544
1001
DBPROPERTIES
1002
{
1000
PbHidd
1002
}
  0
LINE
  5
35E
330
1F
100
AcDbEntity
  8
HIDDEN
100
AcDbLine
 10
97.97247666646261
 20
26.2516460032556
 30
0.0
 11
137.1614673330476
 21
36.75230440455783
 31
0.0
1001
DBPROPERTIES
1002
{
1000
PbHidd
1002
}
  0
LINE
  5
35F
330
1F
100
AcDbEntity
  8
HIDDEN
100
AcDbLine
 10
132.5684205626026
 20
50.88824883543252
 30
0.0
 11
94.69172897328758
 21
36.34874916816609
 31
0.0
1001
DBPROPERTIES
1002
{
1000
PbHidd
1002
}
  0
ARC
  5
360
330
1F
100
AcDbEntity
  8
HIDDEN
100
AcDbCircle
 10
0.0
 20
0.0000000000000196
 30
0.0
 40
142.0
100
AcDbArc
 50
20.99999181135542
 51
27.0000058419654
1001
DBPROPERTIES
1002
{
1000
PbHidd
1002
}
  0
LINE
  5
361
330
1F
100
AcDbEntity
  8
HIDDEN
100
AcDbLine
 10
90.373518881963
 20
46.04760783072541
 30
0.0
 11
126.5229264347481
 21
64.46665096301555
 31
0.0
1001
DBPROPERTIES
1002
{
1000
PbHidd
1002
}
  0
LINE
  5
362
330
1F
100
AcDbEntity
  8
HIDDEN
100
AcDbLine
 10
119.0912206482502
 20
77.33874297213377
 30
0.0
 11
85.065157605893
 21
55.24195926580985
 31
0.0
1001
DBPROPERTIES
1002
{
1000
PbHidd
1002
}
  0
ARC
  5
363
330
1F
100
AcDbEntity
  8
HIDDEN
100
AcDbCircle
 10
0.0
 20
0.0000000000000196
 30
0.0
 40
142.0
100
AcDbArc
 50
33.00001987257539
 51
38.99997660740585
1001
DBPROPERTIES
1002
{
1000
PbHidd
1002
}
  0
LINE
  5
364
330
1F
100
AcDbEntity
  8
HIDDEN
100
AcDbLine
 10
78.82480466206422
 20
63.83106823505486
 30
0.0
 11
110.3547265268899
 21
89.3634955290768
 31
0.0
1001
DBPROPERTIES
1002
{
1000
PbHidd
1002
}
  0
LINE
  5
365
330
1F
100
AcDbEntity
  8
HIDDEN
100
AcDbLine
 10
100.4091629284898
 20
100.4091629284896
 30
0.0
 11
71.72083066320701
 21
71.72083066320688
 31
0.0
1001
DBPROPERTIES
1002
{
1000
PbHidd
1002
}
  0
ARC
  5
366
330
1F
100
AcDbEntity
  8
HIDDEN
100
AcDbCircle
 10
0.0
 20
0.0000000000000196
 30
0.0
 40
142.0
100
AcDbArc
 50
44.99999063801582
 51
51.00000466862581
1001
DBPROPERTIES
1002
{
1000
PbHidd
1002
}
  0
LINE
  5
367
330
1F
100
AcDbEntity
  8
HIDDEN
100
AcDbLine
 10
63.83106823505496
 20
78.82480466206411
 30
0.0
 11
89.36349552907691
 21
110.3547265268897
 31
0.0
1001
DBPROPERTIES
1002
{
1000
PbHidd
1002
}
  0
LINE
  5
368
330
1F
100
AcDbEntity
  8
HIDDEN
100
AcDbLine
 10
77.33874297213387
 20
119.0912206482501
 30
0.0
 11
55.24195926580992
 21
85.06515760589295
 31
0.0
1001
DBPROPERTIES
1002
{
1000
PbHidd
1002
}
  0
ARC
  5
369
330
1F
100
AcDbEntity
  8
HIDDEN
100
AcDbCircle
 10
0.0
 20
0.0000000000000196
 30
0.0
 40
142.0
100
AcDbArc
 50
57.0000186992358
 51
62.99997543406626
1001
DBPROPERTIES
1002
{
1000
PbHidd
1002
}
  0
LINE
  5
36A
330
1F
100
AcDbEntity
  8
HIDDEN
100
AcDbLine
 10
46.0476078307255
 20
90.37351888196298
 30
0.0
 11
64.4666509630157
 21
126.5229264347482
 31
0.0
1001
DBPROPERTIES
1002
{
1000
PbHidd
1002
}
  0
LINE
  5
36B
330
1F
100
AcDbEntity
  8
HIDDEN
100
AcDbLine
 10
50.88824883543266
 20
132.5684205626026
 30
0.0
 11
36.34874916816619
 21
94.69172897328758
 31
0.0
1001
DBPROPERTIES
1002
{
1000
PbHidd
1002
}
  0
ARC
  5
36C
330
1F
100
AcDbEntity
  8
HIDDEN
100
AcDbCircle
 10
0.0
 20
0.0000000000000196
 30
0.0
 40
142.0
100
AcDbArc
 50
68.99998946467625
 51
75.00000349528622
1001
DBPROPERTIES
1002
{
1000
PbHidd
1002
}
  0
LINE
  5
36D
330
1F
100
AcDbEntity
  8
HIDDEN
100
AcDbLine
 10
26.25164600325576
 20
97.9724766664626
 30
0.0
 11
36.75230440455804
 21
137.1614673330475
 31
0.0
1001
DBPROPERTIES
1002
{
1000
PbHidd
1002
}
  0
LINE
  5
36E
330
1F
100
AcDbEntity
  8
HIDDEN
100
AcDbLine
 10
22.21369403571291
 20
140.2517443645095
 30
0.0
 11
15.86692431122351
 21
100.1798174032211
 31
0.0
1001
DBPROPERTIES
1002
{
1000
PbHidd
1002
}
  0
LINE
  5
36F
330
1F
100
AcDbEntity
  8
HIDDEN
100
AcDbLine
 10
-22.21369403571277
 20
140.2517443645096
 30
0.0
 11
-22.21369403571277
 21
140.2517443645096
 31
0.0
1001
DBPROPERTIES
1002
{
1000
PbHidd
1002
}
  0
LINE
  5
370
330
1F
100
AcDbEntity
  8
HIDDEN
100
AcDbLine
 10
9.240062401709691
 20
58.3394579844861
 30
0.0
 11
13.88355877232058
 21
87.65734022781847
 31
0.0
1001
DBPROPERTIES
1002
{
1000
PbHidd
1002
}
  0
LINE
  5
371
330
1F
100
AcDbEntity
  8
HIDDEN
100
AcDbLine
 10
9.240062401709686
 20
58.33945798448611
 30
0.0
 11
9.240062401709686
 21
58.33945798448611
 31
0.0
1001
DBPROPERTIES
1002
{
1000
PbHidd
1002
}
  0
LINE
  5
372
330
1F
100
AcDbEntity
  8
HIDDEN
100
AcDbLine
 10
21.16760021980908
 20
55.14348385843469
 30
0.0
 11
31.80515552214543
 21
82.85526285162665
 31
0.0
1001
DBPROPERTIES
1002
{
1000
PbHidd
1002
}
  0
LINE
  5
373
330
1F
100
AcDbEntity
  8
HIDDEN
100
AcDbLine
 10
21.16760021980908
 20
55.14348385843469
 30
0.0
 11
21.16760021980908
 21
55.14348385843469
 31
0.0
1001
DBPROPERTIES
1002
{
1000
PbHidd
1002
}
  0
LINE
  5
374
330
1F
100
AcDbEntity
  8
HIDDEN
100
AcDbLine
 10
50.88824883543268
 20
132.5684205626027
 30
0.0
 11
50.88824883543268
 21
132.5684205626027
 31
0.0
1001
DBPROPERTIES
1002
{
1000
PbHidd
1002
}
  0
LINE
  5
375
330
1F
100
AcDbEntity
  8
HIDDEN
100
AcDbLine
 10
64.46665096301571
 20
126.5229264347482
 30
0.0
 11
64.46665096301571
 21
126.5229264347482
 31
0.0
1001
DBPROPERTIES
1002
{
1000
PbHidd
1002
}
  0
LINE
  5
376
330
1F
100
AcDbEntity
  8
HIDDEN
100
AcDbLine
 10
77.33874297213394
 20
119.0912206482502
 30
0.0
 11
77.33874297213394
 21
119.0912206482502
 31
0.0
1001
DBPROPERTIES
1002
{
1000
PbHidd
1002
}
  0
LINE
  5
377
330
1F
100
AcDbEntity
  8
HIDDEN
100
AcDbLine
 10
32.17001233488762
 20
49.53747487997634
 30
0.0
 11
48.33671435758369
 21
74.43201290515634
 31
0.0
1001
DBPROPERTIES
1002
{
1000
PbHidd
1002
}
  0
LINE
  5
378
330
1F
100
AcDbEntity
  8
HIDDEN
100
AcDbLine
 10
32.17001233488762
 20
49.53747487997634
 30
0.0
 11
32.17001233488762
 21
49.53747487997634
 31
0.0
1001
DBPROPERTIES
1002
{
1000
PbHidd
1002
}
  0
LINE
  5
379
330
1F
100
AcDbEntity
  8
HIDDEN
100
AcDbLine
 10
89.36349552907697
 20
110.3547265268898
 30
0.0
 11
89.36349552907697
 21
110.3547265268898
 31
0.0
1001
DBPROPERTIES
1002
{
1000
PbHidd
1002
}
  0
LINE
  5
37A
330
1F
100
AcDbEntity
  8
HIDDEN
100
AcDbLine
 10
100.4091629284898
 20
100.4091629284897
 30
0.0
 11
100.4091629284898
 21
100.4091629284897
 31
0.0
1001
DBPROPERTIES
1002
{
1000
PbHidd
1002
}
  0
LINE
  5
37B
330
1F
100
AcDbEntity
  8
HIDDEN
100
AcDbLine
 10
41.76644054208543
 20
41.76644054208536
 30
0.0
 11
62.75572683030614
 21
62.75572683030603
 31
0.0
1001
DBPROPERTIES
1002
{
1000
PbHidd
1002
}
  0
LINE
  5
37C
330
1F
100
AcDbEntity
  8
HIDDEN
100
AcDbLine
 10
41.76644054208543
 20
41.76644054208536
 30
0.0
 11
41.76644054208543
 21
41.76644054208536
 31
0.0
1001
DBPROPERTIES
1002
{
1000
PbHidd
1002
}
  0
LINE
  5
37D
330
1F
100
AcDbEntity
  8
HIDDEN
100
AcDbLine
 10
110.3547265268899
 20
89.36349552907683
 30
0.0
 11
110.3547265268899
 21
89.36349552907683
 31
0.0
1001
DBPROPERTIES
1002
{
1000
PbHidd
1002
}
  0
LINE
  5
37E
330
1F
100
AcDbEntity
  8
HIDDEN
100
AcDbLine
 10
119.0912206482502
 20
77.3387429721338
 30
0.0
 11
119.0912206482502
 21
77.3387429721338
 31
0.0
1001
DBPROPERTIES
1002
{
1000
PbHidd
1002
}
  0
LINE
  5
37F
330
1F
100
AcDbEntity
  8
HIDDEN
100
AcDbLine
 10
49.53747487997637
 20
32.17001233488757
 30
0.0
 11
74.43201290515637
 21
48.33671435758362
 31
0.0
1001
DBPROPERTIES
1002
{
1000
PbHidd
1002
}
  0
LINE
  5
380
330
1F
100
AcDbEntity
  8
HIDDEN
100
AcDbLine
 10
49.53747487997637
 20
32.17001233488758
 30
0.0
 11
49.53747487997637
 21
32.17001233488758
 31
0.0
1001
DBPROPERTIES
1002
{
1000
PbHidd
1002
}
  0
LINE
  5
381
330
1F
100
AcDbEntity
  8
HIDDEN
100
AcDbLine
 10
126.5229264347483
 20
64.4666509630156
 30
0.0
 11
126.5229264347483
 21
64.4666509630156
 31
0.0
1001
DBPROPERTIES
1002
{
1000
PbHidd
1002
}
  0
LINE
  5
382
330
1F
100
AcDbEntity
  8
HIDDEN
100
AcDbLine
 10
132.5684205626027
 20
50.88824883543255
 30
0.0
 11
132.5684205626027
 21
50.88824883543256
 31
0.0
1001
DBPROPERTIES
1002
{
1000
PbHidd
1002
}
  0
LINE
  5
383
330
1F
100
AcDbEntity
  8
HIDDEN
100
AcDbLine
 10
55.14348385843471
 20
21.16760021980902
 30
0.0
 11
82.85526285162666
 21
31.80515552214534
 31
0.0
1001
DBPROPERTIES
1002
{
1000
PbHidd
1002
}
  0
LINE
  5
384
330
1F
100
AcDbEntity
  8
HIDDEN
100
AcDbLine
 10
55.14348385843471
 20
21.16760021980903
 30
0.0
 11
55.14348385843471
 21
21.16760021980903
 31
0.0
1001
DBPROPERTIES
1002
{
1000
PbHidd
1002
}
  0
LINE
  5
385
330
1F
100
AcDbEntity
  8
HIDDEN
100
AcDbLine
 10
137.1614673330477
 20
36.75230440455788
 30
0.0
 11
137.1614673330477
 21
36.75230440455787
 31
0.0
1001
DBPROPERTIES
1002
{
1000
PbHidd
1002
}
  0
LINE
  5
386
330
1F
100
AcDbEntity
  8
HIDDEN
100
AcDbLine
 10
140.2517443645096
 20
22.21369403571266
 30
0.0
 11
140.2517443645096
 21
22.21369403571267
 31
0.0
1001
DBPROPERTIES
1002
{
1000
PbHidd
1002
}
  0
LINE
  5
387
330
1F
100
AcDbEntity
  8
HIDDEN
100
AcDbLine
 10
58.33945798448613
 20
9.240062401709583
 30
0.0
 11
87.65734022781848
 21
13.88355877232041
 31
0.0
1001
DBPROPERTIES
1002
{
1000
PbHidd
1002
}
  0
LINE
  5
388
330
1F
100
AcDbEntity
  8
HIDDEN
100
AcDbLine
 10
58.33945798448613
 20
9.240062401709586
 30
0.0
 11
58.33945798448613
 21
9.240062401709586
 31
0.0
1001
DBPROPERTIES
1002
{
1000
PbHidd
1002
}
  0
LINE
  5
389
330
1F
100
AcDbEntity
  8
HIDDEN
100
AcDbLine
 10
141.8053939351495
 20
7.431705786497905
 30
0.0
 11
141.8053939351495
 21
7.4317057864979
 31
0.0
1001
DBPROPERTIES
1002
{
1000
PbHidd
1002
}
  0
LINE
  5
38A
330
1F
100
AcDbEntity
  8
HIDDEN
100
AcDbLine
 10
141.8053939351495
 20
-7.431705786498065
 30
0.0
 11
141.8053939351495
 21
-7.43170578649806
 31
0.0
1001
DBPROPERTIES
1002
{
1000
PbHidd
1002
}
  0
LINE
  5
38B
330
1F
100
AcDbEntity
  8
HIDDEN
100
AcDbLine
 10
58.9857178528368
 20
-3.091310482083231
 30
0.0
 11
88.62837120946838
 21
-4.644816116561289
 31
0.0
1001
DBPROPERTIES
1002
{
1000
PbHidd
1002
}
  0
LINE
  5
38C
330
1F
100
AcDbEntity
  8
HIDDEN
100
AcDbLine
 10
58.98571785283681
 20
-3.091310482083232
 30
0.0
 11
58.98571785283681
 21
-3.091310482083232
 31
0.0
1001
DBPROPERTIES
1002
{
1000
PbHidd
1002
}
  0
LINE
  5
38D
330
1F
100
AcDbEntity
  8
HIDDEN
100
AcDbLine
 10
140.2517443645095
 20
-22.21369403571282
 30
0.0
 11
140.2517443645095
 21
-22.21369403571282
 31
0.0
1001
DBPROPERTIES
1002
{
1000
PbHidd
1002
}
  0
LINE
  5
38E
330
1F
100
AcDbEntity
  8
HIDDEN
100
AcDbLine
 10
137.1614673330477
 20
-36.75230440455803
 30
0.0
 11
137.1614673330477
 21
-36.75230440455802
 31
0.0
1001
DBPROPERTIES
1002
{
1000
PbHidd
1002
}
  0
LINE
  5
38F
330
1F
100
AcDbEntity
  8
HIDDEN
100
AcDbLine
 10
57.05401880614095
 20
-15.2875782640556
 30
0.0
 11
85.7259170831548
 21
-22.97019025284877
 31
0.0
1001
DBPROPERTIES
1002
{
1000
PbHidd
1002
}
  0
LINE
  5
390
330
1F
100
AcDbEntity
  8
HIDDEN
100
AcDbLine
 10
57.05401880614095
 20
-15.28757826405559
 30
0.0
 11
57.05401880614095
 21
-15.28757826405559
 31
0.0
1001
DBPROPERTIES
1002
{
1000
PbHidd
1002
}
  0
LINE
  5
391
330
1F
100
AcDbEntity
  8
HIDDEN
100
AcDbLine
 10
132.5684205626026
 20
-50.88824883543271
 30
0.0
 11
132.5684205626026
 21
-50.88824883543272
 31
0.0
1001
DBPROPERTIES
1002
{
1000
PbHidd
1002
}
  0
LINE
  5
392
330
1F
100
AcDbEntity
  8
HIDDEN
100
AcDbLine
 10
126.5229264347482
 20
-64.4666509630157
 30
0.0
 11
126.5229264347482
 21
-64.4666509630157
 31
0.0
1001
DBPROPERTIES
1002
{
1000
PbHidd
1002
}
  0
LINE
  5
393
330
1F
100
AcDbEntity
  8
HIDDEN
100
AcDbLine
 10
52.62878536205957
 20
-26.81570551794924
 30
0.0
 11
79.07682902171761
 21
-40.2916568518848
 31
0.0
1001
DBPROPERTIES
1002
{
1000
PbHidd
1002
}
  0
LINE
  5
394
330
1F
100
AcDbEntity
  8
HIDDEN
100
AcDbLine
 10
52.62878536205957
 20
-26.81570551794924
 30
0.0
 11
52.62878536205957
 21
-26.81570551794924
 31
0.0
1001
DBPROPERTIES
1002
{
1000
PbHidd
1002
}
  0
LINE
  5
395
330
1F
100
AcDbEntity
  8
HIDDEN
100
AcDbLine
 10
119.0912206482502
 20
-77.33874297213391
 30
0.0
 11
119.0912206482502
 21
-77.33874297213391
 31
0.0
1001
DBPROPERTIES
1002
{
1000
PbHidd
1002
}
  0
LINE
  5
396
330
1F
100
AcDbEntity
  8
HIDDEN
100
AcDbLine
 10
110.3547265268898
 20
-89.36349552907694
 30
0.0
 11
110.3547265268898
 21
-89.36349552907694
 31
0.0
1001
DBPROPERTIES
1002
{
1000
PbHidd
1002
}
  0
LINE
  5
397
330
1F
100
AcDbEntity
  8
HIDDEN
100
AcDbLine
 10
45.90342145672505
 20
-37.17185776467706
 30
0.0
 11
68.97170407930614
 21
-55.85218470567307
 31
0.0
1001
DBPROPERTIES
1002
{
1000
PbHidd
1002
}
  0
LINE
  5
398
330
1F
100
AcDbEntity
  8
HIDDEN
100
AcDbLine
 10
45.90342145672506
 20
-37.17185776467706
 30
0.0
 11
45.90342145672506
 21
-37.17185776467706
 31
0.0
1001
DBPROPERTIES
1002
{
1000
PbHidd
1002
}
  0
LINE
  5
399
330
1F
100
AcDbEntity
  8
HIDDEN
100
AcDbLine
 10
100.4091629284897
 20
-100.4091629284897
 30
0.0
 11
100.4091629284897
 21
-100.4091629284897
 31
0.0
1001
DBPROPERTIES
1002
{
1000
PbHidd
1002
}
  0
LINE
  5
39A
330
1F
100
AcDbEntity
  8
HIDDEN
100
AcDbLine
 10
89.36349552907684
 20
-110.3547265268899
 30
0.0
 11
89.36349552907684
 21
-110.3547265268899
 31
0.0
1001
DBPROPERTIES
1002
{
1000
PbHidd
1002
}
  0
LINE
  5
39B
330
1F
100
AcDbEntity
  8
HIDDEN
100
AcDbLine
 10
37.17185776467702
 20
-45.90342145672508
 30
0.0
 11
55.85218470567302
 21
-68.97170407930618
 31
0.0
1001
DBPROPERTIES
1002
{
1000
PbHidd
1002
}
  0
LINE
  5
39C
330
1F
100
AcDbEntity
  8
HIDDEN
100
AcDbLine
 10
37.17185776467703
 20
-45.90342145672508
 30
0.0
 11
37.17185776467703
 21
-45.90342145672508
 31
0.0
1001
DBPROPERTIES
1002
{
1000
PbHidd
1002
}
  0
LINE
  5
39D
330
1F
100
AcDbEntity
  8
HIDDEN
100
AcDbLine
 10
77.33874297213377
 20
-119.0912206482502
 30
0.0
 11
77.33874297213377
 21
-119.0912206482502
 31
0.0
1001
DBPROPERTIES
1002
{
1000
PbHidd
1002
}
  0
LINE
  5
39E
330
1F
100
AcDbEntity
  8
HIDDEN
100
AcDbLine
 10
64.46665096301558
 20
-126.5229264347482
 30
0.0
 11
64.46665096301558
 21
-126.5229264347482
 31
0.0
1001
DBPROPERTIES
1002
{
1000
PbHidd
1002
}
  0
LINE
  5
39F
330
1F
100
AcDbEntity
  8
HIDDEN
100
AcDbLine
 10
26.8157055179492
 20
-52.62878536205959
 30
0.0
 11
40.29165685188473
 21
-79.07682902171763
 31
0.0
1001
DBPROPERTIES
1002
{
1000
PbHidd
1002
}
  0
LINE
  5
3A0
330
1F
100
AcDbEntity
  8
HIDDEN
100
AcDbLine
 10
26.8157055179492
 20
-52.62878536205959
 30
0.0
 11
26.8157055179492
 21
-52.62878536205959
 31
0.0
1001
DBPROPERTIES
1002
{
1000
PbHidd
1002
}
  0
LINE
  5
3A1
330
1F
100
AcDbEntity
  8
HIDDEN
100
AcDbLine
 10
50.88824883543258
 20
-132.5684205626026
 30
0.0
 11
50.88824883543258
 21
-132.5684205626026
 31
0.0
1001
DBPROPERTIES
1002
{
1000
PbHidd
1002
}
  0
LINE
  5
3A2
330
1F
100
AcDbEntity
  8
HIDDEN
100
AcDbLine
 10
36.75230440455791
 20
-137.1614673330477
 30
0.0
 11
36.75230440455791
 21
-137.1614673330477
 31
0.0
1001
DBPROPERTIES
1002
{
1000
PbHidd
1002
}
  0
LINE
  5
3A3
330
1F
100
AcDbEntity
  8
HIDDEN
100
AcDbLine
 10
15.28757826405554
 20
-57.05401880614095
 30
0.0
 11
22.97019025284869
 21
-85.72591708315477
 31
0.0
1001
DBPROPERTIES
1002
{
1000
PbHidd
1002
}
  0
LINE
  5
3A4
330
1F
100
AcDbEntity
  8
HIDDEN
100
AcDbLine
 10
15.28757826405554
 20
-57.05401880614095
 30
0.0
 11
15.28757826405554
 21
-57.05401880614095
 31
0.0
1001
DBPROPERTIES
1002
{
1000
PbHidd
1002
}
  0
LINE
  5
3A5
330
1F
100
AcDbEntity
  8
HIDDEN
100
AcDbLine
 10
22.21369403571275
 20
-140.2517443645095
 30
0.0
 11
22.21369403571275
 21
-140.2517443645095
 31
0.0
1001
DBPROPERTIES
1002
{
1000
PbHidd
1002
}
  0
LINE
  5
3A6
330
1F
100
AcDbEntity
  8
HIDDEN
100
AcDbLine
 10
7.431705786497945
 20
-141.8053939351495
 30
0.0
 11
7.431705786497945
 21
-141.8053939351495
 31
0.0
1001
DBPROPERTIES
1002
{
1000
PbHidd
1002
}
  0
LINE
  5
3A7
330
1F
100
AcDbEntity
  8
HIDDEN
100
AcDbLine
 10
3.091310482083181
 20
-58.9857178528368
 30
0.0
 11
4.644816116561215
 21
-88.62837120946838
 31
0.0
1001
DBPROPERTIES
1002
{
1000
PbHidd
1002
}
  0
LINE
  5
3A8
330
1F
100
AcDbEntity
  8
HIDDEN
100
AcDbLine
 10
3.091310482083186
 20
-58.98571785283681
 30
0.0
 11
3.091310482083186
 21
-58.98571785283681
 31
0.0
1001
DBPROPERTIES
1002
{
1000
PbHidd
1002
}
  0
LINE
  5
3A9
330
1F
100
AcDbEntity
  8
HIDDEN
100
AcDbLine
 10
-7.431705786498101
 20
-141.8053939351495
 30
0.0
 11
-7.431705786498101
 21
-141.8053939351495
 31
0.0
1001
DBPROPERTIES
1002
{
1000
PbHidd
1002
}
  0
LINE
  5
3AA
330
1F
100
AcDbEntity
  8
HIDDEN
100
AcDbLine
 10
-22.21369403571283
 20
-140.2517443645095
 30
0.0
 11
-22.21369403571283
 21
-140.2517443645095
 31
0.0
1001
DBPROPERTIES
1002
{
1000
PbHidd
1002
}
  0
LINE
  5
3AB
330
1F
100
AcDbEntity
  8
HIDDEN
100
AcDbLine
 10
-9.240062401709654
 20
-58.33945798448612
 30
0.0
 11
-13.88355877232051
 21
-87.65734022781842
 31
0.0
1001
DBPROPERTIES
1002
{
1000
PbHidd
1002
}
  0
LINE
  5
3AC
330
1F
100
AcDbEntity
  8
HIDDEN
100
AcDbLine
 10
-9.24006240170965
 20
-58.33945798448612
 30
0.0
 11
-9.24006240170965
 21
-58.33945798448612
 31
0.0
1001
DBPROPERTIES
1002
{
1000
PbHidd
1002
}
  0
LINE
  5
3AD
330
1F
100
AcDbEntity
  8
HIDDEN
100
AcDbLine
 10
-36.75230440455799
 20
-137.1614673330477
 30
0.0
 11
-36.75230440455799
 21
-137.1614673330477
 31
0.0
1001
DBPROPERTIES
1002
{
1000
PbHidd
1002
}
  0
LINE
  5
3AE
330
1F
100
AcDbEntity
  8
HIDDEN
100
AcDbLine
 10
-50.88824883543267
 20
-132.5684205626026
 30
0.0
 11
-50.88824883543267
 21
-132.5684205626026
 31
0.0
1001
DBPROPERTIES
1002
{
1000
PbHidd
1002
}
  0
LINE
  5
3AF
330
1F
100
AcDbEntity
  8
HIDDEN
100
AcDbLine
 10
-21.16760021980907
 20
-55.14348385843468
 30
0.0
 11
-31.8051555221454
 21
-82.8552628516266
 31
0.0
1001
DBPROPERTIES
1002
{
1000
PbHidd
1002
}
  0
LINE
  5
3B0
330
1F
100
AcDbEntity
  8
HIDDEN
100
AcDbLine
 10
-21.16760021980907
 20
-55.14348385843469
 30
0.0
 11
-21.16760021980907
 21
-55.14348385843469
 31
0.0
1001
DBPROPERTIES
1002
{
1000
PbHidd
1002
}
  0
LINE
  5
3B1
330
1F
100
AcDbEntity
  8
HIDDEN
100
AcDbLine
 10
-64.46665096301568
 20
-126.5229264347482
 30
0.0
 11
-64.46665096301568
 21
-126.5229264347482
 31
0.0
1001
DBPROPERTIES
1002
{
1000
PbHidd
1002
}
  0
LINE
  5
3B2
330
1F
100
AcDbEntity
  8
HIDDEN
100
AcDbLine
 10
-77.33874297213391
 20
-119.0912206482502
 30
0.0
 11
-77.33874297213391
 21
-119.0912206482502
 31
0.0
1001
DBPROPERTIES
1002
{
1000
PbHidd
1002
}
  0
LINE
  5
3B3
330
1F
100
AcDbEntity
  8
HIDDEN
100
AcDbLine
 10
-32.17001233488762
 20
-49.53747487997634
 30
0.0
 11
-48.33671435758368
 21
-74.43201290515633
 31
0.0
1001
DBPROPERTIES
1002
{
1000
PbHidd
1002
}
  0
LINE
  5
3B4
330
1F
100
AcDbEntity
  8
HIDDEN
100
AcDbLine
 10
-32.17001233488762
 20
-49.53747487997634
 30
0.0
 11
-32.17001233488762
 21
-49.53747487997634
 31
0.0
1001
DBPROPERTIES
1002
{
1000
PbHidd
1002
}
  0
LINE
  5
3B5
330
1F
100
AcDbEntity
  8
HIDDEN
100
AcDbLine
 10
-89.36349552907696
 20
-110.3547265268898
 30
0.0
 11
-89.36349552907696
 21
-110.3547265268898
 31
0.0
1001
DBPROPERTIES
1002
{
1000
PbHidd
1002
}
  0
LINE
  5
3B6
330
1F
100
AcDbEntity
  8
HIDDEN
100
AcDbLine
 10
-100.4091629284898
 20
-100.4091629284897
 30
0.0
 11
-100.4091629284898
 21
-100.4091629284897
 31
0.0
1001
DBPROPERTIES
1002
{
1000
PbHidd
1002
}
  0
LINE
  5
3B7
330
1F
100
AcDbEntity
  8
HIDDEN
100
AcDbLine
 10
-41.76644054208539
 20
-41.76644054208537
 30
0.0
 11
-62.75572683030609
 21
-62.75572683030606
 31
0.0
1001
DBPROPERTIES
1002
{
1000
PbHidd
1002
}
  0
LINE
  5
3B8
330
1F
100
AcDbEntity
  8
HIDDEN
100
AcDbLine
 10
-41.76644054208539
 20
-41.76644054208538
 30
0.0
 11
-41.76644054208539
 21
-41.76644054208538
 31
0.0
1001
DBPROPERTIES
1002
{
1000
PbHidd
1002
}
  0
LINE
  5
3B9
330
1F
100
AcDbEntity
  8
HIDDEN
100
AcDbLine
 10
-110.3547265268899
 20
-89.36349552907689
 30
0.0
 11
-110.3547265268899
 21
-89.36349552907689
 31
0.0
1001
DBPROPERTIES
1002
{
1000
PbHidd
1002
}
  0
LINE
  5
3BA
330
1F
100
AcDbEntity
  8
HIDDEN
100
AcDbLine
 10
-119.0912206482502
 20
-77.33874297213382
 30
0.0
 11
-119.0912206482502
 21
-77.33874297213382
 31
0.0
1001
DBPROPERTIES
1002
{
1000
PbHidd
1002
}
  0
LINE
  5
3BB
330
1F
100
AcDbEntity
  8
HIDDEN
100
AcDbLine
 10
-49.53747487997637
 20
-32.17001233488758
 30
0.0
 11
-74.43201290515638
 21
-48.33671435758363
 31
0.0
1001
DBPROPERTIES
1002
{
1000
PbHidd
1002
}
  0
LINE
  5
3BC
330
1F
100
AcDbEntity
  8
HIDDEN
100
AcDbLine
 10
-49.53747487997637
 20
-32.17001233488759
 30
0.0
 11
-49.53747487997637
 21
-32.17001233488759
 31
0.0
1001
DBPROPERTIES
1002
{
1000
PbHidd
1002
}
  0
LINE
  5
3BD
330
1F
100
AcDbEntity
  8
HIDDEN
100
AcDbLine
 10
-126.5229264347482
 20
-64.4666509630156
 30
0.0
 11
-126.5229264347482
 21
-64.4666509630156
 31
0.0
1001
DBPROPERTIES
1002
{
1000
PbHidd
1002
}
  0
LINE
  5
3BE
330
1F
100
AcDbEntity
  8
HIDDEN
100
AcDbLine
 10
-132.5684205626026
 20
-50.8882488354326
 30
0.0
 11
-132.5684205626026
 21
-50.88824883543259
 31
0.0
1001
DBPROPERTIES
1002
{
1000
PbHidd
1002
}
  0
LINE
  5
3BF
330
1F
100
AcDbEntity
  8
HIDDEN
100
AcDbLine
 10
-55.14348385843471
 20
-21.16760021980905
 30
0.0
 11
-82.85526285162663
 21
-31.80515552214537
 31
0.0
1001
DBPROPERTIES
1002
{
1000
PbHidd
1002
}
  0
LINE
  5
3C0
330
1F
100
AcDbEntity
  8
HIDDEN
100
AcDbLine
 10
-55.14348385843471
 20
-21.16760021980905
 30
0.0
 11
-55.14348385843471
 21
-21.16760021980905
 31
0.0
1001
DBPROPERTIES
1002
{
1000
PbHidd
1002
}
  0
LINE
  5
3C1
330
1F
100
AcDbEntity
  8
HIDDEN
100
AcDbLine
 10
-137.1614673330477
 20
-36.7523044045579
 30
0.0
 11
-137.1614673330477
 21
-36.75230440455791
 31
0.0
1001
DBPROPERTIES
1002
{
1000
PbHidd
1002
}
  0
LINE
  5
3C2
330
1F
100
AcDbEntity
  8
HIDDEN
100
AcDbLine
 10
-140.2517443645095
 20
-22.21369403571274
 30
0.0
 11
-140.2517443645095
 21
-22.21369403571274
 31
0.0
1001
DBPROPERTIES
1002
{
1000
PbHidd
1002
}
  0
LINE
  5
3C3
330
1F
100
AcDbEntity
  8
HIDDEN
100
AcDbLine
 10
-58.33945798448612
 20
-9.240062401709615
 30
0.0
 11
-87.65734022781847
 21
-13.88355877232046
 31
0.0
1001
DBPROPERTIES
1002
{
1000
PbHidd
1002
}
  0
LINE
  5
3C4
330
1F
100
AcDbEntity
  8
HIDDEN
100
AcDbLine
 10
-58.33945798448612
 20
-9.240062401709617
 30
0.0
 11
-58.33945798448612
 21
-9.240062401709617
 31
0.0
1001
DBPROPERTIES
1002
{
1000
PbHidd
1002
}
  0
LINE
  5
3C5
330
1F
100
AcDbEntity
  8
HIDDEN
100
AcDbLine
 10
-141.8053939351495
 20
-7.431705786497973
 30
0.0
 11
-141.8053939351495
 21
-7.431705786497978
 31
0.0
1001
DBPROPERTIES
1002
{
1000
PbHidd
1002
}
  0
LINE
  5
3C6
330
1F
100
AcDbEntity
  8
HIDDEN
100
AcDbLine
 10
-141.8053939351495
 20
7.431705786498051
 30
0.0
 11
-141.8053939351495
 21
7.431705786498056
 31
0.0
1001
DBPROPERTIES
1002
{
1000
PbHidd
1002
}
  0
LINE
  5
3C7
330
1F
100
AcDbEntity
  8
HIDDEN
100
AcDbLine
 10
-58.9857178528368
 20
3.091310482083224
 30
0.0
 11
-88.62837120946838
 21
4.644816116561279
 31
0.0
1001
DBPROPERTIES
1002
{
1000
PbHidd
1002
}
  0
LINE
  5
3C8
330
1F
100
AcDbEntity
  8
HIDDEN
100
AcDbLine
 10
-58.9857178528368
 20
3.091310482083225
 30
0.0
 11
-58.9857178528368
 21
3.091310482083225
 31
0.0
1001
DBPROPERTIES
1002
{
1000
PbHidd
1002
}
  0
LINE
  5
3C9
330
1F
100
AcDbEntity
  8
HIDDEN
100
AcDbLine
 10
-140.2517443645095
 20
22.21369403571281
 30
0.0
 11
-140.2517443645095
 21
22.21369403571281
 31
0.0
1001
DBPROPERTIES
1002
{
1000
PbHidd
1002
}
  0
LINE
  5
3CA
330
1F
100
AcDbEntity
  8
HIDDEN
100
AcDbLine
 10
-137.1614673330477
 20
36.75230440455797
 30
0.0
 11
-137.1614673330477
 21
36.75230440455798
 31
0.0
1001
DBPROPERTIES
1002
{
1000
PbHidd
1002
}
  0
LINE
  5
3CB
330
1F
100
AcDbEntity
  8
HIDDEN
100
AcDbLine
 10
-57.05401880614095
 20
15.28757826405556
 30
0.0
 11
-85.72591708315477
 21
22.97019025284872
 31
0.0
1001
DBPROPERTIES
1002
{
1000
PbHidd
1002
}
  0
LINE
  5
3CC
330
1F
100
AcDbEntity
  8
HIDDEN
100
AcDbLine
 10
-57.05401880614095
 20
15.28757826405556
 30
0.0
 11
-57.05401880614095
 21
15.28757826405556
 31
0.0
1001
DBPROPERTIES
1002
{
1000
PbHidd
1002
}
  0
LINE
  5
3CD
330
1F
100
AcDbEntity
  8
HIDDEN
100
AcDbLine
 10
-132.5684205626027
 20
50.88824883543267
 30
0.0
 11
-132.5684205626027
 21
50.88824883543266
 31
0.0
1001
DBPROPERTIES
1002
{
1000
PbHidd
1002
}
  0
LINE
  5
3CE
330
1F
100
AcDbEntity
  8
HIDDEN
100
AcDbLine
 10
-126.5229264347482
 20
64.46665096301568
 30
0.0
 11
-126.5229264347482
 21
64.46665096301568
 31
0.0
1001
DBPROPERTIES
1002
{
1000
PbHidd
1002
}
  0
LINE
  5
3CF
330
1F
100
AcDbEntity
  8
HIDDEN
100
AcDbLine
 10
-52.62878536205957
 20
26.81570551794923
 30
0.0
 11
-79.07682902171763
 21
40.2916568518848
 31
0.0
1001
DBPROPERTIES
1002
{
1000
PbHidd
1002
}
  0
LINE
  5
3D0
330
1F
100
AcDbEntity
  8
HIDDEN
100
AcDbLine
 10
-52.62878536205957
 20
26.81570551794924
 30
0.0
 11
-52.62878536205957
 21
26.81570551794924
 31
0.0
1001
DBPROPERTIES
1002
{
1000
PbHidd
1002
}
  0
LINE
  5
3D1
330
1F
100
AcDbEntity
  8
HIDDEN
100
AcDbLine
 10
-119.0912206482502
 20
77.33874297213389
 30
0.0
 11
-119.0912206482502
 21
77.33874297213389
 31
0.0
1001
DBPROPERTIES
1002
{
1000
PbHidd
1002
}
  0
LINE
  5
3D2
330
1F
100
AcDbEntity
  8
HIDDEN
100
AcDbLine
 10
-110.3547265268899
 20
89.36349552907693
 30
0.0
 11
-110.3547265268899
 21
89.36349552907693
 31
0.0
1001
DBPROPERTIES
1002
{
1000
PbHidd
1002
}
  0
LINE
  5
3D3
330
1F
100
AcDbEntity
  8
HIDDEN
100
AcDbLine
 10
-45.90342145672507
 20
37.17185776467706
 30
0.0
 11
-68.97170407930616
 21
55.85218470567307
 31
0.0
1001
DBPROPERTIES
1002
{
1000
PbHidd
1002
}
  0
LINE
  5
3D4
330
1F
100
AcDbEntity
  8
HIDDEN
100
AcDbLine
 10
-45.90342145672507
 20
37.17185776467706
 30
0.0
 11
-45.90342145672507
 21
37.17185776467706
 31
0.0
1001
DBPROPERTIES
1002
{
1000
PbHidd
1002
}
  0
LINE
  5
3D5
330
1F
100
AcDbEntity
  8
HIDDEN
100
AcDbLine
 10
-100.4091629284897
 20
100.4091629284897
 30
0.0
 11
-100.4091629284897
 21
100.4091629284897
 31
0.0
1001
DBPROPERTIES
1002
{
1000
PbHidd
1002
}
  0
LINE
  5
3D6
330
1F
100
AcDbEntity
  8
HIDDEN
100
AcDbLine
 10
-89.36349552907691
 20
110.3547265268899
 30
0.0
 11
-89.36349552907691
 21
110.3547265268899
 31
0.0
1001
DBPROPERTIES
1002
{
1000
PbHidd
1002
}
  0
LINE
  5
3D7
330
1F
100
AcDbEntity
  8
HIDDEN
100
AcDbLine
 10
-37.17185776467704
 20
45.90342145672506
 30
0.0
 11
-55.85218470567306
 21
68.97170407930616
 31
0.0
1001
DBPROPERTIES
1002
{
1000
PbHidd
1002
}
  0
LINE
  5
3D8
330
1F
100
AcDbEntity
  8
HIDDEN
100
AcDbLine
 10
-37.17185776467705
 20
45.90342145672506
 30
0.0
 11
-37.17185776467705
 21
45.90342145672506
 31
0.0
1001
DBPROPERTIES
1002
{
1000
PbHidd
1002
}
  0
LINE
  5
3D9
330
1F
100
AcDbEntity
  8
HIDDEN
100
AcDbLine
 10
-77.33874297213383
 20
119.0912206482502
 30
0.0
 11
-77.33874297213383
 21
119.0912206482502
 31
0.0
1001
DBPROPERTIES
1002
{
1000
PbHidd
1002
}
  0
LINE
  5
3DA
330
1F
100
AcDbEntity
  8
HIDDEN
100
AcDbLine
 10
-64.46665096301562
 20
126.5229264347483
 30
0.0
 11
-64.46665096301562
 21
126.5229264347483
 31
0.0
1001
DBPROPERTIES
1002
{
1000
PbHidd
1002
}
  0
LINE
  5
3DB
330
1F
100
AcDbEntity
  8
HIDDEN
100
AcDbLine
 10
-26.81570551794921
 20
52.62878536205959
 30
0.0
 11
-40.29165685188477
 21
79.07682902171766
 31
0.0
1001
DBPROPERTIES
1002
{
1000
PbHidd
1002
}
  0
LINE
  5
3DC
330
1F
100
AcDbEntity
  8
HIDDEN
100
AcDbLine
 10
-26.81570551794922
 20
52.62878536205959
 30
0.0
 11
-26.81570551794922
 21
52.62878536205959
 31
0.0
1001
DBPROPERTIES
1002
{
1000
PbHidd
1002
}
  0
LINE
  5
3DD
330
1F
100
AcDbEntity
  8
HIDDEN
100
AcDbLine
 10
-50.88824883543262
 20
132.5684205626027
 30
0.0
 11
-50.88824883543262
 21
132.5684205626027
 31
0.0
1001
DBPROPERTIES
1002
{
1000
PbHidd
1002
}
  0
LINE
  5
3DE
330
1F
100
AcDbEntity
  8
HIDDEN
100
AcDbLine
 10
-36.75230440455794
 20
137.1614673330477
 30
0.0
 11
-36.75230440455794
 21
137.1614673330477
 31
0.0
1001
DBPROPERTIES
1002
{
1000
PbHidd
1002
}
  0
LINE
  5
3DF
330
1F
100
AcDbEntity
  8
HIDDEN
100
AcDbLine
 10
-15.28757826405555
 20
57.05401880614095
 30
0.0
 11
-22.9701902528487
 21
85.7259170831548
 31
0.0
1001
DBPROPERTIES
1002
{
1000
PbHidd
1002
}
  0
LINE
  5
3E0
330
1F
100
AcDbEntity
  8
HIDDEN
100
AcDbLine
 10
-15.28757826405555
 20
57.05401880614095
 30
0.0
 11
-15.28757826405555
 21
57.05401880614095
 31
0.0
1001
DBPROPERTIES
1002
{
1000
PbHidd
1002
}
  0
LINE
  5
3E1
330
1F
100
AcDbEntity
  8
HIDDEN
100
AcDbLine
 10
36.75230440455807
 20
137.1614673330477
 30
0.0
 11
36.75230440455807
 21
137.1614673330477
 31
0.0
1001
DBPROPERTIES
1002
{
1000
PbHidd
1002
}
  0
ARC
  5
3E2
330
1F
100
AcDbEntity
  8
HIDDEN
100
AcDbCircle
 10
0.0
 20
0.0
 30
0.0
 40
59.06666666666666
100
AcDbArc
 50
75.00000349528622
 51
81.0000175258962
1001
DBPROPERTIES
1002
{
1000
PbHidd
1002
}
  0
ARC
  5
3E3
330
1F
100
AcDbEntity
  8
HIDDEN
100
AcDbCircle
 10
0.0
 20
0.0000000000000265
 30
0.0
 40
131.0
100
AcDbArc
 50
81.0000175258962
 51
99.00000232194662
1001
DBPROPERTIES
1002
{
1000
PbHidd
1002
}
  0
ARC
  5
3E4
330
1F
100
AcDbEntity
  8
HIDDEN
100
AcDbCircle
 10
0.0
 20
0.0000000000000265
 30
0.0
 40
131.0
100
AcDbArc
 50
68.99998946467625
 51
75.00000349528622
1001
DBPROPERTIES
1002
{
1000
PbHidd
1002
}
  0
ARC
  5
3E5
330
1F
100
AcDbEntity
  8
HIDDEN
100
AcDbCircle
 10
0.0
 20
0.0000000000000265
 30
0.0
 40
131.0
100
AcDbArc
 50
57.0000186992358
 51
62.99997543406626
1001
DBPROPERTIES
1002
{
1000
PbHidd
1002
}
  0
ARC
  5
3E6
330
1F
100
AcDbEntity
  8
HIDDEN
100
AcDbCircle
 10
0.0
 20
0.0000000000000265
 30
0.0
 40
131.0
100
AcDbArc
 50
44.99999063801582
 51
51.00000466862581
1001
DBPROPERTIES
1002
{
1000
PbHidd
1002
}
  0
ARC
  5
3E7
330
1F
100
AcDbEntity
  8
HIDDEN
100
AcDbCircle
 10
0.0
 20
0.0000000000000265
 30
0.0
 40
131.0
100
AcDbArc
 50
33.00001987257539
 51
38.99997660740585
1001
DBPROPERTIES
1002
{
1000
PbHidd
1002
}
  0
ARC
  5
3E8
330
1F
100
AcDbEntity
  8
HIDDEN
100
AcDbCircle
 10
0.0
 20
0.0000000000000265
 30
0.0
 40
131.0
100
AcDbArc
 50
20.99999181135542
 51
27.0000058419654
1001
DBPROPERTIES
1002
{
1000
PbHidd
1002
}
  0
ARC
  5
3E9
330
1F
100
AcDbEntity
  8
HIDDEN
100
AcDbCircle
 10
0.0
 20
0.0000000000000265
 30
0.0
 40
131.0
100
AcDbArc
 50
9.000021045914972
 51
14.99997778074544
1001
DBPROPERTIES
1002
{
1000
PbHidd
1002
}
  0
ARC
  5
3EA
330
1F
100
AcDbEntity
  8
HIDDEN
100
AcDbCircle
 10
0.0
 20
0.0000000000000265
 30
0.0
 40
131.0
100
AcDbArc
 50
0.0
 51
3.00000701530499
1001
DBPROPERTIES
1002
{
1000
PbHidd
1002
}
  0
ARC
  5
3EB
330
1F
100
AcDbEntity
  8
HIDDEN
100
AcDbCircle
 10
0.0
 20
0.0000000000000265
 30
0.0
 40
131.0
100
AcDbArc
 50
345.0000222192546
 51
350.9999789540851
1001
DBPROPERTIES
1002
{
1000
PbHidd
1002
}
  0
ARC
  5
3EC
330
1F
100
AcDbEntity
  8
HIDDEN
100
AcDbCircle
 10
0.0
 20
0.0000000000000265
 30
0.0
 40
131.0
100
AcDbArc
 50
332.9999941580346
 51
339.0000081886445
1001
DBPROPERTIES
1002
{
1000
PbHidd
1002
}
  0
ARC
  5
3ED
330
1F
100
AcDbEntity
  8
HIDDEN
100
AcDbCircle
 10
0.0
 20
0.0000000000000265
 30
0.0
 40
131.0
100
AcDbArc
 50
321.0000233925941
 51
326.9999801274246
1001
DBPROPERTIES
1002
{
1000
PbHidd
1002
}
  0
ARC
  5
3EE
330
1F
100
AcDbEntity
  8
HIDDEN
100
AcDbCircle
 10
0.0
 20
0.0000000000000265
 30
0.0
 40
131.0
100
AcDbArc
 50
308.9999953313742
 51
315.0000093619842
1001
DBPROPERTIES
1002
{
1000
PbHidd
1002
}
  0
ARC
  5
3EF
330
1F
100
AcDbEntity
  8
HIDDEN
100
AcDbCircle
 10
0.0
 20
0.0000000000000265
 30
0.0
 40
131.0
100
AcDbArc
 50
297.0000245659338
 51
302.9999813007643
1001
DBPROPERTIES
1002
{
1000
PbHidd
1002
}
  0
ARC
  5
3F0
330
1F
100
AcDbEntity
  8
HIDDEN
100
AcDbCircle
 10
0.0
 20
0.0000000000000265
 30
0.0
 40
131.0
100
AcDbArc
 50
284.9999965047138
 51
291.0000105353237
1001
DBPROPERTIES
1002
{
1000
PbHidd
1002
}
  0
ARC
  5
3F1
330
1F
100
AcDbEntity
  8
HIDDEN
100
AcDbCircle
 10
0.0
 20
0.0000000000000265
 30
0.0
 40
131.0
100
AcDbArc
 50
273.0000257392733
 51
278.9999824741038
1001
DBPROPERTIES
1002
{
1000
PbHidd
1002
}
  0
ARC
  5
3F2
330
1F
100
AcDbEntity
  8
HIDDEN
100
AcDbCircle
 10
0.0
 20
0.0000000000000265
 30
0.0
 40
131.0
100
AcDbArc
 50
260.9999976780534
 51
267.0000117086634
1001
DBPROPERTIES
1002
{
1000
PbHidd
1002
}
  0
ARC
  5
3F3
330
1F
100
AcDbEntity
  8
HIDDEN
100
AcDbCircle
 10
0.0
 20
0.0000000000000265
 30
0.0
 40
131.0
100
AcDbArc
 50
249.0000269126129
 51
254.9999836474434
1001
DBPROPERTIES
1002
{
1000
PbHidd
1002
}
  0
ARC
  5
3F4
330
1F
100
AcDbEntity
  8
HIDDEN
100
AcDbCircle
 10
0.0
 20
0.0000000000000265
 30
0.0
 40
131.0
100
AcDbArc
 50
236.999998851393
 51
243.0000128820029
1001
DBPROPERTIES
1002
{
1000
PbHidd
1002
}
  0
ARC
  5
3F5
330
1F
100
AcDbEntity
  8
HIDDEN
100
AcDbCircle
 10
0.0
 20
0.0000000000000265
 30
0.0
 40
131.0
100
AcDbArc
 50
225.0000280859525
 51
230.999984820783
1001
DBPROPERTIES
1002
{
1000
PbHidd
1002
}
  0
ARC
  5
3F6
330
1F
100
AcDbEntity
  8
HIDDEN
100
AcDbCircle
 10
0.0
 20
0.0000000000000265
 30
0.0
 40
131.0
100
AcDbArc
 50
213.0000000247326
 51
219.0000140553425
1001
DBPROPERTIES
1002
{
1000
PbHidd
1002
}
  0
ARC
  5
3F7
330
1F
100
AcDbEntity
  8
HIDDEN
100
AcDbCircle
 10
0.0
 20
0.0000000000000265
 30
0.0
 40
131.0
100
AcDbArc
 50
200.9999719635126
 51
206.9999859941226
1001
DBPROPERTIES
1002
{
1000
PbHidd
1002
}
  0
ARC
  5
3F8
330
1F
100
AcDbEntity
  8
HIDDEN
100
AcDbCircle
 10
0.0
 20
0.0000000000000265
 30
0.0
 40
131.0
100
AcDbArc
 50
189.0000011980722
 51
195.0000152286821
1001
DBPROPERTIES
1002
{
1000
PbHidd
1002
}
  0
ARC
  5
3F9
330
1F
100
AcDbEntity
  8
HIDDEN
100
AcDbCircle
 10
0.0
 20
0.0000000000000265
 30
0.0
 40
131.0
100
AcDbArc
 50
177.0000128325378
 51
180.0000198478428
1001
DBPROPERTIES
1002
{
1000
PbHidd
1002
}
  0
ARC
  5
3FA
330
1F
100
AcDbEntity
  8
HIDDEN
100
AcDbCircle
 10
0.0
 20
0.0000000000000265
 30
0.0
 40
131.0
100
AcDbArc
 50
164.9999847713179
 51
170.9999988019279
1001
DBPROPERTIES
1002
{
1000
PbHidd
1002
}
  0
ARC
  5
3FB
330
1F
100
AcDbEntity
  8
HIDDEN
100
AcDbCircle
 10
0.0
 20
0.0000000000000265
 30
0.0
 40
131.0
100
AcDbArc
 50
153.0000140058774
 51
159.0000280364874
1001
DBPROPERTIES
1002
{
1000
PbHidd
1002
}
  0
ARC
  5
3FC
330
1F
100
AcDbEntity
  8
HIDDEN
100
AcDbCircle
 10
0.0
 20
0.0000000000000265
 30
0.0
 40
131.0
100
AcDbArc
 50
140.9999859446575
 51
146.9999999752674
1001
DBPROPERTIES
1002
{
1000
PbHidd
1002
}
  0
ARC
  5
3FD
330
1F
100
AcDbEntity
  8
HIDDEN
100
AcDbCircle
 10
0.0
 20
0.0000000000000265
 30
0.0
 40
131.0
100
AcDbArc
 50
129.000015179217
 51
134.9999719140475
1001
DBPROPERTIES
1002
{
1000
PbHidd
1002
}
  0
ARC
  5
3FE
330
1F
100
AcDbEntity
  8
HIDDEN
100
AcDbCircle
 10
0.0
 20
0.0000000000000265
 30
0.0
 40
131.0
100
AcDbArc
 50
116.9999871179971
 51
123.000001148607
1001
DBPROPERTIES
1002
{
1000
PbHidd
1002
}
  0
ARC
  5
3FF
330
1F
100
AcDbEntity
  8
HIDDEN
100
AcDbCircle
 10
0.0
 20
0.0000000000000265
 30
0.0
 40
131.0
100
AcDbArc
 50
105.0000163525566
 51
110.9999730873871
1001
DBPROPERTIES
1002
{
1000
PbHidd
1002
}
  0
ARC
  5
400
330
1F
100
AcDbEntity
  8
HIDDEN
100
AcDbCircle
 10
0.0
 20
0.0
 30
0.0
 40
59.06666666666666
100
AcDbArc
 50
62.99997543406626
 51
68.99998946467625
1001
DBPROPERTIES
1002
{
1000
PbHidd
1002
}
  0
ARC
  5
401
330
1F
100
AcDbEntity
  8
HIDDEN
100
AcDbCircle
 10
0.0
 20
0.0
 30
0.0
 40
59.06666666666666
100
AcDbArc
 50
51.00000466862581
 51
57.0000186992358
1001
DBPROPERTIES
1002
{
1000
PbHidd
1002
}
  0
ARC
  5
402
330
1F
100
AcDbEntity
  8
HIDDEN
100
AcDbCircle
 10
0.0
 20
0.0
 30
0.0
 40
59.06666666666666
100
AcDbArc
 50
38.99997660740585
 51
44.99999063801582
1001
DBPROPERTIES
1002
{
1000
PbHidd
1002
}
  0
ARC
  5
403
330
1F
100
AcDbEntity
  8
HIDDEN
100
AcDbCircle
 10
0.0
 20
0.0
 30
0.0
 40
59.06666666666666
100
AcDbArc
 50
27.0000058419654
 51
33.00001987257539
1001
DBPROPERTIES
1002
{
1000
PbHidd
1002
}
  0
ARC
  5
404
330
1F
100
AcDbEntity
  8
HIDDEN
100
AcDbCircle
 10
0.0
 20
0.0
 30
0.0
 40
59.06666666666666
100
AcDbArc
 50
14.99997778074544
 51
20.99999181135542
1001
DBPROPERTIES
1002
{
1000
PbHidd
1002
}
  0
ARC
  5
405
330
1F
100
AcDbEntity
  8
HIDDEN
100
AcDbCircle
 10
0.0
 20
0.0
 30
0.0
 40
59.06666666666667
100
AcDbArc
 50
3.00000701530499
 51
9.000021045914972
1001
DBPROPERTIES
1002
{
1000
PbHidd
1002
}
  0
ARC
  5
406
330
1F
100
AcDbEntity
  8
HIDDEN
100
AcDbCircle
 10
0.0
 20
0.0
 30
0.0
 40
59.06666666666666
100
AcDbArc
 50
350.9999789540851
 51
356.999992984695
1001
DBPROPERTIES
1002
{
1000
PbHidd
1002
}
  0
ARC
  5
407
330
1F
100
AcDbEntity
  8
HIDDEN
100
AcDbCircle
 10
0.0
 20
0.0
 30
0.0
 40
59.06666666666666
100
AcDbArc
 50
339.0000081886445
 51
345.0000222192546
1001
DBPROPERTIES
1002
{
1000
PbHidd
1002
}
  0
ARC
  5
408
330
1F
100
AcDbEntity
  8
HIDDEN
100
AcDbCircle
 10
0.0
 20
0.0
 30
0.0
 40
59.06666666666666
100
AcDbArc
 50
326.9999801274246
 51
332.9999941580346
1001
DBPROPERTIES
1002
{
1000
PbHidd
1002
}
  0
ARC
  5
409
330
1F
100
AcDbEntity
  8
HIDDEN
100
AcDbCircle
 10
0.0
 20
0.0
 30
0.0
 40
59.06666666666665
100
AcDbArc
 50
315.0000093619842
 51
321.0000233925941
1001
DBPROPERTIES
1002
{
1000
PbHidd
1002
}
  0
ARC
  5
40A
330
1F
100
AcDbEntity
  8
HIDDEN
100
AcDbCircle
 10
0.0
 20
0.0
 30
0.0
 40
59.06666666666666
100
AcDbArc
 50
302.9999813007643
 51
308.9999953313742
1001
DBPROPERTIES
1002
{
1000
PbHidd
1002
}
  0
ARC
  5
40B
330
1F
100
AcDbEntity
  8
HIDDEN
100
AcDbCircle
 10
0.0
 20
0.0
 30
0.0
 40
59.06666666666666
100
AcDbArc
 50
291.0000105353237
 51
297.0000245659338
1001
DBPROPERTIES
1002
{
1000
PbHidd
1002
}
  0
ARC
  5
40C
330
1F
100
AcDbEntity
  8
HIDDEN
100
AcDbCircle
 10
0.0
 20
0.0
 30
0.0
 40
59.06666666666666
100
AcDbArc
 50
278.9999824741038
 51
284.9999965047138
1001
DBPROPERTIES
1002
{
1000
PbHidd
1002
}
  0
ARC
  5
40D
330
1F
100
AcDbEntity
  8
HIDDEN
100
AcDbCircle
 10
0.0
 20
0.0
 30
0.0
 40
59.06666666666666
100
AcDbArc
 50
267.0000117086634
 51
273.0000257392733
1001
DBPROPERTIES
1002
{
1000
PbHidd
1002
}
  0
ARC
  5
40E
330
1F
100
AcDbEntity
  8
HIDDEN
100
AcDbCircle
 10
0.0
 20
0.0
 30
0.0
 40
59.06666666666666
100
AcDbArc
 50
254.9999836474434
 51
260.9999976780534
1001
DBPROPERTIES
1002
{
1000
PbHidd
1002
}
  0
ARC
  5
40F
330
1F
100
AcDbEntity
  8
HIDDEN
100
AcDbCircle
 10
0.0
 20
0.0
 30
0.0
 40
59.06666666666666
100
AcDbArc
 50
243.0000128820029
 51
249.0000269126129
1001
DBPROPERTIES
1002
{
1000
PbHidd
1002
}
  0
ARC
  5
410
330
1F
100
AcDbEntity
  8
HIDDEN
100
AcDbCircle
 10
0.0
 20
0.0
 30
0.0
 40
59.06666666666666
100
AcDbArc
 50
230.999984820783
 51
236.999998851393
1001
DBPROPERTIES
1002
{
1000
PbHidd
1002
}
  0
ARC
  5
411
330
1F
100
AcDbEntity
  8
HIDDEN
100
AcDbCircle
 10
0.0
 20
0.0
 30
0.0
 40
59.06666666666666
100
AcDbArc
 50
219.0000140553425
 51
225.0000280859525
1001
DBPROPERTIES
1002
{
1000
PbHidd
1002
}
  0
ARC
  5
412
330
1F
100
AcDbEntity
  8
HIDDEN
100
AcDbCircle
 10
0.0
 20
0.0
 30
0.0
 40
59.06666666666666
100
AcDbArc
 50
206.9999859941226
 51
213.0000000247326
1001
DBPROPERTIES
1002
{
1000
PbHidd
1002
}
  0
ARC
  5
413
330
1F
100
AcDbEntity
  8
HIDDEN
100
AcDbCircle
 10
0.0
 20
0.0
 30
0.0
 40
59.06666666666666
100
AcDbArc
 50
195.0000152286821
 51
200.9999719635126
1001
DBPROPERTIES
1002
{
1000
PbHidd
1002
}
  0
ARC
  5
414
330
1F
100
AcDbEntity
  8
HIDDEN
100
AcDbCircle
 10
0.0
 20
0.0
 30
0.0
 40
59.06666666666666
100
AcDbArc
 50
182.9999871674622
 51
189.0000011980722
1001
DBPROPERTIES
1002
{
1000
PbHidd
1002
}
  0
ARC
  5
415
330
1F
100
AcDbEntity
  8
HIDDEN
100
AcDbCircle
 10
0.0
 20
0.0
 30
0.0
 40
59.06666666666666
100
AcDbArc
 50
170.9999988019279
 51
177.0000128325378
1001
DBPROPERTIES
1002
{
1000
PbHidd
1002
}
  0
ARC
  5
416
330
1F
100
AcDbEntity
  8
HIDDEN
100
AcDbCircle
 10
0.0
 20
0.0
 30
0.0
 40
59.06666666666666
100
AcDbArc
 50
159.0000280364874
 51
164.9999847713179
1001
DBPROPERTIES
1002
{
1000
PbHidd
1002
}
  0
ARC
  5
417
330
1F
100
AcDbEntity
  8
HIDDEN
100
AcDbCircle
 10
0.0
 20
0.0
 30
0.0
 40
59.06666666666665
100
AcDbArc
 50
146.9999999752674
 51
153.0000140058774
1001
DBPROPERTIES
1002
{
1000
PbHidd
1002
}
  0
ARC
  5
418
330
1F
100
AcDbEntity
  8
HIDDEN
100
AcDbCircle
 10
0.0
 20
0.0
 30
0.0
 40
59.06666666666666
100
AcDbArc
 50
134.9999719140475
 51
140.9999859446575
1001
DBPROPERTIES
1002
{
1000
PbHidd
1002
}
  0
ARC
  5
419
330
1F
100
AcDbEntity
  8
HIDDEN
100
AcDbCircle
 10
0.0
 20
0.0
 30
0.0
 40
59.06666666666665
100
AcDbArc
 50
123.000001148607
 51
129.000015179217
1001
DBPROPERTIES
1002
{
1000
PbHidd
1002
}
  0
ARC
  5
41A
330
1F
100
AcDbEntity
  8
HIDDEN
100
AcDbCircle
 10
0.0
 20
0.0
 30
0.0
 40
59.06666666666666
100
AcDbArc
 50
110.9999730873871
 51
116.9999871179971
1001
DBPROPERTIES
1002
{
1000
PbHidd
1002
}
  0
ARC
  5
41B
330
1F
100
AcDbEntity
  8
HIDDEN
100
AcDbCircle
 10
0.0
 20
0.0
 30
0.0
 40
59.06666666666666
100
AcDbArc
 50
99.00000232194662
 51
105.0000163525566
1001
DBPROPERTIES
1002
{
1000
PbHidd
1002
}
  0
ARC
  5
41C
330
1F
100
AcDbEntity
  8
HIDDEN
100
AcDbCircle
 10
0.0
 20
0.0
 30
0.0
 40
116.3934426229508
100
AcDbArc
 50
270.0000187239684
 51
89.99998127603165
1001
DBPROPERTIES
1002
{
1000
PbHidd
1002
}
  0
LINE
  5
41D
330
1F
100
AcDbEntity
  8
THICK
100
AcDbLine
 10
-99.65090947528893
 20
60.12492989422668
 30
0.0
 11
-225.35994379324
 21
217.7590730148171
 31
0.0
1001
DBPROPERTIES
1002
{
1000
PbThick
1002
}
  0
LINE
  5
41E
330
1F
100
AcDbEntity
  8
THICK
100
AcDbLine
 10
-159.9407398717774
 20
269.9291472640548
 30
0.0
 11
-34.85950427060114
 21
113.0822388343356
 31
0.0
1001
DBPROPERTIES
1002
{
1000
PbThick
1002
}
  0
ELLIPSE
  5
41F
330
1F
100
AcDbEntity
  8
THICK
100
AcDbEllipse
 10
-102.5183283829249
 20
130.8221401199765
 30
0.0
 11
-97.38910705033416
 21
122.1220775615063
 31
0.0
210
0.0
220
0.0
230
1.0
 40
0.7071067811865475
 41
0.0
 42
0.3884862281828485
1001
DBPROPERTIES
1002
{
1000
PbThick
1002
}
  0
ELLIPSE
  5
420
330
1F
100
AcDbEntity
  8
THICK
100
AcDbEllipse
 10
-102.5183283829249
 20
130.8221401199765
 30
0.0
 11
-97.38910705033416
 21
122.1220775615063
 31
0.0
210
0.0
220
0.0
230
1.0
 40
0.7071067811865475
 41
-0.3884862281828485
 42
0.0
1001
DBPROPERTIES
1002
{
1000
PbThick
1002
}
  0
LINE
  5
421
330
1F
100
AcDbEntity
  8
HIDDEN
100
AcDbLine
 10
-36.30491921089767
 20
112.6265093966246
 30
0.0
 11
-161.046416557774
 21
269.0473995302649
 31
0.0
1001
DBPROPERTIES
1002
{
1000
PbHidd
1002
}
  0
LINE
  5
422
330
1F
100
AcDbEntity
  8
HIDDEN
100
AcDbLine
 10
-161.0464165577739
 20
269.0473995302649
 30
0.0
 11
-159.9407398717774
 21
269.9291472640548
 31
0.0
1001
DBPROPERTIES
1002
{
1000
PbHidd
1002
}
  0
LINE
  5
423
330
1F
100
AcDbEntity
  8
THICK
100
AcDbLine
 10
-100.9766697084289
 20
59.51915819952677
 30
0.0
 11
-226.4656204792365
 21
216.8773252810271
 31
0.0
1001
DBPROPERTIES
1002
{
1000
PbThick
1002
}
  0
LINE
  5
424
330
1F
100
AcDbEntity
  8
THICK
100
AcDbLine
 10
-226.4656204792365
 20
216.8773252810271
 30
0.0
 11
-225.35994379324
 21
217.759073014817
 31
0.0
1001
DBPROPERTIES
1002
{
1000
PbThick
1002
}
  0
ELLIPSE
  5
425
330
1F
100
AcDbEntity
  8
HIDDEN
100
AcDbEllipse
 10
-103.6240050689215
 20
129.9403923861866
 30
0.0
 11
97.38910705033416
 21
-122.1220775615063
 31
0.0
210
0.0
220
0.0
230
1.0
 40
0.7071067811865475
 41
2.753106425406944
 42
3.141592653589793
1001
DBPROPERTIES
1002
{
1000
PbHidd
1002
}
  0
ELLIPSE
  5
426
330
1F
100
AcDbEntity
  8
THICK
100
AcDbEllipse
 10
-103.6240050689215
 20
129.9403923861866
 30
0.0
 11
97.38910705033416
 21
-122.1220775615063
 31
0.0
210
0.0
220
0.0
230
1.0
 40
0.7071067811865475
 41
-3.141592653589793
 42
-2.753106425406945
1001
DBPROPERTIES
1002
{
1000
PbThick
1002
}
  0
ARC
  5
427
330
1F
100
AcDbEntity
  8
THICK
100
AcDbCircle
 10
0.0
 20
0.0
 30
0.0
 40
107.3333333333333
100
AcDbArc
 50
180.0000198478428
 51
0.0
1001
DBPROPERTIES
1002
{
1000
PbThick
1002
}
  0
LINE
  5
428
330
1F
100
AcDbEntity
  8
THICK
100
AcDbLine
 10
-113.2920150756836
 20
-34.17157363891602
 30
0.0
 11
-113.1513748168945
 21
-34.60505294799805
 31
0.0
1001
DBPROPERTIES
1002
{
1000
PbThick
1002
}
  0
LINE
  5
429
330
1F
100
AcDbEntity
  8
THICK
100
AcDbLine
 10
-113.1513748168945
 20
-34.60505294799805
 30
0.0
 11
-112.987419128418
 21
-35.04773712158203
 31
0.0
1001
DBPROPERTIES
1002
{
1000
PbThick
1002
}
  0
LINE
  5
42A
330
1F
100
AcDbEntity
  8
THICK
100
AcDbLine
 10
-112.987419128418
 20
-35.04773712158203
 30
0.0
 11
-112.8001861572266
 21
-35.49592971801758
 31
0.0
1001
DBPROPERTIES
1002
{
1000
PbThick
1002
}
  0
LINE
  5
42B
330
1F
100
AcDbEntity
  8
THICK
100
AcDbLine
 10
-112.8001861572266
 20
-35.49592971801758
 30
0.0
 11
-112.5902709960938
 21
-35.94605255126953
 31
0.0
1001
DBPROPERTIES
1002
{
1000
PbThick
1002
}
  0
LINE
  5
42C
330
1F
100
AcDbEntity
  8
THICK
100
AcDbLine
 10
-112.5902709960938
 20
-35.94605255126953
 30
0.0
 11
-112.3589630126953
 21
-36.39467239379883
 31
0.0
1001
DBPROPERTIES
1002
{
1000
PbThick
1002
}
  0
LINE
  5
42D
330
1F
100
AcDbEntity
  8
THICK
100
AcDbLine
 10
-112.3589630126953
 20
-36.39467239379883
 30
0.0
 11
-112.1077041625977
 21
-36.83842849731445
 31
0.0
1001
DBPROPERTIES
1002
{
1000
PbThick
1002
}
  0
LINE
  5
42E
330
1F
100
AcDbEntity
  8
THICK
100
AcDbLine
 10
-112.1077041625977
 20
-36.83842849731445
 30
0.0
 11
-111.8387145996094
 21
-37.27421951293945
 31
0.0
1001
DBPROPERTIES
1002
{
1000
PbThick
1002
}
  0
LINE
  5
42F
330
1F
100
AcDbEntity
  8
THICK
100
AcDbLine
 10
-111.8387145996094
 20
-37.27421951293945
 30
0.0
 11
-111.5545654296875
 21
-37.6989631652832
 31
0.0
1001
DBPROPERTIES
1002
{
1000
PbThick
1002
}
  0
LINE
  5
430
330
1F
100
AcDbEntity
  8
THICK
100
AcDbLine
 10
-111.5545654296875
 20
-37.6989631652832
 30
0.0
 11
-111.2582092285156
 21
-38.10971069335938
 31
0.0
1001
DBPROPERTIES
1002
{
1000
PbThick
1002
}
  0
LINE
  5
431
330
1F
100
AcDbEntity
  8
THICK
100
AcDbLine
 10
-111.2582092285156
 20
-38.10971069335938
 30
0.0
 11
-110.9532928466797
 21
-38.50374603271484
 31
0.0
1001
DBPROPERTIES
1002
{
1000
PbThick
1002
}
  0
LINE
  5
432
330
1F
100
AcDbEntity
  8
THICK
100
AcDbLine
 10
-110.9532928466797
 20
-38.50374603271484
 30
0.0
 11
-110.6378784179688
 21
-38.88504028320312
 31
0.0
1001
DBPROPERTIES
1002
{
1000
PbThick
1002
}
  0
LINE
  5
433
330
1F
100
AcDbEntity
  8
THICK
100
AcDbLine
 10
-110.6378784179688
 20
-38.88504028320312
 30
0.0
 11
-110.2977752685547
 21
-39.27042770385742
 31
0.0
1001
DBPROPERTIES
1002
{
1000
PbThick
1002
}
  0
LINE
  5
434
330
1F
100
AcDbEntity
  8
THICK
100
AcDbLine
 10
-110.2977752685547
 20
-39.27042770385742
 30
0.0
 11
-109.9333267211914
 21
-39.65755081176758
 31
0.0
1001
DBPROPERTIES
1002
{
1000
PbThick
1002
}
  0
LINE
  5
435
330
1F
100
AcDbEntity
  8
THICK
100
AcDbLine
 10
-109.9333267211914
 20
-39.65755081176758
 30
0.0
 11
-109.5462341308594
 21
-40.04280853271484
 31
0.0
1001
DBPROPERTIES
1002
{
1000
PbThick
1002
}
  0
LINE
  5
436
330
1F
100
AcDbEntity
  8
THICK
100
AcDbLine
 10
-109.5462341308594
 20
-40.04280853271484
 30
0.0
 11
-109.1388854980469
 21
-40.42293930053711
 31
0.0
1001
DBPROPERTIES
1002
{
1000
PbThick
1002
}
  0
LINE
  5
437
330
1F
100
AcDbEntity
  8
THICK
100
AcDbLine
 10
-109.1388854980469
 20
-40.42293930053711
 30
0.0
 11
-109.2211685180664
 21
-40.66156387329102
 31
0.0
1001
DBPROPERTIES
1002
{
1000
PbThick
1002
}
  0
LINE
  5
438
330
1F
100
AcDbEntity
  8
THICK
100
AcDbLine
 10
-109.2211685180664
 20
-40.66156387329102
 30
0.0
 11
-109.2938232421875
 21
-40.90031433105469
 31
0.0
1001
DBPROPERTIES
1002
{
1000
PbThick
1002
}
  0
LINE
  5
439
330
1F
100
AcDbEntity
  8
THICK
100
AcDbLine
 10
-109.2938232421875
 20
-40.90031433105469
 30
0.0
 11
-109.3568801879883
 21
-41.13824081420898
 31
0.0
1001
DBPROPERTIES
1002
{
1000
PbThick
1002
}
  0
LINE
  5
43A
330
1F
100
AcDbEntity
  8
THICK
100
AcDbLine
 10
-109.3568801879883
 20
-41.13824081420898
 30
0.0
 11
-109.4106216430664
 21
-41.37435913085938
 31
0.0
1001
DBPROPERTIES
1002
{
1000
PbThick
1002
}
  0
LINE
  5
43B
330
1F
100
AcDbEntity
  8
THICK
100
AcDbLine
 10
-109.4106216430664
 20
-41.37435913085938
 30
0.0
 11
-109.4554824829102
 21
-41.60766220092773
 31
0.0
1001
DBPROPERTIES
1002
{
1000
PbThick
1002
}
  0
LINE
  5
43C
330
1F
100
AcDbEntity
  8
THICK
100
AcDbLine
 10
-109.4554824829102
 20
-41.60766220092773
 30
0.0
 11
-109.4918746948242
 21
-41.83715057373047
 31
0.0
1001
DBPROPERTIES
1002
{
1000
PbThick
1002
}
  0
LINE
  5
43D
330
1F
100
AcDbEntity
  8
HIDDEN
100
AcDbLine
 10
-109.4918746948242
 20
-41.83715057373047
 30
0.0
 11
-109.8694534301758
 21
-41.4055290222168
 31
0.0
1001
DBPROPERTIES
1002
{
1000
PbHidd
1002
}
  0
LINE
  5
43E
330
1F
100
AcDbEntity
  8
HIDDEN
100
AcDbLine
 10
-109.8694534301758
 20
-41.4055290222168
 30
0.0
 11
-110.2288589477539
 21
-40.96369552612305
 31
0.0
1001
DBPROPERTIES
1002
{
1000
PbHidd
1002
}
  0
LINE
  5
43F
330
1F
100
AcDbEntity
  8
HIDDEN
100
AcDbLine
 10
-110.2288589477539
 20
-40.96369552612305
 30
0.0
 11
-110.5784454345703
 21
-40.49977874755859
 31
0.0
1001
DBPROPERTIES
1002
{
1000
PbHidd
1002
}
  0
LINE
  5
440
330
1F
100
AcDbEntity
  8
HIDDEN
100
AcDbLine
 10
-110.5784454345703
 20
-40.49977874755859
 30
0.0
 11
-110.9127807617188
 21
-40.01772308349609
 31
0.0
1001
DBPROPERTIES
1002
{
1000
PbHidd
1002
}
  0
LINE
  5
441
330
1F
100
AcDbEntity
  8
HIDDEN
100
AcDbLine
 10
-110.9127807617188
 20
-40.01772308349609
 30
0.0
 11
-111.2274627685547
 21
-39.52185440063477
 31
0.0
1001
DBPROPERTIES
1002
{
1000
PbHidd
1002
}
  0
LINE
  5
442
330
1F
100
AcDbEntity
  8
HIDDEN
100
AcDbLine
 10
-111.2274627685547
 20
-39.52185440063477
 30
0.0
 11
-111.5185394287109
 21
-39.01663589477539
 31
0.0
1001
DBPROPERTIES
1002
{
1000
PbHidd
1002
}
  0
LINE
  5
443
330
1F
100
AcDbEntity
  8
HIDDEN
100
AcDbLine
 10
-111.5185394287109
 20
-39.01663589477539
 30
0.0
 11
-111.7831268310547
 21
-38.50675964355469
 31
0.0
1001
DBPROPERTIES
1002
{
1000
PbHidd
1002
}
  0
LINE
  5
444
330
1F
100
AcDbEntity
  8
HIDDEN
100
AcDbLine
 10
-111.7831268310547
 20
-38.50675964355469
 30
0.0
 11
-112.0190582275391
 21
-37.99721145629883
 31
0.0
1001
DBPROPERTIES
1002
{
1000
PbHidd
1002
}
  0
LINE
  5
445
330
1F
100
AcDbEntity
  8
HIDDEN
100
AcDbLine
 10
-112.0190582275391
 20
-37.99721145629883
 30
0.0
 11
-112.2248153686523
 21
-37.4931526184082
 31
0.0
1001
DBPROPERTIES
1002
{
1000
PbHidd
1002
}
  0
LINE
  5
446
330
1F
100
AcDbEntity
  8
HIDDEN
100
AcDbLine
 10
-112.2248153686523
 20
-37.4931526184082
 30
0.0
 11
-112.4000778198242
 21
-37.0
 31
0.0
1001
DBPROPERTIES
1002
{
1000
PbHidd
1002
}
  0
LINE
  5
447
330
1F
100
AcDbEntity
  8
THICK
100
AcDbLine
 10
-43.92000579833984
 20
-109.8808975219727
 30
0.0
 11
-43.493408203125
 21
-110.0412063598633
 31
0.0
1001
DBPROPERTIES
1002
{
1000
PbThick
1002
}
  0
LINE
  5
448
330
1F
100
AcDbEntity
  8
THICK
100
AcDbLine
 10
-43.493408203125
 20
-110.0412063598633
 30
0.0
 11
-43.04507827758789
 21
-110.1890258789062
 31
0.0
1001
DBPROPERTIES
1002
{
1000
PbThick
1002
}
  0
LINE
  5
449
330
1F
100
AcDbEntity
  8
THICK
100
AcDbLine
 10
-43.04507827758789
 20
-110.1890258789062
 30
0.0
 11
-42.57793045043945
 21
-110.3220901489258
 31
0.0
1001
DBPROPERTIES
1002
{
1000
PbThick
1002
}
  0
LINE
  5
44A
330
1F
100
AcDbEntity
  8
THICK
100
AcDbLine
 10
-42.57793045043945
 20
-110.3220901489258
 30
0.0
 11
-42.09513092041016
 21
-110.4386138916016
 31
0.0
1001
DBPROPERTIES
1002
{
1000
PbThick
1002
}
  0
LINE
  5
44B
330
1F
100
AcDbEntity
  8
THICK
100
AcDbLine
 10
-42.09513092041016
 20
-110.4386138916016
 30
0.0
 11
-41.60016632080078
 21
-110.537483215332
 31
0.0
1001
DBPROPERTIES
1002
{
1000
PbThick
1002
}
  0
LINE
  5
44C
330
1F
100
AcDbEntity
  8
THICK
100
AcDbLine
 10
-41.60016632080078
 20
-110.537483215332
 30
0.0
 11
-41.09656524658203
 21
-110.6177139282227
 31
0.0
1001
DBPROPERTIES
1002
{
1000
PbThick
1002
}
  0
LINE
  5
44D
330
1F
100
AcDbEntity
  8
THICK
100
AcDbLine
 10
-41.09656524658203
 20
-110.6177139282227
 30
0.0
 11
-40.58813858032227
 21
-110.6791229248047
 31
0.0
1001
DBPROPERTIES
1002
{
1000
PbThick
1002
}
  0
LINE
  5
44E
330
1F
100
AcDbEntity
  8
THICK
100
AcDbLine
 10
-40.58813858032227
 20
-110.6791229248047
 30
0.0
 11
-40.07889556884766
 21
-110.7217864990234
 31
0.0
1001
DBPROPERTIES
1002
{
1000
PbThick
1002
}
  0
LINE
  5
44F
330
1F
100
AcDbEntity
  8
THICK
100
AcDbLine
 10
-40.07889556884766
 20
-110.7217864990234
 30
0.0
 11
-39.5729866027832
 21
-110.7461853027344
 31
0.0
1001
DBPROPERTIES
1002
{
1000
PbThick
1002
}
  0
LINE
  5
450
330
1F
100
AcDbEntity
  8
THICK
100
AcDbLine
 10
-39.5729866027832
 20
-110.7461853027344
 30
0.0
 11
-39.07480239868164
 21
-110.7534561157227
 31
0.0
1001
DBPROPERTIES
1002
{
1000
PbThick
1002
}
  0
LINE
  5
451
330
1F
100
AcDbEntity
  8
THICK
100
AcDbLine
 10
-39.07480239868164
 20
-110.7534561157227
 30
0.0
 11
-38.58003997802734
 21
-110.7445983886719
 31
0.0
1001
DBPROPERTIES
1002
{
1000
PbThick
1002
}
  0
LINE
  5
452
330
1F
100
AcDbEntity
  8
THICK
100
AcDbLine
 10
-38.58003997802734
 20
-110.7445983886719
 30
0.0
 11
-38.06668090820312
 21
-110.7189865112305
 31
0.0
1001
DBPROPERTIES
1002
{
1000
PbThick
1002
}
  0
LINE
  5
453
330
1F
100
AcDbEntity
  8
THICK
100
AcDbLine
 10
-38.06668090820312
 20
-110.7189865112305
 30
0.0
 11
-37.53678512573242
 21
-110.6754150390625
 31
0.0
1001
DBPROPERTIES
1002
{
1000
PbThick
1002
}
  0
LINE
  5
454
330
1F
100
AcDbEntity
  8
THICK
100
AcDbLine
 10
-37.53678512573242
 20
-110.6754150390625
 30
0.0
 11
-36.99423217773438
 21
-110.6129760742188
 31
0.0
1001
DBPROPERTIES
1002
{
1000
PbThick
1002
}
  0
LINE
  5
455
330
1F
100
AcDbEntity
  8
THICK
100
AcDbLine
 10
-36.99423217773438
 20
-110.6129760742188
 30
0.0
 11
-36.44305801391602
 21
-110.5315093994141
 31
0.0
1001
DBPROPERTIES
1002
{
1000
PbThick
1002
}
  0
LINE
  5
456
330
1F
100
AcDbEntity
  8
THICK
100
AcDbLine
 10
-36.44305801391602
 20
-110.5315093994141
 30
0.0
 11
-36.30779647827148
 21
-110.7446212768555
 31
0.0
1001
DBPROPERTIES
1002
{
1000
PbThick
1002
}
  0
LINE
  5
457
330
1F
100
AcDbEntity
  8
THICK
100
AcDbLine
 10
-36.30779647827148
 20
-110.7446212768555
 30
0.0
 11
-36.16643142700195
 21
-110.9502792358398
 31
0.0
1001
DBPROPERTIES
1002
{
1000
PbThick
1002
}
  0
LINE
  5
458
330
1F
100
AcDbEntity
  8
THICK
100
AcDbLine
 10
-36.16643142700195
 20
-110.9502792358398
 30
0.0
 11
-36.01972961425781
 21
-111.1479263305664
 31
0.0
1001
DBPROPERTIES
1002
{
1000
PbThick
1002
}
  0
LINE
  5
459
330
1F
100
AcDbEntity
  8
THICK
100
AcDbLine
 10
-36.01972961425781
 20
-111.1479263305664
 30
0.0
 11
-35.86862945556641
 21
-111.337158203125
 31
0.0
1001
DBPROPERTIES
1002
{
1000
PbThick
1002
}
  0
LINE
  5
45A
330
1F
100
AcDbEntity
  8
THICK
100
AcDbLine
 10
-35.86862945556641
 20
-111.337158203125
 30
0.0
 11
-35.71419525146484
 21
-111.517692565918
 31
0.0
1001
DBPROPERTIES
1002
{
1000
PbThick
1002
}
  0
LINE
  5
45B
330
1F
100
AcDbEntity
  8
THICK
100
AcDbLine
 10
-35.71419525146484
 20
-111.517692565918
 30
0.0
 11
-35.55746459960938
 21
-111.6892318725586
 31
0.0
1001
DBPROPERTIES
1002
{
1000
PbThick
1002
}
  0
LINE
  5
45C
330
1F
100
AcDbEntity
  8
HIDDEN
100
AcDbLine
 10
-35.55746459960938
 20
-111.6892318725586
 30
0.0
 11
-36.13034057617188
 21
-111.7153244018555
 31
0.0
1001
DBPROPERTIES
1002
{
1000
PbHidd
1002
}
  0
LINE
  5
45D
330
1F
100
AcDbEntity
  8
HIDDEN
100
AcDbLine
 10
-36.13034057617188
 20
-111.7153244018555
 30
0.0
 11
-36.69985961914062
 21
-111.7208404541016
 31
0.0
1001
DBPROPERTIES
1002
{
1000
PbHidd
1002
}
  0
LINE
  5
45E
330
1F
100
AcDbEntity
  8
HIDDEN
100
AcDbLine
 10
-36.69985961914062
 20
-111.7208404541016
 30
0.0
 11
-37.2805290222168
 21
-111.7049102783203
 31
0.0
1001
DBPROPERTIES
1002
{
1000
PbHidd
1002
}
  0
LINE
  5
45F
330
1F
100
AcDbEntity
  8
HIDDEN
100
AcDbLine
 10
-37.2805290222168
 20
-111.7049102783203
 30
0.0
 11
-37.86586761474609
 21
-111.6657409667969
 31
0.0
1001
DBPROPERTIES
1002
{
1000
PbHidd
1002
}
  0
LINE
  5
460
330
1F
100
AcDbEntity
  8
HIDDEN
100
AcDbLine
 10
-37.86586761474609
 20
-111.6657409667969
 30
0.0
 11
-38.44975662231445
 21
-111.6026000976562
 31
0.0
1001
DBPROPERTIES
1002
{
1000
PbHidd
1002
}
  0
LINE
  5
461
330
1F
100
AcDbEntity
  8
HIDDEN
100
AcDbLine
 10
-38.44975662231445
 20
-111.6026000976562
 30
0.0
 11
-39.02623748779297
 21
-111.5151748657227
 31
0.0
1001
DBPROPERTIES
1002
{
1000
PbHidd
1002
}
  0
LINE
  5
462
330
1F
100
AcDbEntity
  8
HIDDEN
100
AcDbLine
 10
-39.02623748779297
 20
-111.5151748657227
 30
0.0
 11
-39.58984756469727
 21
-111.4041442871094
 31
0.0
1001
DBPROPERTIES
1002
{
1000
PbHidd
1002
}
  0
LINE
  5
463
330
1F
100
AcDbEntity
  8
HIDDEN
100
AcDbLine
 10
-39.58984756469727
 20
-111.4041442871094
 30
0.0
 11
-40.13532257080078
 21
-111.2709045410156
 31
0.0
1001
DBPROPERTIES
1002
{
1000
PbHidd
1002
}
  0
LINE
  5
464
330
1F
100
AcDbEntity
  8
HIDDEN
100
AcDbLine
 10
-40.13532257080078
 20
-111.2709045410156
 30
0.0
 11
-40.6577033996582
 21
-111.1174926757812
 31
0.0
1001
DBPROPERTIES
1002
{
1000
PbHidd
1002
}
  0
LINE
  5
465
330
1F
100
AcDbEntity
  8
HIDDEN
100
AcDbLine
 10
-40.6577033996582
 20
-111.1174926757812
 30
0.0
 11
-41.15253829956055
 21
-110.9470443725586
 31
0.0
1001
DBPROPERTIES
1002
{
1000
PbHidd
1002
}
  0
LINE
  5
466
330
1F
100
AcDbEntity
  8
THICK
100
AcDbLine
 10
58.52466583251953
 20
-102.8476638793945
 30
0.0
 11
58.91598129272461
 21
-102.6140823364258
 31
0.0
1001
DBPROPERTIES
1002
{
1000
PbThick
1002
}
  0
LINE
  5
467
330
1F
100
AcDbEntity
  8
THICK
100
AcDbLine
 10
58.91598129272461
 20
-102.6140823364258
 30
0.0
 11
59.31108474731445
 21
-102.3557357788086
 31
0.0
1001
DBPROPERTIES
1002
{
1000
PbThick
1002
}
  0
LINE
  5
468
330
1F
100
AcDbEntity
  8
THICK
100
AcDbLine
 10
59.31108474731445
 20
-102.3557357788086
 30
0.0
 11
59.70637512207031
 21
-102.0734634399414
 31
0.0
1001
DBPROPERTIES
1002
{
1000
PbThick
1002
}
  0
LINE
  5
469
330
1F
100
AcDbEntity
  8
THICK
100
AcDbLine
 10
59.70637512207031
 20
-102.0734634399414
 30
0.0
 11
60.09850311279297
 21
-101.7686462402344
 31
0.0
1001
DBPROPERTIES
1002
{
1000
PbThick
1002
}
  0
LINE
  5
46A
330
1F
100
AcDbEntity
  8
THICK
100
AcDbLine
 10
60.09850311279297
 20
-101.7686462402344
 30
0.0
 11
60.48440170288086
 21
-101.4433135986328
 31
0.0
1001
DBPROPERTIES
1002
{
1000
PbThick
1002
}
  0
LINE
  5
46B
330
1F
100
AcDbEntity
  8
THICK
100
AcDbLine
 10
60.48440170288086
 20
-101.4433135986328
 30
0.0
 11
60.86112594604492
 21
-101.0996017456055
 31
0.0
1001
DBPROPERTIES
1002
{
1000
PbThick
1002
}
  0
LINE
  5
46C
330
1F
100
AcDbEntity
  8
THICK
100
AcDbLine
 10
60.86112594604492
 20
-101.0996017456055
 30
0.0
 11
61.22613143920898
 21
-100.7403869628906
 31
0.0
1001
DBPROPERTIES
1002
{
1000
PbThick
1002
}
  0
LINE
  5
46D
330
1F
100
AcDbEntity
  8
THICK
100
AcDbLine
 10
61.22613143920898
 20
-100.7403869628906
 30
0.0
 11
61.57699584960938
 21
-100.3688507080078
 31
0.0
1001
DBPROPERTIES
1002
{
1000
PbThick
1002
}
  0
LINE
  5
46E
330
1F
100
AcDbEntity
  8
THICK
100
AcDbLine
 10
61.57699584960938
 20
-100.3688507080078
 30
0.0
 11
61.9114990234375
 21
-99.988525390625
 31
0.0
1001
DBPROPERTIES
1002
{
1000
PbThick
1002
}
  0
LINE
  5
46F
330
1F
100
AcDbEntity
  8
THICK
100
AcDbLine
 10
61.9114990234375
 20
-99.988525390625
 30
0.0
 11
62.22780227661133
 21
-99.60356140136719
 31
0.0
1001
DBPROPERTIES
1002
{
1000
PbThick
1002
}
  0
LINE
  5
470
330
1F
100
AcDbEntity
  8
THICK
100
AcDbLine
 10
62.22780227661133
 20
-99.60356140136719
 30
0.0
 11
62.52935409545898
 21
-99.21121978759766
 31
0.0
1001
DBPROPERTIES
1002
{
1000
PbThick
1002
}
  0
LINE
  5
471
330
1F
100
AcDbEntity
  8
THICK
100
AcDbLine
 10
62.52935409545898
 20
-99.21121978759766
 30
0.0
 11
62.82939910888672
 21
-98.79388427734375
 31
0.0
1001
DBPROPERTIES
1002
{
1000
PbThick
1002
}
  0
LINE
  5
472
330
1F
100
AcDbEntity
  8
THICK
100
AcDbLine
 10
62.82939910888672
 20
-98.79388427734375
 30
0.0
 11
63.1257209777832
 21
-98.35243225097656
 31
0.0
1001
DBPROPERTIES
1002
{
1000
PbThick
1002
}
  0
LINE
  5
473
330
1F
100
AcDbEntity
  8
THICK
100
AcDbLine
 10
63.1257209777832
 20
-98.35243225097656
 30
0.0
 11
63.41518020629883
 21
-97.88931274414062
 31
0.0
1001
DBPROPERTIES
1002
{
1000
PbThick
1002
}
  0
LINE
  5
474
330
1F
100
AcDbEntity
  8
THICK
100
AcDbLine
 10
63.41518020629883
 20
-97.88931274414062
 30
0.0
 11
63.69513702392578
 21
-97.40760040283203
 31
0.0
1001
DBPROPERTIES
1002
{
1000
PbThick
1002
}
  0
LINE
  5
475
330
1F
100
AcDbEntity
  8
THICK
100
AcDbLine
 10
63.69513702392578
 20
-97.40760040283203
 30
0.0
 11
63.94608688354492
 21
-97.4347152709961
 31
0.0
1001
DBPROPERTIES
1002
{
1000
PbThick
1002
}
  0
LINE
  5
476
330
1F
100
AcDbEntity
  8
THICK
100
AcDbLine
 10
63.94608688354492
 20
-97.4347152709961
 30
0.0
 11
64.19502258300781
 21
-97.45242309570312
 31
0.0
1001
DBPROPERTIES
1002
{
1000
PbThick
1002
}
  0
LINE
  5
477
330
1F
100
AcDbEntity
  8
THICK
100
AcDbLine
 10
64.19502258300781
 20
-97.45242309570312
 30
0.0
 11
64.4410171508789
 21
-97.46095275878906
 31
0.0
1001
DBPROPERTIES
1002
{
1000
PbThick
1002
}
  0
LINE
  5
478
330
1F
100
AcDbEntity
  8
THICK
100
AcDbLine
 10
64.4410171508789
 20
-97.46095275878906
 30
0.0
 11
64.68317413330078
 21
-97.46080780029297
 31
0.0
1001
DBPROPERTIES
1002
{
1000
PbThick
1002
}
  0
LINE
  5
479
330
1F
100
AcDbEntity
  8
THICK
100
AcDbLine
 10
64.68317413330078
 20
-97.46080780029297
 30
0.0
 11
64.92060852050781
 21
-97.45262908935547
 31
0.0
1001
DBPROPERTIES
1002
{
1000
PbThick
1002
}
  0
LINE
  5
47A
330
1F
100
AcDbEntity
  8
THICK
100
AcDbLine
 10
64.92060852050781
 20
-97.45262908935547
 30
0.0
 11
65.1524429321289
 21
-97.43704223632812
 31
0.0
1001
DBPROPERTIES
1002
{
1000
PbThick
1002
}
  0
LINE
  5
47B
330
1F
100
AcDbEntity
  8
HIDDEN
100
AcDbLine
 10
65.1524429321289
 20
-97.43704223632812
 30
0.0
 11
64.81565856933594
 21
-97.90119934082031
 31
0.0
1001
DBPROPERTIES
1002
{
1000
PbHidd
1002
}
  0
LINE
  5
47C
330
1F
100
AcDbEntity
  8
HIDDEN
100
AcDbLine
 10
64.81565856933594
 20
-97.90119934082031
 30
0.0
 11
64.46488189697266
 21
-98.34990692138672
 31
0.0
1001
DBPROPERTIES
1002
{
1000
PbHidd
1002
}
  0
LINE
  5
47D
330
1F
100
AcDbEntity
  8
HIDDEN
100
AcDbLine
 10
64.46488189697266
 20
-98.34990692138672
 30
0.0
 11
64.09038543701172
 21
-98.79396057128906
 31
0.0
1001
DBPROPERTIES
1002
{
1000
PbHidd
1002
}
  0
LINE
  5
47E
330
1F
100
AcDbEntity
  8
HIDDEN
100
AcDbLine
 10
64.09038543701172
 20
-98.79396057128906
 30
0.0
 11
63.6948127746582
 21
-99.22718048095703
 31
0.0
1001
DBPROPERTIES
1002
{
1000
PbHidd
1002
}
  0
LINE
  5
47F
330
1F
100
AcDbEntity
  8
HIDDEN
100
AcDbLine
 10
63.6948127746582
 20
-99.22718048095703
 30
0.0
 11
63.28139877319336
 21
-99.64431762695312
 31
0.0
1001
DBPROPERTIES
1002
{
1000
PbHidd
1002
}
  0
LINE
  5
480
330
1F
100
AcDbEntity
  8
HIDDEN
100
AcDbLine
 10
63.28139877319336
 20
-99.64431762695312
 30
0.0
 11
62.85361480712891
 21
-100.0405197143555
 31
0.0
1001
DBPROPERTIES
1002
{
1000
PbHidd
1002
}
  0
LINE
  5
481
330
1F
100
AcDbEntity
  8
HIDDEN
100
AcDbLine
 10
62.85361480712891
 20
-100.0405197143555
 30
0.0
 11
62.41540145874023
 21
-100.4119338989258
 31
0.0
1001
DBPROPERTIES
1002
{
1000
PbHidd
1002
}
  0
LINE
  5
482
330
1F
100
AcDbEntity
  8
HIDDEN
100
AcDbLine
 10
62.41540145874023
 20
-100.4119338989258
 30
0.0
 11
61.97112655639648
 21
-100.7553329467773
 31
0.0
1001
DBPROPERTIES
1002
{
1000
PbHidd
1002
}
  0
LINE
  5
483
330
1F
100
AcDbEntity
  8
HIDDEN
100
AcDbLine
 10
61.97112655639648
 20
-100.7553329467773
 30
0.0
 11
61.52549362182617
 21
-101.0680999755859
 31
0.0
1001
DBPROPERTIES
1002
{
1000
PbHidd
1002
}
  0
LINE
  5
484
330
1F
100
AcDbEntity
  8
HIDDEN
100
AcDbLine
 10
61.52549362182617
 20
-101.0680999755859
 30
0.0
 11
61.08370208740234
 21
-101.3487014770508
 31
0.0
1001
DBPROPERTIES
1002
{
1000
PbHidd
1002
}
  0
LINE
  5
485
330
1F
100
AcDbEntity
  8
THICK
100
AcDbLine
 10
116.8990707397461
 20
-18.3680419921875
 30
0.0
 11
116.9604339599609
 21
-17.91646575927734
 31
0.0
1001
DBPROPERTIES
1002
{
1000
PbThick
1002
}
  0
LINE
  5
486
330
1F
100
AcDbEntity
  8
THICK
100
AcDbLine
 10
116.9604339599609
 20
-17.91646575927734
 30
0.0
 11
117.0047912597656
 21
-17.44648361206055
 31
0.0
1001
DBPROPERTIES
1002
{
1000
PbThick
1002
}
  0
LINE
  5
487
330
1F
100
AcDbEntity
  8
THICK
100
AcDbLine
 10
117.0047912597656
 20
-17.44648361206055
 30
0.0
 11
117.0305633544922
 21
-16.96143913269043
 31
0.0
1001
DBPROPERTIES
1002
{
1000
PbThick
1002
}
  0
LINE
  5
488
330
1F
100
AcDbEntity
  8
THICK
100
AcDbLine
 10
117.0305633544922
 20
-16.96143913269043
 30
0.0
 11
117.036735534668
 21
-16.46481323242188
 31
0.0
1001
DBPROPERTIES
1002
{
1000
PbThick
1002
}
  0
LINE
  5
489
330
1F
100
AcDbEntity
  8
THICK
100
AcDbLine
 10
117.036735534668
 20
-16.46481323242188
 30
0.0
 11
117.0229873657227
 21
-15.96026229858398
 31
0.0
1001
DBPROPERTIES
1002
{
1000
PbThick
1002
}
  0
LINE
  5
48A
330
1F
100
AcDbEntity
  8
THICK
100
AcDbLine
 10
117.0229873657227
 20
-15.96026229858398
 30
0.0
 11
116.989143371582
 21
-15.45142936706543
 31
0.0
1001
DBPROPERTIES
1002
{
1000
PbThick
1002
}
  0
LINE
  5
48B
330
1F
100
AcDbEntity
  8
THICK
100
AcDbLine
 10
116.989143371582
 20
-15.45142936706543
 30
0.0
 11
116.9358749389648
 21
-14.9420862197876
 31
0.0
1001
DBPROPERTIES
1002
{
1000
PbThick
1002
}
  0
LINE
  5
48C
330
1F
100
AcDbEntity
  8
THICK
100
AcDbLine
 10
116.9358749389648
 20
-14.9420862197876
 30
0.0
 11
116.8641586303711
 21
-14.43611907958984
 31
0.0
1001
DBPROPERTIES
1002
{
1000
PbThick
1002
}
  0
LINE
  5
48D
330
1F
100
AcDbEntity
  8
THICK
100
AcDbLine
 10
116.8641586303711
 20
-14.43611907958984
 30
0.0
 11
116.7753677368164
 21
-13.93746566772461
 31
0.0
1001
DBPROPERTIES
1002
{
1000
PbThick
1002
}
  0
LINE
  5
48E
330
1F
100
AcDbEntity
  8
THICK
100
AcDbLine
 10
116.7753677368164
 20
-13.93746566772461
 30
0.0
 11
116.6716079711914
 21
-13.45015335083008
 31
0.0
1001
DBPROPERTIES
1002
{
1000
PbThick
1002
}
  0
LINE
  5
48F
330
1F
100
AcDbEntity
  8
THICK
100
AcDbLine
 10
116.6716079711914
 20
-13.45015335083008
 30
0.0
 11
116.5528717041016
 21
-12.96976470947266
 31
0.0
1001
DBPROPERTIES
1002
{
1000
PbThick
1002
}
  0
LINE
  5
490
330
1F
100
AcDbEntity
  8
THICK
100
AcDbLine
 10
116.5528717041016
 20
-12.96976470947266
 30
0.0
 11
116.4136581420898
 21
-12.47497653961182
 31
0.0
1001
DBPROPERTIES
1002
{
1000
PbThick
1002
}
  0
LINE
  5
491
330
1F
100
AcDbEntity
  8
THICK
100
AcDbLine
 10
116.4136581420898
 20
-12.47497653961182
 30
0.0
 11
116.2532730102539
 21
-11.96806335449219
 31
0.0
1001
DBPROPERTIES
1002
{
1000
PbThick
1002
}
  0
LINE
  5
492
330
1F
100
AcDbEntity
  8
THICK
100
AcDbLine
 10
116.2532730102539
 20
-11.96806335449219
 30
0.0
 11
116.0716705322266
 21
-11.45300579071045
 31
0.0
1001
DBPROPERTIES
1002
{
1000
PbThick
1002
}
  0
LINE
  5
493
330
1F
100
AcDbEntity
  8
THICK
100
AcDbLine
 10
116.0716705322266
 20
-11.45300579071045
 30
0.0
 11
115.8695983886719
 21
-10.93378067016602
 31
0.0
1001
DBPROPERTIES
1002
{
1000
PbThick
1002
}
  0
LINE
  5
494
330
1F
100
AcDbEntity
  8
THICK
100
AcDbLine
 10
115.8695983886719
 20
-10.93378067016602
 30
0.0
 11
116.0472640991211
 21
-10.75448799133301
 31
0.0
1001
DBPROPERTIES
1002
{
1000
PbThick
1002
}
  0
LINE
  5
495
330
1F
100
AcDbEntity
  8
THICK
100
AcDbLine
 10
116.0472640991211
 20
-10.75448799133301
 30
0.0
 11
116.2163162231445
 21
-10.57090377807617
 31
0.0
1001
DBPROPERTIES
1002
{
1000
PbThick
1002
}
  0
LINE
  5
496
330
1F
100
AcDbEntity
  8
THICK
100
AcDbLine
 10
116.2163162231445
 20
-10.57090377807617
 30
0.0
 11
116.3763580322266
 21
-10.38389778137207
 31
0.0
1001
DBPROPERTIES
1002
{
1000
PbThick
1002
}
  0
LINE
  5
497
330
1F
100
AcDbEntity
  8
THICK
100
AcDbLine
 10
116.3763580322266
 20
-10.38389778137207
 30
0.0
 11
116.5272598266602
 21
-10.19449996948242
 31
0.0
1001
DBPROPERTIES
1002
{
1000
PbThick
1002
}
  0
LINE
  5
498
330
1F
100
AcDbEntity
  8
THICK
100
AcDbLine
 10
116.5272598266602
 20
-10.19449996948242
 30
0.0
 11
116.6688690185547
 21
-10.00374317169189
 31
0.0
1001
DBPROPERTIES
1002
{
1000
PbThick
1002
}
  0
LINE
  5
499
330
1F
100
AcDbEntity
  8
THICK
100
AcDbLine
 10
116.6688690185547
 20
-10.00374317169189
 30
0.0
 11
116.8012313842773
 21
-9.812773704528809
 31
0.0
1001
DBPROPERTIES
1002
{
1000
PbThick
1002
}
  0
LINE
  5
49A
330
1F
100
AcDbEntity
  8
HIDDEN
100
AcDbLine
 10
116.8012313842773
 20
-9.812773704528809
 30
0.0
 11
116.9541473388672
 21
-10.36547946929932
 31
0.0
1001
DBPROPERTIES
1002
{
1000
PbHidd
1002
}
  0
LINE
  5
49B
330
1F
100
AcDbEntity
  8
HIDDEN
100
AcDbLine
 10
116.9541473388672
 20
-10.36547946929932
 30
0.0
 11
117.0862503051758
 21
-10.91949272155762
 31
0.0
1001
DBPROPERTIES
1002
{
1000
PbHidd
1002
}
  0
LINE
  5
49C
330
1F
100
AcDbEntity
  8
HIDDEN
100
AcDbLine
 10
117.0862503051758
 20
-10.91949272155762
 30
0.0
 11
117.1999359130859
 21
-11.48914909362793
 31
0.0
1001
DBPROPERTIES
1002
{
1000
PbHidd
1002
}
  0
LINE
  5
49D
330
1F
100
AcDbEntity
  8
HIDDEN
100
AcDbLine
 10
117.1999359130859
 20
-11.48914909362793
 30
0.0
 11
117.2919998168945
 21
-12.06852722167969
 31
0.0
1001
DBPROPERTIES
1002
{
1000
PbHidd
1002
}
  0
LINE
  5
49E
330
1F
100
AcDbEntity
  8
HIDDEN
100
AcDbLine
 10
117.2919998168945
 20
-12.06852722167969
 30
0.0
 11
117.3603668212891
 21
-12.65182495117188
 31
0.0
1001
DBPROPERTIES
1002
{
1000
PbHidd
1002
}
  0
LINE
  5
49F
330
1F
100
AcDbEntity
  8
HIDDEN
100
AcDbLine
 10
117.3603668212891
 20
-12.65182495117188
 30
0.0
 11
117.4034118652344
 21
-13.23330783843994
 31
0.0
1001
DBPROPERTIES
1002
{
1000
PbHidd
1002
}
  0
LINE
  5
4A0
330
1F
100
AcDbEntity
  8
HIDDEN
100
AcDbLine
 10
117.4034118652344
 20
-13.23330783843994
 30
0.0
 11
117.4205780029297
 21
-13.80749225616455
 31
0.0
1001
DBPROPERTIES
1002
{
1000
PbHidd
1002
}
  0
LINE
  5
4A1
330
1F
100
AcDbEntity
  8
HIDDEN
100
AcDbLine
 10
117.4205780029297
 20
-13.80749225616455
 30
0.0
 11
117.4120559692383
 21
-14.36894226074219
 31
0.0
1001
DBPROPERTIES
1002
{
1000
PbHidd
1002
}
  0
LINE
  5
4A2
330
1F
100
AcDbEntity
  8
HIDDEN
100
AcDbLine
 10
117.4120559692383
 20
-14.36894226074219
 30
0.0
 11
117.3787384033203
 21
-14.91236019134521
 31
0.0
1001
DBPROPERTIES
1002
{
1000
PbHidd
1002
}
  0
LINE
  5
4A3
330
1F
100
AcDbEntity
  8
HIDDEN
100
AcDbLine
 10
117.3787384033203
 20
-14.91236019134521
 30
0.0
 11
117.3226699829102
 21
-15.43271827697754
 31
0.0
1001
DBPROPERTIES
1002
{
1000
PbHidd
1002
}
  0
LINE
  5
4A4
330
1F
100
AcDbEntity
  8
THICK
100
AcDbLine
 10
-15.1237627313009
 20
115.3974989108741
 30
0.0
 11
29.74127217349579
 21
311.9640602317302
 31
0.0
1001
DBPROPERTIES
1002
{
1000
PbThick
1002
}
  0
LINE
  5
4A5
330
1F
100
AcDbEntity
  8
THICK
100
AcDbLine
 10
111.3176851549934
 20
293.3447763045475
 30
0.0
 11
66.67670901808161
 21
97.75988058654653
 31
0.0
1001
DBPROPERTIES
1002
{
1000
PbThick
1002
}
  0
ELLIPSE
  5
4A6
330
1F
100
AcDbEntity
  8
THICK
100
AcDbEllipse
 10
38.36173549928311
 20
161.7183268819061
 30
0.0
 11
34.75776988397634
 21
152.2837398828008
 31
0.0
210
0.0
220
0.0
230
1.0
 40
0.7071067811865476
 41
0.0
 42
0.3884862281828484
1001
DBPROPERTIES
1002
{
1000
PbThick
1002
}
  0
ELLIPSE
  5
4A7
330
1F
100
AcDbEntity
  8
THICK
100
AcDbEllipse
 10
38.36173549928311
 20
161.7183268819061
 30
0.0
 11
34.75776988397634
 21
152.2837398828008
 31
0.0
210
0.0
220
0.0
230
1.0
 40
0.7071067811865476
 41
-0.3884862281828486
 42
0.0
1001
DBPROPERTIES
1002
{
1000
PbThick
1002
}
  0
LINE
  5
4A8
330
1F
100
AcDbEntity
  8
HIDDEN
100
AcDbLine
 10
65.41920392146257
 20
98.60580883528038
 30
0.0
 11
109.9389288792497
 21
293.6594684272604
 31
0.0
1001
DBPROPERTIES
1002
{
1000
PbHidd
1002
}
  0
LINE
  5
4A9
330
1F
100
AcDbEntity
  8
HIDDEN
100
AcDbLine
 10
109.9389288792498
 20
293.6594684272606
 30
0.0
 11
111.3176851549934
 21
293.3447763045477
 31
0.0
1001
DBPROPERTIES
1002
{
1000
PbHidd
1002
}
  0
LINE
  5
4AA
330
1F
100
AcDbEntity
  8
THICK
100
AcDbLine
 10
-16.42397209847795
 20
116.0563275254471
 30
0.0
 11
28.36251589775217
 21
312.2787523544432
 31
0.0
1001
DBPROPERTIES
1002
{
1000
PbThick
1002
}
  0
LINE
  5
4AB
330
1F
100
AcDbEntity
  8
THICK
100
AcDbLine
 10
28.36251589775224
 20
312.2787523544434
 30
0.0
 11
29.74127217349585
 21
311.9640602317305
 31
0.0
1001
DBPROPERTIES
1002
{
1000
PbThick
1002
}
  0
ELLIPSE
  5
4AC
330
1F
100
AcDbEntity
  8
HIDDEN
100
AcDbEllipse
 10
36.98297922353949
 20
162.0330190046191
 30
0.0
 11
-34.75776988397634
 21
-152.2837398828008
 31
0.0
210
0.0
220
0.0
230
1.0
 40
0.7071067811865476
 41
2.753106425406945
 42
3.141592653589793
1001
DBPROPERTIES
1002
{
1000
PbHidd
1002
}
  0
ELLIPSE
  5
4AD
330
1F
100
AcDbEntity
  8
THICK
100
AcDbEllipse
 10
36.98297922353949
 20
162.0330190046191
 30
0.0
 11
-34.75776988397634
 21
-152.2837398828008
 31
0.0
210
0.0
220
0.0
230
1.0
 40
0.7071067811865476
 41
3.141592653589793
 42
3.530078881772642
1001
DBPROPERTIES
1002
{
1000
PbThick
1002
}
  0
LINE
  5
4AE
330
1F
100
AcDbEntity
  8
THICK
100
AcDbLine
 10
80.79188581789425
 20
83.77339756764204
 30
0.0
 11
262.4467035821989
 21
171.2537471870381
 31
0.0
1001
DBPROPERTIES
1002
{
1000
PbThick
1002
}
  0
LINE
  5
4AF
330
1F
100
AcDbEntity
  8
THICK
100
AcDbLine
 10
298.7516227930966
 20
95.86580564477899
 30
0.0
 11
118.0040004591533
 21
8.822338318943146
 31
0.0
1001
DBPROPERTIES
1002
{
1000
PbThick
1002
}
  0
ELLIPSE
  5
4B0
330
1F
100
AcDbEntity
  8
THICK
100
AcDbEllipse
 10
150.3546301137353
 20
70.83731504907458
 30
0.0
 11
140.7313371663579
 21
67.77264005016254
 31
0.0
210
0.0
220
0.0
230
1.0
 40
0.7071067811865476
 41
0.0
 42
0.3884862281828484
1001
DBPROPERTIES
1002
{
1000
PbThick
1002
}
  0
ELLIPSE
  5
4B1
330
1F
100
AcDbEntity
  8
THICK
100
AcDbEllipse
 10
150.3546301137353
 20
70.83731504907458
 30
0.0
 11
140.7313371663579
 21
67.77264005016254
 31
0.0
210
0.0
220
0.0
230
1.0
 40
0.7071067811865476
 41
-0.3884862281828487
 42
0.0
1001
DBPROPERTIES
1002
{
1000
PbThick
1002
}
  0
LINE
  5
4B2
330
1F
100
AcDbEntity
  8
HIDDEN
100
AcDbLine
 10
117.8813321923952
 20
10.33292302903369
 30
0.0
 11
298.1380185247434
 21
97.13996803704254
 31
0.0
1001
DBPROPERTIES
1002
{
1000
PbHidd
1002
}
  0
LINE
  5
4B3
330
1F
100
AcDbEntity
  8
HIDDEN
100
AcDbLine
 10
298.1380185247436
 20
97.13996803704259
 30
0.0
 11
298.7516227930968
 21
95.86580564477906
 31
0.0
1001
DBPROPERTIES
1002
{
1000
PbHidd
1002
}
  0
LINE
  5
4B4
330
1F
100
AcDbEntity
  8
THICK
100
AcDbLine
 10
80.4963114896021
 20
85.20071510705985
 30
0.0
 11
261.8330993138458
 21
172.5279095793017
 31
0.0
1001
DBPROPERTIES
1002
{
1000
PbThick
1002
}
  0
LINE
  5
4B5
330
1F
100
AcDbEntity
  8
THICK
100
AcDbLine
 10
261.8330993138459
 20
172.5279095793017
 30
0.0
 11
262.4467035821991
 21
171.2537471870382
 31
0.0
1001
DBPROPERTIES
1002
{
1000
PbThick
1002
}
  0
ELLIPSE
  5
4B6
330
1F
100
AcDbEntity
  8
HIDDEN
100
AcDbEllipse
 10
149.741025845382
 20
72.11147744133811
 30
0.0
 11
-140.7313371663579
 21
-67.77264005016254
 31
0.0
210
0.0
220
0.0
230
1.0
 40
0.7071067811865476
 41
2.753106425406945
 42
3.141592653589793
1001
DBPROPERTIES
1002
{
1000
PbHidd
1002
}
  0
ELLIPSE
  5
4B7
330
1F
100
AcDbEntity
  8
THICK
100
AcDbEllipse
 10
149.741025845382
 20
72.11147744133811
 30
0.0
 11
-140.7313371663579
 21
-67.77264005016254
 31
0.0
210
0.0
220
0.0
230
1.0
 40
0.7071067811865476
 41
-3.141592653589793
 42
-2.753106425406945
1001
DBPROPERTIES
1002
{
1000
PbThick
1002
}
  0
LINE
  5
4B8
330
1F
100
AcDbEntity
  8
THICK
100
AcDbLine
 10
115.8695964920855
 20
-10.93378080991
 30
0.0
 11
297.5244142563902
 21
-98.41413042930611
 31
0.0
1001
DBPROPERTIES
1002
{
1000
PbThick
1002
}
  0
LINE
  5
4B9
330
1F
100
AcDbEntity
  8
THICK
100
AcDbLine
 10
261.2194950454925
 20
-173.8020719715653
 30
0.0
 11
80.47187271154927
 21
-86.75860464572938
 31
0.0
1001
DBPROPERTIES
1002
{
1000
PbThick
1002
}
  0
ELLIPSE
  5
4BA
330
1F
100
AcDbEntity
  8
THICK
100
AcDbEllipse
 10
149.1274215770288
 20
-73.38563983360172
 30
0.0
 11
140.7313371663579
 21
-67.77264005016259
 31
0.0
210
0.0
220
0.0
230
1.0
 40
0.7071067811865476
 41
0.0
 42
0.3884862281828486
1001
DBPROPERTIES
1002
{
1000
PbThick
1002
}
  0
ELLIPSE
  5
4BB
330
1F
100
AcDbEntity
  8
THICK
100
AcDbEllipse
 10
149.1274215770288
 20
-73.38563983360172
 30
0.0
 11
140.7313371663579
 21
-67.77264005016259
 31
0.0
210
0.0
220
0.0
230
1.0
 40
0.7071067811865476
 41
-0.3884862281828484
 42
0.0
1001
DBPROPERTIES
1002
{
1000
PbThick
1002
}
  0
LINE
  5
4BC
330
1F
100
AcDbEntity
  8
HIDDEN
100
AcDbLine
 10
81.57641298149747
 20
-85.72086457129285
 30
0.0
 11
261.8330993138457
 21
-172.5279095793017
 31
0.0
1001
DBPROPERTIES
1002
{
1000
PbHidd
1002
}
  0
LINE
  5
4BD
330
1F
100
AcDbEntity
  8
HIDDEN
100
AcDbLine
 10
261.8330993138459
 20
-172.5279095793018
 30
0.0
 11
261.2194950454927
 21
-173.8020719715654
 31
0.0
1001
DBPROPERTIES
1002
{
1000
PbHidd
1002
}
  0
LINE
  5
4BE
330
1F
100
AcDbEntity
  8
THICK
100
AcDbLine
 10
116.8012307004998
 20
-9.812773564800757
 30
0.0
 11
298.1380185247434
 21
-97.13996803704259
 31
0.0
1001
DBPROPERTIES
1002
{
1000
PbThick
1002
}
  0
LINE
  5
4BF
330
1F
100
AcDbEntity
  8
THICK
100
AcDbLine
 10
298.1380185247436
 20
-97.13996803704272
 30
0.0
 11
297.5244142563904
 21
-98.41413042930625
 31
0.0
1001
DBPROPERTIES
1002
{
1000
PbThick
1002
}
  0
ELLIPSE
  5
4C0
330
1F
100
AcDbEntity
  8
HIDDEN
100
AcDbEllipse
 10
149.741025845382
 20
-72.11147744133818
 30
0.0
 11
-140.7313371663579
 21
67.77264005016259
 31
0.0
210
0.0
220
0.0
230
1.0
 40
0.7071067811865476
 41
2.753106425406945
 42
3.141592653589793
1001
DBPROPERTIES
1002
{
1000
PbHidd
1002
}
  0
ELLIPSE
  5
4C1
330
1F
100
AcDbEntity
  8
THICK
100
AcDbEllipse
 10
149.741025845382
 20
-72.11147744133818
 30
0.0
 11
-140.7313371663579
 21
67.77264005016259
 31
0.0
210
0.0
220
0.0
230
1.0
 40
0.7071067811865476
 41
3.141592653589793
 42
3.530078881772642
1001
DBPROPERTIES
1002
{
1000
PbThick
1002
}
  0
LINE
  5
4C2
330
1F
100
AcDbEntity
  8
THICK
100
AcDbLine
 10
63.69513769870937
 20
-97.40759922911728
 30
0.0
 11
108.560172603506
 21
-293.9741605499734
 31
0.0
1001
DBPROPERTIES
1002
{
1000
PbThick
1002
}
  0
LINE
  5
4C3
330
1F
100
AcDbEntity
  8
THICK
100
AcDbLine
 10
26.98375962200846
 20
-312.5934444771561
 30
0.0
 11
-17.65721651490321
 21
-117.0085487591552
 31
0.0
1001
DBPROPERTIES
1002
{
1000
PbThick
1002
}
  0
ELLIPSE
  5
4C4
330
1F
100
AcDbEntity
  8
THICK
100
AcDbEllipse
 10
35.6042229477958
 20
-162.347711127332
 30
0.0
 11
34.75776988397629
 21
-152.2837398828008
 31
0.0
210
0.0
220
0.0
230
1.0
 40
0.7071067811865477
 41
0.0
 42
0.3884862281828486
1001
DBPROPERTIES
1002
{
1000
PbThick
1002
}
  0
ELLIPSE
  5
4C5
330
1F
100
AcDbEntity
  8
THICK
100
AcDbEllipse
 10
35.6042229477958
 20
-162.347711127332
 30
0.0
 11
34.75776988397629
 21
-152.2837398828008
 31
0.0
210
0.0
220
0.0
230
1.0
 40
0.7071067811865477
 41
-0.3884862281828487
 42
0.0
1001
DBPROPERTIES
1002
{
1000
PbThick
1002
}
  0
LINE
  5
4C6
330
1F
100
AcDbEntity
  8
HIDDEN
100
AcDbLine
 10
-16.15720906003502
 20
-117.2250927624631
 30
0.0
 11
28.36251589775208
 21
-312.2787523544432
 31
0.0
1001
DBPROPERTIES
1002
{
1000
PbHidd
1002
}
  0
LINE
  5
4C7
330
1F
100
AcDbEntity
  8
HIDDEN
100
AcDbLine
 10
28.36251589775212
 20
-312.2787523544434
 30
0.0
 11
26.9837596220085
 21
-312.5934444771563
 31
0.0
1001
DBPROPERTIES
1002
{
1000
PbHidd
1002
}
  0
LINE
  5
4C8
330
1F
100
AcDbEntity
  8
THICK
100
AcDbLine
 10
65.15244088301957
 20
-97.43704359826434
 30
0.0
 11
109.9389288792496
 21
-293.6594684272605
 31
0.0
1001
DBPROPERTIES
1002
{
1000
PbThick
1002
}
  0
LINE
  5
4C9
330
1F
100
AcDbEntity
  8
THICK
100
AcDbLine
 10
109.9389288792497
 20
-293.6594684272606
 30
0.0
 11
108.5601726035061
 21
-293.9741605499735
 31
0.0
1001
DBPROPERTIES
1002
{
1000
PbThick
1002
}
  0
ELLIPSE
  5
4CA
330
1F
100
AcDbEntity
  8
HIDDEN
100
AcDbEllipse
 10
36.98297922353942
 20
-162.0330190046191
 30
0.0
 11
-34.75776988397629
 21
152.2837398828008
 31
0.0
210
0.0
220
0.0
230
1.0
 40
0.7071067811865477
 41
2.753106425406945
 42
3.141592653589793
1001
DBPROPERTIES
1002
{
1000
PbHidd
1002
}
  0
ELLIPSE
  5
4CB
330
1F
100
AcDbEntity
  8
THICK
100
AcDbEllipse
 10
36.98297922353942
 20
-162.0330190046191
 30
0.0
 11
-34.75776988397629
 21
152.2837398828008
 31
0.0
210
0.0
220
0.0
230
1.0
 40
0.7071067811865477
 41
3.141592653589793
 42
3.530078881772642
1001
DBPROPERTIES
1002
{
1000
PbThick
1002
}
  0
LINE
  5
4CC
330
1F
100
AcDbEntity
  8
THICK
100
AcDbLine
 10
-36.44305892581949
 20
-110.5315086758846
 30
0.0
 11
-162.1520932437706
 21
-268.1656517964749
 31
0.0
1001
DBPROPERTIES
1002
{
1000
PbThick
1002
}
  0
LINE
  5
4CD
330
1F
100
AcDbEntity
  8
THICK
100
AcDbLine
 10
-227.5712971652331
 20
-215.9955775472371
 30
0.0
 11
-102.4900615640568
 21
-59.1486691175179
 31
0.0
1001
DBPROPERTIES
1002
{
1000
PbThick
1002
}
  0
ELLIPSE
  5
4CE
330
1F
100
AcDbEntity
  8
THICK
100
AcDbEllipse
 10
-104.7296817549181
 20
-129.0586446523966
 30
0.0
 11
-97.3891070503342
 21
-122.1220775615062
 31
0.0
210
0.0
220
0.0
230
1.0
 40
0.7071067811865476
 41
0.0
 42
0.3884862281828483
1001
DBPROPERTIES
1002
{
1000
PbThick
1002
}
  0
ELLIPSE
  5
4CF
330
1F
100
AcDbEntity
  8
THICK
100
AcDbEllipse
 10
-104.7296817549181
 20
-129.0586446523966
 30
0.0
 11
-97.3891070503342
 21
-122.1220775615062
 31
0.0
210
0.0
220
0.0
230
1.0
 40
0.7071067811865476
 41
-0.3884862281828486
 42
0.0
1001
DBPROPERTIES
1002
{
1000
PbThick
1002
}
  0
LINE
  5
4D0
330
1F
100
AcDbEntity
  8
HIDDEN
100
AcDbLine
 10
-101.7241231323603
 20
-60.45643514738678
 30
0.0
 11
-226.4656204792366
 21
-216.8773252810271
 31
0.0
1001
DBPROPERTIES
1002
{
1000
PbHidd
1002
}
  0
LINE
  5
4D1
330
1F
100
AcDbEntity
  8
HIDDEN
100
AcDbLine
 10
-226.4656204792366
 20
-216.8773252810271
 30
0.0
 11
-227.5712971652331
 21
-215.9955775472371
 31
0.0
1001
DBPROPERTIES
1002
{
1000
PbHidd
1002
}
  0
LINE
  5
4D2
330
1F
100
AcDbEntity
  8
THICK
100
AcDbLine
 10
-35.5574657869664
 20
-111.6892324487645
 30
0.0
 11
-161.046416557774
 21
-269.0473995302648
 31
0.0
1001
DBPROPERTIES
1002
{
1000
PbThick
1002
}
  0
LINE
  5
4D3
330
1F
100
AcDbEntity
  8
THICK
100
AcDbLine
 10
-161.0464165577741
 20
-269.0473995302649
 30
0.0
 11
-162.1520932437706
 21
-268.1656517964749
 31
0.0
1001
DBPROPERTIES
1002
{
1000
PbThick
1002
}
  0
ELLIPSE
  5
4D4
330
1F
100
AcDbEntity
  8
HIDDEN
100
AcDbEllipse
 10
-103.6240050689215
 20
-129.9403923861865
 30
0.0
 11
97.3891070503342
 21
122.1220775615062
 31
0.0
210
0.0
220
0.0
230
1.0
 40
0.7071067811865476
 41
2.753106425406945
 42
3.141592653589793
1001
DBPROPERTIES
1002
{
1000
PbHidd
1002
}
  0
ELLIPSE
  5
4D5
330
1F
100
AcDbEntity
  8
THICK
100
AcDbEllipse
 10
-103.6240050689215
 20
-129.9403923861865
 30
0.0
 11
97.3891070503342
 21
122.1220775615062
 31
0.0
210
0.0
220
0.0
230
1.0
 40
0.7071067811865476
 41
3.141592653589793
 42
3.530078881772642
1001
DBPROPERTIES
1002
{
1000
PbThick
1002
}
  0
LINE
  5
4D6
330
1F
100
AcDbEntity
  8
THICK
100
AcDbLine
 10
-109.1388888762801
 20
-40.42293765783096
 30
0.0
 11
-310.7605255785809
 21
-40.42293765783096
 31
0.0
1001
DBPROPERTIES
1002
{
1000
PbThick
1002
}
  0
LINE
  5
4D7
330
1F
100
AcDbEntity
  8
THICK
100
AcDbLine
 10
-310.7605255785809
 20
43.25136478257718
 30
0.0
 11
-110.1457998392232
 21
43.25136478257716
 31
0.0
1001
DBPROPERTIES
1002
{
1000
PbThick
1002
}
  0
ELLIPSE
  5
4D8
330
1F
100
AcDbEntity
  8
THICK
100
AcDbEllipse
 10
-166.2
 20
1.414213562373112
 30
0.0
 11
-156.2
 21
9.564175623352766E-15
 31
0.0
210
0.0
220
0.0
230
1.0
 40
0.7071067811865476
 41
0.0
 42
0.3884862281828486
1001
DBPROPERTIES
1002
{
1000
PbThick
1002
}
  0
ELLIPSE
  5
4D9
330
1F
100
AcDbEntity
  8
THICK
100
AcDbEllipse
 10
-166.2
 20
1.414213562373112
 30
0.0
 11
-156.2
 21
9.564175623352766E-15
 31
0.0
210
0.0
220
0.0
230
1.0
 40
0.7071067811865476
 41
-0.3884862281828486
 42
0.0
1001
DBPROPERTIES
1002
{
1000
PbThick
1002
}
  0
LINE
  5
4DA
330
1F
100
AcDbEntity
  8
HIDDEN
100
AcDbLine
 10
-110.6906976920624
 20
41.83715122020407
 30
0.0
 11
-310.7605255785809
 21
41.83715122020409
 31
0.0
1001
DBPROPERTIES
1002
{
1000
PbHidd
1002
}
  0
LINE
  5
4DB
330
1F
100
AcDbEntity
  8
HIDDEN
100
AcDbLine
 10
-310.7605255785809
 20
41.83715122020409
 30
0.0
 11
-310.7605255785809
 21
43.25136478257718
 31
0.0
1001
DBPROPERTIES
1002
{
1000
PbHidd
1002
}
  0
LINE
  5
4DC
330
1F
100
AcDbEntity
  8
THICK
100
AcDbLine
 10
-109.4918754792483
 20
-41.83715122020406
 30
0.0
 11
-310.7605255785809
 21
-41.83715122020406
 31
0.0
1001
DBPROPERTIES
1002
{
1000
PbThick
1002
}
  0
LINE
  5
4DD
330
1F
100
AcDbEntity
  8
THICK
100
AcDbLine
 10
-310.7605255785809
 20
-41.83715122020404
 30
0.0
 11
-310.7605255785809
 21
-40.42293765783095
 31
0.0
1001
DBPROPERTIES
1002
{
1000
PbThick
1002
}
  0
ELLIPSE
  5
4DE
330
1F
100
AcDbEntity
  8
HIDDEN
100
AcDbEllipse
 10
-166.2
 20
0.0000000000000169
 30
0.0
 11
156.2
 21
-9.564175623352766E-15
 31
0.0
210
0.0
220
0.0
230
1.0
 40
0.7071067811865476
 41
2.753106425406945
 42
3.141592653589793
1001
DBPROPERTIES
1002
{
1000
PbHidd
1002
}
  0
ELLIPSE
  5
4DF
330
1F
100
AcDbEntity
  8
THICK
100
AcDbEllipse
 10
-166.2
 20
0.0000000000000169
 30
0.0
 11
156.2
 21
-9.564175623352766E-15
 31
0.0
210
0.0
220
0.0
230
1.0
 40
0.7071067811865476
 41
3.141592653589793
 42
3.530078881772642
1001
DBPROPERTIES
1002
{
1000
PbThick
1002
}
  0
ARC
  5
4E0
330
1F
100
AcDbEntity
  8
HIDDEN
100
AcDbCircle
 10
0.0
 20
0.0
 30
0.0
 40
392.0
100
AcDbArc
 50
89.99998127603165
 51
179.9999801521572
1001
DBPROPERTIES
1002
{
1000
PbHidd
1002
}
  0
ARC
  5
4E1
330
1F
100
AcDbEntity
  8
HIDDEN
100
AcDbCircle
 10
0.0
 20
0.0
 30
0.0
 40
392.0
100
AcDbArc
 50
0.0
 51
89.99998127603165
1001
DBPROPERTIES
1002
{
1000
PbHidd
1002
}
  0
ARC
  5
4E2
330
1F
100
AcDbEntity
  8
THICK
100
AcDbCircle
 10
0.0000000000000007
 20
0.0000000000000013
 30
0.0
 40
403.0
100
AcDbArc
 50
180.0000198478428
 51
270.0000187239684
1001
DBPROPERTIES
1002
{
1000
PbThick
1002
}
  0
ARC
  5
4E3
330
1F
100
AcDbEntity
  8
THICK
100
AcDbCircle
 10
0.0000000000000007
 20
0.0000000000000013
 30
0.0
 40
403.0
100
AcDbArc
 50
270.0000187239684
 51
0.0
1001
DBPROPERTIES
1002
{
1000
PbThick
1002
}
  0
ARC
  5
4E4
330
1F
100
AcDbEntity
  8
THICK
100
AcDbCircle
 10
0.0000000000000007
 20
0.0000000000000013
 30
0.0
 40
403.0
100
AcDbArc
 50
0.0
 51
89.99998127603165
1001
DBPROPERTIES
1002
{
1000
PbThick
1002
}
  0
ARC
  5
4E5
330
1F
100
AcDbEntity
  8
HIDDEN
100
AcDbCircle
 10
0.0
 20
0.0
 30
0.0
 40
357.0
100
AcDbArc
 50
270.0000187239684
 51
89.99998127603165
1001
DBPROPERTIES
1002
{
1000
PbHidd
1002
}
  0
ARC
  5
4E6
330
1F
100
AcDbEntity
  8
HIDDEN
100
AcDbCircle
 10
0.0
 20
0.0
 30
0.0
 40
357.0
100
AcDbArc
 50
89.99998127603165
 51
270.0000187239684
1001
DBPROPERTIES
1002
{
1000
PbHidd
1002
}
  0
ARC
  5
4E7
330
1F
100
AcDbEntity
  8
THICK
100
AcDbCircle
 10
0.0000000000000007
 20
0.0000000000000013
 30
0.0
 40
403.0
100
AcDbArc
 50
89.99998127603165
 51
180.0000198478428
1001
DBPROPERTIES
1002
{
1000
PbThick
1002
}
  0
ARC
  5
4E8
330
1F
100
AcDbEntity
  8
HIDDEN
100
AcDbCircle
 10
0.0
 20
0.0
 30
0.0
 40
392.0
100
AcDbArc
 50
179.9999801521572
 51
0.0
1001
DBPROPERTIES
1002
{
1000
PbHidd
1002
}
  0
LINE
  5
4E9
330
1F
100
AcDbEntity
  8
THICK
100
AcDbLine
 10
-199.9074372190188
 20
252.9442162573869
 30
0.0
 11
-201.0131107596871
 21
252.0624710319125
 31
0.0
1001
DBPROPERTIES
1002
{
1000
PbThick
1002
}
  0
LINE
  5
4EA
330
1F
100
AcDbEntity
  8
THICK
100
AcDbLine
 10
73.11950590279253
 20
314.0020666461269
 30
0.0
 11
71.74074594185657
 21
314.3167596099609
 31
0.0
1001
DBPROPERTIES
1002
{
1000
PbThick
1002
}
  0
LINE
  5
4EB
330
1F
100
AcDbEntity
  8
THICK
100
AcDbLine
 10
291.0859677323051
 20
138.6099541602092
 30
0.0
 11
290.4723604682142
 21
139.8841227731862
 31
0.0
1001
DBPROPERTIES
1002
{
1000
PbThick
1002
}
  0
LINE
  5
4EC
330
1F
100
AcDbEntity
  8
THICK
100
AcDbLine
 10
289.8587590591185
 20
-141.1582792281403
 30
0.0
 11
290.4723604682142
 21
-139.8841227731862
 31
0.0
1001
DBPROPERTIES
1002
{
1000
PbThick
1002
}
  0
LINE
  5
4ED
330
1F
100
AcDbEntity
  8
THICK
100
AcDbLine
 10
70.36199291700117
 20
-314.6314509906798
 30
0.0
 11
71.74074594185652
 21
-314.3167596099609
 31
0.0
1001
DBPROPERTIES
1002
{
1000
PbThick
1002
}
  0
LINE
  5
4EE
330
1F
100
AcDbEntity
  8
THICK
100
AcDbLine
 10
-202.1187889639027
 20
-251.1807220873833
 30
0.0
 11
-201.0131107596872
 21
-252.0624710319125
 31
0.0
1001
DBPROPERTIES
1002
{
1000
PbThick
1002
}
  0
LINE
  5
4EF
330
1F
100
AcDbEntity
  8
THICK
100
AcDbLine
 10
-322.4
 20
1.414214313030256
 30
0.0
 11
-322.4
 21
0.0000000000000265
 31
0.0
1001
DBPROPERTIES
1002
{
1000
PbThick
1002
}
  0
ENDSEC
  0
SECTION
  2
OBJECTS
  0
DICTIONARY
  5
C
330
0
100
AcDbDictionary
  3
ACAD_GROUP
350
D
  3
ACAD_LAYOUT
350
1A
  3
ACAD_MATERIAL
350
43
  3
ACAD_MLEADERSTYLE
350
6B
  3
ACAD_MLINESTYLE
350
17
  3
ACAD_PLOTSETTINGS
350
19
  3
ACAD_SCALELIST
350
47
  3
ACAD_VISUALSTYLE
350
2A
  3
ACDBVARIABLEDICTIONARY
350
4F0
1001
ACAD
1000
TREAT_AS_HARD
1070
     0
  0
DICTIONARY
  5
D
102
{ACAD_REACTORS
330
C
102
}
330
C
100
AcDbDictionary
1001
ACAD
1000
TREAT_AS_HARD
1070
     0
  0
DICTIONARY
  5
1A
102
{ACAD_REACTORS
330
C
102
}
330
C
100
AcDbDictionary
1001
ACAD
1000
TREAT_AS_HARD
1070
     0
  0
DICTIONARY
  5
43
102
{ACAD_REACTORS
330
C
102
}
330
C
100
AcDbDictionary
  3
BYBLOCK
350
45
  3
BYLAYER
350
44
  3
GLOBAL
350
46
1001
ACAD
1000
TREAT_AS_HARD
1070
     0
  0
DICTIONARY
  5
6B
102
{ACAD_REACTORS
330
C
102
}
330
C
100
AcDbDictionary
  3
STANDARD
350
6C
1001
ACAD
1000
TREAT_AS_HARD
1070
     0
  0
DICTIONARY
  5
17
102
{ACAD_REACTORS
330
C
102
}
330
C
100
AcDbDictionary
  3
STANDARD
350
18
1001
ACAD
1000
TREAT_AS_HARD
1070
     0
  0
DICTIONARY
  5
19
102
{ACAD_REACTORS
330
C
102
}
330
C
100
AcDbDictionary
1001
ACAD
1000
TREAT_AS_HARD
1070
     0
  0
DICTIONARY
  5
47
102
{ACAD_REACTORS
330
C
102
}
330
C
100
AcDbDictionary
  3
A0
350
48
  3
A1
350
49
  3
A2
350
4A
  3
A3
350
4B
  3
A4
350
4C
  3
A5
350
4D
  3
A6
350
4E
  3
A7
350
4F
  3
A8
350
50
  3
A9
350
51
  3
B0
350
52
  3
B1
350
53
  3
B2
350
54
  3
B3
350
55
  3
B4
350
56
  3
B5
350
57
  3
B6
350
58
  3
B7
350
59
  3
B8
350
5A
  3
B9
350
5B
  3
C0
350
5C
  3
C1
350
5D
  3
C2
350
5E
  3
C3
350
5F
  3
C4
350
60
  3
C5
350
61
  3
C6
350
62
  3
C7
350
63
  3
C8
350
64
  3
C9
350
65
  3
D0
350
66
  3
D1
350
67
  3
D2
350
68
1001
ACAD
1000
TREAT_AS_HARD
1070
     0
  0
DICTIONARY
  5
2A
102
{ACAD_REACTORS
330
C
102
}
330
C
100
AcDbDictionary
  3
2DWIREFRAME
350
2F
  3
BASIC
350
32
  3
BRIGHTEN
350
36
  3
COLORCHANGE
350
3A
  3
CONCEPTUAL
350
34
  3
DIM
350
35
  3
EDGECOLOROFF
350
3D
  3
FACEPATTERN
350
39
  3
FLAT
350
2B
  3
FLATWITHEDGES
350
2C
  3
GOURAUD
350
2D
  3
GOURAUDWITHEDGES
350
2E
  3
HIDDEN
350
31
  3
JITTEROFF
350
3B
  3
LINEPATTERN
350
38
  3
OVERHANGOFF
350
3C
  3
REALISTIC
350
33
  3
SHADED
350
42
  3
SHADED_WITH_EDGES
350
41
  3
SHADES_OF_GRAY
350
3E
  3
SKETCHY
350
3F
  3
THICKEN
350
37
  3
WIREFRAME
350
30
  3
X-RAY
350
40
1001
ACAD
1000
TREAT_AS_HARD
1070
     0
  0
DICTIONARY
  5
4F0
102
{ACAD_REACTORS
330
C
102
}
330
C
100
AcDbDictionary
  3
CANNOSCALE
350
4FB
  3
CENTEREXE
350
4F7
  3
CENTERLTYPEFILE
350
4F8
  3
CMLEADERSTYLE
350
4F2
  3
CTABLESTYLE
350
4F1
  3
DIMASSOC
350
4F9
  3
HIDETEXT
350
4FA
  3
MSLTSCALE
350
4FC
  3
PSOLHEIGHT
350
4F4
  3
PSOLWIDTH
350
4F3
1001
ACAD
1000
TREAT_AS_HARD
1070
     0
  0
MATERIAL
  5
45
102
{ACAD_REACTORS
330
43
102
}
102
{ACAD_XDICTIONARY
360
4FF
102
}
330
43
100
AcDbMaterial
  1
BYBLOCK
  0
MATERIAL
  5
44
102
{ACAD_REACTORS
330
43
102
}
102
{ACAD_XDICTIONARY
360
4FD
102
}
330
43
100
AcDbMaterial
  1
BYLAYER
  0
MATERIAL
  5
46
102
{ACAD_REACTORS
330
43
102
}
102
{ACAD_XDICTIONARY
360
501
102
}
330
43
100
AcDbMaterial
  1
GLOBAL
  0
ACAD_PROXY_OBJECT
  5
6C
102
{ACAD_REACTORS
330
6B
102
}
330
6B
100
AcDbZombieObject
 90
      499
 91
      505
 93
      610
310
40901902A4063FBFFFFFE0000000000000020400000000000020404214DD185B99185C990000000000000104090141901A00000000000004100000000000000041025764000000000000039000
340
14
340
0
340
11
340
0
 94
        0
1001
ACAD_MLEADERVER
1070
     2
  0
MLINESTYLE
  5
18
102
{ACAD_REACTORS
330
17
102
}
330
17
100
AcDbMlineStyle
  2
Standard
 70
     0
  3

 62
   256
 51
90.0
 52
90.0
 71
     2
 49
0.5
 62
   256
  6
BYLAYER
 49
-0.5
 62
   256
  6
BYLAYER
  0
ACAD_PROXY_OBJECT
  5
48
102
{ACAD_REACTORS
330
47
102
}
330
47
100
AcDbZombieObject
 90
      499
 91
      503
 93
       41
310
903313A31580
  0
ACAD_PROXY_OBJECT
  5
49
102
{ACAD_REACTORS
330
47
102
}
330
47
100
AcDbZombieObject
 90
      499
 91
      503
 93
      105
310
903313A324000000000000004000
  0
ACAD_PROXY_OBJECT
  5
4A
102
{ACAD_REACTORS
330
47
102
}
330
47
100
AcDbZombieObject
 90
      499
 91
      503
 93
      105
310
903313A344000000000000104000
  0
ACAD_PROXY_OBJECT
  5
4B
102
{ACAD_REACTORS
330
47
102
}
330
47
100
AcDbZombieObject
 90
      499
 91
      503
 93
      105
310
903313A354000000000000144000
  0
ACAD_PROXY_OBJECT
  5
4C
102
{ACAD_REACTORS
330
47
102
}
330
47
100
AcDbZombieObject
 90
      499
 91
      503
 93
      105
310
903313A384000000000000204000
  0
ACAD_PROXY_OBJECT
  5
4D
102
{ACAD_REACTORS
330
47
102
}
330
47
100
AcDbZombieObject
 90
      499
 91
      503
 93
      113
310
904313A31304000000000000244000
  0
ACAD_PROXY_OBJECT
  5
4E
102
{ACAD_REACTORS
330
47
102
}
330
47
100
AcDbZombieObject
 90
      499
 91
      503
 93
      113
310
904313A31364000000000000304000
  0
ACAD_PROXY_OBJECT
  5
4F
102
{ACAD_REACTORS
330
47
102
}
330
47
100
AcDbZombieObject
 90
      499
 91
      503
 93
      113
310
904313A32304000000000000344000
  0
ACAD_PROXY_OBJECT
  5
50
102
{ACAD_REACTORS
330
47
102
}
330
47
100
AcDbZombieObject
 90
      499
 91
      503
 93
      113
310
904313A333040000000000003E4000
  0
ACAD_PROXY_OBJECT
  5
51
102
{ACAD_REACTORS
330
47
102
}
330
47
100
AcDbZombieObject
 90
      499
 91
      503
 93
      113
310
904313A34304000000000000444000
  0
ACAD_PROXY_OBJECT
  5
52
102
{ACAD_REACTORS
330
47
102
}
330
47
100
AcDbZombieObject
 90
      499
 91
      503
 93
      113
310
904313A35304000000000000494000
  0
ACAD_PROXY_OBJECT
  5
53
102
{ACAD_REACTORS
330
47
102
}
330
47
100
AcDbZombieObject
 90
      499
 91
      503
 93
      121
310
905313A3130304000000000000594000
  0
ACAD_PROXY_OBJECT
  5
54
102
{ACAD_REACTORS
330
47
102
}
330
47
100
AcDbZombieObject
 90
      499
 91
      503
 93
      105
310
903323A310000000000000010100
  0
ACAD_PROXY_OBJECT
  5
55
102
{ACAD_REACTORS
330
47
102
}
330
47
100
AcDbZombieObject
 90
      499
 91
      503
 93
      105
310
903343A310000000000000410100
  0
ACAD_PROXY_OBJECT
  5
56
102
{ACAD_REACTORS
330
47
102
}
330
47
100
AcDbZombieObject
 90
      499
 91
      503
 93
      105
310
903383A310000000000000810100
  0
ACAD_PROXY_OBJECT
  5
57
102
{ACAD_REACTORS
330
47
102
}
330
47
100
AcDbZombieObject
 90
      499
 91
      503
 93
      113
310
90431303A310000000000000910100
  0
ACAD_PROXY_OBJECT
  5
58
102
{ACAD_REACTORS
330
47
102
}
330
47
100
AcDbZombieObject
 90
      499
 91
      503
 93
      121
310
9053130303A310000000000001650100
  0
ACAD_PROXY_OBJECT
  5
59
102
{ACAD_REACTORS
330
47
102
}
330
47
100
AcDbZombieObject
 90
      499
 91
      503
 93
      257
310
90E312F31323822203D2031272D3022000000000000200FC000000000000284000
  0
ACAD_PROXY_OBJECT
  5
5A
102
{ACAD_REACTORS
330
47
102
}
330
47
100
AcDbZombieObject
 90
      499
 91
      503
 93
      249
310
90D312F363422203D2031272D3022000000000000240FC000000000000284000
  0
ACAD_PROXY_OBJECT
  5
5B
102
{ACAD_REACTORS
330
47
102
}
330
47
100
AcDbZombieObject
 90
      499
 91
      503
 93
      249
310
90D312F333222203D2031272D3022000000000000280FC000000000000284000
  0
ACAD_PROXY_OBJECT
  5
5C
102
{ACAD_REACTORS
330
47
102
}
330
47
100
AcDbZombieObject
 90
      499
 91
      503
 93
      249
310
90D312F313622203D2031272D30220000000000002C0FC000000000000284000
  0
ACAD_PROXY_OBJECT
  5
5D
102
{ACAD_REACTORS
330
47
102
}
330
47
100
AcDbZombieObject
 90
      499
 91
      503
 93
      249
310
90D332F333222203D2031272D30220000000000002E0FC000000000000284000
  0
ACAD_PROXY_OBJECT
  5
5E
102
{ACAD_REACTORS
330
47
102
}
330
47
100
AcDbZombieObject
 90
      499
 91
      503
 93
      241
310
90C312F3822203D2031272D3022000000000000300FC000000000000284000
  0
ACAD_PROXY_OBJECT
  5
5F
102
{ACAD_REACTORS
330
47
102
}
330
47
100
AcDbZombieObject
 90
      499
 91
      503
 93
      249
310
90D332F313622203D2031272D3022000000000000320FC000000000000284000
  0
ACAD_PROXY_OBJECT
  5
60
102
{ACAD_REACTORS
330
47
102
}
330
47
100
AcDbZombieObject
 90
      499
 91
      503
 93
      241
310
90C312F3422203D2031272D3022000000000000340FC000000000000284000
  0
ACAD_PROXY_OBJECT
  5
61
102
{ACAD_REACTORS
330
47
102
}
330
47
100
AcDbZombieObject
 90
      499
 91
      503
 93
      241
310
90C332F3822203D2031272D3022000000000000360FC000000000000284000
  0
ACAD_PROXY_OBJECT
  5
62
102
{ACAD_REACTORS
330
47
102
}
330
47
100
AcDbZombieObject
 90
      499
 91
      503
 93
      241
310
90C312F3222203D2031272D3022000000000000380FC000000000000284000
  0
ACAD_PROXY_OBJECT
  5
63
102
{ACAD_REACTORS
330
47
102
}
330
47
100
AcDbZombieObject
 90
      499
 91
      503
 93
      241
310
90C332F3422203D2031272D30220000000000003A0FC000000000000284000
  0
ACAD_PROXY_OBJECT
  5
64
102
{ACAD_REACTORS
330
47
102
}
330
47
100
AcDbZombieObject
 90
      499
 91
      503
 93
      161
310
90A3122203D2031272D30224000000000000284000
  0
ACAD_PROXY_OBJECT
  5
65
102
{ACAD_REACTORS
330
47
102
}
330
47
100
AcDbZombieObject
 90
      499
 91
      503
 93
      257
310
90E312D312F3222203D2031272D30220000000000003E0FC000000000000284000
  0
ACAD_PROXY_OBJECT
  5
66
102
{ACAD_REACTORS
330
47
102
}
330
47
100
AcDbZombieObject
 90
      499
 91
      503
 93
      225
310
90A3322203D2031272D302200000000000002100000000000000284000
  0
ACAD_PROXY_OBJECT
  5
67
102
{ACAD_REACTORS
330
47
102
}
330
47
100
AcDbZombieObject
 90
      499
 91
      503
 93
      225
310
90A3622203D2031272D302200000000000006100000000000000284000
  0
ACAD_PROXY_OBJECT
  5
68
102
{ACAD_REACTORS
330
47
102
}
330
47
100
AcDbZombieObject
 90
      499
 91
      503
 93
      249
310
90D31272D3022203D2031272D30220000000000000A100000000000000284000
  0
ACAD_PROXY_OBJECT
  5
2F
102
{ACAD_REACTORS
330
2A
102
}
330
2A
100
AcDbZombieObject
 90
      499
 91
      501
 93
      436
310
42CC9915DA5C99599C985B595049028333333333333E33F0000000000000F90107901411070040501600405405064090741402480A0340
1001
ACAD
1000
AcDbSavedByObjectVersion
1070
     0
  0
ACAD_PROXY_OBJECT
  5
32
102
{ACAD_REACTORS
330
2A
102
}
330
2A
100
AcDbZombieObject
 90
      499
 91
      501
 93
      388
310
4150985CDA58D07406404333333333333E33F0000000000000F90107A41107004050150841D405064090741402480A0350
1001
ACAD
1000
AcDbSavedByObjectVersion
1070
     0
  0
ACAD_PROXY_OBJECT
  5
36
102
{ACAD_REACTORS
330
2A
102
}
330
2A
100
AcDbZombieObject
 90
      499
 91
      501
 93
      428
310
42109C9A59DA1D195B90C409028333333333333E33F0000000000000F9010790141107004050150841D405064090741402480A029950
1001
ACAD
1000
AcDbSavedByObjectVersion
1070
     0
  0
ACAD_PROXY_OBJECT
  5
3A
102
{ACAD_REACTORS
330
2A
102
}
330
2A
100
AcDbZombieObject
 90
      499
 91
      501
 93
      452
310
42D0DBDB1BDC90DA185B99D95104090240C333333333333E33F0000000000000F90108901411070040501508421405064090741402480A0350
1001
ACAD
1000
AcDbSavedByObjectVersion
1070
     0
  0
ACAD_PROXY_OBJECT
  5
34
102
{ACAD_REACTORS
330
2A
102
}
330
2A
100
AcDbZombieObject
 90
      499
 91
      501
 93
      500
310
4290DBDB98D95C1D1D585B10940D028333333333333E33F0000000000000F90107902409070040501000000000018199010841D405064090740C02480A0340
1001
ACAD
1000
AcDbSavedByObjectVersion
1070
     0
  0
ACAD_PROXY_OBJECT
  5
35
102
{ACAD_REACTORS
330
2A
102
}
330
2A
100
AcDbZombieObject
 90
      499
 91
      501
 93
      412
310
40D11A5B50B409028333333333333E33F0000000000000F9010790141107004050150841D405064090741402480A02677FFFFFD0
1001
ACAD
1000
AcDbSavedByObjectVersion
1070
     0
  0
ACAD_PROXY_OBJECT
  5
3D
102
{ACAD_REACTORS
330
2A
102
}
330
2A
100
AcDbZombieObject
 90
      499
 91
      501
 93
      452
310
43115919D950DBDB1BDC93D999916409028333333333333E33F0000000000000F9010790141107004050150841D405064090741402480A0350
1001
ACAD
1000
AcDbSavedByObjectVersion
1070
     0
  0
ACAD_PROXY_OBJECT
  5
39
102
{ACAD_REACTORS
330
2A
102
}
330
2A
100
AcDbZombieObject
 90
      499
 91
      501
 93
      444
310
42D19858D95C185D1D195C9B90F409028333333333333E33F0000000000000F9010790141107004050150841D405064090741402480A0350
1001
ACAD
1000
AcDbSavedByObjectVersion
1070
     0
  0
ACAD_PROXY_OBJECT
  5
2B
102
{ACAD_REACTORS
330
2A
102
}
330
2A
100
AcDbZombieObject
 90
      499
 91
      501
 93
      380
310
41119B185D240901404333333333333E33F0000000000000F9010740A907004050150841D405064090741402480A1B50
1001
ACAD
1000
AcDbSavedByObjectVersion
1070
     0
  0
ACAD_PROXY_OBJECT
  5
2C
102
{ACAD_REACTORS
330
2A
102
}
330
2A
100
AcDbZombieObject
 90
      499
 91
      501
 93
      468
310
43519B185D15DA5D1A115919D95CD0140901404333333333333E33F0000000000000F90107409019070040501600405405064090741402480A1B50
1001
ACAD
1000
AcDbSavedByObjectVersion
1070
     0
  0
ACAD_PROXY_OBJECT
  5
2D
102
{ACAD_REACTORS
330
2A
102
}
330
2A
100
AcDbZombieObject
 90
      499
 91
      501
 93
      404
310
41D1DBDD5C985D5910240902404333333333333E33F0000000000000F9010740A9070040501641D405064090741402480A1B50
1001
ACAD
1000
AcDbSavedByObjectVersion
1070
     0
  0
ACAD_PROXY_OBJECT
  5
2E
102
{ACAD_REACTORS
330
2A
102
}
330
2A
100
AcDbZombieObject
 90
      499
 91
      501
 93
      492
310
4411DBDD5C985D5915DA5D1A115919D95CD0340902404333333333333E33F0000000000000F90107409019070040501600405405064090741402480A1B50
1001
ACAD
1000
AcDbSavedByObjectVersion
1070
     0
  0
ACAD_PROXY_OBJECT
  5
31
102
{ACAD_REACTORS
330
2A
102
}
330
2A
100
AcDbZombieObject
 90
      499
 91
      501
 93
      476
310
41921A5919195B90640502408333333333333E33F0000000000000F901079024090700405020000000000001110200405405064090740C02480A0340
1001
ACAD
1000
AcDbSavedByObjectVersion
1070
     0
  0
ACAD_PROXY_OBJECT
  5
3B
102
{ACAD_REACTORS
330
2A
102
}
330
2A
100
AcDbZombieObject
 90
      499
 91
      501
 93
      428
310
42529A5D1D195C93D999914409028333333333333E33F0000000000000F9010790141107004050150A41D405064090741402480A0350
1001
ACAD
1000
AcDbSavedByObjectVersion
1070
     0
  0
ACAD_PROXY_OBJECT
  5
38
102
{ACAD_REACTORS
330
2A
102
}
330
2A
100
AcDbZombieObject
 90
      499
 91
      501
 93
      444
310
42D31A5B995C185D1D195C9B90E409028333333333333E33F0000000000000F9010790141107004050750841D405064090741402483A0350
1001
ACAD
1000
AcDbSavedByObjectVersion
1070
     0
  0
ACAD_PROXY_OBJECT
  5
3C
102
{ACAD_REACTORS
330
2A
102
}
330
2A
100
AcDbZombieObject
 90
      499
 91
      501
 93
      444
310
42D3DD995C9A185B99D3D999915409028333333333333E33F0000000000000F9010790141107004050150941D405064090741402480A0350
1001
ACAD
1000
AcDbSavedByObjectVersion
1070
     0
  0
ACAD_PROXY_OBJECT
  5
33
102
{ACAD_REACTORS
330
2A
102
}
330
2A
100
AcDbZombieObject
 90
      499
 91
      501
 93
      428
310
425499585B1A5CDD1A58D08409038333333333333E33F0000000000000F9010740A907004050150800405405064090740C02480A1B40
1001
ACAD
1000
AcDbSavedByObjectVersion
1070
     0
  0
ACAD_PROXY_OBJECT
  5
42
102
{ACAD_REACTORS
330
2A
102
}
330
2A
100
AcDbZombieObject
 90
      499
 91
      501
 93
      420
310
4194DA1859195911B40902404333333333333E33F0000000000000F9010740A41107004050150800405405064090840C02480A0B40
1001
ACAD
1000
AcDbSavedByObjectVersion
1070
     0
  0
ACAD_PROXY_OBJECT
  5
41
102
{ACAD_REACTORS
330
2A
102
}
330
2A
100
AcDbZombieObject
 90
      499
 91
      501
 93
      516
310
4454DA18591959081DDA5D1A08195919D95CD1A40902404333333333333E33F0000000000000F901074090142907004050250800405405064090740C02480A0B40
1001
ACAD
1000
AcDbSavedByObjectVersion
1070
     0
  0
ACAD_PROXY_OBJECT
  5
3E
102
{ACAD_REACTORS
330
2A
102
}
330
2A
100
AcDbZombieObject
 90
      499
 91
      501
 93
      532
310
4394DA1859195CC81BD98811DC985E5174090240C333333333333E33F0000000000000F901079024090741D01000000000000111010841D405064090740C02480A0340
1001
ACAD
1000
AcDbSavedByObjectVersion
1070
     0
  0
ACAD_PROXY_OBJECT
  5
3F
102
{ACAD_REACTORS
330
2A
102
}
330
2A
100
AcDbZombieObject
 90
      499
 91
      501
 93
      476
310
41D4DAD95D18DA1E51840502408333333333333E33F0000000000000F901079024090741D01000000000000111010B41D405064090741802480A0340
1001
ACAD
1000
AcDbSavedByObjectVersion
1070
     0
  0
ACAD_PROXY_OBJECT
  5
37
102
{ACAD_REACTORS
330
2A
102
}
330
2A
100
AcDbZombieObject
 90
      499
 91
      501
 93
      412
310
41D51A1A58DAD95B90D409028333333333333E33F0000000000000F9010790141107004050150C41D405064090741402480A0350
1001
ACAD
1000
AcDbSavedByObjectVersion
1070
     0
  0
ACAD_PROXY_OBJECT
  5
30
102
{ACAD_REACTORS
330
2A
102
}
330
2A
100
AcDbZombieObject
 90
      499
 91
      501
 93
      420
310
4255DA5C99599C985B595059028333333333333E33F0000000000000F90107901411070040501600405405064090740C02480A0340
1001
ACAD
1000
AcDbSavedByObjectVersion
1070
     0
  0
ACAD_PROXY_OBJECT
  5
40
102
{ACAD_REACTORS
330
2A
102
}
330
2A
100
AcDbZombieObject
 90
      499
 91
      501
 93
      404
310
41560B54985E51940902404000000000000E03F0000000000000F9010740501907004050150841D405064090740C02480A1B40
1001
ACAD
1000
AcDbSavedByObjectVersion
1070
     0
  0
DICTIONARYVAR
  5
4FB
102
{ACAD_REACTORS
330
4F0
102
}
330
4F0
100
DictionaryVariables
280
     0
  1
1:1
  0
DICTIONARYVAR
  5
4F7
102
{ACAD_REACTORS
330
4F0
102
}
330
4F0
100
DictionaryVariables
280
     0
  1
3.500000
  0
DICTIONARYVAR
  5
4F8
102
{ACAD_REACTORS
330
4F0
102
}
330
4F0
100
DictionaryVariables
280
     0
  1
acadiso.lin
  0
DICTIONARYVAR
  5
4F2
102
{ACAD_REACTORS
330
4F0
102
}
330
4F0
100
DictionaryVariables
280
     0
  1
Standard
  0
DICTIONARYVAR
  5
4F1
102
{ACAD_REACTORS
330
4F0
102
}
330
4F0
100
DictionaryVariables
280
     0
  1
Standard
  0
DICTIONARYVAR
  5
4F9
102
{ACAD_REACTORS
330
4F0
102
}
330
4F0
100
DictionaryVariables
280
     0
  1
2
  0
DICTIONARYVAR
  5
4FA
102
{ACAD_REACTORS
330
4F0
102
}
330
4F0
100
DictionaryVariables
280
     0
  1
1
  0
DICTIONARYVAR
  5
4FC
102
{ACAD_REACTORS
330
4F0
102
}
330
4F0
100
DictionaryVariables
280
     0
  1
1
  0
DICTIONARYVAR
  5
4F4
102
{ACAD_REACTORS
330
4F0
102
}
330
4F0
100
DictionaryVariables
280
     0
  1
80.000000
  0
DICTIONARYVAR
  5
4F3
102
{ACAD_REACTORS
330
4F0
102
}
330
4F0
100
DictionaryVariables
280
     0
  1
5.000000
  0
DICTIONARY
  5
4FF
330
45
100
AcDbDictionary
  3
ACAD_XREC_ROUNDTRIP
360
500
1001
ACAD
1000
TREAT_AS_HARD
1070
     1
  0
DICTIONARY
  5
4FD
330
44
100
AcDbDictionary
  3
ACAD_XREC_ROUNDTRIP
360
4FE
1001
ACAD
1000
TREAT_AS_HARD
1070
     1
  0
DICTIONARY
  5
501
330
46
100
AcDbDictionary
  3
ACAD_XREC_ROUNDTRIP
360
502
1001
ACAD
1000
TREAT_AS_HARD
1070
     1
  0
XRECORD
  5
500
102
{ACAD_REACTORS
330
4FF
102
}
330
4FF
100
AcDbXrecord
102
MATERIAL
148
0.0
149
0.0
149
0.0
 93
        0
 94
      127
282
     0
 72
     1
 77
     1
171
     1
175
     1
179
     1
273
     0
  0
XRECORD
  5
4FE
102
{ACAD_REACTORS
330
4FD
102
}
330
4FD
100
AcDbXrecord
102
MATERIAL
148
0.0
149
0.0
149
0.0
 93
        0
 94
      127
282
     0
 72
     1
 77
     1
171
     1
175
     1
179
     1
273
     0
  0
XRECORD
  5
502
102
{ACAD_REACTORS
330
501
102
}
330
501
100
AcDbXrecord
102
MATERIAL
148
0.0
149
0.0
149
0.0
 93
        0
 94
      127
282
     0
 72
     1
 77
     1
171
     1
175
     1
179
     1
273
     0
  0
ENDSEC
  0
EOF
