  0
SECTION
  2
HEADER
  9
$ACADVER
  1
AC1012
  9
$DWGCODEPAGE
  3
ansi_1252
  9
$INSBASE
 10
0.0
 20
0.0
 30
0.0
  9
$EXTMIN
 10
1.000000000000000E+20
 20
1.000000000000000E+20
 30
1.000000000000000E+20
  9
$EXTMAX
 10
-1.000000000000000E+20
 20
-1.000000000000000E+20
 30
-1.000000000000000E+20
  9
$LIMMIN
 10
0.0
 20
0.0
  9
$LIMMAX
 10
420.0
 20
297.0
  9
$ORTHOMODE
 70
     0
  9
$REGENMODE
 70
     1
  9
$FILLMODE
 70
     1
  9
$QTEXTMODE
 70
     0
  9
$MIRRTEXT
 70
     1
  9
$DRAGMODE
 70
     2
  9
$LTSCALE
 40
1.0
  9
$OSMODE
 70
    37
  9
$ATTMODE
 70
     1
  9
$TEXTSIZE
 40
2.5
  9
$TRACEWID
 40
1.0
  9
$TEXTSTYLE
  7
STANDARD
  9
$CLAYER
  8
0
  9
$CELTYPE
  6
BYLAYER
  9
$CECOLOR
 62
   256
  9
$CELTSCALE
 40
1.0
  9
$DELOBJ
 70
     1
  9
$DISPSILH
 70
     0
  9
$DIMSCALE
 40
1.0
  9
$DIMASZ
 40
2.5
  9
$DIMEXO
 40
0.625
  9
$DIMDLI
 40
3.75
  9
$DIMRND
 40
0.0
  9
$DIMDLE
 40
0.0
  9
$DIMEXE
 40
1.25
  9
$DIMTP
 40
0.0
  9
$DIMTM
 40
0.0
  9
$DIMTXT
 40
2.5
  9
$DIMCEN
 40
2.5
  9
$DIMTSZ
 40
0.0
  9
$DIMTOL
 70
     0
  9
$DIMLIM
 70
     0
  9
$DIMTIH
 70
     0
  9
$DIMTOH
 70
     0
  9
$DIMSE1
 70
     0
  9
$DIMSE2
 70
     0
  9
$DIMTAD
 70
     1
  9
$DIMZIN
 70
     8
  9
$DIMBLK
  1

  9
$DIMASO
 70
     1
  9
$DIMSHO
 70
     1
  9
$DIMPOST
  1

  9
$DIMAPOST
  1

  9
$DIMALT
 70
     0
  9
$DIMALTD
 70
     3
  9
$DIMALTF
 40
0.03937007874016
  9
$DIMLFAC
 40
1.0
  9
$DIMTOFL
 70
     1
  9
$DIMTVP
 40
0.0
  9
$DIMTIX
 70
     0
  9
$DIMSOXD
 70
     0
  9
$DIMSAH
 70
     0
  9
$DIMBLK1
  1

  9
$DIMBLK2
  1

  9
$DIMSTYLE
  2
ISO-25
  9
$DIMCLRD
 70
     0
  9
$DIMCLRE
 70
     0
  9
$DIMCLRT
 70
     0
  9
$DIMTFAC
 40
1.0
  9
$DIMGAP
 40
0.625
  9
$DIMJUST
 70
     0
  9
$DIMSD1
 70
     0
  9
$DIMSD2
 70
     0
  9
$DIMTOLJ
 70
     0
  9
$DIMTZIN
 70
     8
  9
$DIMALTZ
 70
     0
  9
$DIMALTTZ
 70
     0
  9
$DIMFIT
 70
     3
  9
$DIMUPT
 70
     0
  9
$DIMUNIT
 70
     2
  9
$DIMDEC
 70
     2
  9
$DIMTDEC
 70
     2
  9
$DIMALTU
 70
     2
  9
$DIMALTTD
 70
     3
  9
$DIMTXSTY
  7
STANDARD
  9
$DIMAUNIT
 70
     0
  9
$LUNITS
 70
     2
  9
$LUPREC
 70
     4
  9
$SKETCHINC
 40
1.0
  9
$FILLETRAD
 40
10.0
  9
$AUNITS
 70
     0
  9
$AUPREC
 70
     0
  9
$MENU
  1
.
  9
$ELEVATION
 40
0.0
  9
$PELEVATION
 40
0.0
  9
$THICKNESS
 40
0.0
  9
$LIMCHECK
 70
     0
  9
$CHAMFERA
 40
0.0
  9
$CHAMFERB
 40
0.0
  9
$CHAMFERC
 40
0.0
  9
$CHAMFERD
 40
0.0
  9
$SKPOLY
 70
     0
  9
$TDCREATE
 40
2458050.668942731
  9
$TDUPDATE
 40
2458050.668943993
  9
$TDINDWG
 40
0.0000000116
  9
$TDUSRTIMER
 40
0.0000000116
  9
$USRTIMER
 70
     1
  9
$ANGBASE
 50
0.0
  9
$ANGDIR
 70
     0
  9
$PDMODE
 70
     0
  9
$PDSIZE
 40
0.0
  9
$PLINEWID
 40
0.0
  9
$COORDS
 70
     1
  9
$SPLFRAME
 70
     0
  9
$SPLINETYPE
 70
     6
  9
$SPLINESEGS
 70
     8
  9
$ATTDIA
 70
     0
  9
$ATTREQ
 70
     1
  9
$HANDLING
 70
     1
  9
$HANDSEED
  5
1A4
  9
$SURFTAB1
 70
     6
  9
$SURFTAB2
 70
     6
  9
$SURFTYPE
 70
     6
  9
$SURFU
 70
     6
  9
$SURFV
 70
     6
  9
$UCSNAME
  2

  9
$UCSORG
 10
0.0
 20
0.0
 30
0.0
  9
$UCSXDIR
 10
1.0
 20
0.0
 30
0.0
  9
$UCSYDIR
 10
0.0
 20
1.0
 30
0.0
  9
$PUCSNAME
  2

  9
$PUCSORG
 10
0.0
 20
0.0
 30
0.0
  9
$PUCSXDIR
 10
1.0
 20
0.0
 30
0.0
  9
$PUCSYDIR
 10
0.0
 20
1.0
 30
0.0
  9
$USERI1
 70
     0
  9
$USERI2
 70
     0
  9
$USERI3
 70
     0
  9
$USERI4
 70
     0
  9
$USERI5
 70
     0
  9
$USERR1
 40
0.0
  9
$USERR2
 40
0.0
  9
$USERR3
 40
0.0
  9
$USERR4
 40
0.0
  9
$USERR5
 40
0.0
  9
$WORLDVIEW
 70
     1
  9
$SHADEDGE
 70
     3
  9
$SHADEDIF
 70
    70
  9
$TILEMODE
 70
     1
  9
$MAXACTVP
 70
    64
  9
$PINSBASE
 10
0.0
 20
0.0
 30
0.0
  9
$PLIMCHECK
 70
     0
  9
$PEXTMIN
 10
1.000000000000000E+20
 20
1.000000000000000E+20
 30
1.000000000000000E+20
  9
$PEXTMAX
 10
-1.000000000000000E+20
 20
-1.000000000000000E+20
 30
-1.000000000000000E+20
  9
$PLIMMIN
 10
0.0
 20
0.0
  9
$PLIMMAX
 10
420.0
 20
297.0
  9
$UNITMODE
 70
     0
  9
$VISRETAIN
 70
     1
  9
$PLINEGEN
 70
     0
  9
$PSLTSCALE
 70
     1
  9
$TREEDEPTH
 70
  3020
  9
$PICKSTYLE
 70
     1
  9
$CMLSTYLE
  2
STANDARD
  9
$CMLJUST
 70
     0
  9
$CMLSCALE
 40
20.0
  9
$SAVEIMAGES
 70
     1
  0
ENDSEC
  0
SECTION
  2
CLASSES
  0
CLASS
  1
ACDBDICTIONARYWDFLT
  2
AcDbDictionaryWithDefault
  3
ObjectDBX Classes
 90
    32768
280
     0
281
     0
  0
CLASS
  1
VISUALSTYLE
  2
AcDbVisualStyle
  3
ObjectDBX Classes
 90
     4095
280
     0
281
     0
  0
CLASS
  1
MATERIAL
  2
AcDbMaterial
  3
ObjectDBX Classes
 90
     1153
280
     0
281
     0
  0
CLASS
  1
SCALE
  2
AcDbScale
  3
ObjectDBX Classes
 90
     1153
280
     0
281
     0
  0
CLASS
  1
TABLESTYLE
  2
AcDbTableStyle
  3
ObjectDBX Classes
 90
     4095
280
     0
281
     0
  0
CLASS
  1
MLEADERSTYLE
  2
AcDbMLeaderStyle
  3
ACDB_MLEADERSTYLE_CLASS
 90
     4095
280
     0
281
     0
  0
CLASS
  1
SUN
  2
AcDbSun
  3
SCENEOE
 90
     1153
280
     0
281
     0
  0
CLASS
  1
DICTIONARYVAR
  2
AcDbDictionaryVar
  3
ObjectDBX Classes
 90
        0
280
     0
281
     0
  0
CLASS
  1
XRECORD
  2
AcDbXrecord
  3
ObjectDBX Classes
 90
    32768
280
     0
281
     0
  0
CLASS
  1
LWPOLYLINE
  2
AcDbPolyline
  3
ObjectDBX Classes
 90
    32768
280
     0
281
     1
  0
CLASS
  1
HATCH
  2
AcDbHatch
  3
ObjectDBX Classes
 90
    32768
280
     0
281
     1
  0
CLASS
  1
ACDBPLACEHOLDER
  2
AcDbPlaceHolder
  3
ObjectDBX Classes
 90
        0
280
     0
281
     0
  0
CLASS
  1
LAYOUT
  2
AcDbLayout
  3
ObjectDBX Classes
 90
        0
280
     0
281
     0
  0
ENDSEC
  0
SECTION
  2
TABLES
  0
TABLE
  2
VPORT
  5
8
330
0
100
AcDbSymbolTable
 70
     1
  0
VPORT
  5
29
330
8
100
AcDbSymbolTableRecord
100
AcDbViewportTableRecord
  2
*ACTIVE
 70
     0
 10
0.0
 20
0.0
 11
1.0
 21
1.0
 12
-0.0000064563724322
 22
-0.0000000000000568
 13
0.0
 23
0.0
 14
10.0
 24
10.0
 15
10.0
 25
10.0
 16
0.0
 26
0.0
 36
1.0
 17
0.0
 27
0.0
 37
0.0
 40
575.28
 41
1.329787256937491
 42
50.0
 43
0.0
 44
0.0
 50
0.0
 51
0.0
 71
     0
 72
   100
 73
     1
 74
     3
 75
     0
 76
     0
 77
     0
 78
     0
  0
ENDTAB
  0
TABLE
  2
LTYPE
  5
5
330
0
100
AcDbSymbolTable
 70
     1
  0
LTYPE
  5
14
330
5
100
AcDbSymbolTableRecord
100
AcDbLinetypeTableRecord
  2
BYBLOCK
 70
     0
  3

 72
    65
 73
     0
 40
0.0
  0
LTYPE
  5
15
330
5
100
AcDbSymbolTableRecord
100
AcDbLinetypeTableRecord
  2
BYLAYER
 70
     0
  3

 72
    65
 73
     0
 40
0.0
  0
LTYPE
  5
16
330
5
100
AcDbSymbolTableRecord
100
AcDbLinetypeTableRecord
  2
CONTINUOUS
 70
     0
  3
Solid line
 72
    65
 73
     0
 40
0.0
  0
ENDTAB
  0
TABLE
  2
LAYER
  5
2
330
0
100
AcDbSymbolTable
 70
     4
  0
LAYER
  5
10
330
2
100
AcDbSymbolTableRecord
100
AcDbLayerTableRecord
  2
0
 70
     0
 62
     7
  6
CONTINUOUS
  0
LAYER
  5
6E
330
2
100
AcDbSymbolTableRecord
100
AcDbLayerTableRecord
  2
THICK
 70
     0
 62
     7
  6
CONTINUOUS
  0
LAYER
  5
6F
330
2
100
AcDbSymbolTableRecord
100
AcDbLayerTableRecord
  2
HIDDEN
 70
     0
 62
     7
  6
CONTINUOUS
  0
LAYER
  5
70
330
2
100
AcDbSymbolTableRecord
100
AcDbLayerTableRecord
  2
HASHLINES
 70
     0
 62
     7
  6
CONTINUOUS
  0
ENDTAB
  0
TABLE
  2
STYLE
  5
3
330
0
100
AcDbSymbolTable
 70
     1
  0
STYLE
  5
11
330
3
100
AcDbSymbolTableRecord
100
AcDbTextStyleTableRecord
  2
STANDARD
 70
     0
 40
0.0
 41
1.0
 50
0.0
 71
     0
 42
2.5
  3
txt
  4

  0
ENDTAB
  0
TABLE
  2
VIEW
  5
6
330
0
100
AcDbSymbolTable
 70
     0
  0
ENDTAB
  0
TABLE
  2
UCS
  5
7
330
0
100
AcDbSymbolTable
 70
     0
  0
ENDTAB
  0
TABLE
  2
APPID
  5
9
330
0
100
AcDbSymbolTable
 70
     3
  0
APPID
  5
12
330
9
100
AcDbSymbolTableRecord
100
AcDbRegAppTableRecord
  2
ACAD
 70
     0
  0
APPID
  5
71
330
9
100
AcDbSymbolTableRecord
100
AcDbRegAppTableRecord
  2
DBPROPERTIES
 70
     0
  0
APPID
  5
1A3
330
9
100
AcDbSymbolTableRecord
100
AcDbRegAppTableRecord
  2
ACAD_MLEADERVER
 70
     0
  0
ENDTAB
  0
TABLE
  2
DIMSTYLE
  5
A
330
0
100
AcDbSymbolTable
 70
     1
  0
DIMSTYLE
105
27
330
A
100
AcDbSymbolTableRecord
100
AcDbDimStyleTableRecord
  2
ISO-25
 70
     0
  3

  4

  5

  6

  7

 40
1.0
 41
2.5
 42
0.625
 43
3.75
 44
1.25
 45
0.0
 46
0.0
 47
0.0
 48
0.0
140
2.5
141
2.5
142
0.0
143
0.03937007874016
144
1.0
145
0.0
146
1.0
147
0.625
 71
     0
 72
     0
 73
     0
 74
     0
 75
     0
 76
     0
 77
     1
 78
     8
170
     0
171
     3
172
     1
173
     0
174
     0
175
     0
176
     0
177
     0
178
     0
270
     2
271
     2
272
     2
273
     2
274
     3
340
11
275
     0
280
     0
281
     0
282
     0
283
     0
284
     8
285
     0
286
     0
287
     3
288
     0
  0
ENDTAB
  0
TABLE
  2
BLOCK_RECORD
  5
1
330
0
100
AcDbSymbolTable
 70
     0
  0
BLOCK_RECORD
  5
1F
330
1
100
AcDbSymbolTableRecord
100
AcDbBlockTableRecord
  2
*MODEL_SPACE
  0
BLOCK_RECORD
  5
1B
330
1
100
AcDbSymbolTableRecord
100
AcDbBlockTableRecord
  2
*PAPER_SPACE
  0
ENDTAB
  0
ENDSEC
  0
SECTION
  2
BLOCKS
  0
BLOCK
  5
20
330
1F
100
AcDbEntity
  8
0
100
AcDbBlockBegin
  2
*MODEL_SPACE
 70
     0
 10
0.0
 20
0.0
 30
0.0
  3
*MODEL_SPACE
  1

  0
ENDBLK
  5
21
330
1F
100
AcDbEntity
  8
0
100
AcDbBlockEnd
  0
BLOCK
  5
1C
330
1B
100
AcDbEntity
 67
     1
  8
0
100
AcDbBlockBegin
  2
*PAPER_SPACE
 70
     0
 10
0.0
 20
0.0
 30
0.0
  3
*PAPER_SPACE
  1

  0
ENDBLK
  5
1D
330
1B
100
AcDbEntity
 67
     1
  8
0
100
AcDbBlockEnd
  0
ENDSEC
  0
SECTION
  2
ENTITIES
  0
LINE
  5
72
330
1F
100
AcDbEntity
  8
HIDDEN
100
AcDbLine
 10
280.0
 20
-230.6
 30
0.0
 11
280.0
 21
-230.6
 31
0.0
1001
DBPROPERTIES
1002
{
1000
PbHidd
1002
}
  0
LINE
  5
73
330
1F
100
AcDbEntity
  8
THICK
100
AcDbLine
 10
280.0
 20
-277.0
 30
0.0
 11
280.0
 21
-230.6
 31
0.0
1001
DBPROPERTIES
1002
{
1000
PbThick
1002
}
  0
LINE
  5
74
330
1F
100
AcDbEntity
  8
HIDDEN
100
AcDbLine
 10
280.0
 20
-277.0
 30
0.0
 11
280.0
 21
-277.0
 31
0.0
1001
DBPROPERTIES
1002
{
1000
PbHidd
1002
}
  0
LINE
  5
75
330
1F
100
AcDbEntity
  8
HIDDEN
100
AcDbLine
 10
0.000000000000023
 20
137.1956647270153
 30
0.0
 11
375.0
 21
137.1956647270153
 31
0.0
1001
DBPROPERTIES
1002
{
1000
PbHidd
1002
}
  0
ARC
  5
76
330
1F
100
AcDbEntity
  8
THICK
100
AcDbCircle
 10
-522.3445161290331
 20
191.5539464653402
 30
0.0
 40
898.9894345432496
100
AcDbArc
 50
332.3528383284343
 51
356.53343345212
1001
DBPROPERTIES
1002
{
1000
PbThick
1002
}
  0
LINE
  5
77
330
1F
100
AcDbEntity
  8
HIDDEN
100
AcDbLine
 10
198.1553344726562
 20
-214.5999755859375
 30
0.0
 11
197.1641998291016
 21
-216.4294738769531
 31
0.0
1001
DBPROPERTIES
1002
{
1000
PbHidd
1002
}
  0
LINE
  5
78
330
1F
100
AcDbEntity
  8
HIDDEN
100
AcDbLine
 10
197.1641998291016
 20
-216.4294738769531
 30
0.0
 11
196.1655883789062
 21
-218.2608032226562
 31
0.0
1001
DBPROPERTIES
1002
{
1000
PbHidd
1002
}
  0
LINE
  5
79
330
1F
100
AcDbEntity
  8
HIDDEN
100
AcDbLine
 10
196.1655883789062
 20
-218.2608032226562
 30
0.0
 11
195.1595916748047
 21
-220.0937805175781
 31
0.0
1001
DBPROPERTIES
1002
{
1000
PbHidd
1002
}
  0
LINE
  5
7A
330
1F
100
AcDbEntity
  8
HIDDEN
100
AcDbLine
 10
195.1595916748047
 20
-220.0937805175781
 30
0.0
 11
194.1461639404297
 21
-221.9281005859375
 31
0.0
1001
DBPROPERTIES
1002
{
1000
PbHidd
1002
}
  0
LINE
  5
7B
330
1F
100
AcDbEntity
  8
HIDDEN
100
AcDbLine
 10
194.1461639404297
 20
-221.9281005859375
 30
0.0
 11
193.1254730224609
 21
-223.7635955810547
 31
0.0
1001
DBPROPERTIES
1002
{
1000
PbHidd
1002
}
  0
LINE
  5
7C
330
1F
100
AcDbEntity
  8
HIDDEN
100
AcDbLine
 10
193.1254730224609
 20
-223.7635955810547
 30
0.0
 11
192.0975646972656
 21
-225.6000061035156
 31
0.0
1001
DBPROPERTIES
1002
{
1000
PbHidd
1002
}
  0
LINE
  5
7D
330
1F
100
AcDbEntity
  8
HIDDEN
100
AcDbLine
 10
172.1115393955008
 20
-214.6
 30
0.0
 11
177.871549129294
 21
-214.6
 31
0.0
1001
DBPROPERTIES
1002
{
1000
PbHidd
1002
}
  0
LINE
  5
7E
330
1F
100
AcDbEntity
  8
HIDDEN
100
AcDbLine
 10
181.493484658532
 20
-214.6
 30
0.0
 11
191.91708749284
 21
-214.6
 31
0.0
1001
DBPROPERTIES
1002
{
1000
PbHidd
1002
}
  0
LINE
  5
7F
330
1F
100
AcDbEntity
  8
HIDDEN
100
AcDbLine
 10
195.2987919223774
 20
-214.6
 30
0.0
 11
198.1553899358874
 21
-214.6
 31
0.0
1001
DBPROPERTIES
1002
{
1000
PbHidd
1002
}
  0
LINE
  5
80
330
1F
100
AcDbEntity
  8
HIDDEN
100
AcDbLine
 10
169.3893585205078
 20
-216.3649291992188
 30
0.0
 11
169.8442077636719
 21
-216.0716400146484
 31
0.0
1001
DBPROPERTIES
1002
{
1000
PbHidd
1002
}
  0
LINE
  5
81
330
1F
100
AcDbEntity
  8
HIDDEN
100
AcDbLine
 10
169.8442077636719
 20
-216.0716400146484
 30
0.0
 11
170.2986145019531
 21
-215.7780151367188
 31
0.0
1001
DBPROPERTIES
1002
{
1000
PbHidd
1002
}
  0
LINE
  5
82
330
1F
100
AcDbEntity
  8
HIDDEN
100
AcDbLine
 10
170.2986145019531
 20
-215.7780151367188
 30
0.0
 11
170.7525787353516
 21
-215.4840545654297
 31
0.0
1001
DBPROPERTIES
1002
{
1000
PbHidd
1002
}
  0
LINE
  5
83
330
1F
100
AcDbEntity
  8
HIDDEN
100
AcDbLine
 10
170.7525787353516
 20
-215.4840545654297
 30
0.0
 11
171.2060546875
 21
-215.1897125244141
 31
0.0
1001
DBPROPERTIES
1002
{
1000
PbHidd
1002
}
  0
LINE
  5
84
330
1F
100
AcDbEntity
  8
HIDDEN
100
AcDbLine
 10
171.2060546875
 20
-215.1897125244141
 30
0.0
 11
171.6589965820312
 21
-214.8950042724609
 31
0.0
1001
DBPROPERTIES
1002
{
1000
PbHidd
1002
}
  0
LINE
  5
85
330
1F
100
AcDbEntity
  8
HIDDEN
100
AcDbLine
 10
171.6589965820312
 20
-214.8950042724609
 30
0.0
 11
172.1115417480469
 21
-214.6000061035156
 31
0.0
1001
DBPROPERTIES
1002
{
1000
PbHidd
1002
}
  0
LINE
  5
86
330
1F
100
AcDbEntity
  8
HIDDEN
100
AcDbLine
 10
172.0356750488281
 20
-225.5999755859375
 30
0.0
 11
171.5794067382812
 21
-224.05126953125
 31
0.0
1001
DBPROPERTIES
1002
{
1000
PbHidd
1002
}
  0
LINE
  5
87
330
1F
100
AcDbEntity
  8
HIDDEN
100
AcDbLine
 10
171.5794067382812
 20
-224.05126953125
 30
0.0
 11
171.12890625
 21
-222.5044860839844
 31
0.0
1001
DBPROPERTIES
1002
{
1000
PbHidd
1002
}
  0
LINE
  5
88
330
1F
100
AcDbEntity
  8
HIDDEN
100
AcDbLine
 10
171.12890625
 20
-222.5044860839844
 30
0.0
 11
170.6843566894531
 21
-220.9612274169922
 31
0.0
1001
DBPROPERTIES
1002
{
1000
PbHidd
1002
}
  0
LINE
  5
89
330
1F
100
AcDbEntity
  8
HIDDEN
100
AcDbLine
 10
170.6843566894531
 20
-220.9612274169922
 30
0.0
 11
170.2461853027344
 21
-219.42236328125
 31
0.0
1001
DBPROPERTIES
1002
{
1000
PbHidd
1002
}
  0
LINE
  5
8A
330
1F
100
AcDbEntity
  8
HIDDEN
100
AcDbLine
 10
170.2461853027344
 20
-219.42236328125
 30
0.0
 11
169.8144226074219
 21
-217.8898315429688
 31
0.0
1001
DBPROPERTIES
1002
{
1000
PbHidd
1002
}
  0
LINE
  5
8B
330
1F
100
AcDbEntity
  8
HIDDEN
100
AcDbLine
 10
169.8144226074219
 20
-217.8898315429688
 30
0.0
 11
169.3893585205078
 21
-216.3649291992188
 31
0.0
1001
DBPROPERTIES
1002
{
1000
PbHidd
1002
}
  0
LINE
  5
8C
330
1F
100
AcDbEntity
  8
HIDDEN
100
AcDbLine
 10
-197.351318359375
 20
-214.5999755859375
 30
0.0
 11
-197.0292816162109
 21
-216.4294738769531
 31
0.0
1001
DBPROPERTIES
1002
{
1000
PbHidd
1002
}
  0
LINE
  5
8D
330
1F
100
AcDbEntity
  8
HIDDEN
100
AcDbLine
 10
-197.0292816162109
 20
-216.4294738769531
 30
0.0
 11
-196.7048034667969
 21
-218.2608032226562
 31
0.0
1001
DBPROPERTIES
1002
{
1000
PbHidd
1002
}
  0
LINE
  5
8E
330
1F
100
AcDbEntity
  8
HIDDEN
100
AcDbLine
 10
-196.7048034667969
 20
-218.2608032226562
 30
0.0
 11
-196.3779449462891
 21
-220.0937805175781
 31
0.0
1001
DBPROPERTIES
1002
{
1000
PbHidd
1002
}
  0
LINE
  5
8F
330
1F
100
AcDbEntity
  8
HIDDEN
100
AcDbLine
 10
-196.3779449462891
 20
-220.0937805175781
 30
0.0
 11
-196.0486602783203
 21
-221.9281005859375
 31
0.0
1001
DBPROPERTIES
1002
{
1000
PbHidd
1002
}
  0
LINE
  5
90
330
1F
100
AcDbEntity
  8
HIDDEN
100
AcDbLine
 10
-196.0486602783203
 20
-221.9281005859375
 30
0.0
 11
-195.7170257568359
 21
-223.7635955810547
 31
0.0
1001
DBPROPERTIES
1002
{
1000
PbHidd
1002
}
  0
LINE
  5
91
330
1F
100
AcDbEntity
  8
HIDDEN
100
AcDbLine
 10
-195.7170257568359
 20
-223.7635955810547
 30
0.0
 11
-195.3830261230469
 21
-225.6000061035156
 31
0.0
1001
DBPROPERTIES
1002
{
1000
PbHidd
1002
}
  0
LINE
  5
92
330
1F
100
AcDbEntity
  8
HIDDEN
100
AcDbLine
 10
-221.4043121337891
 20
-216.3649291992188
 30
0.0
 11
-221.2437286376953
 21
-216.0716400146484
 31
0.0
1001
DBPROPERTIES
1002
{
1000
PbHidd
1002
}
  0
LINE
  5
93
330
1F
100
AcDbEntity
  8
HIDDEN
100
AcDbLine
 10
-221.2437286376953
 20
-216.0716400146484
 30
0.0
 11
-221.0826263427734
 21
-215.7780151367188
 31
0.0
1001
DBPROPERTIES
1002
{
1000
PbHidd
1002
}
  0
LINE
  5
94
330
1F
100
AcDbEntity
  8
HIDDEN
100
AcDbLine
 10
-221.0826263427734
 20
-215.7780151367188
 30
0.0
 11
-220.9210510253906
 21
-215.4840545654297
 31
0.0
1001
DBPROPERTIES
1002
{
1000
PbHidd
1002
}
  0
LINE
  5
95
330
1F
100
AcDbEntity
  8
HIDDEN
100
AcDbLine
 10
-220.9210510253906
 20
-215.4840545654297
 30
0.0
 11
-220.7588958740234
 21
-215.1897125244141
 31
0.0
1001
DBPROPERTIES
1002
{
1000
PbHidd
1002
}
  0
LINE
  5
96
330
1F
100
AcDbEntity
  8
HIDDEN
100
AcDbLine
 10
-220.7588958740234
 20
-215.1897125244141
 30
0.0
 11
-220.59619140625
 21
-214.8950042724609
 31
0.0
1001
DBPROPERTIES
1002
{
1000
PbHidd
1002
}
  0
LINE
  5
97
330
1F
100
AcDbEntity
  8
HIDDEN
100
AcDbLine
 10
-220.59619140625
 20
-214.8950042724609
 30
0.0
 11
-220.4330444335938
 21
-214.6000061035156
 31
0.0
1001
DBPROPERTIES
1002
{
1000
PbHidd
1002
}
  0
LINE
  5
98
330
1F
100
AcDbEntity
  8
HIDDEN
100
AcDbLine
 10
-213.2597503662109
 20
-225.5999755859375
 30
0.0
 11
-214.6640319824219
 21
-224.05126953125
 31
0.0
1001
DBPROPERTIES
1002
{
1000
PbHidd
1002
}
  0
LINE
  5
99
330
1F
100
AcDbEntity
  8
HIDDEN
100
AcDbLine
 10
-214.6640319824219
 20
-224.05126953125
 30
0.0
 11
-216.0505218505859
 21
-222.5044860839844
 31
0.0
1001
DBPROPERTIES
1002
{
1000
PbHidd
1002
}
  0
LINE
  5
9A
330
1F
100
AcDbEntity
  8
HIDDEN
100
AcDbLine
 10
-216.0505218505859
 20
-222.5044860839844
 30
0.0
 11
-217.4186706542969
 21
-220.9612274169922
 31
0.0
1001
DBPROPERTIES
1002
{
1000
PbHidd
1002
}
  0
LINE
  5
9B
330
1F
100
AcDbEntity
  8
HIDDEN
100
AcDbLine
 10
-217.4186706542969
 20
-220.9612274169922
 30
0.0
 11
-218.7672424316406
 21
-219.42236328125
 31
0.0
1001
DBPROPERTIES
1002
{
1000
PbHidd
1002
}
  0
LINE
  5
9C
330
1F
100
AcDbEntity
  8
HIDDEN
100
AcDbLine
 10
-218.7672424316406
 20
-219.42236328125
 30
0.0
 11
-220.0960540771484
 21
-217.8898315429688
 31
0.0
1001
DBPROPERTIES
1002
{
1000
PbHidd
1002
}
  0
LINE
  5
9D
330
1F
100
AcDbEntity
  8
HIDDEN
100
AcDbLine
 10
-220.0960540771484
 20
-217.8898315429688
 30
0.0
 11
-221.4043121337891
 21
-216.3649291992188
 31
0.0
1001
DBPROPERTIES
1002
{
1000
PbHidd
1002
}
  0
ARC
  5
9E
330
1F
100
AcDbEntity
  8
THICK
100
AcDbCircle
 10
522.3445161290331
 20
191.5539464653402
 30
0.0
 40
898.9894345432496
100
AcDbArc
 50
183.4665467000372
 51
207.6471418237228
1001
DBPROPERTIES
1002
{
1000
PbThick
1002
}
  0
LINE
  5
9F
330
1F
100
AcDbEntity
  8
HIDDEN
100
AcDbLine
 10
-375.0
 20
137.1956647270153
 30
0.0
 11
-0.0000000000000689
 21
137.1956647270153
 31
0.0
1001
DBPROPERTIES
1002
{
1000
PbHidd
1002
}
  0
LINE
  5
A0
330
1F
100
AcDbEntity
  8
THICK
100
AcDbLine
 10
0.000000000000023
 20
137.1956647270153
 30
0.0
 11
-375.0
 21
137.1956647270153
 31
0.0
1001
DBPROPERTIES
1002
{
1000
PbThick
1002
}
  0
LINE
  5
A1
330
1F
100
AcDbEntity
  8
THICK
100
AcDbLine
 10
-172.2836897554485
 20
225.6000000000001
 30
0.0
 11
0.000000000000023
 21
225.6000000000001
 31
0.0
1001
DBPROPERTIES
1002
{
1000
PbThick
1002
}
  0
LINE
  5
A2
330
1F
100
AcDbEntity
  8
THICK
100
AcDbLine
 10
-172.2836897554485
 20
225.6000000000001
 30
0.0
 11
-172.2836897554485
 21
172.2
 31
0.0
1001
DBPROPERTIES
1002
{
1000
PbThick
1002
}
  0
LINE
  5
A3
330
1F
100
AcDbEntity
  8
HIDDEN
100
AcDbLine
 10
-263.5408067209427
 20
172.2
 30
0.0
 11
-263.5408067209427
 21
225.6000000000001
 31
0.0
1001
DBPROPERTIES
1002
{
1000
PbHidd
1002
}
  0
LINE
  5
A4
330
1F
100
AcDbEntity
  8
THICK
100
AcDbLine
 10
-310.131920457022
 20
225.6000000000001
 30
0.0
 11
-375.0
 21
225.6000000000001
 31
0.0
1001
DBPROPERTIES
1002
{
1000
PbThick
1002
}
  0
LINE
  5
A5
330
1F
100
AcDbEntity
  8
HIDDEN
100
AcDbLine
 10
-310.131920457022
 20
225.6000000000001
 30
0.0
 11
-263.5408067209427
 21
225.6000000000001
 31
0.0
1001
DBPROPERTIES
1002
{
1000
PbHidd
1002
}
  0
ARC
  5
A6
330
1F
100
AcDbEntity
  8
HIDDEN
100
AcDbCircle
 10
-537.3445161290331
 20
192.5539464653402
 30
0.0
 40
898.9894345432496
100
AcDbArc
 50
332.3528383284343
 51
2.106593925357498
1001
DBPROPERTIES
1002
{
1000
PbHidd
1002
}
  0
LINE
  5
A7
330
1F
100
AcDbEntity
  8
HIDDEN
100
AcDbLine
 10
-255.2356240091539
 20
225.6000000000001
 30
0.0
 11
-170.1918245633937
 21
225.6000000000001
 31
0.0
1001
DBPROPERTIES
1002
{
1000
PbHidd
1002
}
  0
ARC
  5
A8
330
1F
100
AcDbEntity
  8
HIDDEN
100
AcDbCircle
 10
537.3445161290331
 20
192.5539464653402
 30
0.0
 40
898.9894345432496
100
AcDbArc
 50
177.8933686267058
 51
207.6471418237228
1001
DBPROPERTIES
1002
{
1000
PbHidd
1002
}
  0
LINE
  5
A9
330
1F
100
AcDbEntity
  8
HIDDEN
100
AcDbLine
 10
179.2052612304688
 20
-218.7269287109375
 30
0.0
 11
179.5890808105469
 21
-218.0389556884766
 31
0.0
1001
DBPROPERTIES
1002
{
1000
PbHidd
1002
}
  0
LINE
  5
AA
330
1F
100
AcDbEntity
  8
HIDDEN
100
AcDbLine
 10
179.5890808105469
 20
-218.0389556884766
 30
0.0
 11
179.9719696044922
 21
-217.3510589599609
 31
0.0
1001
DBPROPERTIES
1002
{
1000
PbHidd
1002
}
  0
LINE
  5
AB
330
1F
100
AcDbEntity
  8
HIDDEN
100
AcDbLine
 10
179.9719696044922
 20
-217.3510589599609
 30
0.0
 11
180.3538513183594
 21
-216.6631927490234
 31
0.0
1001
DBPROPERTIES
1002
{
1000
PbHidd
1002
}
  0
LINE
  5
AC
330
1F
100
AcDbEntity
  8
HIDDEN
100
AcDbLine
 10
180.3538513183594
 20
-216.6631927490234
 30
0.0
 11
180.7347259521484
 21
-215.9753875732422
 31
0.0
1001
DBPROPERTIES
1002
{
1000
PbHidd
1002
}
  0
LINE
  5
AD
330
1F
100
AcDbEntity
  8
HIDDEN
100
AcDbLine
 10
180.7347259521484
 20
-215.9753875732422
 30
0.0
 11
181.1145935058594
 21
-215.2876434326172
 31
0.0
1001
DBPROPERTIES
1002
{
1000
PbHidd
1002
}
  0
LINE
  5
AE
330
1F
100
AcDbEntity
  8
HIDDEN
100
AcDbLine
 10
181.1145935058594
 20
-215.2876434326172
 30
0.0
 11
181.4934692382812
 21
-214.6000061035156
 31
0.0
1001
DBPROPERTIES
1002
{
1000
PbHidd
1002
}
  0
LINE
  5
AF
330
1F
100
AcDbEntity
  8
HIDDEN
100
AcDbLine
 10
177.8715515136719
 20
-214.6000061035156
 30
0.0
 11
178.092041015625
 21
-215.2930145263672
 31
0.0
1001
DBPROPERTIES
1002
{
1000
PbHidd
1002
}
  0
LINE
  5
B0
330
1F
100
AcDbEntity
  8
HIDDEN
100
AcDbLine
 10
178.092041015625
 20
-215.2930145263672
 30
0.0
 11
178.3132629394531
 21
-215.9842071533203
 31
0.0
1001
DBPROPERTIES
1002
{
1000
PbHidd
1002
}
  0
LINE
  5
B1
330
1F
100
AcDbEntity
  8
HIDDEN
100
AcDbLine
 10
178.3132629394531
 20
-215.9842071533203
 30
0.0
 11
178.5352172851562
 21
-216.67333984375
 31
0.0
1001
DBPROPERTIES
1002
{
1000
PbHidd
1002
}
  0
LINE
  5
B2
330
1F
100
AcDbEntity
  8
HIDDEN
100
AcDbLine
 10
178.5352172851562
 20
-216.67333984375
 30
0.0
 11
178.7578887939453
 21
-217.3602294921875
 31
0.0
1001
DBPROPERTIES
1002
{
1000
PbHidd
1002
}
  0
LINE
  5
B3
330
1F
100
AcDbEntity
  8
HIDDEN
100
AcDbLine
 10
178.7578887939453
 20
-217.3602294921875
 30
0.0
 11
178.9812469482422
 21
-218.0447998046875
 31
0.0
1001
DBPROPERTIES
1002
{
1000
PbHidd
1002
}
  0
LINE
  5
B4
330
1F
100
AcDbEntity
  8
HIDDEN
100
AcDbLine
 10
178.9812469482422
 20
-218.0447998046875
 30
0.0
 11
179.2052612304688
 21
-218.7269287109375
 31
0.0
1001
DBPROPERTIES
1002
{
1000
PbHidd
1002
}
  0
LINE
  5
B5
330
1F
100
AcDbEntity
  8
HIDDEN
100
AcDbLine
 10
-191.1940612792969
 20
-218.7269287109375
 30
0.0
 11
-191.3187713623047
 21
-218.0389556884766
 31
0.0
1001
DBPROPERTIES
1002
{
1000
PbHidd
1002
}
  0
LINE
  5
B6
330
1F
100
AcDbEntity
  8
HIDDEN
100
AcDbLine
 10
-191.3187713623047
 20
-218.0389556884766
 30
0.0
 11
-191.4431762695312
 21
-217.3510437011719
 31
0.0
1001
DBPROPERTIES
1002
{
1000
PbHidd
1002
}
  0
LINE
  5
B7
330
1F
100
AcDbEntity
  8
HIDDEN
100
AcDbLine
 10
-191.4431762695312
 20
-217.3510437011719
 30
0.0
 11
-191.5672607421875
 21
-216.6631927490234
 31
0.0
1001
DBPROPERTIES
1002
{
1000
PbHidd
1002
}
  0
LINE
  5
B8
330
1F
100
AcDbEntity
  8
HIDDEN
100
AcDbLine
 10
-191.5672607421875
 20
-216.6631927490234
 30
0.0
 11
-191.6910247802734
 21
-215.9753875732422
 31
0.0
1001
DBPROPERTIES
1002
{
1000
PbHidd
1002
}
  0
LINE
  5
B9
330
1F
100
AcDbEntity
  8
HIDDEN
100
AcDbLine
 10
-191.6910247802734
 20
-215.9753875732422
 30
0.0
 11
-191.814453125
 21
-215.2876434326172
 31
0.0
1001
DBPROPERTIES
1002
{
1000
PbHidd
1002
}
  0
LINE
  5
BA
330
1F
100
AcDbEntity
  8
HIDDEN
100
AcDbLine
 10
-191.814453125
 20
-215.2876434326172
 30
0.0
 11
-191.9375457763672
 21
-214.6000061035156
 31
0.0
1001
DBPROPERTIES
1002
{
1000
PbHidd
1002
}
  0
LINE
  5
BB
330
1F
100
AcDbEntity
  8
HIDDEN
100
AcDbLine
 10
-195.2987976074219
 20
-214.6000061035156
 30
0.0
 11
-194.6201934814453
 21
-215.2930145263672
 31
0.0
1001
DBPROPERTIES
1002
{
1000
PbHidd
1002
}
  0
LINE
  5
BC
330
1F
100
AcDbEntity
  8
HIDDEN
100
AcDbLine
 10
-194.6201934814453
 20
-215.2930145263672
 30
0.0
 11
-193.9393463134766
 21
-215.9842071533203
 31
0.0
1001
DBPROPERTIES
1002
{
1000
PbHidd
1002
}
  0
LINE
  5
BD
330
1F
100
AcDbEntity
  8
HIDDEN
100
AcDbLine
 10
-193.9393463134766
 20
-215.9842071533203
 30
0.0
 11
-193.2562408447266
 21
-216.67333984375
 31
0.0
1001
DBPROPERTIES
1002
{
1000
PbHidd
1002
}
  0
LINE
  5
BE
330
1F
100
AcDbEntity
  8
HIDDEN
100
AcDbLine
 10
-193.2562408447266
 20
-216.67333984375
 30
0.0
 11
-192.5709075927734
 21
-217.3602294921875
 31
0.0
1001
DBPROPERTIES
1002
{
1000
PbHidd
1002
}
  0
LINE
  5
BF
330
1F
100
AcDbEntity
  8
HIDDEN
100
AcDbLine
 10
-192.5709075927734
 20
-217.3602294921875
 30
0.0
 11
-191.8834838867188
 21
-218.0447998046875
 31
0.0
1001
DBPROPERTIES
1002
{
1000
PbHidd
1002
}
  0
LINE
  5
C0
330
1F
100
AcDbEntity
  8
HIDDEN
100
AcDbLine
 10
-191.8834838867188
 20
-218.0447998046875
 30
0.0
 11
-191.1940612792969
 21
-218.7269287109375
 31
0.0
1001
DBPROPERTIES
1002
{
1000
PbHidd
1002
}
  0
LINE
  5
C1
330
1F
100
AcDbEntity
  8
HIDDEN
100
AcDbLine
 10
0.0000000000000221
 20
169.2
 30
0.0
 11
361.0
 21
169.2
 31
0.0
1001
DBPROPERTIES
1002
{
1000
PbHidd
1002
}
  0
LINE
  5
C2
330
1F
100
AcDbEntity
  8
HIDDEN
100
AcDbLine
 10
361.0
 20
164.2
 30
0.0
 11
0.0000000000001105
 21
164.2
 31
0.0
1001
DBPROPERTIES
1002
{
1000
PbHidd
1002
}
  0
LINE
  5
C3
330
1F
100
AcDbEntity
  8
THICK
100
AcDbLine
 10
-140.0
 20
267.9
 30
0.0
 11
0.0000000000000086
 21
267.9
 31
0.0
1001
DBPROPERTIES
1002
{
1000
PbThick
1002
}
  0
LINE
  5
C4
330
1F
100
AcDbEntity
  8
HIDDEN
100
AcDbLine
 10
-140.0
 20
267.9
 30
0.0
 11
-0.0000000000000257
 21
267.9
 31
0.0
1001
DBPROPERTIES
1002
{
1000
PbHidd
1002
}
  0
LINE
  5
C5
330
1F
100
AcDbEntity
  8
THICK
100
AcDbLine
 10
-29.68836394733491
 20
226.6
 30
0.0
 11
-29.68836394733491
 21
225.6000000000001
 31
0.0
1001
DBPROPERTIES
1002
{
1000
PbThick
1002
}
  0
LINE
  5
C6
330
1F
100
AcDbEntity
  8
HIDDEN
100
AcDbLine
 10
-29.68836394733491
 20
225.6000000000001
 30
0.0
 11
-29.68836394733491
 21
172.2
 31
0.0
1001
DBPROPERTIES
1002
{
1000
PbHidd
1002
}
  0
LINE
  5
C7
330
1F
100
AcDbEntity
  8
HIDDEN
100
AcDbLine
 10
-120.945480912829
 20
172.2
 30
0.0
 11
-120.945480912829
 21
226.6
 31
0.0
1001
DBPROPERTIES
1002
{
1000
PbHidd
1002
}
  0
LINE
  5
C8
330
1F
100
AcDbEntity
  8
THICK
100
AcDbLine
 10
-125.9
 20
282.0
 30
0.0
 11
-0.0000000000000077
 21
282.0
 31
0.0
1001
DBPROPERTIES
1002
{
1000
PbThick
1002
}
  0
LINE
  5
C9
330
1F
100
AcDbEntity
  8
HIDDEN
100
AcDbLine
 10
-168.0
 20
171.2
 30
0.0
 11
-0.0000000000000309
 21
171.2
 31
0.0
1001
DBPROPERTIES
1002
{
1000
PbHidd
1002
}
  0
LINE
  5
CA
330
1F
100
AcDbEntity
  8
HIDDEN
100
AcDbLine
 10
-255.2356109619141
 20
225.6000061035156
 30
0.0
 11
-255.3274536132812
 21
221.09716796875
 31
0.0
1001
DBPROPERTIES
1002
{
1000
PbHidd
1002
}
  0
LINE
  5
CB
330
1F
100
AcDbEntity
  8
HIDDEN
100
AcDbLine
 10
-255.3274536132812
 20
221.09716796875
 30
0.0
 11
-255.4056549072266
 21
216.6075134277344
 31
0.0
1001
DBPROPERTIES
1002
{
1000
PbHidd
1002
}
  0
LINE
  5
CC
330
1F
100
AcDbEntity
  8
HIDDEN
100
AcDbLine
 10
-255.4056549072266
 20
216.6075134277344
 30
0.0
 11
-255.4702911376953
 21
212.1315002441406
 31
0.0
1001
DBPROPERTIES
1002
{
1000
PbHidd
1002
}
  0
LINE
  5
CD
330
1F
100
AcDbEntity
  8
HIDDEN
100
AcDbLine
 10
-255.4702911376953
 20
212.1315002441406
 30
0.0
 11
-255.5215301513672
 21
207.6696319580078
 31
0.0
1001
DBPROPERTIES
1002
{
1000
PbHidd
1002
}
  0
LINE
  5
CE
330
1F
100
AcDbEntity
  8
HIDDEN
100
AcDbLine
 10
-255.5215301513672
 20
207.6696319580078
 30
0.0
 11
-255.5594940185547
 21
203.2224273681641
 31
0.0
1001
DBPROPERTIES
1002
{
1000
PbHidd
1002
}
  0
LINE
  5
CF
330
1F
100
AcDbEntity
  8
HIDDEN
100
AcDbLine
 10
-255.5594940185547
 20
203.2224273681641
 30
0.0
 11
-255.5843048095703
 21
198.7903594970703
 31
0.0
1001
DBPROPERTIES
1002
{
1000
PbHidd
1002
}
  0
LINE
  5
D0
330
1F
100
AcDbEntity
  8
HIDDEN
100
AcDbLine
 10
-255.5843048095703
 20
198.7903594970703
 30
0.0
 11
-255.5960693359375
 21
194.3739471435547
 31
0.0
1001
DBPROPERTIES
1002
{
1000
PbHidd
1002
}
  0
LINE
  5
D1
330
1F
100
AcDbEntity
  8
HIDDEN
100
AcDbLine
 10
-255.5960693359375
 20
194.3739471435547
 30
0.0
 11
-255.5949554443359
 21
189.9680480957031
 31
0.0
1001
DBPROPERTIES
1002
{
1000
PbHidd
1002
}
  0
LINE
  5
D2
330
1F
100
AcDbEntity
  8
HIDDEN
100
AcDbLine
 10
-255.5949554443359
 20
189.9680480957031
 30
0.0
 11
-255.5809173583984
 21
185.5488739013672
 31
0.0
1001
DBPROPERTIES
1002
{
1000
PbHidd
1002
}
  0
LINE
  5
D3
330
1F
100
AcDbEntity
  8
HIDDEN
100
AcDbLine
 10
-255.5809173583984
 20
185.5488739013672
 30
0.0
 11
-255.5538482666016
 21
181.1141510009766
 31
0.0
1001
DBPROPERTIES
1002
{
1000
PbHidd
1002
}
  0
LINE
  5
D4
330
1F
100
AcDbEntity
  8
HIDDEN
100
AcDbLine
 10
-255.5538482666016
 20
181.1141510009766
 30
0.0
 11
-255.5135955810547
 21
176.6643524169922
 31
0.0
1001
DBPROPERTIES
1002
{
1000
PbHidd
1002
}
  0
LINE
  5
D5
330
1F
100
AcDbEntity
  8
HIDDEN
100
AcDbLine
 10
-255.5135955810547
 20
176.6643524169922
 30
0.0
 11
-255.4600372314453
 21
172.1999969482422
 31
0.0
1001
DBPROPERTIES
1002
{
1000
PbHidd
1002
}
  0
LINE
  5
D6
330
1F
100
AcDbEntity
  8
HIDDEN
100
AcDbLine
 10
-263.5408067209427
 20
225.6000000000001
 30
0.0
 11
-255.2356160111433
 21
225.6000000000001
 31
0.0
1001
DBPROPERTIES
1002
{
1000
PbHidd
1002
}
  0
LINE
  5
D7
330
1F
100
AcDbEntity
  8
THICK
100
AcDbLine
 10
-310.13192201436
 20
172.2
 30
0.0
 11
-310.13192201436
 21
226.6
 31
0.0
1001
DBPROPERTIES
1002
{
1000
PbThick
1002
}
  0
LINE
  5
D8
330
1F
100
AcDbEntity
  8
THICK
100
AcDbLine
 10
-218.8748050488659
 20
172.2
 30
0.0
 11
-172.2836897554485
 21
172.2
 31
0.0
1001
DBPROPERTIES
1002
{
1000
PbThick
1002
}
  0
LINE
  5
D9
330
1F
100
AcDbEntity
  8
THICK
100
AcDbLine
 10
-310.13192201436
 20
172.2
 30
0.0
 11
-218.8748050488659
 21
172.2
 31
0.0
1001
DBPROPERTIES
1002
{
1000
PbThick
1002
}
  0
LINE
  5
DA
330
1F
100
AcDbEntity
  8
HIDDEN
100
AcDbLine
 10
0.0000000000000103
 20
171.2
 30
0.0
 11
168.0
 21
171.2
 31
0.0
1001
DBPROPERTIES
1002
{
1000
PbHidd
1002
}
  0
LINE
  5
DB
330
1F
100
AcDbEntity
  8
HIDDEN
100
AcDbLine
 10
-164.2029238176753
 20
172.2
 30
0.0
 11
-29.6883639473349
 21
172.2
 31
0.0
1001
DBPROPERTIES
1002
{
1000
PbHidd
1002
}
  0
LINE
  5
DC
330
1F
100
AcDbEntity
  8
HIDDEN
100
AcDbLine
 10
-255.4600407831692
 20
172.2
 30
0.0
 11
-164.2029238176751
 21
172.2
 31
0.0
1001
DBPROPERTIES
1002
{
1000
PbHidd
1002
}
  0
LINE
  5
DD
330
1F
100
AcDbEntity
  8
HIDDEN
100
AcDbLine
 10
-164.2029266357422
 20
172.1999969482422
 30
0.0
 11
-164.2564697265625
 21
176.6643524169922
 31
0.0
1001
DBPROPERTIES
1002
{
1000
PbHidd
1002
}
  0
LINE
  5
DE
330
1F
100
AcDbEntity
  8
HIDDEN
100
AcDbLine
 10
-164.2564697265625
 20
176.6643524169922
 30
0.0
 11
-164.2967224121094
 21
181.1141510009766
 31
0.0
1001
DBPROPERTIES
1002
{
1000
PbHidd
1002
}
  0
LINE
  5
DF
330
1F
100
AcDbEntity
  8
HIDDEN
100
AcDbLine
 10
-164.2967224121094
 20
181.1141510009766
 30
0.0
 11
-164.3238067626953
 21
185.5488739013672
 31
0.0
1001
DBPROPERTIES
1002
{
1000
PbHidd
1002
}
  0
LINE
  5
E0
330
1F
100
AcDbEntity
  8
HIDDEN
100
AcDbLine
 10
-164.3238067626953
 20
185.5488739013672
 30
0.0
 11
-164.3378448486328
 21
189.9680480957031
 31
0.0
1001
DBPROPERTIES
1002
{
1000
PbHidd
1002
}
  0
LINE
  5
E1
330
1F
100
AcDbEntity
  8
HIDDEN
100
AcDbLine
 10
-164.3378448486328
 20
189.9680480957031
 30
0.0
 11
-164.3389587402344
 21
194.3739471435547
 31
0.0
1001
DBPROPERTIES
1002
{
1000
PbHidd
1002
}
  0
LINE
  5
E2
330
1F
100
AcDbEntity
  8
HIDDEN
100
AcDbLine
 10
-164.3389587402344
 20
194.3739471435547
 30
0.0
 11
-164.3271789550781
 21
198.7903594970703
 31
0.0
1001
DBPROPERTIES
1002
{
1000
PbHidd
1002
}
  0
LINE
  5
E3
330
1F
100
AcDbEntity
  8
HIDDEN
100
AcDbLine
 10
-164.3271789550781
 20
198.7903594970703
 30
0.0
 11
-164.3023681640625
 21
203.2224273681641
 31
0.0
1001
DBPROPERTIES
1002
{
1000
PbHidd
1002
}
  0
LINE
  5
E4
330
1F
100
AcDbEntity
  8
HIDDEN
100
AcDbLine
 10
-164.3023681640625
 20
203.2224273681641
 30
0.0
 11
-164.2644195556641
 21
207.6696319580078
 31
0.0
1001
DBPROPERTIES
1002
{
1000
PbHidd
1002
}
  0
LINE
  5
E5
330
1F
100
AcDbEntity
  8
HIDDEN
100
AcDbLine
 10
-164.2644195556641
 20
207.6696319580078
 30
0.0
 11
-164.2131805419922
 21
212.1315002441406
 31
0.0
1001
DBPROPERTIES
1002
{
1000
PbHidd
1002
}
  0
LINE
  5
E6
330
1F
100
AcDbEntity
  8
HIDDEN
100
AcDbLine
 10
-164.2131805419922
 20
212.1315002441406
 30
0.0
 11
-164.1485290527344
 21
216.6075134277344
 31
0.0
1001
DBPROPERTIES
1002
{
1000
PbHidd
1002
}
  0
LINE
  5
E7
330
1F
100
AcDbEntity
  8
HIDDEN
100
AcDbLine
 10
-164.1485290527344
 20
216.6075134277344
 30
0.0
 11
-164.0703430175781
 21
221.09716796875
 31
0.0
1001
DBPROPERTIES
1002
{
1000
PbHidd
1002
}
  0
LINE
  5
E8
330
1F
100
AcDbEntity
  8
HIDDEN
100
AcDbLine
 10
-164.0703430175781
 20
221.09716796875
 30
0.0
 11
-163.9785003662109
 21
225.6000061035156
 31
0.0
1001
DBPROPERTIES
1002
{
1000
PbHidd
1002
}
  0
LINE
  5
E9
330
1F
100
AcDbEntity
  8
THICK
100
AcDbLine
 10
-29.6883639473349
 20
226.6
 30
0.0
 11
-218.8748050488659
 21
226.6
 31
0.0
1001
DBPROPERTIES
1002
{
1000
PbThick
1002
}
  0
LINE
  5
EA
330
1F
100
AcDbEntity
  8
THICK
100
AcDbLine
 10
-218.8748050488659
 20
226.6
 30
0.0
 11
-218.8748050488659
 21
172.2
 31
0.0
1001
DBPROPERTIES
1002
{
1000
PbThick
1002
}
  0
LINE
  5
EB
330
1F
100
AcDbEntity
  8
THICK
100
AcDbLine
 10
-310.13192201436
 20
226.6
 30
0.0
 11
-218.8748050488659
 21
226.6
 31
0.0
1001
DBPROPERTIES
1002
{
1000
PbThick
1002
}
  0
LINE
  5
EC
330
1F
100
AcDbEntity
  8
HIDDEN
100
AcDbLine
 10
0.0000000000000086
 20
267.9
 30
0.0
 11
140.0
 21
267.9
 31
0.0
1001
DBPROPERTIES
1002
{
1000
PbHidd
1002
}
  0
LINE
  5
ED
330
1F
100
AcDbEntity
  8
THICK
100
AcDbLine
 10
140.0
 20
267.9
 30
0.0
 11
0.0000000000000086
 21
267.9
 31
0.0
1001
DBPROPERTIES
1002
{
1000
PbThick
1002
}
  0
LINE
  5
EE
330
1F
100
AcDbEntity
  8
THICK
100
AcDbLine
 10
-0.0000000000000077
 20
282.0
 30
0.0
 11
125.9
 21
282.0
 31
0.0
1001
DBPROPERTIES
1002
{
1000
PbThick
1002
}
  0
LINE
  5
EF
330
1F
100
AcDbEntity
  8
HIDDEN
100
AcDbLine
 10
0.0000000000000221
 20
164.2
 30
0.0
 11
-361.0
 21
164.2
 31
0.0
1001
DBPROPERTIES
1002
{
1000
PbHidd
1002
}
  0
LINE
  5
F0
330
1F
100
AcDbEntity
  8
HIDDEN
100
AcDbLine
 10
-361.0
 20
169.2
 30
0.0
 11
-0.0000000000000663
 21
169.2
 31
0.0
1001
DBPROPERTIES
1002
{
1000
PbHidd
1002
}
  0
LINE
  5
F1
330
1F
100
AcDbEntity
  8
HIDDEN
100
AcDbLine
 10
0.0000000000000159
 20
-224.6000000000004
 30
0.0
 11
258.9999999999997
 21
-224.6000000000004
 31
0.0
1001
DBPROPERTIES
1002
{
1000
PbHidd
1002
}
  0
LINE
  5
F2
330
1F
100
AcDbEntity
  8
HIDDEN
100
AcDbLine
 10
-258.9999999999997
 20
-224.6000000000004
 30
0.0
 11
-0.0000000000000476
 21
-224.6000000000004
 31
0.0
1001
DBPROPERTIES
1002
{
1000
PbHidd
1002
}
  0
LINE
  5
F3
330
1F
100
AcDbEntity
  8
HIDDEN
100
AcDbLine
 10
191.9375526313789
 20
-214.6
 30
0.0
 11
195.298790396795
 21
-214.6
 31
0.0
1001
DBPROPERTIES
1002
{
1000
PbHidd
1002
}
  0
LINE
  5
F4
330
1F
100
AcDbEntity
  8
HIDDEN
100
AcDbLine
 10
191.1940612792969
 20
-218.7269287109375
 30
0.0
 11
191.3187713623047
 21
-218.0389556884766
 31
0.0
1001
DBPROPERTIES
1002
{
1000
PbHidd
1002
}
  0
LINE
  5
F5
330
1F
100
AcDbEntity
  8
HIDDEN
100
AcDbLine
 10
191.3187713623047
 20
-218.0389556884766
 30
0.0
 11
191.4431762695312
 21
-217.3510437011719
 31
0.0
1001
DBPROPERTIES
1002
{
1000
PbHidd
1002
}
  0
LINE
  5
F6
330
1F
100
AcDbEntity
  8
HIDDEN
100
AcDbLine
 10
191.4431762695312
 20
-217.3510437011719
 30
0.0
 11
191.5672607421875
 21
-216.6631927490234
 31
0.0
1001
DBPROPERTIES
1002
{
1000
PbHidd
1002
}
  0
LINE
  5
F7
330
1F
100
AcDbEntity
  8
HIDDEN
100
AcDbLine
 10
191.5672607421875
 20
-216.6631927490234
 30
0.0
 11
191.6910247802734
 21
-215.9753875732422
 31
0.0
1001
DBPROPERTIES
1002
{
1000
PbHidd
1002
}
  0
LINE
  5
F8
330
1F
100
AcDbEntity
  8
HIDDEN
100
AcDbLine
 10
191.6910247802734
 20
-215.9753875732422
 30
0.0
 11
191.814453125
 21
-215.2876434326172
 31
0.0
1001
DBPROPERTIES
1002
{
1000
PbHidd
1002
}
  0
LINE
  5
F9
330
1F
100
AcDbEntity
  8
HIDDEN
100
AcDbLine
 10
191.814453125
 20
-215.2876434326172
 30
0.0
 11
191.9375457763672
 21
-214.6000061035156
 31
0.0
1001
DBPROPERTIES
1002
{
1000
PbHidd
1002
}
  0
LINE
  5
FA
330
1F
100
AcDbEntity
  8
HIDDEN
100
AcDbLine
 10
195.2987976074219
 20
-214.6000061035156
 30
0.0
 11
194.6201934814453
 21
-215.2930145263672
 31
0.0
1001
DBPROPERTIES
1002
{
1000
PbHidd
1002
}
  0
LINE
  5
FB
330
1F
100
AcDbEntity
  8
HIDDEN
100
AcDbLine
 10
194.6201934814453
 20
-215.2930145263672
 30
0.0
 11
193.9393463134766
 21
-215.9842071533203
 31
0.0
1001
DBPROPERTIES
1002
{
1000
PbHidd
1002
}
  0
LINE
  5
FC
330
1F
100
AcDbEntity
  8
HIDDEN
100
AcDbLine
 10
193.9393463134766
 20
-215.9842071533203
 30
0.0
 11
193.2562408447266
 21
-216.67333984375
 31
0.0
1001
DBPROPERTIES
1002
{
1000
PbHidd
1002
}
  0
LINE
  5
FD
330
1F
100
AcDbEntity
  8
HIDDEN
100
AcDbLine
 10
193.2562408447266
 20
-216.67333984375
 30
0.0
 11
192.5709075927734
 21
-217.3602294921875
 31
0.0
1001
DBPROPERTIES
1002
{
1000
PbHidd
1002
}
  0
LINE
  5
FE
330
1F
100
AcDbEntity
  8
HIDDEN
100
AcDbLine
 10
192.5709075927734
 20
-217.3602294921875
 30
0.0
 11
191.8834838867188
 21
-218.0447998046875
 31
0.0
1001
DBPROPERTIES
1002
{
1000
PbHidd
1002
}
  0
LINE
  5
FF
330
1F
100
AcDbEntity
  8
HIDDEN
100
AcDbLine
 10
191.8834838867188
 20
-218.0447998046875
 30
0.0
 11
191.1940612792969
 21
-218.7269287109375
 31
0.0
1001
DBPROPERTIES
1002
{
1000
PbHidd
1002
}
  0
LINE
  5
100
330
1F
100
AcDbEntity
  8
HIDDEN
100
AcDbLine
 10
-179.2052612304688
 20
-218.7269287109375
 30
0.0
 11
-179.5890808105469
 21
-218.0389556884766
 31
0.0
1001
DBPROPERTIES
1002
{
1000
PbHidd
1002
}
  0
LINE
  5
101
330
1F
100
AcDbEntity
  8
HIDDEN
100
AcDbLine
 10
-179.5890808105469
 20
-218.0389556884766
 30
0.0
 11
-179.9719696044922
 21
-217.3510589599609
 31
0.0
1001
DBPROPERTIES
1002
{
1000
PbHidd
1002
}
  0
LINE
  5
102
330
1F
100
AcDbEntity
  8
HIDDEN
100
AcDbLine
 10
-179.9719696044922
 20
-217.3510589599609
 30
0.0
 11
-180.3538513183594
 21
-216.6631927490234
 31
0.0
1001
DBPROPERTIES
1002
{
1000
PbHidd
1002
}
  0
LINE
  5
103
330
1F
100
AcDbEntity
  8
HIDDEN
100
AcDbLine
 10
-180.3538513183594
 20
-216.6631927490234
 30
0.0
 11
-180.7347259521484
 21
-215.9753875732422
 31
0.0
1001
DBPROPERTIES
1002
{
1000
PbHidd
1002
}
  0
LINE
  5
104
330
1F
100
AcDbEntity
  8
HIDDEN
100
AcDbLine
 10
-180.7347259521484
 20
-215.9753875732422
 30
0.0
 11
-181.1145935058594
 21
-215.2876434326172
 31
0.0
1001
DBPROPERTIES
1002
{
1000
PbHidd
1002
}
  0
LINE
  5
105
330
1F
100
AcDbEntity
  8
HIDDEN
100
AcDbLine
 10
-181.1145935058594
 20
-215.2876434326172
 30
0.0
 11
-181.4934692382812
 21
-214.6000061035156
 31
0.0
1001
DBPROPERTIES
1002
{
1000
PbHidd
1002
}
  0
LINE
  5
106
330
1F
100
AcDbEntity
  8
HIDDEN
100
AcDbLine
 10
-177.8715515136719
 20
-214.6000061035156
 30
0.0
 11
-178.092041015625
 21
-215.2930145263672
 31
0.0
1001
DBPROPERTIES
1002
{
1000
PbHidd
1002
}
  0
LINE
  5
107
330
1F
100
AcDbEntity
  8
HIDDEN
100
AcDbLine
 10
-178.092041015625
 20
-215.2930145263672
 30
0.0
 11
-178.3132629394531
 21
-215.9842071533203
 31
0.0
1001
DBPROPERTIES
1002
{
1000
PbHidd
1002
}
  0
LINE
  5
108
330
1F
100
AcDbEntity
  8
HIDDEN
100
AcDbLine
 10
-178.3132629394531
 20
-215.9842071533203
 30
0.0
 11
-178.5352172851562
 21
-216.67333984375
 31
0.0
1001
DBPROPERTIES
1002
{
1000
PbHidd
1002
}
  0
LINE
  5
109
330
1F
100
AcDbEntity
  8
HIDDEN
100
AcDbLine
 10
-178.5352172851562
 20
-216.67333984375
 30
0.0
 11
-178.7578887939453
 21
-217.3602294921875
 31
0.0
1001
DBPROPERTIES
1002
{
1000
PbHidd
1002
}
  0
LINE
  5
10A
330
1F
100
AcDbEntity
  8
HIDDEN
100
AcDbLine
 10
-178.7578887939453
 20
-217.3602294921875
 30
0.0
 11
-178.9812469482422
 21
-218.0447998046875
 31
0.0
1001
DBPROPERTIES
1002
{
1000
PbHidd
1002
}
  0
LINE
  5
10B
330
1F
100
AcDbEntity
  8
HIDDEN
100
AcDbLine
 10
-178.9812469482422
 20
-218.0447998046875
 30
0.0
 11
-179.2052612304688
 21
-218.7269287109375
 31
0.0
1001
DBPROPERTIES
1002
{
1000
PbHidd
1002
}
  0
LINE
  5
10C
330
1F
100
AcDbEntity
  8
THICK
100
AcDbLine
 10
0.000000000000023
 20
225.6000000000001
 30
0.0
 11
375.0
 21
225.6000000000001
 31
0.0
1001
DBPROPERTIES
1002
{
1000
PbThick
1002
}
  0
LINE
  5
10D
330
1F
100
AcDbEntity
  8
THICK
100
AcDbLine
 10
375.0
 20
137.1956647270153
 30
0.0
 11
0.000000000000023
 21
137.1956647270153
 31
0.0
1001
DBPROPERTIES
1002
{
1000
PbThick
1002
}
  0
LINE
  5
10E
330
1F
100
AcDbEntity
  8
HIDDEN
100
AcDbLine
 10
-198.1553344726562
 20
-214.5999755859375
 30
0.0
 11
-197.1641998291016
 21
-216.4294738769531
 31
0.0
1001
DBPROPERTIES
1002
{
1000
PbHidd
1002
}
  0
LINE
  5
10F
330
1F
100
AcDbEntity
  8
HIDDEN
100
AcDbLine
 10
-197.1641998291016
 20
-216.4294738769531
 30
0.0
 11
-196.1655883789062
 21
-218.2608032226562
 31
0.0
1001
DBPROPERTIES
1002
{
1000
PbHidd
1002
}
  0
LINE
  5
110
330
1F
100
AcDbEntity
  8
HIDDEN
100
AcDbLine
 10
-196.1655883789062
 20
-218.2608032226562
 30
0.0
 11
-195.1595916748047
 21
-220.0937805175781
 31
0.0
1001
DBPROPERTIES
1002
{
1000
PbHidd
1002
}
  0
LINE
  5
111
330
1F
100
AcDbEntity
  8
HIDDEN
100
AcDbLine
 10
-195.1595916748047
 20
-220.0937805175781
 30
0.0
 11
-194.1461639404297
 21
-221.9281005859375
 31
0.0
1001
DBPROPERTIES
1002
{
1000
PbHidd
1002
}
  0
LINE
  5
112
330
1F
100
AcDbEntity
  8
HIDDEN
100
AcDbLine
 10
-194.1461639404297
 20
-221.9281005859375
 30
0.0
 11
-193.1254730224609
 21
-223.7635955810547
 31
0.0
1001
DBPROPERTIES
1002
{
1000
PbHidd
1002
}
  0
LINE
  5
113
330
1F
100
AcDbEntity
  8
HIDDEN
100
AcDbLine
 10
-193.1254730224609
 20
-223.7635955810547
 30
0.0
 11
-192.0975646972656
 21
-225.6000061035156
 31
0.0
1001
DBPROPERTIES
1002
{
1000
PbHidd
1002
}
  0
LINE
  5
114
330
1F
100
AcDbEntity
  8
THICK
100
AcDbLine
 10
-169.3893585205078
 20
-216.3649291992188
 30
0.0
 11
-169.8442077636719
 21
-216.0716400146484
 31
0.0
1001
DBPROPERTIES
1002
{
1000
PbThick
1002
}
  0
LINE
  5
115
330
1F
100
AcDbEntity
  8
THICK
100
AcDbLine
 10
-169.8442077636719
 20
-216.0716400146484
 30
0.0
 11
-170.2986145019531
 21
-215.7780151367188
 31
0.0
1001
DBPROPERTIES
1002
{
1000
PbThick
1002
}
  0
LINE
  5
116
330
1F
100
AcDbEntity
  8
THICK
100
AcDbLine
 10
-170.2986145019531
 20
-215.7780151367188
 30
0.0
 11
-170.7525787353516
 21
-215.4840545654297
 31
0.0
1001
DBPROPERTIES
1002
{
1000
PbThick
1002
}
  0
LINE
  5
117
330
1F
100
AcDbEntity
  8
THICK
100
AcDbLine
 10
-170.7525787353516
 20
-215.4840545654297
 30
0.0
 11
-171.2060546875
 21
-215.1897125244141
 31
0.0
1001
DBPROPERTIES
1002
{
1000
PbThick
1002
}
  0
LINE
  5
118
330
1F
100
AcDbEntity
  8
THICK
100
AcDbLine
 10
-171.2060546875
 20
-215.1897125244141
 30
0.0
 11
-171.6589965820312
 21
-214.8950042724609
 31
0.0
1001
DBPROPERTIES
1002
{
1000
PbThick
1002
}
  0
LINE
  5
119
330
1F
100
AcDbEntity
  8
THICK
100
AcDbLine
 10
-171.6589965820312
 20
-214.8950042724609
 30
0.0
 11
-172.1115417480469
 21
-214.6000061035156
 31
0.0
1001
DBPROPERTIES
1002
{
1000
PbThick
1002
}
  0
LINE
  5
11A
330
1F
100
AcDbEntity
  8
HIDDEN
100
AcDbLine
 10
-172.0356750488281
 20
-225.5999755859375
 30
0.0
 11
-171.5794067382812
 21
-224.05126953125
 31
0.0
1001
DBPROPERTIES
1002
{
1000
PbHidd
1002
}
  0
LINE
  5
11B
330
1F
100
AcDbEntity
  8
HIDDEN
100
AcDbLine
 10
-171.5794067382812
 20
-224.05126953125
 30
0.0
 11
-171.12890625
 21
-222.5044860839844
 31
0.0
1001
DBPROPERTIES
1002
{
1000
PbHidd
1002
}
  0
LINE
  5
11C
330
1F
100
AcDbEntity
  8
HIDDEN
100
AcDbLine
 10
-171.12890625
 20
-222.5044860839844
 30
0.0
 11
-170.6843566894531
 21
-220.9612274169922
 31
0.0
1001
DBPROPERTIES
1002
{
1000
PbHidd
1002
}
  0
LINE
  5
11D
330
1F
100
AcDbEntity
  8
HIDDEN
100
AcDbLine
 10
-170.6843566894531
 20
-220.9612274169922
 30
0.0
 11
-170.2461853027344
 21
-219.42236328125
 31
0.0
1001
DBPROPERTIES
1002
{
1000
PbHidd
1002
}
  0
LINE
  5
11E
330
1F
100
AcDbEntity
  8
HIDDEN
100
AcDbLine
 10
-170.2461853027344
 20
-219.42236328125
 30
0.0
 11
-169.8144226074219
 21
-217.8898315429688
 31
0.0
1001
DBPROPERTIES
1002
{
1000
PbHidd
1002
}
  0
LINE
  5
11F
330
1F
100
AcDbEntity
  8
HIDDEN
100
AcDbLine
 10
-169.8144226074219
 20
-217.8898315429688
 30
0.0
 11
-169.3893585205078
 21
-216.3649291992188
 31
0.0
1001
DBPROPERTIES
1002
{
1000
PbHidd
1002
}
  0
LINE
  5
120
330
1F
100
AcDbEntity
  8
THICK
100
AcDbLine
 10
197.351318359375
 20
-214.5999755859375
 30
0.0
 11
197.0292816162109
 21
-216.4294738769531
 31
0.0
1001
DBPROPERTIES
1002
{
1000
PbThick
1002
}
  0
LINE
  5
121
330
1F
100
AcDbEntity
  8
THICK
100
AcDbLine
 10
197.0292816162109
 20
-216.4294738769531
 30
0.0
 11
196.7048034667969
 21
-218.2608032226562
 31
0.0
1001
DBPROPERTIES
1002
{
1000
PbThick
1002
}
  0
LINE
  5
122
330
1F
100
AcDbEntity
  8
THICK
100
AcDbLine
 10
196.7048034667969
 20
-218.2608032226562
 30
0.0
 11
196.3779449462891
 21
-220.0937805175781
 31
0.0
1001
DBPROPERTIES
1002
{
1000
PbThick
1002
}
  0
LINE
  5
123
330
1F
100
AcDbEntity
  8
THICK
100
AcDbLine
 10
196.3779449462891
 20
-220.0937805175781
 30
0.0
 11
196.0486602783203
 21
-221.9281005859375
 31
0.0
1001
DBPROPERTIES
1002
{
1000
PbThick
1002
}
  0
LINE
  5
124
330
1F
100
AcDbEntity
  8
THICK
100
AcDbLine
 10
196.0486602783203
 20
-221.9281005859375
 30
0.0
 11
195.7170257568359
 21
-223.7635955810547
 31
0.0
1001
DBPROPERTIES
1002
{
1000
PbThick
1002
}
  0
LINE
  5
125
330
1F
100
AcDbEntity
  8
THICK
100
AcDbLine
 10
195.7170257568359
 20
-223.7635955810547
 30
0.0
 11
195.3830261230469
 21
-225.6000061035156
 31
0.0
1001
DBPROPERTIES
1002
{
1000
PbThick
1002
}
  0
LINE
  5
126
330
1F
100
AcDbEntity
  8
HIDDEN
100
AcDbLine
 10
221.4043121337891
 20
-216.3649291992188
 30
0.0
 11
221.2437286376953
 21
-216.0716400146484
 31
0.0
1001
DBPROPERTIES
1002
{
1000
PbHidd
1002
}
  0
LINE
  5
127
330
1F
100
AcDbEntity
  8
HIDDEN
100
AcDbLine
 10
221.2437286376953
 20
-216.0716400146484
 30
0.0
 11
221.0826263427734
 21
-215.7780151367188
 31
0.0
1001
DBPROPERTIES
1002
{
1000
PbHidd
1002
}
  0
LINE
  5
128
330
1F
100
AcDbEntity
  8
HIDDEN
100
AcDbLine
 10
221.0826263427734
 20
-215.7780151367188
 30
0.0
 11
220.9210510253906
 21
-215.4840545654297
 31
0.0
1001
DBPROPERTIES
1002
{
1000
PbHidd
1002
}
  0
LINE
  5
129
330
1F
100
AcDbEntity
  8
HIDDEN
100
AcDbLine
 10
220.9210510253906
 20
-215.4840545654297
 30
0.0
 11
220.7588958740234
 21
-215.1897125244141
 31
0.0
1001
DBPROPERTIES
1002
{
1000
PbHidd
1002
}
  0
LINE
  5
12A
330
1F
100
AcDbEntity
  8
HIDDEN
100
AcDbLine
 10
220.7588958740234
 20
-215.1897125244141
 30
0.0
 11
220.59619140625
 21
-214.8950042724609
 31
0.0
1001
DBPROPERTIES
1002
{
1000
PbHidd
1002
}
  0
LINE
  5
12B
330
1F
100
AcDbEntity
  8
HIDDEN
100
AcDbLine
 10
220.59619140625
 20
-214.8950042724609
 30
0.0
 11
220.4330444335938
 21
-214.6000061035156
 31
0.0
1001
DBPROPERTIES
1002
{
1000
PbHidd
1002
}
  0
LINE
  5
12C
330
1F
100
AcDbEntity
  8
HIDDEN
100
AcDbLine
 10
213.2597503662109
 20
-225.5999755859375
 30
0.0
 11
214.6640319824219
 21
-224.05126953125
 31
0.0
1001
DBPROPERTIES
1002
{
1000
PbHidd
1002
}
  0
LINE
  5
12D
330
1F
100
AcDbEntity
  8
HIDDEN
100
AcDbLine
 10
214.6640319824219
 20
-224.05126953125
 30
0.0
 11
216.0505218505859
 21
-222.5044860839844
 31
0.0
1001
DBPROPERTIES
1002
{
1000
PbHidd
1002
}
  0
LINE
  5
12E
330
1F
100
AcDbEntity
  8
HIDDEN
100
AcDbLine
 10
216.0505218505859
 20
-222.5044860839844
 30
0.0
 11
217.4186706542969
 21
-220.9612274169922
 31
0.0
1001
DBPROPERTIES
1002
{
1000
PbHidd
1002
}
  0
LINE
  5
12F
330
1F
100
AcDbEntity
  8
HIDDEN
100
AcDbLine
 10
217.4186706542969
 20
-220.9612274169922
 30
0.0
 11
218.7672424316406
 21
-219.42236328125
 31
0.0
1001
DBPROPERTIES
1002
{
1000
PbHidd
1002
}
  0
LINE
  5
130
330
1F
100
AcDbEntity
  8
HIDDEN
100
AcDbLine
 10
218.7672424316406
 20
-219.42236328125
 30
0.0
 11
220.0960540771484
 21
-217.8898315429688
 31
0.0
1001
DBPROPERTIES
1002
{
1000
PbHidd
1002
}
  0
LINE
  5
131
330
1F
100
AcDbEntity
  8
HIDDEN
100
AcDbLine
 10
220.0960540771484
 20
-217.8898315429688
 30
0.0
 11
221.4043121337891
 21
-216.3649291992188
 31
0.0
1001
DBPROPERTIES
1002
{
1000
PbHidd
1002
}
  0
LINE
  5
132
330
1F
100
AcDbEntity
  8
THICK
100
AcDbLine
 10
-169.3893521756001
 20
-216.3649256250953
 30
0.0
 11
-168.0806422213127
 21
-220.6
 31
0.0
1001
DBPROPERTIES
1002
{
1000
PbThick
1002
}
  0
LINE
  5
133
330
1F
100
AcDbEntity
  8
THICK
100
AcDbLine
 10
-168.0806422213127
 20
-220.6
 30
0.0
 11
-168.0806422213127
 21
-225.6
 31
0.0
1001
DBPROPERTIES
1002
{
1000
PbThick
1002
}
  0
LINE
  5
134
330
1F
100
AcDbEntity
  8
HIDDEN
100
AcDbLine
 10
-179.2052540188108
 20
-218.7269350965457
 30
0.0
 11
-179.2052540188108
 21
-214.6
 31
0.0
1001
DBPROPERTIES
1002
{
1000
PbHidd
1002
}
  0
LINE
  5
135
330
1F
100
AcDbEntity
  8
THICK
100
AcDbLine
 10
-238.4108133608134
 20
-214.6
 30
0.0
 11
-172.1115393955008
 21
-214.6
 31
0.0
1001
DBPROPERTIES
1002
{
1000
PbThick
1002
}
  0
LINE
  5
136
330
1F
100
AcDbEntity
  8
THICK
100
AcDbLine
 10
-236.5567113945637
 20
-220.6
 30
0.0
 11
-238.4108133608134
 21
-214.6
 31
0.0
1001
DBPROPERTIES
1002
{
1000
PbThick
1002
}
  0
LINE
  5
137
330
1F
100
AcDbEntity
  8
THICK
100
AcDbLine
 10
-168.0806422213127
 20
-220.6
 30
0.0
 11
-236.5567113945637
 21
-220.6
 31
0.0
1001
DBPROPERTIES
1002
{
1000
PbThick
1002
}
  0
LINE
  5
138
330
1F
100
AcDbEntity
  8
THICK
100
AcDbLine
 10
-238.4108133608134
 20
-214.6
 30
0.0
 11
-247.6813231920618
 21
-214.6
 31
0.0
1001
DBPROPERTIES
1002
{
1000
PbThick
1002
}
  0
LINE
  5
139
330
1F
100
AcDbEntity
  8
THICK
100
AcDbLine
 10
197.3513374161889
 20
-214.6
 30
0.0
 11
213.4432886054363
 21
-214.6
 31
0.0
1001
DBPROPERTIES
1002
{
1000
PbThick
1002
}
  0
LINE
  5
13A
330
1F
100
AcDbEntity
  8
THICK
100
AcDbLine
 10
241.9749840942908
 20
-214.6
 30
0.0
 11
213.4432886054362
 21
-214.6
 31
0.0
1001
DBPROPERTIES
1002
{
1000
PbThick
1002
}
  0
LINE
  5
13B
330
1F
100
AcDbEntity
  8
THICK
100
AcDbLine
 10
213.4432886054362
 20
-214.6
 30
0.0
 11
213.4432886054362
 21
-225.6
 31
0.0
1001
DBPROPERTIES
1002
{
1000
PbThick
1002
}
  0
LINE
  5
13C
330
1F
100
AcDbEntity
  8
THICK
100
AcDbLine
 10
-247.6813231920618
 20
-214.6
 30
0.0
 11
-247.6813231920618
 21
-225.6
 31
0.0
1001
DBPROPERTIES
1002
{
1000
PbThick
1002
}
  0
LINE
  5
13D
330
1F
100
AcDbEntity
  8
HIDDEN
100
AcDbLine
 10
-221.4043045158179
 20
-216.3649256250953
 30
0.0
 11
-225.4320995970656
 21
-220.6
 31
0.0
1001
DBPROPERTIES
1002
{
1000
PbHidd
1002
}
  0
LINE
  5
13E
330
1F
100
AcDbEntity
  8
HIDDEN
100
AcDbLine
 10
-225.4320995970656
 20
-220.6
 30
0.0
 11
-225.4320995970656
 21
-225.6
 31
0.0
1001
DBPROPERTIES
1002
{
1000
PbHidd
1002
}
  0
LINE
  5
13F
330
1F
100
AcDbEntity
  8
HIDDEN
100
AcDbLine
 10
-191.1940650104401
 20
-218.7269350965457
 30
0.0
 11
-191.1940650104401
 21
-214.6
 31
0.0
1001
DBPROPERTIES
1002
{
1000
PbHidd
1002
}
  0
LINE
  5
140
330
1F
100
AcDbEntity
  8
HIDDEN
100
AcDbLine
 10
-247.6813231920618
 20
-220.6
 30
0.0
 11
-241.9749840942909
 21
-214.6
 31
0.0
1001
DBPROPERTIES
1002
{
1000
PbHidd
1002
}
  0
LINE
  5
141
330
1F
100
AcDbEntity
  8
HIDDEN
100
AcDbLine
 10
-225.4320995970656
 20
-220.6
 30
0.0
 11
-247.6813231920618
 21
-220.6
 31
0.0
1001
DBPROPERTIES
1002
{
1000
PbHidd
1002
}
  0
LINE
  5
142
330
1F
100
AcDbEntity
  8
HIDDEN
100
AcDbLine
 10
221.4043045158179
 20
-216.3649256250953
 30
0.0
 11
225.4320995970656
 21
-220.6
 31
0.0
1001
DBPROPERTIES
1002
{
1000
PbHidd
1002
}
  0
LINE
  5
143
330
1F
100
AcDbEntity
  8
HIDDEN
100
AcDbLine
 10
225.4320995970656
 20
-220.6
 30
0.0
 11
225.4320995970656
 21
-225.6
 31
0.0
1001
DBPROPERTIES
1002
{
1000
PbHidd
1002
}
  0
LINE
  5
144
330
1F
100
AcDbEntity
  8
HIDDEN
100
AcDbLine
 10
191.1940650104401
 20
-218.7269350965457
 30
0.0
 11
191.1940650104401
 21
-214.6
 31
0.0
1001
DBPROPERTIES
1002
{
1000
PbHidd
1002
}
  0
LINE
  5
145
330
1F
100
AcDbEntity
  8
HIDDEN
100
AcDbLine
 10
-213.4432886054363
 20
-214.6
 30
0.0
 11
-213.4432886054363
 21
-225.6
 31
0.0
1001
DBPROPERTIES
1002
{
1000
PbHidd
1002
}
  0
LINE
  5
146
330
1F
100
AcDbEntity
  8
HIDDEN
100
AcDbLine
 10
241.9749840942908
 20
-214.6
 30
0.0
 11
247.6813231920618
 21
-214.6
 31
0.0
1001
DBPROPERTIES
1002
{
1000
PbHidd
1002
}
  0
LINE
  5
147
330
1F
100
AcDbEntity
  8
HIDDEN
100
AcDbLine
 10
247.6813231920618
 20
-214.6
 30
0.0
 11
247.6813231920618
 21
-220.6000000000001
 31
0.0
1001
DBPROPERTIES
1002
{
1000
PbHidd
1002
}
  0
LINE
  5
148
330
1F
100
AcDbEntity
  8
HIDDEN
100
AcDbLine
 10
169.3893521756001
 20
-216.3649256250953
 30
0.0
 11
168.0806422213127
 21
-220.6
 31
0.0
1001
DBPROPERTIES
1002
{
1000
PbHidd
1002
}
  0
LINE
  5
149
330
1F
100
AcDbEntity
  8
HIDDEN
100
AcDbLine
 10
168.0806422213127
 20
-220.6
 30
0.0
 11
168.0806422213127
 21
-225.6
 31
0.0
1001
DBPROPERTIES
1002
{
1000
PbHidd
1002
}
  0
LINE
  5
14A
330
1F
100
AcDbEntity
  8
HIDDEN
100
AcDbLine
 10
179.2052540188108
 20
-214.6
 30
0.0
 11
177.8715478931568
 21
-214.6
 31
0.0
1001
DBPROPERTIES
1002
{
1000
PbHidd
1002
}
  0
LINE
  5
14B
330
1F
100
AcDbEntity
  8
HIDDEN
100
AcDbLine
 10
179.2052540188108
 20
-218.7269350965457
 30
0.0
 11
179.2052540188108
 21
-214.6
 31
0.0
1001
DBPROPERTIES
1002
{
1000
PbHidd
1002
}
  0
LINE
  5
14C
330
1F
100
AcDbEntity
  8
HIDDEN
100
AcDbLine
 10
191.1940650104401
 20
-214.6
 30
0.0
 11
191.9375526313789
 21
-214.6
 31
0.0
1001
DBPROPERTIES
1002
{
1000
PbHidd
1002
}
  0
LINE
  5
14D
330
1F
100
AcDbEntity
  8
THICK
100
AcDbLine
 10
247.6813231920618
 20
-225.6
 30
0.0
 11
247.6813231920618
 21
-220.6
 31
0.0
1001
DBPROPERTIES
1002
{
1000
PbThick
1002
}
  0
LINE
  5
14E
330
1F
100
AcDbEntity
  8
THICK
100
AcDbLine
 10
247.6813231920618
 20
-220.6
 30
0.0
 11
241.9749840942908
 21
-214.6
 31
0.0
1001
DBPROPERTIES
1002
{
1000
PbThick
1002
}
  0
LINE
  5
14F
330
1F
100
AcDbEntity
  8
HIDDEN
100
AcDbLine
 10
225.4320995970656
 20
-220.6
 30
0.0
 11
247.6813231920618
 21
-220.6
 31
0.0
1001
DBPROPERTIES
1002
{
1000
PbHidd
1002
}
  0
LINE
  5
150
330
1F
100
AcDbEntity
  8
THICK
100
AcDbLine
 10
-236.5567113945637
 20
-225.6
 30
0.0
 11
-236.5567113945637
 21
-220.6
 31
0.0
1001
DBPROPERTIES
1002
{
1000
PbThick
1002
}
  0
LINE
  5
151
330
1F
100
AcDbEntity
  8
HIDDEN
100
AcDbLine
 10
179.2052540188108
 20
-214.6
 30
0.0
 11
181.4934736298677
 21
-214.6
 31
0.0
1001
DBPROPERTIES
1002
{
1000
PbHidd
1002
}
  0
LINE
  5
152
330
1F
100
AcDbEntity
  8
HIDDEN
100
AcDbLine
 10
236.5567113945637
 20
-225.6
 30
0.0
 11
236.5567113945637
 21
-220.6
 31
0.0
1001
DBPROPERTIES
1002
{
1000
PbHidd
1002
}
  0
LINE
  5
153
330
1F
100
AcDbEntity
  8
HIDDEN
100
AcDbLine
 10
236.5567113945637
 20
-220.6
 30
0.0
 11
238.4108133608134
 21
-214.6
 31
0.0
1001
DBPROPERTIES
1002
{
1000
PbHidd
1002
}
  0
LINE
  5
154
330
1F
100
AcDbEntity
  8
HIDDEN
100
AcDbLine
 10
168.0806422213127
 20
-220.6
 30
0.0
 11
236.5567113945637
 21
-220.6
 31
0.0
1001
DBPROPERTIES
1002
{
1000
PbHidd
1002
}
  0
LINE
  5
155
330
1F
100
AcDbEntity
  8
THICK
100
AcDbLine
 10
-280.0
 20
-277.0000000000001
 30
0.0
 11
-275.0
 21
-277.0000000000001
 31
0.0
1001
DBPROPERTIES
1002
{
1000
PbThick
1002
}
  0
ARC
  5
156
330
1F
100
AcDbEntity
  8
THICK
100
AcDbCircle
 10
-274.9999999999999
 20
-277.0
 30
0.0
 40
5.0
100
AcDbArc
 50
180.0000198478428
 51
270.0000187239684
1001
DBPROPERTIES
1002
{
1000
PbThick
1002
}
  0
LINE
  5
157
330
1F
100
AcDbEntity
  8
THICK
100
AcDbLine
 10
-274.9999999999999
 20
-282.0000000000001
 30
0.0
 11
-275.0
 21
-277.0000000000001
 31
0.0
1001
DBPROPERTIES
1002
{
1000
PbThick
1002
}
  0
LINE
  5
158
330
1F
100
AcDbEntity
  8
THICK
100
AcDbLine
 10
-275.0
 20
-277.0000000000001
 30
0.0
 11
274.9999999999999
 21
-277.0000000000001
 31
0.0
1001
DBPROPERTIES
1002
{
1000
PbThick
1002
}
  0
LINE
  5
159
330
1F
100
AcDbEntity
  8
THICK
100
AcDbLine
 10
-274.9999999999999
 20
-282.0
 30
0.0
 11
275.0
 21
-282.0
 31
0.0
1001
DBPROPERTIES
1002
{
1000
PbThick
1002
}
  0
LINE
  5
15A
330
1F
100
AcDbEntity
  8
THICK
100
AcDbLine
 10
275.0000000000001
 20
-282.0000000000001
 30
0.0
 11
275.0000000000001
 21
-277.0000000000001
 31
0.0
1001
DBPROPERTIES
1002
{
1000
PbThick
1002
}
  0
LINE
  5
15B
330
1F
100
AcDbEntity
  8
HIDDEN
100
AcDbLine
 10
-274.9999999999999
 20
-282.0
 30
0.0
 11
-275.0000000000001
 21
-282.0
 31
0.0
1001
DBPROPERTIES
1002
{
1000
PbHidd
1002
}
  0
LINE
  5
15C
330
1F
100
AcDbEntity
  8
HIDDEN
100
AcDbLine
 10
-279.9999999999999
 20
-277.0
 30
0.0
 11
-280.0000000000001
 21
-277.0
 31
0.0
1001
DBPROPERTIES
1002
{
1000
PbHidd
1002
}
  0
LINE
  5
15D
330
1F
100
AcDbEntity
  8
HIDDEN
100
AcDbLine
 10
275.0000000000001
 20
-277.0
 30
0.0
 11
280.0000000000001
 21
-277.0
 31
0.0
1001
DBPROPERTIES
1002
{
1000
PbHidd
1002
}
  0
LINE
  5
15E
330
1F
100
AcDbEntity
  8
HIDDEN
100
AcDbLine
 10
275.0
 20
-277.0
 30
0.0
 11
275.0
 21
-282.0
 31
0.0
1001
DBPROPERTIES
1002
{
1000
PbHidd
1002
}
  0
LINE
  5
15F
330
1F
100
AcDbEntity
  8
HIDDEN
100
AcDbLine
 10
-275.0
 20
-277.0
 30
0.0
 11
275.0000000000001
 21
-277.0
 31
0.0
1001
DBPROPERTIES
1002
{
1000
PbHidd
1002
}
  0
LINE
  5
160
330
1F
100
AcDbEntity
  8
HIDDEN
100
AcDbLine
 10
-275.0
 20
-277.0
 30
0.0
 11
-275.0
 21
-282.0
 31
0.0
1001
DBPROPERTIES
1002
{
1000
PbHidd
1002
}
  0
LINE
  5
161
330
1F
100
AcDbEntity
  8
HIDDEN
100
AcDbLine
 10
-280.0
 20
-230.6
 30
0.0
 11
-275.0
 21
-230.6
 31
0.0
1001
DBPROPERTIES
1002
{
1000
PbHidd
1002
}
  0
LINE
  5
162
330
1F
100
AcDbEntity
  8
HIDDEN
100
AcDbLine
 10
-274.9999999999999
 20
-225.6
 30
0.0
 11
-275.0
 21
-230.6
 31
0.0
1001
DBPROPERTIES
1002
{
1000
PbHidd
1002
}
  0
LINE
  5
163
330
1F
100
AcDbEntity
  8
HIDDEN
100
AcDbLine
 10
-275.0
 20
-230.6
 30
0.0
 11
275.0000000000001
 21
-230.6
 31
0.0
1001
DBPROPERTIES
1002
{
1000
PbHidd
1002
}
  0
LINE
  5
164
330
1F
100
AcDbEntity
  8
HIDDEN
100
AcDbLine
 10
275.0000000000001
 20
-225.6
 30
0.0
 11
275.0000000000001
 21
-230.6
 31
0.0
1001
DBPROPERTIES
1002
{
1000
PbHidd
1002
}
  0
LINE
  5
165
330
1F
100
AcDbEntity
  8
THICK
100
AcDbLine
 10
274.9999999999999
 20
-230.6
 30
0.0
 11
279.9999999999999
 21
-230.6
 31
0.0
1001
DBPROPERTIES
1002
{
1000
PbThick
1002
}
  0
ARC
  5
166
330
1F
100
AcDbEntity
  8
THICK
100
AcDbCircle
 10
274.9999999999999
 20
-230.6
 30
0.0
 40
5.0
100
AcDbArc
 50
0.0
 51
89.99998127603165
1001
DBPROPERTIES
1002
{
1000
PbThick
1002
}
  0
LINE
  5
167
330
1F
100
AcDbEntity
  8
THICK
100
AcDbLine
 10
275.0
 20
-230.6
 30
0.0
 11
275.0
 21
-225.6
 31
0.0
1001
DBPROPERTIES
1002
{
1000
PbThick
1002
}
  0
LINE
  5
168
330
1F
100
AcDbEntity
  8
THICK
100
AcDbLine
 10
-275.0
 20
-230.6
 30
0.0
 11
274.9999999999999
 21
-230.6
 31
0.0
1001
DBPROPERTIES
1002
{
1000
PbThick
1002
}
  0
LINE
  5
169
330
1F
100
AcDbEntity
  8
THICK
100
AcDbLine
 10
-275.0
 20
-225.6
 30
0.0
 11
274.9999999999999
 21
-225.6
 31
0.0
1001
DBPROPERTIES
1002
{
1000
PbThick
1002
}
  0
LINE
  5
16A
330
1F
100
AcDbEntity
  8
THICK
100
AcDbLine
 10
-275.0
 20
-230.6
 30
0.0
 11
-275.0
 21
-225.6
 31
0.0
1001
DBPROPERTIES
1002
{
1000
PbThick
1002
}
  0
LINE
  5
16B
330
1F
100
AcDbEntity
  8
HIDDEN
100
AcDbLine
 10
275.0
 20
-225.6
 30
0.0
 11
275.0
 21
-225.6
 31
0.0
1001
DBPROPERTIES
1002
{
1000
PbHidd
1002
}
  0
LINE
  5
16C
330
1F
100
AcDbEntity
  8
THICK
100
AcDbLine
 10
274.9999999999999
 20
-277.0000000000001
 30
0.0
 11
279.9999999999999
 21
-277.0000000000001
 31
0.0
1001
DBPROPERTIES
1002
{
1000
PbThick
1002
}
  0
ARC
  5
16D
330
1F
100
AcDbEntity
  8
THICK
100
AcDbCircle
 10
275.0
 20
-277.0
 30
0.0
 40
5.000000000000004
100
AcDbArc
 50
270.0000187239684
 51
0.0
1001
DBPROPERTIES
1002
{
1000
PbThick
1002
}
  0
LINE
  5
16E
330
1F
100
AcDbEntity
  8
HIDDEN
100
AcDbLine
 10
275.0
 20
-282.0
 30
0.0
 11
275.0
 21
-282.0
 31
0.0
1001
DBPROPERTIES
1002
{
1000
PbHidd
1002
}
  0
LINE
  5
16F
330
1F
100
AcDbEntity
  8
HIDDEN
100
AcDbLine
 10
-280.0
 20
-277.0
 30
0.0
 11
-275.0
 21
-277.0
 31
0.0
1001
DBPROPERTIES
1002
{
1000
PbHidd
1002
}
  0
LINE
  5
170
330
1F
100
AcDbEntity
  8
HIDDEN
100
AcDbLine
 10
275.0000000000001
 20
-230.6
 30
0.0
 11
280.0000000000001
 21
-230.6
 31
0.0
1001
DBPROPERTIES
1002
{
1000
PbHidd
1002
}
  0
LINE
  5
171
330
1F
100
AcDbEntity
  8
THICK
100
AcDbLine
 10
-280.0
 20
-230.6
 30
0.0
 11
-275.0
 21
-230.6
 31
0.0
1001
DBPROPERTIES
1002
{
1000
PbThick
1002
}
  0
ARC
  5
172
330
1F
100
AcDbEntity
  8
THICK
100
AcDbCircle
 10
-275.0
 20
-230.6000000000001
 30
0.0
 40
5.0
100
AcDbArc
 50
89.99998127603165
 51
180.0000198478428
1001
DBPROPERTIES
1002
{
1000
PbThick
1002
}
  0
LINE
  5
173
330
1F
100
AcDbEntity
  8
HIDDEN
100
AcDbLine
 10
-275.0
 20
-225.6000000000001
 30
0.0
 11
-275.0
 21
-225.6
 31
0.0
1001
DBPROPERTIES
1002
{
1000
PbHidd
1002
}
  0
LINE
  5
174
330
1F
100
AcDbEntity
  8
HIDDEN
100
AcDbLine
 10
-280.0
 20
-230.6000000000001
 30
0.0
 11
-280.0
 21
-230.6
 31
0.0
1001
DBPROPERTIES
1002
{
1000
PbHidd
1002
}
  0
LINE
  5
175
330
1F
100
AcDbEntity
  8
THICK
100
AcDbLine
 10
274.9999999999999
 20
-277.0000000000001
 30
0.0
 11
274.9999999999999
 21
-230.6
 31
0.0
1001
DBPROPERTIES
1002
{
1000
PbThick
1002
}
  0
LINE
  5
176
330
1F
100
AcDbEntity
  8
HIDDEN
100
AcDbLine
 10
275.0000000000001
 20
-276.9999999999999
 30
0.0
 11
275.0000000000001
 21
-230.6
 31
0.0
1001
DBPROPERTIES
1002
{
1000
PbHidd
1002
}
  0
LINE
  5
177
330
1F
100
AcDbEntity
  8
THICK
100
AcDbLine
 10
-275.0
 20
-277.0000000000001
 30
0.0
 11
-275.0
 21
-230.6
 31
0.0
1001
DBPROPERTIES
1002
{
1000
PbThick
1002
}
  0
LINE
  5
178
330
1F
100
AcDbEntity
  8
HIDDEN
100
AcDbLine
 10
-275.0
 20
-276.9999999999999
 30
0.0
 11
-275.0
 21
-230.6
 31
0.0
1001
DBPROPERTIES
1002
{
1000
PbHidd
1002
}
  0
LINE
  5
179
330
1F
100
AcDbEntity
  8
THICK
100
AcDbLine
 10
-280.0
 20
-276.9999999999999
 30
0.0
 11
-280.0
 21
-230.6
 31
0.0
1001
DBPROPERTIES
1002
{
1000
PbThick
1002
}
  0
LINE
  5
17A
330
1F
100
AcDbEntity
  8
HIDDEN
100
AcDbLine
 10
177.5
 20
-282.0
 30
0.0
 11
177.5
 21
-224.6000061035156
 31
0.0
1001
DBPROPERTIES
1002
{
1000
PbHidd
1002
}
  0
LINE
  5
17B
330
1F
100
AcDbEntity
  8
HIDDEN
100
AcDbLine
 10
231.0
 20
-282.0
 30
0.0
 11
231.0
 21
-214.6000061035156
 31
0.0
1001
DBPROPERTIES
1002
{
1000
PbHidd
1002
}
  0
LINE
  5
17C
330
1F
100
AcDbEntity
  8
HIDDEN
100
AcDbLine
 10
231.0
 20
-282.0
 30
0.0
 11
231.0
 21
-214.6000061035156
 31
0.0
1001
DBPROPERTIES
1002
{
1000
PbHidd
1002
}
  0
LINE
  5
17D
330
1F
100
AcDbEntity
  8
HIDDEN
100
AcDbLine
 10
-219.0
 20
-282.0
 30
0.0
 11
-219.0
 21
-214.6000061035156
 31
0.0
1001
DBPROPERTIES
1002
{
1000
PbHidd
1002
}
  0
LINE
  5
17E
330
1F
100
AcDbEntity
  8
HIDDEN
100
AcDbLine
 10
-219.0
 20
-282.0
 30
0.0
 11
-219.0
 21
-214.6000061035156
 31
0.0
1001
DBPROPERTIES
1002
{
1000
PbHidd
1002
}
  0
LINE
  5
17F
330
1F
100
AcDbEntity
  8
THICK
100
AcDbLine
 10
-375.0
 20
225.6000061035156
 30
0.0
 11
-375.0
 21
137.1956634521484
 31
0.0
1001
DBPROPERTIES
1002
{
1000
PbThick
1002
}
  0
LINE
  5
180
330
1F
100
AcDbEntity
  8
HIDDEN
100
AcDbLine
 10
361.0
 20
164.1999969482422
 30
0.0
 11
361.0
 21
169.1999969482422
 31
0.0
1001
DBPROPERTIES
1002
{
1000
PbHidd
1002
}
  0
LINE
  5
181
330
1F
100
AcDbEntity
  8
THICK
100
AcDbLine
 10
-140.0
 20
267.8999938964844
 30
0.0
 11
-140.0
 21
226.6000061035156
 31
0.0
1001
DBPROPERTIES
1002
{
1000
PbThick
1002
}
  0
LINE
  5
182
330
1F
100
AcDbEntity
  8
HIDDEN
100
AcDbLine
 10
-140.0
 20
226.6000061035156
 30
0.0
 11
-140.0
 21
171.1999969482422
 31
0.0
1001
DBPROPERTIES
1002
{
1000
PbHidd
1002
}
  0
LINE
  5
183
330
1F
100
AcDbEntity
  8
THICK
100
AcDbLine
 10
-125.9000007629394
 20
281.9999992370605
 30
0.0
 11
-140.0000030517578
 21
267.8999969482422
 31
0.0
1001
DBPROPERTIES
1002
{
1000
PbThick
1002
}
  0
LINE
  5
184
330
1F
100
AcDbEntity
  8
HIDDEN
100
AcDbLine
 10
-168.0
 20
171.1999969482422
 30
0.0
 11
-168.0
 21
169.1999969482422
 31
0.0
1001
DBPROPERTIES
1002
{
1000
PbHidd
1002
}
  0
LINE
  5
185
330
1F
100
AcDbEntity
  8
HIDDEN
100
AcDbLine
 10
168.0
 20
171.1999969482422
 30
0.0
 11
168.0
 21
169.1999969482422
 31
0.0
1001
DBPROPERTIES
1002
{
1000
PbHidd
1002
}
  0
LINE
  5
186
330
1F
100
AcDbEntity
  8
THICK
100
AcDbLine
 10
140.0000030517578
 20
267.8999969482422
 30
0.0
 11
125.9000007629394
 21
281.9999992370605
 31
0.0
1001
DBPROPERTIES
1002
{
1000
PbThick
1002
}
  0
LINE
  5
187
330
1F
100
AcDbEntity
  8
THICK
100
AcDbLine
 10
140.0
 20
267.8999938964844
 30
0.0
 11
140.0
 21
225.6000061035156
 31
0.0
1001
DBPROPERTIES
1002
{
1000
PbThick
1002
}
  0
LINE
  5
188
330
1F
100
AcDbEntity
  8
HIDDEN
100
AcDbLine
 10
140.0
 20
225.6000061035156
 30
0.0
 11
140.0
 21
171.1999969482422
 31
0.0
1001
DBPROPERTIES
1002
{
1000
PbHidd
1002
}
  0
LINE
  5
189
330
1F
100
AcDbEntity
  8
HIDDEN
100
AcDbLine
 10
-361.0
 20
164.1999969482422
 30
0.0
 11
-361.0
 21
169.1999969482422
 31
0.0
1001
DBPROPERTIES
1002
{
1000
PbHidd
1002
}
  0
LINE
  5
18A
330
1F
100
AcDbEntity
  8
THICK
100
AcDbLine
 10
375.0
 20
225.6000061035156
 30
0.0
 11
375.0
 21
137.1956634521484
 31
0.0
1001
DBPROPERTIES
1002
{
1000
PbThick
1002
}
  0
LINE
  5
18B
330
1F
100
AcDbEntity
  8
HIDDEN
100
AcDbLine
 10
-231.0
 20
-282.0
 30
0.0
 11
-231.0
 21
-214.6000061035156
 31
0.0
1001
DBPROPERTIES
1002
{
1000
PbHidd
1002
}
  0
LINE
  5
18C
330
1F
100
AcDbEntity
  8
HIDDEN
100
AcDbLine
 10
-231.0
 20
-282.0
 30
0.0
 11
-231.0
 21
-214.6000061035156
 31
0.0
1001
DBPROPERTIES
1002
{
1000
PbHidd
1002
}
  0
LINE
  5
18D
330
1F
100
AcDbEntity
  8
HIDDEN
100
AcDbLine
 10
219.0
 20
-282.0
 30
0.0
 11
219.0
 21
-214.6000061035156
 31
0.0
1001
DBPROPERTIES
1002
{
1000
PbHidd
1002
}
  0
LINE
  5
18E
330
1F
100
AcDbEntity
  8
HIDDEN
100
AcDbLine
 10
219.0
 20
-282.0
 30
0.0
 11
219.0
 21
-214.6000061035156
 31
0.0
1001
DBPROPERTIES
1002
{
1000
PbHidd
1002
}
  0
LINE
  5
18F
330
1F
100
AcDbEntity
  8
HIDDEN
100
AcDbLine
 10
-177.5
 20
-282.0
 30
0.0
 11
-177.5
 21
-224.6000061035156
 31
0.0
1001
DBPROPERTIES
1002
{
1000
PbHidd
1002
}
  0
ENDSEC
  0
SECTION
  2
OBJECTS
  0
DICTIONARY
  5
C
330
0
100
AcDbDictionary
  3
ACAD_GROUP
350
D
  3
ACAD_LAYOUT
350
1A
  3
ACAD_MATERIAL
350
43
  3
ACAD_MLEADERSTYLE
350
6B
  3
ACAD_MLINESTYLE
350
17
  3
ACAD_PLOTSETTINGS
350
19
  3
ACAD_SCALELIST
350
47
  3
ACAD_VISUALSTYLE
350
2A
  3
ACDBVARIABLEDICTIONARY
350
190
1001
ACAD
1000
TREAT_AS_HARD
1070
     0
  0
DICTIONARY
  5
D
102
{ACAD_REACTORS
330
C
102
}
330
C
100
AcDbDictionary
1001
ACAD
1000
TREAT_AS_HARD
1070
     0
  0
DICTIONARY
  5
1A
102
{ACAD_REACTORS
330
C
102
}
330
C
100
AcDbDictionary
1001
ACAD
1000
TREAT_AS_HARD
1070
     0
  0
DICTIONARY
  5
43
102
{ACAD_REACTORS
330
C
102
}
330
C
100
AcDbDictionary
  3
BYBLOCK
350
45
  3
BYLAYER
350
44
  3
GLOBAL
350
46
1001
ACAD
1000
TREAT_AS_HARD
1070
     0
  0
DICTIONARY
  5
6B
102
{ACAD_REACTORS
330
C
102
}
330
C
100
AcDbDictionary
  3
STANDARD
350
6C
1001
ACAD
1000
TREAT_AS_HARD
1070
     0
  0
DICTIONARY
  5
17
102
{ACAD_REACTORS
330
C
102
}
330
C
100
AcDbDictionary
  3
STANDARD
350
18
1001
ACAD
1000
TREAT_AS_HARD
1070
     0
  0
DICTIONARY
  5
19
102
{ACAD_REACTORS
330
C
102
}
330
C
100
AcDbDictionary
1001
ACAD
1000
TREAT_AS_HARD
1070
     0
  0
DICTIONARY
  5
47
102
{ACAD_REACTORS
330
C
102
}
330
C
100
AcDbDictionary
  3
A0
350
48
  3
A1
350
49
  3
A2
350
4A
  3
A3
350
4B
  3
A4
350
4C
  3
A5
350
4D
  3
A6
350
4E
  3
A7
350
4F
  3
A8
350
50
  3
A9
350
51
  3
B0
350
52
  3
B1
350
53
  3
B2
350
54
  3
B3
350
55
  3
B4
350
56
  3
B5
350
57
  3
B6
350
58
  3
B7
350
59
  3
B8
350
5A
  3
B9
350
5B
  3
C0
350
5C
  3
C1
350
5D
  3
C2
350
5E
  3
C3
350
5F
  3
C4
350
60
  3
C5
350
61
  3
C6
350
62
  3
C7
350
63
  3
C8
350
64
  3
C9
350
65
  3
D0
350
66
  3
D1
350
67
  3
D2
350
68
1001
ACAD
1000
TREAT_AS_HARD
1070
     0
  0
DICTIONARY
  5
2A
102
{ACAD_REACTORS
330
C
102
}
330
C
100
AcDbDictionary
  3
2DWIREFRAME
350
2F
  3
BASIC
350
32
  3
BRIGHTEN
350
36
  3
COLORCHANGE
350
3A
  3
CONCEPTUAL
350
34
  3
DIM
350
35
  3
EDGECOLOROFF
350
3D
  3
FACEPATTERN
350
39
  3
FLAT
350
2B
  3
FLATWITHEDGES
350
2C
  3
GOURAUD
350
2D
  3
GOURAUDWITHEDGES
350
2E
  3
HIDDEN
350
31
  3
JITTEROFF
350
3B
  3
LINEPATTERN
350
38
  3
OVERHANGOFF
350
3C
  3
REALISTIC
350
33
  3
SHADED
350
42
  3
SHADED_WITH_EDGES
350
41
  3
SHADES_OF_GRAY
350
3E
  3
SKETCHY
350
3F
  3
THICKEN
350
37
  3
WIREFRAME
350
30
  3
X-RAY
350
40
1001
ACAD
1000
TREAT_AS_HARD
1070
     0
  0
DICTIONARY
  5
190
102
{ACAD_REACTORS
330
C
102
}
330
C
100
AcDbDictionary
  3
CANNOSCALE
350
19B
  3
CENTEREXE
350
197
  3
CENTERLTYPEFILE
350
198
  3
CMLEADERSTYLE
350
192
  3
CTABLESTYLE
350
191
  3
DIMASSOC
350
199
  3
HIDETEXT
350
19A
  3
MSLTSCALE
350
19C
  3
PSOLHEIGHT
350
194
  3
PSOLWIDTH
350
193
1001
ACAD
1000
TREAT_AS_HARD
1070
     0
  0
MATERIAL
  5
45
102
{ACAD_REACTORS
330
43
102
}
102
{ACAD_XDICTIONARY
360
19F
102
}
330
43
100
AcDbMaterial
  1
BYBLOCK
  0
MATERIAL
  5
44
102
{ACAD_REACTORS
330
43
102
}
102
{ACAD_XDICTIONARY
360
19D
102
}
330
43
100
AcDbMaterial
  1
BYLAYER
  0
MATERIAL
  5
46
102
{ACAD_REACTORS
330
43
102
}
102
{ACAD_XDICTIONARY
360
1A1
102
}
330
43
100
AcDbMaterial
  1
GLOBAL
  0
ACAD_PROXY_OBJECT
  5
6C
102
{ACAD_REACTORS
330
6B
102
}
330
6B
100
AcDbZombieObject
 90
      499
 91
      505
 93
      610
310
40901902A4063FBFFFFFE0000000000000020400000000000020404214DD185B99185C990000000000000104090141901A00000000000004100000000000000041025764000000000000039000
340
14
340
0
340
11
340
0
 94
        0
1001
ACAD_MLEADERVER
1070
     2
  0
MLINESTYLE
  5
18
102
{ACAD_REACTORS
330
17
102
}
330
17
100
AcDbMlineStyle
  2
Standard
 70
     0
  3

 62
   256
 51
90.0
 52
90.0
 71
     2
 49
0.5
 62
   256
  6
BYLAYER
 49
-0.5
 62
   256
  6
BYLAYER
  0
ACAD_PROXY_OBJECT
  5
48
102
{ACAD_REACTORS
330
47
102
}
330
47
100
AcDbZombieObject
 90
      499
 91
      503
 93
       41
310
903313A31580
  0
ACAD_PROXY_OBJECT
  5
49
102
{ACAD_REACTORS
330
47
102
}
330
47
100
AcDbZombieObject
 90
      499
 91
      503
 93
      105
310
903313A324000000000000004000
  0
ACAD_PROXY_OBJECT
  5
4A
102
{ACAD_REACTORS
330
47
102
}
330
47
100
AcDbZombieObject
 90
      499
 91
      503
 93
      105
310
903313A344000000000000104000
  0
ACAD_PROXY_OBJECT
  5
4B
102
{ACAD_REACTORS
330
47
102
}
330
47
100
AcDbZombieObject
 90
      499
 91
      503
 93
      105
310
903313A354000000000000144000
  0
ACAD_PROXY_OBJECT
  5
4C
102
{ACAD_REACTORS
330
47
102
}
330
47
100
AcDbZombieObject
 90
      499
 91
      503
 93
      105
310
903313A384000000000000204000
  0
ACAD_PROXY_OBJECT
  5
4D
102
{ACAD_REACTORS
330
47
102
}
330
47
100
AcDbZombieObject
 90
      499
 91
      503
 93
      113
310
904313A31304000000000000244000
  0
ACAD_PROXY_OBJECT
  5
4E
102
{ACAD_REACTORS
330
47
102
}
330
47
100
AcDbZombieObject
 90
      499
 91
      503
 93
      113
310
904313A31364000000000000304000
  0
ACAD_PROXY_OBJECT
  5
4F
102
{ACAD_REACTORS
330
47
102
}
330
47
100
AcDbZombieObject
 90
      499
 91
      503
 93
      113
310
904313A32304000000000000344000
  0
ACAD_PROXY_OBJECT
  5
50
102
{ACAD_REACTORS
330
47
102
}
330
47
100
AcDbZombieObject
 90
      499
 91
      503
 93
      113
310
904313A333040000000000003E4000
  0
ACAD_PROXY_OBJECT
  5
51
102
{ACAD_REACTORS
330
47
102
}
330
47
100
AcDbZombieObject
 90
      499
 91
      503
 93
      113
310
904313A34304000000000000444000
  0
ACAD_PROXY_OBJECT
  5
52
102
{ACAD_REACTORS
330
47
102
}
330
47
100
AcDbZombieObject
 90
      499
 91
      503
 93
      113
310
904313A35304000000000000494000
  0
ACAD_PROXY_OBJECT
  5
53
102
{ACAD_REACTORS
330
47
102
}
330
47
100
AcDbZombieObject
 90
      499
 91
      503
 93
      121
310
905313A3130304000000000000594000
  0
ACAD_PROXY_OBJECT
  5
54
102
{ACAD_REACTORS
330
47
102
}
330
47
100
AcDbZombieObject
 90
      499
 91
      503
 93
      105
310
903323A310000000000000010100
  0
ACAD_PROXY_OBJECT
  5
55
102
{ACAD_REACTORS
330
47
102
}
330
47
100
AcDbZombieObject
 90
      499
 91
      503
 93
      105
310
903343A310000000000000410100
  0
ACAD_PROXY_OBJECT
  5
56
102
{ACAD_REACTORS
330
47
102
}
330
47
100
AcDbZombieObject
 90
      499
 91
      503
 93
      105
310
903383A310000000000000810100
  0
ACAD_PROXY_OBJECT
  5
57
102
{ACAD_REACTORS
330
47
102
}
330
47
100
AcDbZombieObject
 90
      499
 91
      503
 93
      113
310
90431303A310000000000000910100
  0
ACAD_PROXY_OBJECT
  5
58
102
{ACAD_REACTORS
330
47
102
}
330
47
100
AcDbZombieObject
 90
      499
 91
      503
 93
      121
310
9053130303A310000000000001650100
  0
ACAD_PROXY_OBJECT
  5
59
102
{ACAD_REACTORS
330
47
102
}
330
47
100
AcDbZombieObject
 90
      499
 91
      503
 93
      257
310
90E312F31323822203D2031272D3022000000000000200FC000000000000284000
  0
ACAD_PROXY_OBJECT
  5
5A
102
{ACAD_REACTORS
330
47
102
}
330
47
100
AcDbZombieObject
 90
      499
 91
      503
 93
      249
310
90D312F363422203D2031272D3022000000000000240FC000000000000284000
  0
ACAD_PROXY_OBJECT
  5
5B
102
{ACAD_REACTORS
330
47
102
}
330
47
100
AcDbZombieObject
 90
      499
 91
      503
 93
      249
310
90D312F333222203D2031272D3022000000000000280FC000000000000284000
  0
ACAD_PROXY_OBJECT
  5
5C
102
{ACAD_REACTORS
330
47
102
}
330
47
100
AcDbZombieObject
 90
      499
 91
      503
 93
      249
310
90D312F313622203D2031272D30220000000000002C0FC000000000000284000
  0
ACAD_PROXY_OBJECT
  5
5D
102
{ACAD_REACTORS
330
47
102
}
330
47
100
AcDbZombieObject
 90
      499
 91
      503
 93
      249
310
90D332F333222203D2031272D30220000000000002E0FC000000000000284000
  0
ACAD_PROXY_OBJECT
  5
5E
102
{ACAD_REACTORS
330
47
102
}
330
47
100
AcDbZombieObject
 90
      499
 91
      503
 93
      241
310
90C312F3822203D2031272D3022000000000000300FC000000000000284000
  0
ACAD_PROXY_OBJECT
  5
5F
102
{ACAD_REACTORS
330
47
102
}
330
47
100
AcDbZombieObject
 90
      499
 91
      503
 93
      249
310
90D332F313622203D2031272D3022000000000000320FC000000000000284000
  0
ACAD_PROXY_OBJECT
  5
60
102
{ACAD_REACTORS
330
47
102
}
330
47
100
AcDbZombieObject
 90
      499
 91
      503
 93
      241
310
90C312F3422203D2031272D3022000000000000340FC000000000000284000
  0
ACAD_PROXY_OBJECT
  5
61
102
{ACAD_REACTORS
330
47
102
}
330
47
100
AcDbZombieObject
 90
      499
 91
      503
 93
      241
310
90C332F3822203D2031272D3022000000000000360FC000000000000284000
  0
ACAD_PROXY_OBJECT
  5
62
102
{ACAD_REACTORS
330
47
102
}
330
47
100
AcDbZombieObject
 90
      499
 91
      503
 93
      241
310
90C312F3222203D2031272D3022000000000000380FC000000000000284000
  0
ACAD_PROXY_OBJECT
  5
63
102
{ACAD_REACTORS
330
47
102
}
330
47
100
AcDbZombieObject
 90
      499
 91
      503
 93
      241
310
90C332F3422203D2031272D30220000000000003A0FC000000000000284000
  0
ACAD_PROXY_OBJECT
  5
64
102
{ACAD_REACTORS
330
47
102
}
330
47
100
AcDbZombieObject
 90
      499
 91
      503
 93
      161
310
90A3122203D2031272D30224000000000000284000
  0
ACAD_PROXY_OBJECT
  5
65
102
{ACAD_REACTORS
330
47
102
}
330
47
100
AcDbZombieObject
 90
      499
 91
      503
 93
      257
310
90E312D312F3222203D2031272D30220000000000003E0FC000000000000284000
  0
ACAD_PROXY_OBJECT
  5
66
102
{ACAD_REACTORS
330
47
102
}
330
47
100
AcDbZombieObject
 90
      499
 91
      503
 93
      225
310
90A3322203D2031272D302200000000000002100000000000000284000
  0
ACAD_PROXY_OBJECT
  5
67
102
{ACAD_REACTORS
330
47
102
}
330
47
100
AcDbZombieObject
 90
      499
 91
      503
 93
      225
310
90A3622203D2031272D302200000000000006100000000000000284000
  0
ACAD_PROXY_OBJECT
  5
68
102
{ACAD_REACTORS
330
47
102
}
330
47
100
AcDbZombieObject
 90
      499
 91
      503
 93
      249
310
90D31272D3022203D2031272D30220000000000000A100000000000000284000
  0
ACAD_PROXY_OBJECT
  5
2F
102
{ACAD_REACTORS
330
2A
102
}
330
2A
100
AcDbZombieObject
 90
      499
 91
      501
 93
      436
310
42CC9915DA5C99599C985B595049028333333333333E33F0000000000000F90107901411070040501600405405064090741402480A0340
1001
ACAD
1000
AcDbSavedByObjectVersion
1070
     0
  0
ACAD_PROXY_OBJECT
  5
32
102
{ACAD_REACTORS
330
2A
102
}
330
2A
100
AcDbZombieObject
 90
      499
 91
      501
 93
      388
310
4150985CDA58D07406404333333333333E33F0000000000000F90107A41107004050150841D405064090741402480A0350
1001
ACAD
1000
AcDbSavedByObjectVersion
1070
     0
  0
ACAD_PROXY_OBJECT
  5
36
102
{ACAD_REACTORS
330
2A
102
}
330
2A
100
AcDbZombieObject
 90
      499
 91
      501
 93
      428
310
42109C9A59DA1D195B90C409028333333333333E33F0000000000000F9010790141107004050150841D405064090741402480A029950
1001
ACAD
1000
AcDbSavedByObjectVersion
1070
     0
  0
ACAD_PROXY_OBJECT
  5
3A
102
{ACAD_REACTORS
330
2A
102
}
330
2A
100
AcDbZombieObject
 90
      499
 91
      501
 93
      452
310
42D0DBDB1BDC90DA185B99D95104090240C333333333333E33F0000000000000F90108901411070040501508421405064090741402480A0350
1001
ACAD
1000
AcDbSavedByObjectVersion
1070
     0
  0
ACAD_PROXY_OBJECT
  5
34
102
{ACAD_REACTORS
330
2A
102
}
330
2A
100
AcDbZombieObject
 90
      499
 91
      501
 93
      500
310
4290DBDB98D95C1D1D585B10940D028333333333333E33F0000000000000F90107902409070040501000000000018199010841D405064090740C02480A0340
1001
ACAD
1000
AcDbSavedByObjectVersion
1070
     0
  0
ACAD_PROXY_OBJECT
  5
35
102
{ACAD_REACTORS
330
2A
102
}
330
2A
100
AcDbZombieObject
 90
      499
 91
      501
 93
      412
310
40D11A5B50B409028333333333333E33F0000000000000F9010790141107004050150841D405064090741402480A02677FFFFFD0
1001
ACAD
1000
AcDbSavedByObjectVersion
1070
     0
  0
ACAD_PROXY_OBJECT
  5
3D
102
{ACAD_REACTORS
330
2A
102
}
330
2A
100
AcDbZombieObject
 90
      499
 91
      501
 93
      452
310
43115919D950DBDB1BDC93D999916409028333333333333E33F0000000000000F9010790141107004050150841D405064090741402480A0350
1001
ACAD
1000
AcDbSavedByObjectVersion
1070
     0
  0
ACAD_PROXY_OBJECT
  5
39
102
{ACAD_REACTORS
330
2A
102
}
330
2A
100
AcDbZombieObject
 90
      499
 91
      501
 93
      444
310
42D19858D95C185D1D195C9B90F409028333333333333E33F0000000000000F9010790141107004050150841D405064090741402480A0350
1001
ACAD
1000
AcDbSavedByObjectVersion
1070
     0
  0
ACAD_PROXY_OBJECT
  5
2B
102
{ACAD_REACTORS
330
2A
102
}
330
2A
100
AcDbZombieObject
 90
      499
 91
      501
 93
      380
310
41119B185D240901404333333333333E33F0000000000000F9010740A907004050150841D405064090741402480A1B50
1001
ACAD
1000
AcDbSavedByObjectVersion
1070
     0
  0
ACAD_PROXY_OBJECT
  5
2C
102
{ACAD_REACTORS
330
2A
102
}
330
2A
100
AcDbZombieObject
 90
      499
 91
      501
 93
      468
310
43519B185D15DA5D1A115919D95CD0140901404333333333333E33F0000000000000F90107409019070040501600405405064090741402480A1B50
1001
ACAD
1000
AcDbSavedByObjectVersion
1070
     0
  0
ACAD_PROXY_OBJECT
  5
2D
102
{ACAD_REACTORS
330
2A
102
}
330
2A
100
AcDbZombieObject
 90
      499
 91
      501
 93
      404
310
41D1DBDD5C985D5910240902404333333333333E33F0000000000000F9010740A9070040501641D405064090741402480A1B50
1001
ACAD
1000
AcDbSavedByObjectVersion
1070
     0
  0
ACAD_PROXY_OBJECT
  5
2E
102
{ACAD_REACTORS
330
2A
102
}
330
2A
100
AcDbZombieObject
 90
      499
 91
      501
 93
      492
310
4411DBDD5C985D5915DA5D1A115919D95CD0340902404333333333333E33F0000000000000F90107409019070040501600405405064090741402480A1B50
1001
ACAD
1000
AcDbSavedByObjectVersion
1070
     0
  0
ACAD_PROXY_OBJECT
  5
31
102
{ACAD_REACTORS
330
2A
102
}
330
2A
100
AcDbZombieObject
 90
      499
 91
      501
 93
      476
310
41921A5919195B90640502408333333333333E33F0000000000000F901079024090700405020000000000001110200405405064090740C02480A0340
1001
ACAD
1000
AcDbSavedByObjectVersion
1070
     0
  0
ACAD_PROXY_OBJECT
  5
3B
102
{ACAD_REACTORS
330
2A
102
}
330
2A
100
AcDbZombieObject
 90
      499
 91
      501
 93
      428
310
42529A5D1D195C93D999914409028333333333333E33F0000000000000F9010790141107004050150A41D405064090741402480A0350
1001
ACAD
1000
AcDbSavedByObjectVersion
1070
     0
  0
ACAD_PROXY_OBJECT
  5
38
102
{ACAD_REACTORS
330
2A
102
}
330
2A
100
AcDbZombieObject
 90
      499
 91
      501
 93
      444
310
42D31A5B995C185D1D195C9B90E409028333333333333E33F0000000000000F9010790141107004050750841D405064090741402483A0350
1001
ACAD
1000
AcDbSavedByObjectVersion
1070
     0
  0
ACAD_PROXY_OBJECT
  5
3C
102
{ACAD_REACTORS
330
2A
102
}
330
2A
100
AcDbZombieObject
 90
      499
 91
      501
 93
      444
310
42D3DD995C9A185B99D3D999915409028333333333333E33F0000000000000F9010790141107004050150941D405064090741402480A0350
1001
ACAD
1000
AcDbSavedByObjectVersion
1070
     0
  0
ACAD_PROXY_OBJECT
  5
33
102
{ACAD_REACTORS
330
2A
102
}
330
2A
100
AcDbZombieObject
 90
      499
 91
      501
 93
      428
310
425499585B1A5CDD1A58D08409038333333333333E33F0000000000000F9010740A907004050150800405405064090740C02480A1B40
1001
ACAD
1000
AcDbSavedByObjectVersion
1070
     0
  0
ACAD_PROXY_OBJECT
  5
42
102
{ACAD_REACTORS
330
2A
102
}
330
2A
100
AcDbZombieObject
 90
      499
 91
      501
 93
      420
310
4194DA1859195911B40902404333333333333E33F0000000000000F9010740A41107004050150800405405064090840C02480A0B40
1001
ACAD
1000
AcDbSavedByObjectVersion
1070
     0
  0
ACAD_PROXY_OBJECT
  5
41
102
{ACAD_REACTORS
330
2A
102
}
330
2A
100
AcDbZombieObject
 90
      499
 91
      501
 93
      516
310
4454DA18591959081DDA5D1A08195919D95CD1A40902404333333333333E33F0000000000000F901074090142907004050250800405405064090740C02480A0B40
1001
ACAD
1000
AcDbSavedByObjectVersion
1070
     0
  0
ACAD_PROXY_OBJECT
  5
3E
102
{ACAD_REACTORS
330
2A
102
}
330
2A
100
AcDbZombieObject
 90
      499
 91
      501
 93
      532
310
4394DA1859195CC81BD98811DC985E5174090240C333333333333E33F0000000000000F901079024090741D01000000000000111010841D405064090740C02480A0340
1001
ACAD
1000
AcDbSavedByObjectVersion
1070
     0
  0
ACAD_PROXY_OBJECT
  5
3F
102
{ACAD_REACTORS
330
2A
102
}
330
2A
100
AcDbZombieObject
 90
      499
 91
      501
 93
      476
310
41D4DAD95D18DA1E51840502408333333333333E33F0000000000000F901079024090741D01000000000000111010B41D405064090741802480A0340
1001
ACAD
1000
AcDbSavedByObjectVersion
1070
     0
  0
ACAD_PROXY_OBJECT
  5
37
102
{ACAD_REACTORS
330
2A
102
}
330
2A
100
AcDbZombieObject
 90
      499
 91
      501
 93
      412
310
41D51A1A58DAD95B90D409028333333333333E33F0000000000000F9010790141107004050150C41D405064090741402480A0350
1001
ACAD
1000
AcDbSavedByObjectVersion
1070
     0
  0
ACAD_PROXY_OBJECT
  5
30
102
{ACAD_REACTORS
330
2A
102
}
330
2A
100
AcDbZombieObject
 90
      499
 91
      501
 93
      420
310
4255DA5C99599C985B595059028333333333333E33F0000000000000F90107901411070040501600405405064090740C02480A0340
1001
ACAD
1000
AcDbSavedByObjectVersion
1070
     0
  0
ACAD_PROXY_OBJECT
  5
40
102
{ACAD_REACTORS
330
2A
102
}
330
2A
100
AcDbZombieObject
 90
      499
 91
      501
 93
      404
310
41560B54985E51940902404000000000000E03F0000000000000F9010740501907004050150841D405064090740C02480A1B40
1001
ACAD
1000
AcDbSavedByObjectVersion
1070
     0
  0
DICTIONARYVAR
  5
19B
102
{ACAD_REACTORS
330
190
102
}
330
190
100
DictionaryVariables
280
     0
  1
1:1
  0
DICTIONARYVAR
  5
197
102
{ACAD_REACTORS
330
190
102
}
330
190
100
DictionaryVariables
280
     0
  1
3.500000
  0
DICTIONARYVAR
  5
198
102
{ACAD_REACTORS
330
190
102
}
330
190
100
DictionaryVariables
280
     0
  1
acadiso.lin
  0
DICTIONARYVAR
  5
192
102
{ACAD_REACTORS
330
190
102
}
330
190
100
DictionaryVariables
280
     0
  1
Standard
  0
DICTIONARYVAR
  5
191
102
{ACAD_REACTORS
330
190
102
}
330
190
100
DictionaryVariables
280
     0
  1
Standard
  0
DICTIONARYVAR
  5
199
102
{ACAD_REACTORS
330
190
102
}
330
190
100
DictionaryVariables
280
     0
  1
2
  0
DICTIONARYVAR
  5
19A
102
{ACAD_REACTORS
330
190
102
}
330
190
100
DictionaryVariables
280
     0
  1
1
  0
DICTIONARYVAR
  5
19C
102
{ACAD_REACTORS
330
190
102
}
330
190
100
DictionaryVariables
280
     0
  1
1
  0
DICTIONARYVAR
  5
194
102
{ACAD_REACTORS
330
190
102
}
330
190
100
DictionaryVariables
280
     0
  1
80.000000
  0
DICTIONARYVAR
  5
193
102
{ACAD_REACTORS
330
190
102
}
330
190
100
DictionaryVariables
280
     0
  1
5.000000
  0
DICTIONARY
  5
19F
330
45
100
AcDbDictionary
  3
ACAD_XREC_ROUNDTRIP
360
1A0
1001
ACAD
1000
TREAT_AS_HARD
1070
     1
  0
DICTIONARY
  5
19D
330
44
100
AcDbDictionary
  3
ACAD_XREC_ROUNDTRIP
360
19E
1001
ACAD
1000
TREAT_AS_HARD
1070
     1
  0
DICTIONARY
  5
1A1
330
46
100
AcDbDictionary
  3
ACAD_XREC_ROUNDTRIP
360
1A2
1001
ACAD
1000
TREAT_AS_HARD
1070
     1
  0
XRECORD
  5
1A0
102
{ACAD_REACTORS
330
19F
102
}
330
19F
100
AcDbXrecord
102
MATERIAL
148
0.0
149
0.0
149
0.0
 93
        0
 94
      127
282
     0
 72
     1
 77
     1
171
     1
175
     1
179
     1
273
     0
  0
XRECORD
  5
19E
102
{ACAD_REACTORS
330
19D
102
}
330
19D
100
AcDbXrecord
102
MATERIAL
148
0.0
149
0.0
149
0.0
 93
        0
 94
      127
282
     0
 72
     1
 77
     1
171
     1
175
     1
179
     1
273
     0
  0
XRECORD
  5
1A2
102
{ACAD_REACTORS
330
1A1
102
}
330
1A1
100
AcDbXrecord
102
MATERIAL
148
0.0
149
0.0
149
0.0
 93
        0
 94
      127
282
     0
 72
     1
 77
     1
171
     1
175
     1
179
     1
273
     0
  0
ENDSEC
  0
EOF
