  0
SECTION
  2
HEADER
  9
$ACADVER
  1
AC1012
  9
$DWGCODEPAGE
  3
ansi_1252
  9
$INSBASE
 10
0.0
 20
0.0
 30
0.0
  9
$EXTMIN
 10
1.000000000000000E+20
 20
1.000000000000000E+20
 30
1.000000000000000E+20
  9
$EXTMAX
 10
-1.000000000000000E+20
 20
-1.000000000000000E+20
 30
-1.000000000000000E+20
  9
$LIMMIN
 10
0.0
 20
0.0
  9
$LIMMAX
 10
420.0
 20
297.0
  9
$ORTHOMODE
 70
     0
  9
$REGENMODE
 70
     1
  9
$FILLMODE
 70
     1
  9
$QTEXTMODE
 70
     0
  9
$MIRRTEXT
 70
     1
  9
$DRAGMODE
 70
     2
  9
$LTSCALE
 40
1.0
  9
$OSMODE
 70
    37
  9
$ATTMODE
 70
     1
  9
$TEXTSIZE
 40
2.5
  9
$TRACEWID
 40
1.0
  9
$TEXTSTYLE
  7
STANDARD
  9
$CLAYER
  8
0
  9
$CELTYPE
  6
BYLAYER
  9
$CECOLOR
 62
   256
  9
$CELTSCALE
 40
1.0
  9
$DELOBJ
 70
     1
  9
$DISPSILH
 70
     0
  9
$DIMSCALE
 40
1.0
  9
$DIMASZ
 40
2.5
  9
$DIMEXO
 40
0.625
  9
$DIMDLI
 40
3.75
  9
$DIMRND
 40
0.0
  9
$DIMDLE
 40
0.0
  9
$DIMEXE
 40
1.25
  9
$DIMTP
 40
0.0
  9
$DIMTM
 40
0.0
  9
$DIMTXT
 40
2.5
  9
$DIMCEN
 40
2.5
  9
$DIMTSZ
 40
0.0
  9
$DIMTOL
 70
     0
  9
$DIMLIM
 70
     0
  9
$DIMTIH
 70
     0
  9
$DIMTOH
 70
     0
  9
$DIMSE1
 70
     0
  9
$DIMSE2
 70
     0
  9
$DIMTAD
 70
     1
  9
$DIMZIN
 70
     8
  9
$DIMBLK
  1

  9
$DIMASO
 70
     1
  9
$DIMSHO
 70
     1
  9
$DIMPOST
  1

  9
$DIMAPOST
  1

  9
$DIMALT
 70
     0
  9
$DIMALTD
 70
     3
  9
$DIMALTF
 40
0.03937007874016
  9
$DIMLFAC
 40
1.0
  9
$DIMTOFL
 70
     1
  9
$DIMTVP
 40
0.0
  9
$DIMTIX
 70
     0
  9
$DIMSOXD
 70
     0
  9
$DIMSAH
 70
     0
  9
$DIMBLK1
  1

  9
$DIMBLK2
  1

  9
$DIMSTYLE
  2
ISO-25
  9
$DIMCLRD
 70
     0
  9
$DIMCLRE
 70
     0
  9
$DIMCLRT
 70
     0
  9
$DIMTFAC
 40
1.0
  9
$DIMGAP
 40
0.625
  9
$DIMJUST
 70
     0
  9
$DIMSD1
 70
     0
  9
$DIMSD2
 70
     0
  9
$DIMTOLJ
 70
     0
  9
$DIMTZIN
 70
     8
  9
$DIMALTZ
 70
     0
  9
$DIMALTTZ
 70
     0
  9
$DIMFIT
 70
     3
  9
$DIMUPT
 70
     0
  9
$DIMUNIT
 70
     2
  9
$DIMDEC
 70
     2
  9
$DIMTDEC
 70
     2
  9
$DIMALTU
 70
     2
  9
$DIMALTTD
 70
     3
  9
$DIMTXSTY
  7
STANDARD
  9
$DIMAUNIT
 70
     0
  9
$LUNITS
 70
     2
  9
$LUPREC
 70
     4
  9
$SKETCHINC
 40
1.0
  9
$FILLETRAD
 40
10.0
  9
$AUNITS
 70
     0
  9
$AUPREC
 70
     0
  9
$MENU
  1
.
  9
$ELEVATION
 40
0.0
  9
$PELEVATION
 40
0.0
  9
$THICKNESS
 40
0.0
  9
$LIMCHECK
 70
     0
  9
$CHAMFERA
 40
0.0
  9
$CHAMFERB
 40
0.0
  9
$CHAMFERC
 40
0.0
  9
$CHAMFERD
 40
0.0
  9
$SKPOLY
 70
     0
  9
$TDCREATE
 40
2457981.423897014
  9
$TDUPDATE
 40
2457981.423899363
  9
$TDINDWG
 40
0.0000000116
  9
$TDUSRTIMER
 40
0.0000000116
  9
$USRTIMER
 70
     1
  9
$ANGBASE
 50
0.0
  9
$ANGDIR
 70
     0
  9
$PDMODE
 70
     0
  9
$PDSIZE
 40
0.0
  9
$PLINEWID
 40
0.0
  9
$COORDS
 70
     1
  9
$SPLFRAME
 70
     0
  9
$SPLINETYPE
 70
     6
  9
$SPLINESEGS
 70
     8
  9
$ATTDIA
 70
     0
  9
$ATTREQ
 70
     1
  9
$HANDLING
 70
     1
  9
$HANDSEED
  5
1B8
  9
$SURFTAB1
 70
     6
  9
$SURFTAB2
 70
     6
  9
$SURFTYPE
 70
     6
  9
$SURFU
 70
     6
  9
$SURFV
 70
     6
  9
$UCSNAME
  2

  9
$UCSORG
 10
0.0
 20
0.0
 30
0.0
  9
$UCSXDIR
 10
1.0
 20
0.0
 30
0.0
  9
$UCSYDIR
 10
0.0
 20
1.0
 30
0.0
  9
$PUCSNAME
  2

  9
$PUCSORG
 10
0.0
 20
0.0
 30
0.0
  9
$PUCSXDIR
 10
1.0
 20
0.0
 30
0.0
  9
$PUCSYDIR
 10
0.0
 20
1.0
 30
0.0
  9
$USERI1
 70
     0
  9
$USERI2
 70
     0
  9
$USERI3
 70
     0
  9
$USERI4
 70
     0
  9
$USERI5
 70
     0
  9
$USERR1
 40
0.0
  9
$USERR2
 40
0.0
  9
$USERR3
 40
0.0
  9
$USERR4
 40
0.0
  9
$USERR5
 40
0.0
  9
$WORLDVIEW
 70
     1
  9
$SHADEDGE
 70
     3
  9
$SHADEDIF
 70
    70
  9
$TILEMODE
 70
     1
  9
$MAXACTVP
 70
    64
  9
$PINSBASE
 10
0.0
 20
0.0
 30
0.0
  9
$PLIMCHECK
 70
     0
  9
$PEXTMIN
 10
1.000000000000000E+20
 20
1.000000000000000E+20
 30
1.000000000000000E+20
  9
$PEXTMAX
 10
-1.000000000000000E+20
 20
-1.000000000000000E+20
 30
-1.000000000000000E+20
  9
$PLIMMIN
 10
0.0
 20
0.0
  9
$PLIMMAX
 10
420.0
 20
297.0
  9
$UNITMODE
 70
     0
  9
$VISRETAIN
 70
     1
  9
$PLINEGEN
 70
     0
  9
$PSLTSCALE
 70
     1
  9
$TREEDEPTH
 70
  3020
  9
$PICKSTYLE
 70
     1
  9
$CMLSTYLE
  2
STANDARD
  9
$CMLJUST
 70
     0
  9
$CMLSCALE
 40
20.0
  9
$SAVEIMAGES
 70
     1
  0
ENDSEC
  0
SECTION
  2
CLASSES
  0
CLASS
  1
ACDBDICTIONARYWDFLT
  2
AcDbDictionaryWithDefault
  3
ObjectDBX Classes
 90
    32768
280
     0
281
     0
  0
CLASS
  1
VISUALSTYLE
  2
AcDbVisualStyle
  3
ObjectDBX Classes
 90
     4095
280
     0
281
     0
  0
CLASS
  1
MATERIAL
  2
AcDbMaterial
  3
ObjectDBX Classes
 90
     1153
280
     0
281
     0
  0
CLASS
  1
SCALE
  2
AcDbScale
  3
ObjectDBX Classes
 90
     1153
280
     0
281
     0
  0
CLASS
  1
TABLESTYLE
  2
AcDbTableStyle
  3
ObjectDBX Classes
 90
     4095
280
     0
281
     0
  0
CLASS
  1
MLEADERSTYLE
  2
AcDbMLeaderStyle
  3
ACDB_MLEADERSTYLE_CLASS
 90
     4095
280
     0
281
     0
  0
CLASS
  1
SUN
  2
AcDbSun
  3
SCENEOE
 90
     1153
280
     0
281
     0
  0
CLASS
  1
DICTIONARYVAR
  2
AcDbDictionaryVar
  3
ObjectDBX Classes
 90
        0
280
     0
281
     0
  0
CLASS
  1
XRECORD
  2
AcDbXrecord
  3
ObjectDBX Classes
 90
    32768
280
     0
281
     0
  0
CLASS
  1
LWPOLYLINE
  2
AcDbPolyline
  3
ObjectDBX Classes
 90
    32768
280
     0
281
     1
  0
CLASS
  1
HATCH
  2
AcDbHatch
  3
ObjectDBX Classes
 90
    32768
280
     0
281
     1
  0
CLASS
  1
ACDBPLACEHOLDER
  2
AcDbPlaceHolder
  3
ObjectDBX Classes
 90
        0
280
     0
281
     0
  0
CLASS
  1
LAYOUT
  2
AcDbLayout
  3
ObjectDBX Classes
 90
        0
280
     0
281
     0
  0
ENDSEC
  0
SECTION
  2
TABLES
  0
TABLE
  2
VPORT
  5
8
330
0
100
AcDbSymbolTable
 70
     1
  0
VPORT
  5
29
330
8
100
AcDbSymbolTableRecord
100
AcDbViewportTableRecord
  2
*ACTIVE
 70
     0
 10
0.0
 20
0.0
 11
1.0
 21
1.0
 12
0.0
 22
0.0
 13
0.0
 23
0.0
 14
10.0
 24
10.0
 15
10.0
 25
10.0
 16
0.0
 26
0.0
 36
1.0
 17
0.0000000000000568
 27
0.0
 37
0.0
 40
535.5
 41
1.0
 42
50.0
 43
0.0
 44
0.0
 50
0.0
 51
0.0
 71
     0
 72
   100
 73
     1
 74
     3
 75
     0
 76
     0
 77
     0
 78
     0
  0
ENDTAB
  0
TABLE
  2
LTYPE
  5
5
330
0
100
AcDbSymbolTable
 70
     1
  0
LTYPE
  5
14
330
5
100
AcDbSymbolTableRecord
100
AcDbLinetypeTableRecord
  2
BYBLOCK
 70
     0
  3

 72
    65
 73
     0
 40
0.0
  0
LTYPE
  5
15
330
5
100
AcDbSymbolTableRecord
100
AcDbLinetypeTableRecord
  2
BYLAYER
 70
     0
  3

 72
    65
 73
     0
 40
0.0
  0
LTYPE
  5
16
330
5
100
AcDbSymbolTableRecord
100
AcDbLinetypeTableRecord
  2
CONTINUOUS
 70
     0
  3
Solid line
 72
    65
 73
     0
 40
0.0
  0
ENDTAB
  0
TABLE
  2
LAYER
  5
2
330
0
100
AcDbSymbolTable
 70
     4
  0
LAYER
  5
10
330
2
100
AcDbSymbolTableRecord
100
AcDbLayerTableRecord
  2
0
 70
     0
 62
     7
  6
CONTINUOUS
  0
LAYER
  5
6E
330
2
100
AcDbSymbolTableRecord
100
AcDbLayerTableRecord
  2
THICK
 70
     0
 62
     7
  6
CONTINUOUS
  0
LAYER
  5
6F
330
2
100
AcDbSymbolTableRecord
100
AcDbLayerTableRecord
  2
HIDDEN
 70
     0
 62
     7
  6
CONTINUOUS
  0
LAYER
  5
70
330
2
100
AcDbSymbolTableRecord
100
AcDbLayerTableRecord
  2
HASHLINES
 70
     0
 62
     7
  6
CONTINUOUS
  0
ENDTAB
  0
TABLE
  2
STYLE
  5
3
330
0
100
AcDbSymbolTable
 70
     1
  0
STYLE
  5
11
330
3
100
AcDbSymbolTableRecord
100
AcDbTextStyleTableRecord
  2
STANDARD
 70
     0
 40
0.0
 41
1.0
 50
0.0
 71
     0
 42
2.5
  3
txt
  4

  0
ENDTAB
  0
TABLE
  2
VIEW
  5
6
330
0
100
AcDbSymbolTable
 70
     0
  0
ENDTAB
  0
TABLE
  2
UCS
  5
7
330
0
100
AcDbSymbolTable
 70
     0
  0
ENDTAB
  0
TABLE
  2
APPID
  5
9
330
0
100
AcDbSymbolTable
 70
     3
  0
APPID
  5
12
330
9
100
AcDbSymbolTableRecord
100
AcDbRegAppTableRecord
  2
ACAD
 70
     0
  0
APPID
  5
71
330
9
100
AcDbSymbolTableRecord
100
AcDbRegAppTableRecord
  2
DBPROPERTIES
 70
     0
  0
APPID
  5
1B7
330
9
100
AcDbSymbolTableRecord
100
AcDbRegAppTableRecord
  2
ACAD_MLEADERVER
 70
     0
  0
ENDTAB
  0
TABLE
  2
DIMSTYLE
  5
A
330
0
100
AcDbSymbolTable
 70
     1
  0
DIMSTYLE
105
27
330
A
100
AcDbSymbolTableRecord
100
AcDbDimStyleTableRecord
  2
ISO-25
 70
     0
  3

  4

  5

  6

  7

 40
1.0
 41
2.5
 42
0.625
 43
3.75
 44
1.25
 45
0.0
 46
0.0
 47
0.0
 48
0.0
140
2.5
141
2.5
142
0.0
143
0.03937007874016
144
1.0
145
0.0
146
1.0
147
0.625
 71
     0
 72
     0
 73
     0
 74
     0
 75
     0
 76
     0
 77
     1
 78
     8
170
     0
171
     3
172
     1
173
     0
174
     0
175
     0
176
     0
177
     0
178
     0
270
     2
271
     2
272
     2
273
     2
274
     3
340
11
275
     0
280
     0
281
     0
282
     0
283
     0
284
     8
285
     0
286
     0
287
     3
288
     0
  0
ENDTAB
  0
TABLE
  2
BLOCK_RECORD
  5
1
330
0
100
AcDbSymbolTable
 70
     0
  0
BLOCK_RECORD
  5
1F
330
1
100
AcDbSymbolTableRecord
100
AcDbBlockTableRecord
  2
*MODEL_SPACE
  0
BLOCK_RECORD
  5
1B
330
1
100
AcDbSymbolTableRecord
100
AcDbBlockTableRecord
  2
*PAPER_SPACE
  0
ENDTAB
  0
ENDSEC
  0
SECTION
  2
BLOCKS
  0
BLOCK
  5
20
330
1F
100
AcDbEntity
  8
0
100
AcDbBlockBegin
  2
*MODEL_SPACE
 70
     0
 10
0.0
 20
0.0
 30
0.0
  3
*MODEL_SPACE
  1

  0
ENDBLK
  5
21
330
1F
100
AcDbEntity
  8
0
100
AcDbBlockEnd
  0
BLOCK
  5
1C
330
1B
100
AcDbEntity
 67
     1
  8
0
100
AcDbBlockBegin
  2
*PAPER_SPACE
 70
     0
 10
0.0
 20
0.0
 30
0.0
  3
*PAPER_SPACE
  1

  0
ENDBLK
  5
1D
330
1B
100
AcDbEntity
 67
     1
  8
0
100
AcDbBlockEnd
  0
ENDSEC
  0
SECTION
  2
ENTITIES
  0
ARC
  5
72
330
1F
100
AcDbEntity
  8
THICK
100
AcDbCircle
 10
0.0
 20
0.0
 30
0.0
 40
259.75
100
AcDbArc
 50
270.0000187239684
 51
0.0
1001
DBPROPERTIES
1002
{
1000
PbThick
1002
}
  0
ARC
  5
73
330
1F
100
AcDbEntity
  8
THICK
100
AcDbCircle
 10
0.0
 20
0.0
 30
0.0
 40
259.75
100
AcDbArc
 50
0.0
 51
89.99998127603165
1001
DBPROPERTIES
1002
{
1000
PbThick
1002
}
  0
ARC
  5
74
330
1F
100
AcDbEntity
  8
THICK
100
AcDbCircle
 10
0.0
 20
0.0
 30
0.0
 40
259.75
100
AcDbArc
 50
89.99998127603165
 51
270.0000187239684
1001
DBPROPERTIES
1002
{
1000
PbThick
1002
}
  0
ARC
  5
75
330
1F
100
AcDbEntity
  8
THICK
100
AcDbCircle
 10
125.0000000000001
 20
216.5063509461096
 30
0.0
 40
5.0
100
AcDbArc
 50
150.0000069905724
 51
329.9999871427296
1001
DBPROPERTIES
1002
{
1000
PbThick
1002
}
  0
ARC
  5
76
330
1F
100
AcDbEntity
  8
THICK
100
AcDbCircle
 10
125.0000000000001
 20
216.5063509461096
 30
0.0
 40
5.0
100
AcDbArc
 50
329.9999871427296
 51
150.0000069905724
1001
DBPROPERTIES
1002
{
1000
PbThick
1002
}
  0
ARC
  5
77
330
1F
100
AcDbEntity
  8
THICK
100
AcDbCircle
 10
216.5063509461098
 20
124.9999999999998
 30
0.0
 40
5.0
100
AcDbArc
 50
119.999994133302
 51
299.9999742854592
1001
DBPROPERTIES
1002
{
1000
PbThick
1002
}
  0
ARC
  5
78
330
1F
100
AcDbEntity
  8
THICK
100
AcDbCircle
 10
216.5063509461098
 20
124.9999999999998
 30
0.0
 40
5.0
100
AcDbArc
 50
299.9999742854592
 51
119.999994133302
1001
DBPROPERTIES
1002
{
1000
PbThick
1002
}
  0
ARC
  5
79
330
1F
100
AcDbEntity
  8
THICK
100
AcDbCircle
 10
250.0
 20
-0.0000000000000459
 30
0.0
 40
5.0
100
AcDbArc
 50
89.99998127603165
 51
270.0000187239684
1001
DBPROPERTIES
1002
{
1000
PbThick
1002
}
  0
ARC
  5
7A
330
1F
100
AcDbEntity
  8
THICK
100
AcDbCircle
 10
250.0
 20
-0.0000000000000459
 30
0.0
 40
5.0
100
AcDbArc
 50
270.0000187239684
 51
89.99998127603165
1001
DBPROPERTIES
1002
{
1000
PbThick
1002
}
  0
ARC
  5
7B
330
1F
100
AcDbEntity
  8
THICK
100
AcDbCircle
 10
216.5063509461096
 20
-125.0000000000001
 30
0.0
 40
5.0
100
AcDbArc
 50
60.00002571454078
 51
240.0000058666979
1001
DBPROPERTIES
1002
{
1000
PbThick
1002
}
  0
ARC
  5
7C
330
1F
100
AcDbEntity
  8
THICK
100
AcDbCircle
 10
216.5063509461096
 20
-125.0000000000001
 30
0.0
 40
5.0
100
AcDbArc
 50
240.0000058666979
 51
60.00002571454078
1001
DBPROPERTIES
1002
{
1000
PbThick
1002
}
  0
ARC
  5
7D
330
1F
100
AcDbEntity
  8
THICK
100
AcDbCircle
 10
124.9999999999999
 20
-216.5063509461097
 30
0.0
 40
5.0
100
AcDbArc
 50
30.00001285727039
 51
209.9999930094276
1001
DBPROPERTIES
1002
{
1000
PbThick
1002
}
  0
ARC
  5
7E
330
1F
100
AcDbEntity
  8
THICK
100
AcDbCircle
 10
124.9999999999999
 20
-216.5063509461097
 30
0.0
 40
5.0
100
AcDbArc
 50
209.9999930094276
 51
30.00001285727039
1001
DBPROPERTIES
1002
{
1000
PbThick
1002
}
  0
ARC
  5
7F
330
1F
100
AcDbEntity
  8
THICK
100
AcDbCircle
 10
-0.0000000000000306
 20
-250.0
 30
0.0
 40
5.0
100
AcDbArc
 50
0.0
 51
180.0000198478428
1001
DBPROPERTIES
1002
{
1000
PbThick
1002
}
  0
ARC
  5
80
330
1F
100
AcDbEntity
  8
THICK
100
AcDbCircle
 10
-0.0000000000000306
 20
-250.0
 30
0.0
 40
5.0
100
AcDbArc
 50
180.0000198478428
 51
0.0
1001
DBPROPERTIES
1002
{
1000
PbThick
1002
}
  0
ARC
  5
81
330
1F
100
AcDbEntity
  8
THICK
100
AcDbCircle
 10
-125.0000000000001
 20
-216.5063509461096
 30
0.0
 40
4.999999999999999
100
AcDbArc
 50
329.9999871427296
 51
150.0000069905724
1001
DBPROPERTIES
1002
{
1000
PbThick
1002
}
  0
ARC
  5
82
330
1F
100
AcDbEntity
  8
THICK
100
AcDbCircle
 10
-125.0000000000001
 20
-216.5063509461096
 30
0.0
 40
4.999999999999999
100
AcDbArc
 50
150.0000069905724
 51
329.9999871427296
1001
DBPROPERTIES
1002
{
1000
PbThick
1002
}
  0
ARC
  5
83
330
1F
100
AcDbEntity
  8
THICK
100
AcDbCircle
 10
-216.5063509461096
 20
-124.9999999999999
 30
0.0
 40
4.999999999999999
100
AcDbArc
 50
299.9999742854592
 51
119.999994133302
1001
DBPROPERTIES
1002
{
1000
PbThick
1002
}
  0
ARC
  5
84
330
1F
100
AcDbEntity
  8
THICK
100
AcDbCircle
 10
-216.5063509461096
 20
-124.9999999999999
 30
0.0
 40
4.999999999999999
100
AcDbArc
 50
119.999994133302
 51
299.9999742854592
1001
DBPROPERTIES
1002
{
1000
PbThick
1002
}
  0
ARC
  5
85
330
1F
100
AcDbEntity
  8
THICK
100
AcDbCircle
 10
-250.0
 20
0.0000000000000153
 30
0.0
 40
5.0
100
AcDbArc
 50
270.0000187239684
 51
89.99998127603165
1001
DBPROPERTIES
1002
{
1000
PbThick
1002
}
  0
ARC
  5
86
330
1F
100
AcDbEntity
  8
THICK
100
AcDbCircle
 10
-250.0
 20
0.0000000000000153
 30
0.0
 40
5.0
100
AcDbArc
 50
89.99998127603165
 51
270.0000187239684
1001
DBPROPERTIES
1002
{
1000
PbThick
1002
}
  0
ARC
  5
87
330
1F
100
AcDbEntity
  8
THICK
100
AcDbCircle
 10
-216.5063509461096
 20
125.0
 30
0.0
 40
5.0
100
AcDbArc
 50
240.0000058666979
 51
60.00002571454078
1001
DBPROPERTIES
1002
{
1000
PbThick
1002
}
  0
ARC
  5
88
330
1F
100
AcDbEntity
  8
THICK
100
AcDbCircle
 10
-216.5063509461096
 20
125.0
 30
0.0
 40
5.0
100
AcDbArc
 50
60.00002571454078
 51
240.0000058666979
1001
DBPROPERTIES
1002
{
1000
PbThick
1002
}
  0
ARC
  5
89
330
1F
100
AcDbEntity
  8
THICK
100
AcDbCircle
 10
-125.0
 20
216.5063509461096
 30
0.0
 40
4.999999999999999
100
AcDbArc
 50
209.9999930094276
 51
30.00001285727039
1001
DBPROPERTIES
1002
{
1000
PbThick
1002
}
  0
ARC
  5
8A
330
1F
100
AcDbEntity
  8
THICK
100
AcDbCircle
 10
-125.0
 20
216.5063509461096
 30
0.0
 40
4.999999999999999
100
AcDbArc
 50
30.00001285727039
 51
209.9999930094276
1001
DBPROPERTIES
1002
{
1000
PbThick
1002
}
  0
ARC
  5
8B
330
1F
100
AcDbEntity
  8
THICK
100
AcDbCircle
 10
0.0
 20
250.0
 30
0.0
 40
5.0
100
AcDbArc
 50
180.0000198478428
 51
0.0
1001
DBPROPERTIES
1002
{
1000
PbThick
1002
}
  0
ARC
  5
8C
330
1F
100
AcDbEntity
  8
THICK
100
AcDbCircle
 10
0.0
 20
250.0
 30
0.0
 40
5.0
100
AcDbArc
 50
0.0
 51
180.0000198478428
1001
DBPROPERTIES
1002
{
1000
PbThick
1002
}
  0
ARC
  5
8D
330
1F
100
AcDbEntity
  8
THICK
100
AcDbCircle
 10
0.0
 20
0.0
 30
0.0
 40
225.0
100
AcDbArc
 50
179.9999801521572
 51
0.0
1001
DBPROPERTIES
1002
{
1000
PbThick
1002
}
  0
ARC
  5
8E
330
1F
100
AcDbEntity
  8
THICK
100
AcDbCircle
 10
0.0
 20
0.0
 30
0.0
 40
225.0
100
AcDbArc
 50
0.0
 51
180.0000198478428
1001
DBPROPERTIES
1002
{
1000
PbThick
1002
}
  0
ARC
  5
8F
330
1F
100
AcDbEntity
  8
HIDDEN
100
AcDbCircle
 10
0.0
 20
0.0
 30
0.0
 40
236.0
100
AcDbArc
 50
179.9999801521572
 51
0.0
1001
DBPROPERTIES
1002
{
1000
PbHidd
1002
}
  0
ARC
  5
90
330
1F
100
AcDbEntity
  8
THICK
100
AcDbCircle
 10
0.0
 20
-0.0000000000000002
 30
0.0
 40
262.5
100
AcDbArc
 50
270.0000187239684
 51
0.0
1001
DBPROPERTIES
1002
{
1000
PbThick
1002
}
  0
ARC
  5
91
330
1F
100
AcDbEntity
  8
THICK
100
AcDbCircle
 10
0.0
 20
-0.0000000000000002
 30
0.0
 40
262.5
100
AcDbArc
 50
180.0000198478428
 51
270.0000187239684
1001
DBPROPERTIES
1002
{
1000
PbThick
1002
}
  0
ARC
  5
92
330
1F
100
AcDbEntity
  8
THICK
100
AcDbCircle
 10
0.0
 20
-0.0000000000000002
 30
0.0
 40
262.5
100
AcDbArc
 50
0.0
 51
89.99998127603165
1001
DBPROPERTIES
1002
{
1000
PbThick
1002
}
  0
ARC
  5
93
330
1F
100
AcDbEntity
  8
HIDDEN
100
AcDbCircle
 10
0.0
 20
0.0
 30
0.0
 40
259.75
100
AcDbArc
 50
270.0000187239684
 51
0.0
1001
DBPROPERTIES
1002
{
1000
PbHidd
1002
}
  0
ARC
  5
94
330
1F
100
AcDbEntity
  8
HIDDEN
100
AcDbCircle
 10
0.0
 20
0.0
 30
0.0
 40
259.75
100
AcDbArc
 50
0.0
 51
89.99998127603165
1001
DBPROPERTIES
1002
{
1000
PbHidd
1002
}
  0
ARC
  5
95
330
1F
100
AcDbEntity
  8
HIDDEN
100
AcDbCircle
 10
0.0000000000000135
 20
0.0
 30
0.0
 40
259.75
100
AcDbArc
 50
179.9999801521572
 51
270.0000187239684
1001
DBPROPERTIES
1002
{
1000
PbHidd
1002
}
  0
ARC
  5
96
330
1F
100
AcDbEntity
  8
HIDDEN
100
AcDbCircle
 10
0.0000000000000135
 20
0.0
 30
0.0
 40
259.75
100
AcDbArc
 50
89.99998127603165
 51
180.0000198478428
1001
DBPROPERTIES
1002
{
1000
PbHidd
1002
}
  0
ARC
  5
97
330
1F
100
AcDbEntity
  8
HIDDEN
100
AcDbCircle
 10
0.0000000000000135
 20
0.0
 30
0.0
 40
259.75
100
AcDbArc
 50
179.9999801521572
 51
270.0000187239684
1001
DBPROPERTIES
1002
{
1000
PbHidd
1002
}
  0
ARC
  5
98
330
1F
100
AcDbEntity
  8
HIDDEN
100
AcDbCircle
 10
0.0000000000000135
 20
0.0
 30
0.0
 40
259.75
100
AcDbArc
 50
89.99998127603165
 51
180.0000198478428
1001
DBPROPERTIES
1002
{
1000
PbHidd
1002
}
  0
LINE
  5
99
330
1F
100
AcDbEntity
  8
HIDDEN
100
AcDbLine
 10
-200.1227119326005
 20
-102.839195683073
 30
0.0
 11
-200.1227119326005
 21
-102.839195683073
 31
0.0
1001
DBPROPERTIES
1002
{
1000
PbHidd
1002
}
  0
LINE
  5
9A
330
1F
100
AcDbEntity
  8
HIDDEN
100
AcDbLine
 10
-189.1227119326005
 20
-121.8917545663307
 30
0.0
 11
-189.1227119326005
 21
-121.8917545663307
 31
0.0
1001
DBPROPERTIES
1002
{
1000
PbHidd
1002
}
  0
LINE
  5
9B
330
1F
100
AcDbEntity
  8
HIDDEN
100
AcDbLine
 10
189.1227119326005
 20
-121.8917545663307
 30
0.0
 11
189.1227119326005
 21
-121.8917545663307
 31
0.0
1001
DBPROPERTIES
1002
{
1000
PbHidd
1002
}
  0
LINE
  5
9C
330
1F
100
AcDbEntity
  8
HIDDEN
100
AcDbLine
 10
200.1227119326005
 20
-102.839195683073
 30
0.0
 11
200.1227119326005
 21
-102.839195683073
 31
0.0
1001
DBPROPERTIES
1002
{
1000
PbHidd
1002
}
  0
ARC
  5
9D
330
1F
100
AcDbEntity
  8
HIDDEN
100
AcDbCircle
 10
0.0
 20
0.0
 30
0.0
 40
109.75
100
AcDbArc
 50
270.0000187239684
 51
0.0
1001
DBPROPERTIES
1002
{
1000
PbHidd
1002
}
  0
ARC
  5
9E
330
1F
100
AcDbEntity
  8
HIDDEN
100
AcDbCircle
 10
0.0
 20
0.0
 30
0.0
 40
109.75
100
AcDbArc
 50
0.0
 51
89.99998127603165
1001
DBPROPERTIES
1002
{
1000
PbHidd
1002
}
  0
LINE
  5
9F
330
1F
100
AcDbEntity
  8
HIDDEN
100
AcDbLine
 10
-11.0
 20
111.9609306856637
 30
0.0
 11
-11.0
 21
111.9609306856637
 31
0.0
1001
DBPROPERTIES
1002
{
1000
PbHidd
1002
}
  0
LINE
  5
A0
330
1F
100
AcDbEntity
  8
HIDDEN
100
AcDbLine
 10
11.0
 20
111.9609306856637
 30
0.0
 11
11.0
 21
111.9609306856637
 31
0.0
1001
DBPROPERTIES
1002
{
1000
PbHidd
1002
}
  0
ARC
  5
A1
330
1F
100
AcDbEntity
  8
HIDDEN
100
AcDbCircle
 10
0.0
 20
0.0
 30
0.0
 40
109.75
100
AcDbArc
 50
179.9999801521572
 51
270.0000187239684
1001
DBPROPERTIES
1002
{
1000
PbHidd
1002
}
  0
ARC
  5
A2
330
1F
100
AcDbEntity
  8
HIDDEN
100
AcDbCircle
 10
0.0
 20
0.0
 30
0.0
 40
109.75
100
AcDbArc
 50
89.99998127603165
 51
180.0000198478428
1001
DBPROPERTIES
1002
{
1000
PbHidd
1002
}
  0
ARC
  5
A3
330
1F
100
AcDbEntity
  8
HIDDEN
100
AcDbCircle
 10
0.0
 20
0.0
 30
0.0
 40
90.5
100
AcDbArc
 50
270.0000187239684
 51
0.0
1001
DBPROPERTIES
1002
{
1000
PbHidd
1002
}
  0
ARC
  5
A4
330
1F
100
AcDbEntity
  8
HIDDEN
100
AcDbCircle
 10
0.0
 20
-0.0000000000000007
 30
0.0
 40
101.5
100
AcDbArc
 50
270.0000187239684
 51
0.0
1001
DBPROPERTIES
1002
{
1000
PbHidd
1002
}
  0
ARC
  5
A5
330
1F
100
AcDbEntity
  8
HIDDEN
100
AcDbCircle
 10
0.0
 20
-0.0000000000000007
 30
0.0
 40
101.5
100
AcDbArc
 50
0.0
 51
89.99998127603165
1001
DBPROPERTIES
1002
{
1000
PbHidd
1002
}
  0
ARC
  5
A6
330
1F
100
AcDbEntity
  8
HIDDEN
100
AcDbCircle
 10
0.0
 20
0.0
 30
0.0
 40
90.5
100
AcDbArc
 50
0.0
 51
89.99998127603165
1001
DBPROPERTIES
1002
{
1000
PbHidd
1002
}
  0
ARC
  5
A7
330
1F
100
AcDbEntity
  8
HIDDEN
100
AcDbCircle
 10
0.0
 20
0.0
 30
0.0
 40
90.5
100
AcDbArc
 50
179.9999801521572
 51
270.0000187239684
1001
DBPROPERTIES
1002
{
1000
PbHidd
1002
}
  0
ARC
  5
A8
330
1F
100
AcDbEntity
  8
HIDDEN
100
AcDbCircle
 10
0.0
 20
0.0
 30
0.0
 40
90.5
100
AcDbArc
 50
89.99998127603165
 51
180.0000198478428
1001
DBPROPERTIES
1002
{
1000
PbHidd
1002
}
  0
ARC
  5
A9
330
1F
100
AcDbEntity
  8
HIDDEN
100
AcDbCircle
 10
0.0
 20
-0.0000000000000007
 30
0.0
 40
101.5
100
AcDbArc
 50
89.99998127603165
 51
179.9999801521572
1001
DBPROPERTIES
1002
{
1000
PbHidd
1002
}
  0
ARC
  5
AA
330
1F
100
AcDbEntity
  8
THICK
100
AcDbCircle
 10
0.0000000000000003
 20
-0.0000000000000002
 30
0.0
 40
112.5
100
AcDbArc
 50
89.99998127603165
 51
180.0000198478428
1001
DBPROPERTIES
1002
{
1000
PbThick
1002
}
  0
ARC
  5
AB
330
1F
100
AcDbEntity
  8
THICK
100
AcDbCircle
 10
0.0000000000000003
 20
-0.0000000000000002
 30
0.0
 40
112.5
100
AcDbArc
 50
0.0
 51
89.99998127603165
1001
DBPROPERTIES
1002
{
1000
PbThick
1002
}
  0
ARC
  5
AC
330
1F
100
AcDbEntity
  8
HIDDEN
100
AcDbCircle
 10
0.0
 20
0.0
 30
0.0
 40
109.75
100
AcDbArc
 50
0.0
 51
89.99998127603165
1001
DBPROPERTIES
1002
{
1000
PbHidd
1002
}
  0
ARC
  5
AD
330
1F
100
AcDbEntity
  8
HIDDEN
100
AcDbCircle
 10
0.0
 20
0.0
 30
0.0
 40
109.75
100
AcDbArc
 50
270.0000187239684
 51
0.0
1001
DBPROPERTIES
1002
{
1000
PbHidd
1002
}
  0
ARC
  5
AE
330
1F
100
AcDbEntity
  8
THICK
100
AcDbCircle
 10
0.0
 20
0.0
 30
0.0
 40
109.75
100
AcDbArc
 50
89.99998127603165
 51
180.0000198478428
1001
DBPROPERTIES
1002
{
1000
PbThick
1002
}
  0
ARC
  5
AF
330
1F
100
AcDbEntity
  8
THICK
100
AcDbCircle
 10
0.0000000000000003
 20
-0.0000000000000002
 30
0.0
 40
112.5
100
AcDbArc
 50
179.9999801521572
 51
270.0000187239684
1001
DBPROPERTIES
1002
{
1000
PbThick
1002
}
  0
ARC
  5
B0
330
1F
100
AcDbEntity
  8
THICK
100
AcDbCircle
 10
0.0
 20
0.0
 30
0.0
 40
109.75
100
AcDbArc
 50
180.0000198478428
 51
270.0000187239684
1001
DBPROPERTIES
1002
{
1000
PbThick
1002
}
  0
ELLIPSE
  5
B1
330
1F
100
AcDbEntity
  8
THICK
100
AcDbEllipse
 10
86.09905824938032
 20
203.7299179762254
 30
0.0
 11
0.0
 21
180.0
 31
0.0
210
0.0
220
0.0
230
1.0
 40
0.7071067811865476
 41
1.570796326794897
 42
2.11721196351927
1001
DBPROPERTIES
1002
{
1000
PbThick
1002
}
  0
ELLIPSE
  5
B2
330
1F
100
AcDbEntity
  8
THICK
100
AcDbEllipse
 10
79.02799043751484
 20
203.7299179762254
 30
0.0
 11
0.0
 21
-180.0
 31
0.0
210
0.0
220
0.0
230
1.0
 40
0.7071067811865476
 41
-1.570796326794897
 42
-1.014500923207002
1001
DBPROPERTIES
1002
{
1000
PbThick
1002
}
  0
ELLIPSE
  5
B3
330
1F
100
AcDbEntity
  8
THICK
100
AcDbEllipse
 10
-27.30098730223318
 20
219.4848136030213
 30
0.0
 11
-89.99999999999999
 21
155.8845726811989
 31
0.0
210
0.0
220
0.0
230
1.0
 40
0.7071067811865476
 41
1.570796326794897
 42
2.11721196351927
1001
DBPROPERTIES
1002
{
1000
PbThick
1002
}
  0
ELLIPSE
  5
B4
330
1F
100
AcDbEntity
  8
THICK
100
AcDbEllipse
 10
-33.42471165919113
 20
215.9492796970886
 30
0.0
 11
89.99999999999999
 21
-155.8845726811989
 31
0.0
210
0.0
220
0.0
230
1.0
 40
0.7071067811865476
 41
-1.570796326794897
 42
-1.014500923207004
1001
DBPROPERTIES
1002
{
1000
PbThick
1002
}
  0
ELLIPSE
  5
B5
330
1F
100
AcDbEntity
  8
THICK
100
AcDbEllipse
 10
-133.385755353641
 20
176.4289306739922
 30
0.0
 11
-155.8845726811989
 21
90.0
 31
0.0
210
0.0
220
0.0
230
1.0
 40
0.7071067811865476
 41
1.570796326794897
 42
2.11721196351927
1001
DBPROPERTIES
1002
{
1000
PbThick
1002
}
  0
ELLIPSE
  5
B6
330
1F
100
AcDbEntity
  8
THICK
100
AcDbEllipse
 10
-136.9212892595737
 20
170.3052063170342
 30
0.0
 11
155.8845726811989
 21
-90.0
 31
0.0
210
0.0
220
0.0
230
1.0
 40
0.7071067811865476
 41
-1.570796326794897
 42
-1.014500923207003
1001
DBPROPERTIES
1002
{
1000
PbThick
1002
}
  0
ELLIPSE
  5
B7
330
1F
100
AcDbEntity
  8
THICK
100
AcDbEllipse
 10
-203.7299179762254
 20
86.09905824938033
 30
0.0
 11
-180.0
 21
1.102145718440140E-14
 31
0.0
210
0.0
220
0.0
230
1.0
 40
0.7071067811865476
 41
1.570796326794897
 42
2.11721196351927
1001
DBPROPERTIES
1002
{
1000
PbThick
1002
}
  0
ELLIPSE
  5
B8
330
1F
100
AcDbEntity
  8
THICK
100
AcDbEllipse
 10
-203.7299179762254
 20
79.02799043751486
 30
0.0
 11
180.0
 21
-1.102145718440140E-14
 31
0.0
210
0.0
220
0.0
230
1.0
 40
0.7071067811865476
 41
-1.570796326794896
 42
-1.014500923207002
1001
DBPROPERTIES
1002
{
1000
PbThick
1002
}
  0
ELLIPSE
  5
B9
330
1F
100
AcDbEntity
  8
THICK
100
AcDbEllipse
 10
-219.4848136030213
 20
-27.30098730223317
 30
0.0
 11
-155.884572681199
 21
-89.99999999999996
 31
0.0
210
0.0
220
0.0
230
1.0
 40
0.7071067811865475
 41
1.570796326794897
 42
2.11721196351927
1001
DBPROPERTIES
1002
{
1000
PbThick
1002
}
  0
ELLIPSE
  5
BA
330
1F
100
AcDbEntity
  8
THICK
100
AcDbEllipse
 10
-215.9492796970886
 20
-33.42471165919112
 30
0.0
 11
155.884572681199
 21
89.99999999999996
 31
0.0
210
0.0
220
0.0
230
1.0
 40
0.7071067811865475
 41
-1.570796326794896
 42
-1.014500923207004
1001
DBPROPERTIES
1002
{
1000
PbThick
1002
}
  0
ELLIPSE
  5
BB
330
1F
100
AcDbEntity
  8
THICK
100
AcDbEllipse
 10
-176.4289306739922
 20
-133.3857553536409
 30
0.0
 11
-90.00000000000004
 21
-155.8845726811989
 31
0.0
210
0.0
220
0.0
230
1.0
 40
0.7071067811865476
 41
1.570796326794897
 42
2.11721196351927
1001
DBPROPERTIES
1002
{
1000
PbThick
1002
}
  0
ELLIPSE
  5
BC
330
1F
100
AcDbEntity
  8
THICK
100
AcDbEllipse
 10
-170.3052063170343
 20
-136.9212892595737
 30
0.0
 11
90.00000000000004
 21
155.8845726811989
 31
0.0
210
0.0
220
0.0
230
1.0
 40
0.7071067811865476
 41
-1.570796326794897
 42
-1.014500923207003
1001
DBPROPERTIES
1002
{
1000
PbThick
1002
}
  0
ELLIPSE
  5
BD
330
1F
100
AcDbEntity
  8
THICK
100
AcDbEllipse
 10
-86.09905824938035
 20
-203.7299179762254
 30
0.0
 11
-2.204291436880279E-14
 21
-180.0
 31
0.0
210
0.0
220
0.0
230
1.0
 40
0.7071067811865476
 41
1.570796326794897
 42
2.11721196351927
1001
DBPROPERTIES
1002
{
1000
PbThick
1002
}
  0
ELLIPSE
  5
BE
330
1F
100
AcDbEntity
  8
THICK
100
AcDbEllipse
 10
-79.02799043751487
 20
-203.7299179762254
 30
0.0
 11
2.204291436880279E-14
 21
180.0
 31
0.0
210
0.0
220
0.0
230
1.0
 40
0.7071067811865476
 41
-1.570796326794897
 42
-1.014500923207003
1001
DBPROPERTIES
1002
{
1000
PbThick
1002
}
  0
ELLIPSE
  5
BF
330
1F
100
AcDbEntity
  8
THICK
100
AcDbEllipse
 10
27.30098730223312
 20
-219.4848136030213
 30
0.0
 11
89.99999999999993
 21
-155.884572681199
 31
0.0
210
0.0
220
0.0
230
1.0
 40
0.7071067811865476
 41
1.570796326794897
 42
2.11721196351927
1001
DBPROPERTIES
1002
{
1000
PbThick
1002
}
  0
ELLIPSE
  5
C0
330
1F
100
AcDbEntity
  8
THICK
100
AcDbEllipse
 10
33.42471165919108
 20
-215.9492796970886
 30
0.0
 11
-89.99999999999993
 21
155.884572681199
 31
0.0
210
0.0
220
0.0
230
1.0
 40
0.7071067811865476
 41
-1.570796326794897
 42
-1.014500923207003
1001
DBPROPERTIES
1002
{
1000
PbThick
1002
}
  0
ELLIPSE
  5
C1
330
1F
100
AcDbEntity
  8
THICK
100
AcDbEllipse
 10
133.3857553536409
 20
-176.4289306739923
 30
0.0
 11
155.8845726811989
 21
-90.00000000000007
 31
0.0
210
0.0
220
0.0
230
1.0
 40
0.7071067811865476
 41
1.570796326794897
 42
2.11721196351927
1001
DBPROPERTIES
1002
{
1000
PbThick
1002
}
  0
ELLIPSE
  5
C2
330
1F
100
AcDbEntity
  8
THICK
100
AcDbEllipse
 10
136.9212892595737
 20
-170.3052063170343
 30
0.0
 11
-155.8845726811989
 21
90.00000000000007
 31
0.0
210
0.0
220
0.0
230
1.0
 40
0.7071067811865476
 41
-1.570796326794897
 42
-1.014500923207003
1001
DBPROPERTIES
1002
{
1000
PbThick
1002
}
  0
ELLIPSE
  5
C3
330
1F
100
AcDbEntity
  8
THICK
100
AcDbEllipse
 10
203.7299179762254
 20
-86.09905824938036
 30
0.0
 11
180.0
 21
-3.306437155320419E-14
 31
0.0
210
0.0
220
0.0
230
1.0
 40
0.7071067811865476
 41
1.570796326794897
 42
2.11721196351927
1001
DBPROPERTIES
1002
{
1000
PbThick
1002
}
  0
ELLIPSE
  5
C4
330
1F
100
AcDbEntity
  8
THICK
100
AcDbEllipse
 10
203.7299179762254
 20
-79.02799043751489
 30
0.0
 11
-180.0
 21
3.306437155320419E-14
 31
0.0
210
0.0
220
0.0
230
1.0
 40
0.7071067811865476
 41
-1.570796326794897
 42
-1.014500923207003
1001
DBPROPERTIES
1002
{
1000
PbThick
1002
}
  0
ELLIPSE
  5
C5
330
1F
100
AcDbEntity
  8
THICK
100
AcDbEllipse
 10
219.4848136030214
 20
27.30098730223304
 30
0.0
 11
155.884572681199
 21
89.99999999999989
 31
0.0
210
0.0
220
0.0
230
1.0
 40
0.7071067811865476
 41
1.570796326794897
 42
2.11721196351927
1001
DBPROPERTIES
1002
{
1000
PbThick
1002
}
  0
ELLIPSE
  5
C6
330
1F
100
AcDbEntity
  8
THICK
100
AcDbEllipse
 10
215.9492796970886
 20
33.42471165919098
 30
0.0
 11
-155.884572681199
 21
-89.99999999999989
 31
0.0
210
0.0
220
0.0
230
1.0
 40
0.7071067811865476
 41
-1.570796326794896
 42
-1.014500923207003
1001
DBPROPERTIES
1002
{
1000
PbThick
1002
}
  0
ELLIPSE
  5
C7
330
1F
100
AcDbEntity
  8
THICK
100
AcDbEllipse
 10
176.4289306739923
 20
133.3857553536409
 30
0.0
 11
90.00000000000007
 21
155.8845726811989
 31
0.0
210
0.0
220
0.0
230
1.0
 40
0.7071067811865476
 41
1.570796326794897
 42
2.11721196351927
1001
DBPROPERTIES
1002
{
1000
PbThick
1002
}
  0
ELLIPSE
  5
C8
330
1F
100
AcDbEntity
  8
THICK
100
AcDbEllipse
 10
170.3052063170343
 20
136.9212892595737
 30
0.0
 11
-90.00000000000007
 21
-155.8845726811989
 31
0.0
210
0.0
220
0.0
230
1.0
 40
0.7071067811865476
 41
-1.570796326794897
 42
-1.014500923207003
1001
DBPROPERTIES
1002
{
1000
PbThick
1002
}
  0
ARC
  5
C9
330
1F
100
AcDbEntity
  8
HIDDEN
100
AcDbCircle
 10
0.0
 20
0.0
 30
0.0
 40
10.0
100
AcDbArc
 50
0.0
 51
180.0000198478428
1001
DBPROPERTIES
1002
{
1000
PbHidd
1002
}
  0
ARC
  5
CA
330
1F
100
AcDbEntity
  8
HIDDEN
100
AcDbCircle
 10
0.0
 20
0.0
 30
0.0
 40
10.0
100
AcDbArc
 50
179.9999801521572
 51
0.0
1001
DBPROPERTIES
1002
{
1000
PbHidd
1002
}
  0
LINE
  5
CB
330
1F
100
AcDbEntity
  8
THICK
100
AcDbLine
 10
83.40778012074445
 20
92.14061110785813
 30
0.0
 11
77.36552637298918
 21
81.67512062452256
 31
0.0
1001
DBPROPERTIES
1002
{
1000
PbThick
1002
}
  0
ELLIPSE
  5
CC
330
1F
100
AcDbEntity
  8
THICK
100
AcDbEllipse
 10
177.6087472545488
 20
4.101711534212043
 30
0.0
 11
-90.00000000000007
 21
-155.8845726811989
 31
0.0
210
0.0
220
0.0
230
1.0
 40
0.7071067811865476
 41
-2.280952544182832
 42
-1.733420185294637
1001
DBPROPERTIES
1002
{
1000
PbThick
1002
}
  0
ELLIPSE
  5
CD
330
1F
100
AcDbEntity
  8
THICK
100
AcDbEllipse
 10
6.123724356957943
 20
-3.53553390593274
 30
0.0
 11
110.2500000000001
 21
190.9586015344686
 31
0.0
210
0.0
220
0.0
230
1.0
 40
0.7071067811865477
 41
0.0
 42
0.314159265358979
1001
DBPROPERTIES
1002
{
1000
PbThick
1002
}
  0
ELLIPSE
  5
CE
330
1F
100
AcDbEntity
  8
THICK
100
AcDbEllipse
 10
6.123724356957943
 20
-3.53553390593274
 30
0.0
 11
110.2500000000001
 21
190.9586015344686
 31
0.0
210
0.0
220
0.0
230
1.0
 40
0.7071067811865477
 41
-0.3141592653589798
 42
0.0
1001
DBPROPERTIES
1002
{
1000
PbThick
1002
}
  0
ELLIPSE
  5
CF
330
1F
100
AcDbEntity
  8
THICK
100
AcDbEllipse
 10
176.4289306739923
 20
133.3857553536409
 30
0.0
 11
90.00000000000007
 21
155.8845726811989
 31
0.0
210
0.0
220
0.0
230
1.0
 40
0.7071067811865476
 41
1.537578863625339
 42
1.570796326794897
1001
DBPROPERTIES
1002
{
1000
PbThick
1002
}
  0
LINE
  5
D0
330
1F
100
AcDbEntity
  8
HIDDEN
100
AcDbLine
 10
71.96813824018363
 20
86.46870577406499
 30
0.0
 11
77.28405576378651
 21
95.67614501379087
 31
0.0
1001
DBPROPERTIES
1002
{
1000
PbHidd
1002
}
  0
LINE
  5
D1
330
1F
100
AcDbEntity
  8
HIDDEN
100
AcDbLine
 10
77.28405576378651
 20
95.67614501379087
 30
0.0
 11
83.40778012074445
 21
92.14061110785813
 31
0.0
1001
DBPROPERTIES
1002
{
1000
PbHidd
1002
}
  0
ELLIPSE
  5
D2
330
1F
100
AcDbEntity
  8
THICK
100
AcDbEllipse
 10
170.3052063170343
 20
136.9212892595737
 30
0.0
 11
-90.00000000000007
 21
-155.8845726811989
 31
0.0
210
0.0
220
0.0
230
1.0
 40
0.7071067811865476
 41
-1.604013789964454
 42
-1.570796326794897
1001
DBPROPERTIES
1002
{
1000
PbThick
1002
}
  0
LINE
  5
D3
330
1F
100
AcDbEntity
  8
THICK
100
AcDbLine
 10
63.12799648309077
 20
205.7029306797074
 30
0.0
 11
69.2517208400487
 21
202.1673967737747
 31
0.0
1001
DBPROPERTIES
1002
{
1000
PbThick
1002
}
  0
LINE
  5
D4
330
1F
100
AcDbEntity
  8
HIDDEN
100
AcDbLine
 10
146.5799653599908
 20
157.5219139842248
 30
0.0
 11
152.7036897169488
 21
153.9863800782921
 31
0.0
1001
DBPROPERTIES
1002
{
1000
PbHidd
1002
}
  0
ELLIPSE
  5
D5
330
1F
100
AcDbEntity
  8
HIDDEN
100
AcDbEllipse
 10
0.0000000000000005
 20
0.0000000000000008
 30
0.0
 11
-110.2500000000001
 21
-190.9586015344686
 31
0.0
210
0.0
220
0.0
230
1.0
 40
0.7071067811865477
 41
2.827433388230813
 42
3.141592653589792
1001
DBPROPERTIES
1002
{
1000
PbHidd
1002
}
  0
ELLIPSE
  5
D6
330
1F
100
AcDbEntity
  8
THICK
100
AcDbEllipse
 10
0.0000000000000005
 20
0.0000000000000008
 30
0.0
 11
-110.2500000000001
 21
-190.9586015344686
 31
0.0
210
0.0
220
0.0
230
1.0
 40
0.7071067811865477
 41
3.141592653589792
 42
3.455751918948772
1001
DBPROPERTIES
1002
{
1000
PbThick
1002
}
  0
ELLIPSE
  5
D7
330
1F
100
AcDbEntity
  8
HIDDEN
100
AcDbEllipse
 10
171.4850228975909
 20
7.637245440144781
 30
0.0
 11
-90.00000000000007
 21
-155.8845726811989
 31
0.0
210
0.0
220
0.0
230
1.0
 40
0.7071067811865476
 41
-2.280952544182832
 42
-1.733420185294637
1001
DBPROPERTIES
1002
{
1000
PbHidd
1002
}
  0
LINE
  5
D8
330
1F
100
AcDbEntity
  8
THICK
100
AcDbLine
 10
118.3035620117605
 20
38.09221987925552
 30
0.0
 11
107.8380715284249
 21
32.04996613150026
 31
0.0
1001
DBPROPERTIES
1002
{
1000
PbThick
1002
}
  0
ELLIPSE
  5
D9
330
1F
100
AcDbEntity
  8
THICK
100
AcDbEllipse
 10
155.8645428238749
 20
-85.25218723965114
 30
0.0
 11
-155.884572681199
 21
-89.99999999999989
 31
0.0
210
0.0
220
0.0
230
1.0
 40
0.7071067811865476
 41
-2.280952544182832
 42
-1.733420185294637
1001
DBPROPERTIES
1002
{
1000
PbThick
1002
}
  0
ELLIPSE
  5
DA
330
1F
100
AcDbEntity
  8
THICK
100
AcDbEllipse
 10
3.535533905932733
 20
-6.123724356957947
 30
0.0
 11
190.9586015344688
 21
110.2499999999998
 31
0.0
210
0.0
220
0.0
230
1.0
 40
0.7071067811865476
 41
0.0
 42
0.3141592653589794
1001
DBPROPERTIES
1002
{
1000
PbThick
1002
}
  0
ELLIPSE
  5
DB
330
1F
100
AcDbEntity
  8
THICK
100
AcDbEllipse
 10
3.535533905932733
 20
-6.123724356957947
 30
0.0
 11
190.9586015344688
 21
110.2499999999998
 31
0.0
210
0.0
220
0.0
230
1.0
 40
0.7071067811865476
 41
-0.3141592653589798
 42
0.0
1001
DBPROPERTIES
1002
{
1000
PbThick
1002
}
  0
ELLIPSE
  5
DC
330
1F
100
AcDbEntity
  8
THICK
100
AcDbEllipse
 10
219.4848136030214
 20
27.30098730223304
 30
0.0
 11
155.884572681199
 21
89.99999999999989
 31
0.0
210
0.0
220
0.0
230
1.0
 40
0.7071067811865476
 41
1.537578863625339
 42
1.570796326794897
1001
DBPROPERTIES
1002
{
1000
PbThick
1002
}
  0
LINE
  5
DD
330
1F
100
AcDbEntity
  8
HIDDEN
100
AcDbLine
 10
105.5605888661018
 20
38.9000267126106
 30
0.0
 11
114.7680281058277
 21
44.21594423621346
 31
0.0
1001
DBPROPERTIES
1002
{
1000
PbHidd
1002
}
  0
LINE
  5
DE
330
1F
100
AcDbEntity
  8
HIDDEN
100
AcDbLine
 10
114.7680281058277
 20
44.21594423621346
 30
0.0
 11
118.3035620117605
 21
38.09221987925552
 31
0.0
1001
DBPROPERTIES
1002
{
1000
PbHidd
1002
}
  0
ELLIPSE
  5
DF
330
1F
100
AcDbEntity
  8
THICK
100
AcDbEllipse
 10
215.9492796970886
 20
33.42471165919098
 30
0.0
 11
-155.884572681199
 21
-89.99999999999989
 31
0.0
210
0.0
220
0.0
230
1.0
 40
0.7071067811865476
 41
-1.604013789964454
 42
-1.570796326794896
1001
DBPROPERTIES
1002
{
1000
PbThick
1002
}
  0
LINE
  5
E0
330
1F
100
AcDbEntity
  8
THICK
100
AcDbLine
 10
157.5219139842251
 20
146.5799653599906
 30
0.0
 11
161.0574478901578
 21
140.4562410030326
 31
0.0
1001
DBPROPERTIES
1002
{
1000
PbThick
1002
}
  0
LINE
  5
E1
330
1F
100
AcDbEntity
  8
HIDDEN
100
AcDbLine
 10
205.7029306797075
 20
63.12799648309044
 30
0.0
 11
209.2384645856402
 21
57.0042721261325
 31
0.0
1001
DBPROPERTIES
1002
{
1000
PbHidd
1002
}
  0
ELLIPSE
  5
E2
330
1F
100
AcDbEntity
  8
HIDDEN
100
AcDbEllipse
 10
0.0000000000000008
 20
0.0000000000000005
 30
0.0
 11
-190.9586015344688
 21
-110.2499999999998
 31
0.0
210
0.0
220
0.0
230
1.0
 40
0.7071067811865476
 41
2.827433388230813
 42
3.141592653589793
1001
DBPROPERTIES
1002
{
1000
PbHidd
1002
}
  0
ELLIPSE
  5
E3
330
1F
100
AcDbEntity
  8
THICK
100
AcDbEllipse
 10
0.0000000000000008
 20
0.0000000000000005
 30
0.0
 11
-190.9586015344688
 21
-110.2499999999998
 31
0.0
210
0.0
220
0.0
230
1.0
 40
0.7071067811865476
 41
3.141592653589793
 42
3.455751918948772
1001
DBPROPERTIES
1002
{
1000
PbThick
1002
}
  0
ELLIPSE
  5
E4
330
1F
100
AcDbEntity
  8
HIDDEN
100
AcDbEllipse
 10
152.3290089179422
 20
-79.12846288269321
 30
0.0
 11
-155.884572681199
 21
-89.99999999999989
 31
0.0
210
0.0
220
0.0
230
1.0
 40
0.7071067811865476
 41
-2.280952544182832
 42
-1.733420185294637
1001
DBPROPERTIES
1002
{
1000
PbHidd
1002
}
  0
LINE
  5
E5
330
1F
100
AcDbEntity
  8
THICK
100
AcDbLine
 10
121.5
 20
-26.16295090390228
 30
0.0
 11
109.4154925044895
 21
-26.16295090390228
 31
0.0
1001
DBPROPERTIES
1002
{
1000
PbThick
1002
}
  0
ELLIPSE
  5
E6
330
1F
100
AcDbEntity
  8
THICK
100
AcDbEllipse
 10
92.35656001489772
 20
-151.7628312896629
 30
0.0
 11
-180.0
 21
3.306437155320419E-14
 31
0.0
210
0.0
220
0.0
230
1.0
 40
0.7071067811865476
 41
-2.280952544182832
 42
-1.733420185294637
1001
DBPROPERTIES
1002
{
1000
PbThick
1002
}
  0
ELLIPSE
  5
E7
330
1F
100
AcDbEntity
  8
THICK
100
AcDbEllipse
 10
-0.0000000000000004
 20
-7.071067811865475
 30
0.0
 11
220.5
 21
-4.050385515267512E-14
 31
0.0
210
0.0
220
0.0
230
1.0
 40
0.7071067811865476
 41
0.0
 42
0.3141592653589793
1001
DBPROPERTIES
1002
{
1000
PbThick
1002
}
  0
ELLIPSE
  5
E8
330
1F
100
AcDbEntity
  8
THICK
100
AcDbEllipse
 10
-0.0000000000000004
 20
-7.071067811865475
 30
0.0
 11
220.5
 21
-4.050385515267512E-14
 31
0.0
210
0.0
220
0.0
230
1.0
 40
0.7071067811865476
 41
-0.3141592653589798
 42
0.0
1001
DBPROPERTIES
1002
{
1000
PbThick
1002
}
  0
ELLIPSE
  5
E9
330
1F
100
AcDbEntity
  8
THICK
100
AcDbEllipse
 10
203.7299179762254
 20
-86.09905824938036
 30
0.0
 11
180.0
 21
-3.306437155320419E-14
 31
0.0
210
0.0
220
0.0
230
1.0
 40
0.7071067811865476
 41
1.537578863625339
 42
1.570796326794897
1001
DBPROPERTIES
1002
{
1000
PbThick
1002
}
  0
LINE
  5
EA
330
1F
100
AcDbEntity
  8
HIDDEN
100
AcDbLine
 10
110.8681649527943
 20
-19.09188309203681
 30
0.0
 11
121.5
 21
-19.09188309203681
 31
0.0
1001
DBPROPERTIES
1002
{
1000
PbHidd
1002
}
  0
LINE
  5
EB
330
1F
100
AcDbEntity
  8
HIDDEN
100
AcDbLine
 10
121.5
 20
-19.09188309203681
 30
0.0
 11
121.5
 21
-26.16295090390228
 31
0.0
1001
DBPROPERTIES
1002
{
1000
PbHidd
1002
}
  0
ELLIPSE
  5
EC
330
1F
100
AcDbEntity
  8
THICK
100
AcDbEllipse
 10
203.7299179762254
 20
-79.02799043751489
 30
0.0
 11
-180.0
 21
3.306437155320419E-14
 31
0.0
210
0.0
220
0.0
230
1.0
 40
0.7071067811865476
 41
-1.604013789964454
 42
-1.570796326794897
1001
DBPROPERTIES
1002
{
1000
PbThick
1002
}
  0
LINE
  5
ED
330
1F
100
AcDbEntity
  8
THICK
100
AcDbLine
 10
209.7079618430814
 20
48.18101669548248
 30
0.0
 11
209.7079618430814
 21
41.10994888361701
 31
0.0
1001
DBPROPERTIES
1002
{
1000
PbThick
1002
}
  0
LINE
  5
EE
330
1F
100
AcDbEntity
  8
HIDDEN
100
AcDbLine
 10
209.7079618430813
 20
-48.18101669548258
 30
0.0
 11
209.7079618430813
 21
-55.25208450734805
 31
0.0
1001
DBPROPERTIES
1002
{
1000
PbHidd
1002
}
  0
ELLIPSE
  5
EF
330
1F
100
AcDbEntity
  8
HIDDEN
100
AcDbEllipse
 10
0.0000000000000009
 20
0.0
 30
0.0
 11
-220.5
 21
4.050385515267512E-14
 31
0.0
210
0.0
220
0.0
230
1.0
 40
0.7071067811865476
 41
2.827433388230813
 42
3.141592653589793
1001
DBPROPERTIES
1002
{
1000
PbHidd
1002
}
  0
ELLIPSE
  5
F0
330
1F
100
AcDbEntity
  8
THICK
100
AcDbEllipse
 10
0.0000000000000009
 20
0.0
 30
0.0
 11
-220.5
 21
4.050385515267512E-14
 31
0.0
210
0.0
220
0.0
230
1.0
 40
0.7071067811865476
 41
3.141592653589793
 42
3.455751918948772
1001
DBPROPERTIES
1002
{
1000
PbThick
1002
}
  0
ELLIPSE
  5
F1
330
1F
100
AcDbEntity
  8
HIDDEN
100
AcDbEllipse
 10
92.35656001489772
 20
-144.6917634777974
 30
0.0
 11
-180.0
 21
3.306437155320419E-14
 31
0.0
210
0.0
220
0.0
230
1.0
 40
0.7071067811865476
 41
-2.280952544182832
 42
-1.733420185294637
1001
DBPROPERTIES
1002
{
1000
PbHidd
1002
}
  0
LINE
  5
F2
330
1F
100
AcDbEntity
  8
THICK
100
AcDbLine
 10
92.14061110785813
 20
-83.40778012074445
 30
0.0
 11
81.67512062452256
 21
-77.36552637298918
 31
0.0
1001
DBPROPERTIES
1002
{
1000
PbThick
1002
}
  0
ELLIPSE
  5
F3
330
1F
100
AcDbEntity
  8
THICK
100
AcDbEllipse
 10
4.101711534212043
 20
-177.6087472545488
 30
0.0
 11
-155.8845726811989
 21
90.00000000000007
 31
0.0
210
0.0
220
0.0
230
1.0
 40
0.7071067811865476
 41
-2.280952544182832
 42
-1.733420185294637
1001
DBPROPERTIES
1002
{
1000
PbThick
1002
}
  0
ELLIPSE
  5
F4
330
1F
100
AcDbEntity
  8
THICK
100
AcDbEllipse
 10
-3.53553390593274
 20
-6.123724356957943
 30
0.0
 11
190.9586015344686
 21
-110.2500000000001
 31
0.0
210
0.0
220
0.0
230
1.0
 40
0.7071067811865477
 41
0.0
 42
0.314159265358979
1001
DBPROPERTIES
1002
{
1000
PbThick
1002
}
  0
ELLIPSE
  5
F5
330
1F
100
AcDbEntity
  8
THICK
100
AcDbEllipse
 10
-3.53553390593274
 20
-6.123724356957943
 30
0.0
 11
190.9586015344686
 21
-110.2500000000001
 31
0.0
210
0.0
220
0.0
230
1.0
 40
0.7071067811865477
 41
-0.3141592653589798
 42
0.0
1001
DBPROPERTIES
1002
{
1000
PbThick
1002
}
  0
ELLIPSE
  5
F6
330
1F
100
AcDbEntity
  8
THICK
100
AcDbEllipse
 10
133.3857553536409
 20
-176.4289306739923
 30
0.0
 11
155.8845726811989
 21
-90.00000000000007
 31
0.0
210
0.0
220
0.0
230
1.0
 40
0.7071067811865476
 41
1.537578863625339
 42
1.570796326794897
1001
DBPROPERTIES
1002
{
1000
PbThick
1002
}
  0
LINE
  5
F7
330
1F
100
AcDbEntity
  8
HIDDEN
100
AcDbLine
 10
86.46870577406499
 20
-71.96813824018363
 30
0.0
 11
95.67614501379087
 21
-77.28405576378651
 31
0.0
1001
DBPROPERTIES
1002
{
1000
PbHidd
1002
}
  0
LINE
  5
F8
330
1F
100
AcDbEntity
  8
HIDDEN
100
AcDbLine
 10
95.67614501379087
 20
-77.28405576378651
 30
0.0
 11
92.14061110785813
 21
-83.40778012074445
 31
0.0
1001
DBPROPERTIES
1002
{
1000
PbHidd
1002
}
  0
ELLIPSE
  5
F9
330
1F
100
AcDbEntity
  8
THICK
100
AcDbEllipse
 10
136.9212892595737
 20
-170.3052063170343
 30
0.0
 11
-155.8845726811989
 21
90.00000000000007
 31
0.0
210
0.0
220
0.0
230
1.0
 40
0.7071067811865476
 41
-1.604013789964454
 42
-1.570796326794897
1001
DBPROPERTIES
1002
{
1000
PbThick
1002
}
  0
LINE
  5
FA
330
1F
100
AcDbEntity
  8
THICK
100
AcDbLine
 10
205.7029306797074
 20
-63.12799648309077
 30
0.0
 11
202.1673967737747
 21
-69.2517208400487
 31
0.0
1001
DBPROPERTIES
1002
{
1000
PbThick
1002
}
  0
LINE
  5
FB
330
1F
100
AcDbEntity
  8
HIDDEN
100
AcDbLine
 10
157.5219139842248
 20
-146.5799653599908
 30
0.0
 11
153.9863800782921
 21
-152.7036897169488
 31
0.0
1001
DBPROPERTIES
1002
{
1000
PbHidd
1002
}
  0
ELLIPSE
  5
FC
330
1F
100
AcDbEntity
  8
HIDDEN
100
AcDbEllipse
 10
0.0000000000000008
 20
-0.0000000000000005
 30
0.0
 11
-190.9586015344686
 21
110.2500000000001
 31
0.0
210
0.0
220
0.0
230
1.0
 40
0.7071067811865477
 41
2.827433388230813
 42
3.141592653589792
1001
DBPROPERTIES
1002
{
1000
PbHidd
1002
}
  0
ELLIPSE
  5
FD
330
1F
100
AcDbEntity
  8
THICK
100
AcDbEllipse
 10
0.0000000000000008
 20
-0.0000000000000005
 30
0.0
 11
-190.9586015344686
 21
110.2500000000001
 31
0.0
210
0.0
220
0.0
230
1.0
 40
0.7071067811865477
 41
3.141592653589792
 42
3.455751918948772
1001
DBPROPERTIES
1002
{
1000
PbThick
1002
}
  0
ELLIPSE
  5
FE
330
1F
100
AcDbEntity
  8
HIDDEN
100
AcDbEllipse
 10
7.637245440144781
 20
-171.4850228975909
 30
0.0
 11
-155.8845726811989
 21
90.00000000000007
 31
0.0
210
0.0
220
0.0
230
1.0
 40
0.7071067811865476
 41
-2.280952544182832
 42
-1.733420185294637
1001
DBPROPERTIES
1002
{
1000
PbHidd
1002
}
  0
LINE
  5
FF
330
1F
100
AcDbEntity
  8
THICK
100
AcDbLine
 10
38.09221987925555
 20
-118.3035620117604
 30
0.0
 11
32.04996613150031
 21
-107.8380715284249
 31
0.0
1001
DBPROPERTIES
1002
{
1000
PbThick
1002
}
  0
ELLIPSE
  5
100
330
1F
100
AcDbEntity
  8
THICK
100
AcDbEllipse
 10
-85.25218723965108
 20
-155.864542823875
 30
0.0
 11
-89.99999999999993
 21
155.884572681199
 31
0.0
210
0.0
220
0.0
230
1.0
 40
0.7071067811865476
 41
-2.280952544182833
 42
-1.733420185294637
1001
DBPROPERTIES
1002
{
1000
PbThick
1002
}
  0
ELLIPSE
  5
101
330
1F
100
AcDbEntity
  8
THICK
100
AcDbEllipse
 10
-6.123724356957945
 20
-3.535533905932736
 30
0.0
 11
110.2499999999999
 21
-190.9586015344687
 31
0.0
210
0.0
220
0.0
230
1.0
 40
0.7071067811865476
 41
0.0
 42
0.3141592653589793
1001
DBPROPERTIES
1002
{
1000
PbThick
1002
}
  0
ELLIPSE
  5
102
330
1F
100
AcDbEntity
  8
THICK
100
AcDbEllipse
 10
-6.123724356957945
 20
-3.535533905932736
 30
0.0
 11
110.2499999999999
 21
-190.9586015344687
 31
0.0
210
0.0
220
0.0
230
1.0
 40
0.7071067811865476
 41
-0.3141592653589799
 42
0.0
1001
DBPROPERTIES
1002
{
1000
PbThick
1002
}
  0
ELLIPSE
  5
103
330
1F
100
AcDbEntity
  8
THICK
100
AcDbEllipse
 10
27.30098730223312
 20
-219.4848136030213
 30
0.0
 11
89.99999999999993
 21
-155.884572681199
 31
0.0
210
0.0
220
0.0
230
1.0
 40
0.7071067811865476
 41
1.537578863625339
 42
1.570796326794897
1001
DBPROPERTIES
1002
{
1000
PbThick
1002
}
  0
LINE
  5
104
330
1F
100
AcDbEntity
  8
HIDDEN
100
AcDbLine
 10
38.90002671261065
 20
-105.5605888661018
 30
0.0
 11
44.2159442362135
 21
-114.7680281058277
 31
0.0
1001
DBPROPERTIES
1002
{
1000
PbHidd
1002
}
  0
LINE
  5
105
330
1F
100
AcDbEntity
  8
HIDDEN
100
AcDbLine
 10
44.2159442362135
 20
-114.7680281058277
 30
0.0
 11
38.09221987925556
 21
-118.3035620117604
 31
0.0
1001
DBPROPERTIES
1002
{
1000
PbHidd
1002
}
  0
ELLIPSE
  5
106
330
1F
100
AcDbEntity
  8
THICK
100
AcDbEllipse
 10
33.42471165919108
 20
-215.9492796970886
 30
0.0
 11
-89.99999999999993
 21
155.884572681199
 31
0.0
210
0.0
220
0.0
230
1.0
 40
0.7071067811865476
 41
-1.604013789964454
 42
-1.570796326794897
1001
DBPROPERTIES
1002
{
1000
PbThick
1002
}
  0
LINE
  5
107
330
1F
100
AcDbEntity
  8
THICK
100
AcDbLine
 10
146.5799653599906
 20
-157.521913984225
 30
0.0
 11
140.4562410030327
 21
-161.0574478901577
 31
0.0
1001
DBPROPERTIES
1002
{
1000
PbThick
1002
}
  0
LINE
  5
108
330
1F
100
AcDbEntity
  8
HIDDEN
100
AcDbLine
 10
63.12799648309052
 20
-205.7029306797074
 30
0.0
 11
57.00427212613258
 21
-209.2384645856402
 31
0.0
1001
DBPROPERTIES
1002
{
1000
PbHidd
1002
}
  0
ELLIPSE
  5
109
330
1F
100
AcDbEntity
  8
HIDDEN
100
AcDbEllipse
 10
0.0000000000000005
 20
-0.0000000000000008
 30
0.0
 11
-110.2499999999999
 21
190.9586015344687
 31
0.0
210
0.0
220
0.0
230
1.0
 40
0.7071067811865476
 41
2.827433388230813
 42
3.141592653589792
1001
DBPROPERTIES
1002
{
1000
PbHidd
1002
}
  0
ELLIPSE
  5
10A
330
1F
100
AcDbEntity
  8
THICK
100
AcDbEllipse
 10
0.0000000000000005
 20
-0.0000000000000008
 30
0.0
 11
-110.2499999999999
 21
190.9586015344687
 31
0.0
210
0.0
220
0.0
230
1.0
 40
0.7071067811865476
 41
3.141592653589792
 42
3.455751918948772
1001
DBPROPERTIES
1002
{
1000
PbThick
1002
}
  0
ELLIPSE
  5
10B
330
1F
100
AcDbEntity
  8
HIDDEN
100
AcDbEllipse
 10
-79.12846288269313
 20
-152.3290089179422
 30
0.0
 11
-89.99999999999993
 21
155.884572681199
 31
0.0
210
0.0
220
0.0
230
1.0
 40
0.7071067811865476
 41
-2.280952544182833
 42
-1.733420185294637
1001
DBPROPERTIES
1002
{
1000
PbHidd
1002
}
  0
LINE
  5
10C
330
1F
100
AcDbEntity
  8
THICK
100
AcDbLine
 10
-26.16295090390228
 20
-121.5
 30
0.0
 11
-26.16295090390227
 21
-109.4154925044895
 31
0.0
1001
DBPROPERTIES
1002
{
1000
PbThick
1002
}
  0
ELLIPSE
  5
10D
330
1F
100
AcDbEntity
  8
THICK
100
AcDbEllipse
 10
-151.7628312896628
 20
-92.35656001489774
 30
0.0
 11
2.204291436880279E-14
 21
180.0
 31
0.0
210
0.0
220
0.0
230
1.0
 40
0.7071067811865476
 41
-2.280952544182832
 42
-1.733420185294637
1001
DBPROPERTIES
1002
{
1000
PbThick
1002
}
  0
ELLIPSE
  5
10E
330
1F
100
AcDbEntity
  8
THICK
100
AcDbEllipse
 10
-7.071067811865475
 20
-0.0000000000000001
 30
0.0
 11
-2.700257010178342E-14
 21
-220.5
 31
0.0
210
0.0
220
0.0
230
1.0
 40
0.7071067811865476
 41
0.0
 42
0.3141592653589793
1001
DBPROPERTIES
1002
{
1000
PbThick
1002
}
  0
ELLIPSE
  5
10F
330
1F
100
AcDbEntity
  8
THICK
100
AcDbEllipse
 10
-7.071067811865475
 20
-0.0000000000000001
 30
0.0
 11
-2.700257010178342E-14
 21
-220.5
 31
0.0
210
0.0
220
0.0
230
1.0
 40
0.7071067811865476
 41
-0.3141592653589798
 42
0.0
1001
DBPROPERTIES
1002
{
1000
PbThick
1002
}
  0
ELLIPSE
  5
110
330
1F
100
AcDbEntity
  8
THICK
100
AcDbEllipse
 10
-86.09905824938035
 20
-203.7299179762254
 30
0.0
 11
-2.204291436880279E-14
 21
-180.0
 31
0.0
210
0.0
220
0.0
230
1.0
 40
0.7071067811865476
 41
1.537578863625339
 42
1.570796326794897
1001
DBPROPERTIES
1002
{
1000
PbThick
1002
}
  0
LINE
  5
111
330
1F
100
AcDbEntity
  8
HIDDEN
100
AcDbLine
 10
-19.0918830920368
 20
-110.8681649527943
 30
0.0
 11
-19.0918830920368
 21
-121.5
 31
0.0
1001
DBPROPERTIES
1002
{
1000
PbHidd
1002
}
  0
LINE
  5
112
330
1F
100
AcDbEntity
  8
HIDDEN
100
AcDbLine
 10
-19.0918830920368
 20
-121.5
 30
0.0
 11
-26.16295090390227
 21
-121.5
 31
0.0
1001
DBPROPERTIES
1002
{
1000
PbHidd
1002
}
  0
ELLIPSE
  5
113
330
1F
100
AcDbEntity
  8
THICK
100
AcDbEllipse
 10
-79.02799043751487
 20
-203.7299179762254
 30
0.0
 11
2.204291436880279E-14
 21
180.0
 31
0.0
210
0.0
220
0.0
230
1.0
 40
0.7071067811865476
 41
-1.604013789964454
 42
-1.570796326794897
1001
DBPROPERTIES
1002
{
1000
PbThick
1002
}
  0
LINE
  5
114
330
1F
100
AcDbEntity
  8
THICK
100
AcDbLine
 10
48.18101669548248
 20
-209.7079618430814
 30
0.0
 11
41.10994888361702
 21
-209.7079618430814
 31
0.0
1001
DBPROPERTIES
1002
{
1000
PbThick
1002
}
  0
LINE
  5
115
330
1F
100
AcDbEntity
  8
HIDDEN
100
AcDbLine
 10
-48.18101669548258
 20
-209.7079618430813
 30
0.0
 11
-55.25208450734804
 21
-209.7079618430813
 31
0.0
1001
DBPROPERTIES
1002
{
1000
PbHidd
1002
}
  0
ELLIPSE
  5
116
330
1F
100
AcDbEntity
  8
HIDDEN
100
AcDbEllipse
 10
0.0
 20
-0.0000000000000009
 30
0.0
 11
2.700257010178342E-14
 21
220.5
 31
0.0
210
0.0
220
0.0
230
1.0
 40
0.7071067811865476
 41
2.827433388230813
 42
3.141592653589793
1001
DBPROPERTIES
1002
{
1000
PbHidd
1002
}
  0
ELLIPSE
  5
117
330
1F
100
AcDbEntity
  8
THICK
100
AcDbEllipse
 10
0.0
 20
-0.0000000000000009
 30
0.0
 11
2.700257010178342E-14
 21
220.5
 31
0.0
210
0.0
220
0.0
230
1.0
 40
0.7071067811865476
 41
3.141592653589793
 42
3.455751918948772
1001
DBPROPERTIES
1002
{
1000
PbThick
1002
}
  0
ELLIPSE
  5
118
330
1F
100
AcDbEntity
  8
HIDDEN
100
AcDbEllipse
 10
-144.6917634777974
 20
-92.35656001489774
 30
0.0
 11
2.204291436880279E-14
 21
180.0
 31
0.0
210
0.0
220
0.0
230
1.0
 40
0.7071067811865476
 41
-2.280952544182832
 42
-1.733420185294637
1001
DBPROPERTIES
1002
{
1000
PbHidd
1002
}
  0
LINE
  5
119
330
1F
100
AcDbEntity
  8
THICK
100
AcDbLine
 10
-83.40778012074439
 20
-92.14061110785808
 30
0.0
 11
-77.36552637298915
 21
-81.67512062452255
 31
0.0
1001
DBPROPERTIES
1002
{
1000
PbThick
1002
}
  0
ELLIPSE
  5
11A
330
1F
100
AcDbEntity
  8
THICK
100
AcDbEllipse
 10
-177.6087472545488
 20
-4.101711534212086
 30
0.0
 11
90.00000000000004
 21
155.8845726811989
 31
0.0
210
0.0
220
0.0
230
1.0
 40
0.7071067811865476
 41
-2.280952544182832
 42
-1.733420185294637
1001
DBPROPERTIES
1002
{
1000
PbThick
1002
}
  0
ELLIPSE
  5
11B
330
1F
100
AcDbEntity
  8
THICK
100
AcDbEllipse
 10
-6.123724356957943
 20
3.535533905932738
 30
0.0
 11
-110.25
 21
-190.9586015344686
 31
0.0
210
0.0
220
0.0
230
1.0
 40
0.7071067811865476
 41
0.0
 42
0.3141592653589793
1001
DBPROPERTIES
1002
{
1000
PbThick
1002
}
  0
ELLIPSE
  5
11C
330
1F
100
AcDbEntity
  8
THICK
100
AcDbEllipse
 10
-6.123724356957943
 20
3.535533905932738
 30
0.0
 11
-110.25
 21
-190.9586015344686
 31
0.0
210
0.0
220
0.0
230
1.0
 40
0.7071067811865476
 41
-0.3141592653589797
 42
0.0
1001
DBPROPERTIES
1002
{
1000
PbThick
1002
}
  0
ELLIPSE
  5
11D
330
1F
100
AcDbEntity
  8
THICK
100
AcDbEllipse
 10
-176.4289306739922
 20
-133.3857553536409
 30
0.0
 11
-90.00000000000004
 21
-155.8845726811989
 31
0.0
210
0.0
220
0.0
230
1.0
 40
0.7071067811865476
 41
1.53757886362534
 42
1.570796326794897
1001
DBPROPERTIES
1002
{
1000
PbThick
1002
}
  0
LINE
  5
11E
330
1F
100
AcDbEntity
  8
HIDDEN
100
AcDbLine
 10
-71.96813824018359
 20
-86.46870577406494
 30
0.0
 11
-77.28405576378645
 21
-95.67614501379082
 31
0.0
1001
DBPROPERTIES
1002
{
1000
PbHidd
1002
}
  0
LINE
  5
11F
330
1F
100
AcDbEntity
  8
HIDDEN
100
AcDbLine
 10
-77.28405576378648
 20
-95.67614501379087
 30
0.0
 11
-83.40778012074442
 21
-92.14061110785813
 31
0.0
1001
DBPROPERTIES
1002
{
1000
PbHidd
1002
}
  0
ELLIPSE
  5
120
330
1F
100
AcDbEntity
  8
THICK
100
AcDbEllipse
 10
-170.3052063170343
 20
-136.9212892595737
 30
0.0
 11
90.00000000000004
 21
155.8845726811989
 31
0.0
210
0.0
220
0.0
230
1.0
 40
0.7071067811865476
 41
-1.604013789964454
 42
-1.570796326794897
1001
DBPROPERTIES
1002
{
1000
PbThick
1002
}
  0
LINE
  5
121
330
1F
100
AcDbEntity
  8
THICK
100
AcDbLine
 10
-63.12799648309071
 20
-205.7029306797074
 30
0.0
 11
-69.25172084004865
 21
-202.1673967737747
 31
0.0
1001
DBPROPERTIES
1002
{
1000
PbThick
1002
}
  0
LINE
  5
122
330
1F
100
AcDbEntity
  8
HIDDEN
100
AcDbLine
 10
-146.5799653599908
 20
-157.5219139842248
 30
0.0
 11
-152.7036897169487
 21
-153.9863800782921
 31
0.0
1001
DBPROPERTIES
1002
{
1000
PbHidd
1002
}
  0
ELLIPSE
  5
123
330
1F
100
AcDbEntity
  8
HIDDEN
100
AcDbEllipse
 10
-0.0000000000000005
 20
-0.0000000000000008
 30
0.0
 11
110.25
 21
190.9586015344686
 31
0.0
210
0.0
220
0.0
230
1.0
 40
0.7071067811865476
 41
2.827433388230813
 42
3.141592653589792
1001
DBPROPERTIES
1002
{
1000
PbHidd
1002
}
  0
ELLIPSE
  5
124
330
1F
100
AcDbEntity
  8
THICK
100
AcDbEllipse
 10
-0.0000000000000005
 20
-0.0000000000000008
 30
0.0
 11
110.25
 21
190.9586015344686
 31
0.0
210
0.0
220
0.0
230
1.0
 40
0.7071067811865476
 41
3.141592653589792
 42
3.455751918948772
1001
DBPROPERTIES
1002
{
1000
PbThick
1002
}
  0
ELLIPSE
  5
125
330
1F
100
AcDbEntity
  8
HIDDEN
100
AcDbEllipse
 10
-171.4850228975908
 20
-7.637245440144824
 30
0.0
 11
90.00000000000004
 21
155.8845726811989
 31
0.0
210
0.0
220
0.0
230
1.0
 40
0.7071067811865476
 41
-2.280952544182832
 42
-1.733420185294637
1001
DBPROPERTIES
1002
{
1000
PbHidd
1002
}
  0
LINE
  5
126
330
1F
100
AcDbEntity
  8
THICK
100
AcDbLine
 10
-118.3035620117603
 20
-38.09221987925554
 30
0.0
 11
-107.8380715284248
 21
-32.0499661315003
 31
0.0
1001
DBPROPERTIES
1002
{
1000
PbThick
1002
}
  0
ELLIPSE
  5
127
330
1F
100
AcDbEntity
  8
THICK
100
AcDbEllipse
 10
-155.864542823875
 20
85.25218723965105
 30
0.0
 11
155.884572681199
 21
89.99999999999996
 31
0.0
210
0.0
220
0.0
230
1.0
 40
0.7071067811865475
 41
-2.280952544182832
 42
-1.733420185294637
1001
DBPROPERTIES
1002
{
1000
PbThick
1002
}
  0
ELLIPSE
  5
128
330
1F
100
AcDbEntity
  8
THICK
100
AcDbEllipse
 10
-3.535533905932736
 20
6.123724356957943
 30
0.0
 11
-190.9586015344687
 21
-110.2499999999999
 31
0.0
210
0.0
220
0.0
230
1.0
 40
0.7071067811865474
 41
0.0
 42
0.3141592653589794
1001
DBPROPERTIES
1002
{
1000
PbThick
1002
}
  0
ELLIPSE
  5
129
330
1F
100
AcDbEntity
  8
THICK
100
AcDbEllipse
 10
-3.535533905932736
 20
6.123724356957943
 30
0.0
 11
-190.9586015344687
 21
-110.2499999999999
 31
0.0
210
0.0
220
0.0
230
1.0
 40
0.7071067811865474
 41
-0.3141592653589799
 42
0.0
1001
DBPROPERTIES
1002
{
1000
PbThick
1002
}
  0
ELLIPSE
  5
12A
330
1F
100
AcDbEntity
  8
THICK
100
AcDbEllipse
 10
-219.4848136030213
 20
-27.30098730223317
 30
0.0
 11
-155.884572681199
 21
-89.99999999999996
 31
0.0
210
0.0
220
0.0
230
1.0
 40
0.7071067811865475
 41
1.537578863625339
 42
1.570796326794897
1001
DBPROPERTIES
1002
{
1000
PbThick
1002
}
  0
LINE
  5
12B
330
1F
100
AcDbEntity
  8
HIDDEN
100
AcDbLine
 10
-105.5605888661017
 20
-38.90002671261062
 30
0.0
 11
-114.7680281058276
 21
-44.21594423621348
 31
0.0
1001
DBPROPERTIES
1002
{
1000
PbHidd
1002
}
  0
LINE
  5
12C
330
1F
100
AcDbEntity
  8
HIDDEN
100
AcDbLine
 10
-114.7680281058277
 20
-44.21594423621352
 30
0.0
 11
-118.3035620117604
 21
-38.09221987925558
 31
0.0
1001
DBPROPERTIES
1002
{
1000
PbHidd
1002
}
  0
ELLIPSE
  5
12D
330
1F
100
AcDbEntity
  8
THICK
100
AcDbEllipse
 10
-215.9492796970886
 20
-33.42471165919112
 30
0.0
 11
155.884572681199
 21
89.99999999999996
 31
0.0
210
0.0
220
0.0
230
1.0
 40
0.7071067811865475
 41
-1.604013789964454
 42
-1.570796326794896
1001
DBPROPERTIES
1002
{
1000
PbThick
1002
}
  0
LINE
  5
12E
330
1F
100
AcDbEntity
  8
THICK
100
AcDbLine
 10
-157.5219139842249
 20
-146.5799653599907
 30
0.0
 11
-161.0574478901577
 21
-140.4562410030327
 31
0.0
1001
DBPROPERTIES
1002
{
1000
PbThick
1002
}
  0
LINE
  5
12F
330
1F
100
AcDbEntity
  8
HIDDEN
100
AcDbLine
 10
-205.7029306797074
 20
-63.12799648309056
 30
0.0
 11
-209.2384645856401
 21
-57.00427212613262
 31
0.0
1001
DBPROPERTIES
1002
{
1000
PbHidd
1002
}
  0
ELLIPSE
  5
130
330
1F
100
AcDbEntity
  8
HIDDEN
100
AcDbEllipse
 10
-0.0000000000000008
 20
-0.0000000000000005
 30
0.0
 11
190.9586015344687
 21
110.2499999999999
 31
0.0
210
0.0
220
0.0
230
1.0
 40
0.7071067811865474
 41
2.827433388230813
 42
3.141592653589793
1001
DBPROPERTIES
1002
{
1000
PbHidd
1002
}
  0
ELLIPSE
  5
131
330
1F
100
AcDbEntity
  8
THICK
100
AcDbEllipse
 10
-0.0000000000000008
 20
-0.0000000000000005
 30
0.0
 11
190.9586015344687
 21
110.2499999999999
 31
0.0
210
0.0
220
0.0
230
1.0
 40
0.7071067811865474
 41
3.141592653589793
 42
3.455751918948772
1001
DBPROPERTIES
1002
{
1000
PbThick
1002
}
  0
ELLIPSE
  5
132
330
1F
100
AcDbEntity
  8
HIDDEN
100
AcDbEllipse
 10
-152.3290089179422
 20
79.1284628826931
 30
0.0
 11
155.884572681199
 21
89.99999999999996
 31
0.0
210
0.0
220
0.0
230
1.0
 40
0.7071067811865475
 41
-2.280952544182832
 42
-1.733420185294637
1001
DBPROPERTIES
1002
{
1000
PbHidd
1002
}
  0
LINE
  5
133
330
1F
100
AcDbEntity
  8
THICK
100
AcDbLine
 10
-121.5
 20
26.16295090390227
 30
0.0
 11
-109.4154925044895
 21
26.16295090390227
 31
0.0
1001
DBPROPERTIES
1002
{
1000
PbThick
1002
}
  0
ELLIPSE
  5
134
330
1F
100
AcDbEntity
  8
THICK
100
AcDbEllipse
 10
-92.35656001489774
 20
151.7628312896628
 30
0.0
 11
180.0
 21
-1.102145718440140E-14
 31
0.0
210
0.0
220
0.0
230
1.0
 40
0.7071067811865476
 41
-2.280952544182832
 42
-1.733420185294637
1001
DBPROPERTIES
1002
{
1000
PbThick
1002
}
  0
ELLIPSE
  5
135
330
1F
100
AcDbEntity
  8
THICK
100
AcDbEllipse
 10
-0.0000000000000005
 20
7.071067811865475
 30
0.0
 11
-220.5
 21
1.350128505089171E-14
 31
0.0
210
0.0
220
0.0
230
1.0
 40
0.7071067811865476
 41
0.0
 42
0.3141592653589793
1001
DBPROPERTIES
1002
{
1000
PbThick
1002
}
  0
ELLIPSE
  5
136
330
1F
100
AcDbEntity
  8
THICK
100
AcDbEllipse
 10
-0.0000000000000005
 20
7.071067811865475
 30
0.0
 11
-220.5
 21
1.350128505089171E-14
 31
0.0
210
0.0
220
0.0
230
1.0
 40
0.7071067811865476
 41
-0.3141592653589798
 42
0.0
1001
DBPROPERTIES
1002
{
1000
PbThick
1002
}
  0
ELLIPSE
  5
137
330
1F
100
AcDbEntity
  8
THICK
100
AcDbEllipse
 10
-203.7299179762254
 20
86.09905824938033
 30
0.0
 11
-180.0
 21
1.102145718440140E-14
 31
0.0
210
0.0
220
0.0
230
1.0
 40
0.7071067811865476
 41
1.537578863625339
 42
1.570796326794897
1001
DBPROPERTIES
1002
{
1000
PbThick
1002
}
  0
LINE
  5
138
330
1F
100
AcDbEntity
  8
HIDDEN
100
AcDbLine
 10
-110.8681649527943
 20
19.09188309203679
 30
0.0
 11
-121.5
 21
19.0918830920368
 31
0.0
1001
DBPROPERTIES
1002
{
1000
PbHidd
1002
}
  0
LINE
  5
139
330
1F
100
AcDbEntity
  8
HIDDEN
100
AcDbLine
 10
-121.5
 20
19.0918830920368
 30
0.0
 11
-121.5
 21
26.16295090390226
 31
0.0
1001
DBPROPERTIES
1002
{
1000
PbHidd
1002
}
  0
ELLIPSE
  5
13A
330
1F
100
AcDbEntity
  8
THICK
100
AcDbEllipse
 10
-203.7299179762254
 20
79.02799043751486
 30
0.0
 11
180.0
 21
-1.102145718440140E-14
 31
0.0
210
0.0
220
0.0
230
1.0
 40
0.7071067811865476
 41
-1.604013789964454
 42
-1.570796326794896
1001
DBPROPERTIES
1002
{
1000
PbThick
1002
}
  0
LINE
  5
13B
330
1F
100
AcDbEntity
  8
THICK
100
AcDbLine
 10
-209.7079618430814
 20
-48.1810166954825
 30
0.0
 11
-209.7079618430814
 21
-41.10994888361703
 31
0.0
1001
DBPROPERTIES
1002
{
1000
PbThick
1002
}
  0
LINE
  5
13C
330
1F
100
AcDbEntity
  8
HIDDEN
100
AcDbLine
 10
-209.7079618430813
 20
48.18101669548256
 30
0.0
 11
-209.7079618430813
 21
55.25208450734803
 31
0.0
1001
DBPROPERTIES
1002
{
1000
PbHidd
1002
}
  0
ELLIPSE
  5
13D
330
1F
100
AcDbEntity
  8
HIDDEN
100
AcDbEllipse
 10
-0.0000000000000009
 20
0.0
 30
0.0
 11
220.5
 21
-1.350128505089171E-14
 31
0.0
210
0.0
220
0.0
230
1.0
 40
0.7071067811865476
 41
2.827433388230813
 42
3.141592653589793
1001
DBPROPERTIES
1002
{
1000
PbHidd
1002
}
  0
ELLIPSE
  5
13E
330
1F
100
AcDbEntity
  8
THICK
100
AcDbEllipse
 10
-0.0000000000000009
 20
0.0
 30
0.0
 11
220.5
 21
-1.350128505089171E-14
 31
0.0
210
0.0
220
0.0
230
1.0
 40
0.7071067811865476
 41
3.141592653589793
 42
3.455751918948772
1001
DBPROPERTIES
1002
{
1000
PbThick
1002
}
  0
ELLIPSE
  5
13F
330
1F
100
AcDbEntity
  8
HIDDEN
100
AcDbEllipse
 10
-92.35656001489774
 20
144.6917634777974
 30
0.0
 11
180.0
 21
-1.102145718440140E-14
 31
0.0
210
0.0
220
0.0
230
1.0
 40
0.7071067811865476
 41
-2.280952544182832
 42
-1.733420185294637
1001
DBPROPERTIES
1002
{
1000
PbHidd
1002
}
  0
LINE
  5
140
330
1F
100
AcDbEntity
  8
THICK
100
AcDbLine
 10
-92.14061110785809
 20
83.40778012074435
 30
0.0
 11
-81.67512062452255
 21
77.36552637298912
 31
0.0
1001
DBPROPERTIES
1002
{
1000
PbThick
1002
}
  0
ELLIPSE
  5
141
330
1F
100
AcDbEntity
  8
THICK
100
AcDbEllipse
 10
-4.101711534212143
 20
177.6087472545488
 30
0.0
 11
155.8845726811989
 21
-90.0
 31
0.0
210
0.0
220
0.0
230
1.0
 40
0.7071067811865476
 41
-2.280952544182832
 42
-1.733420185294637
1001
DBPROPERTIES
1002
{
1000
PbThick
1002
}
  0
ELLIPSE
  5
142
330
1F
100
AcDbEntity
  8
THICK
100
AcDbEllipse
 10
3.535533905932736
 20
6.123724356957945
 30
0.0
 11
-190.9586015344687
 21
110.25
 31
0.0
210
0.0
220
0.0
230
1.0
 40
0.7071067811865475
 41
0.0
 42
0.3141592653589794
1001
DBPROPERTIES
1002
{
1000
PbThick
1002
}
  0
ELLIPSE
  5
143
330
1F
100
AcDbEntity
  8
THICK
100
AcDbEllipse
 10
3.535533905932736
 20
6.123724356957945
 30
0.0
 11
-190.9586015344687
 21
110.25
 31
0.0
210
0.0
220
0.0
230
1.0
 40
0.7071067811865475
 41
-0.3141592653589798
 42
0.0
1001
DBPROPERTIES
1002
{
1000
PbThick
1002
}
  0
ELLIPSE
  5
144
330
1F
100
AcDbEntity
  8
THICK
100
AcDbEllipse
 10
-133.385755353641
 20
176.4289306739922
 30
0.0
 11
-155.8845726811989
 21
90.0
 31
0.0
210
0.0
220
0.0
230
1.0
 40
0.7071067811865476
 41
1.537578863625339
 42
1.570796326794897
1001
DBPROPERTIES
1002
{
1000
PbThick
1002
}
  0
LINE
  5
145
330
1F
100
AcDbEntity
  8
HIDDEN
100
AcDbLine
 10
-86.46870577406494
 20
71.96813824018355
 30
0.0
 11
-95.67614501379083
 21
77.2840557637864
 31
0.0
1001
DBPROPERTIES
1002
{
1000
PbHidd
1002
}
  0
LINE
  5
146
330
1F
100
AcDbEntity
  8
HIDDEN
100
AcDbLine
 10
-95.6761450137909
 20
77.28405576378645
 30
0.0
 11
-92.14061110785816
 21
83.40778012074439
 31
0.0
1001
DBPROPERTIES
1002
{
1000
PbHidd
1002
}
  0
ELLIPSE
  5
147
330
1F
100
AcDbEntity
  8
THICK
100
AcDbEllipse
 10
-136.9212892595737
 20
170.3052063170342
 30
0.0
 11
155.8845726811989
 21
-90.0
 31
0.0
210
0.0
220
0.0
230
1.0
 40
0.7071067811865476
 41
-1.604013789964454
 42
-1.570796326794897
1001
DBPROPERTIES
1002
{
1000
PbThick
1002
}
  0
LINE
  5
148
330
1F
100
AcDbEntity
  8
THICK
100
AcDbLine
 10
-205.7029306797074
 20
63.12799648309066
 30
0.0
 11
-202.1673967737747
 21
69.2517208400486
 31
0.0
1001
DBPROPERTIES
1002
{
1000
PbThick
1002
}
  0
LINE
  5
149
330
1F
100
AcDbEntity
  8
HIDDEN
100
AcDbLine
 10
-157.5219139842249
 20
146.5799653599907
 30
0.0
 11
-153.9863800782921
 21
152.7036897169486
 31
0.0
1001
DBPROPERTIES
1002
{
1000
PbHidd
1002
}
  0
ELLIPSE
  5
14A
330
1F
100
AcDbEntity
  8
HIDDEN
100
AcDbEllipse
 10
-0.0000000000000008
 20
0.0000000000000005
 30
0.0
 11
190.9586015344687
 21
-110.25
 31
0.0
210
0.0
220
0.0
230
1.0
 40
0.7071067811865475
 41
2.827433388230813
 42
3.141592653589793
1001
DBPROPERTIES
1002
{
1000
PbHidd
1002
}
  0
ELLIPSE
  5
14B
330
1F
100
AcDbEntity
  8
THICK
100
AcDbEllipse
 10
-0.0000000000000008
 20
0.0000000000000005
 30
0.0
 11
190.9586015344687
 21
-110.25
 31
0.0
210
0.0
220
0.0
230
1.0
 40
0.7071067811865475
 41
3.141592653589793
 42
3.455751918948772
1001
DBPROPERTIES
1002
{
1000
PbThick
1002
}
  0
ELLIPSE
  5
14C
330
1F
100
AcDbEntity
  8
HIDDEN
100
AcDbEllipse
 10
-7.637245440144881
 20
171.4850228975908
 30
0.0
 11
155.8845726811989
 21
-90.0
 31
0.0
210
0.0
220
0.0
230
1.0
 40
0.7071067811865476
 41
-2.280952544182833
 42
-1.733420185294637
1001
DBPROPERTIES
1002
{
1000
PbHidd
1002
}
  0
LINE
  5
14D
330
1F
100
AcDbEntity
  8
THICK
100
AcDbLine
 10
-38.09221987925557
 20
118.3035620117604
 30
0.0
 11
-32.04996613150033
 21
107.8380715284248
 31
0.0
1001
DBPROPERTIES
1002
{
1000
PbThick
1002
}
  0
ELLIPSE
  5
14E
330
1F
100
AcDbEntity
  8
THICK
100
AcDbEllipse
 10
85.25218723965102
 20
155.864542823875
 30
0.0
 11
89.99999999999999
 21
-155.8845726811989
 31
0.0
210
0.0
220
0.0
230
1.0
 40
0.7071067811865476
 41
-2.280952544182832
 42
-1.733420185294637
1001
DBPROPERTIES
1002
{
1000
PbThick
1002
}
  0
ELLIPSE
  5
14F
330
1F
100
AcDbEntity
  8
THICK
100
AcDbEllipse
 10
6.123724356957943
 20
3.535533905932737
 30
0.0
 11
-110.25
 21
190.9586015344687
 31
0.0
210
0.0
220
0.0
230
1.0
 40
0.7071067811865476
 41
0.0
 42
0.3141592653589793
1001
DBPROPERTIES
1002
{
1000
PbThick
1002
}
  0
ELLIPSE
  5
150
330
1F
100
AcDbEntity
  8
THICK
100
AcDbEllipse
 10
6.123724356957943
 20
3.535533905932737
 30
0.0
 11
-110.25
 21
190.9586015344687
 31
0.0
210
0.0
220
0.0
230
1.0
 40
0.7071067811865476
 41
-0.3141592653589799
 42
0.0
1001
DBPROPERTIES
1002
{
1000
PbThick
1002
}
  0
ELLIPSE
  5
151
330
1F
100
AcDbEntity
  8
THICK
100
AcDbEllipse
 10
-27.30098730223318
 20
219.4848136030213
 30
0.0
 11
-89.99999999999999
 21
155.8845726811989
 31
0.0
210
0.0
220
0.0
230
1.0
 40
0.7071067811865476
 41
1.537578863625339
 42
1.570796326794897
1001
DBPROPERTIES
1002
{
1000
PbThick
1002
}
  0
LINE
  5
152
330
1F
100
AcDbEntity
  8
HIDDEN
100
AcDbLine
 10
-38.90002671261065
 20
105.5605888661018
 30
0.0
 11
-44.21594423621351
 21
114.7680281058276
 31
0.0
1001
DBPROPERTIES
1002
{
1000
PbHidd
1002
}
  0
LINE
  5
153
330
1F
100
AcDbEntity
  8
HIDDEN
100
AcDbLine
 10
-44.21594423621354
 20
114.7680281058277
 30
0.0
 11
-38.09221987925559
 21
118.3035620117604
 31
0.0
1001
DBPROPERTIES
1002
{
1000
PbHidd
1002
}
  0
ELLIPSE
  5
154
330
1F
100
AcDbEntity
  8
THICK
100
AcDbEllipse
 10
-33.42471165919113
 20
215.9492796970886
 30
0.0
 11
89.99999999999999
 21
-155.8845726811989
 31
0.0
210
0.0
220
0.0
230
1.0
 40
0.7071067811865476
 41
-1.604013789964454
 42
-1.570796326794897
1001
DBPROPERTIES
1002
{
1000
PbThick
1002
}
  0
LINE
  5
155
330
1F
100
AcDbEntity
  8
THICK
100
AcDbLine
 10
-146.5799653599907
 20
157.5219139842249
 30
0.0
 11
-140.4562410030327
 21
161.0574478901576
 31
0.0
1001
DBPROPERTIES
1002
{
1000
PbThick
1002
}
  0
LINE
  5
156
330
1F
100
AcDbEntity
  8
HIDDEN
100
AcDbLine
 10
-63.12799648309058
 20
205.7029306797074
 30
0.0
 11
-57.00427212613263
 21
209.2384645856401
 31
0.0
1001
DBPROPERTIES
1002
{
1000
PbHidd
1002
}
  0
ELLIPSE
  5
157
330
1F
100
AcDbEntity
  8
HIDDEN
100
AcDbEllipse
 10
-0.0000000000000005
 20
0.0000000000000008
 30
0.0
 11
110.25
 21
-190.9586015344687
 31
0.0
210
0.0
220
0.0
230
1.0
 40
0.7071067811865476
 41
2.827433388230813
 42
3.141592653589792
1001
DBPROPERTIES
1002
{
1000
PbHidd
1002
}
  0
ELLIPSE
  5
158
330
1F
100
AcDbEntity
  8
THICK
100
AcDbEllipse
 10
-0.0000000000000005
 20
0.0000000000000008
 30
0.0
 11
110.25
 21
-190.9586015344687
 31
0.0
210
0.0
220
0.0
230
1.0
 40
0.7071067811865476
 41
3.141592653589792
 42
3.455751918948772
1001
DBPROPERTIES
1002
{
1000
PbThick
1002
}
  0
ELLIPSE
  5
159
330
1F
100
AcDbEntity
  8
HIDDEN
100
AcDbEllipse
 10
79.12846288269307
 20
152.3290089179422
 30
0.0
 11
89.99999999999999
 21
-155.8845726811989
 31
0.0
210
0.0
220
0.0
230
1.0
 40
0.7071067811865476
 41
-2.280952544182832
 42
-1.733420185294637
1001
DBPROPERTIES
1002
{
1000
PbHidd
1002
}
  0
LINE
  5
15A
330
1F
100
AcDbEntity
  8
THICK
100
AcDbLine
 10
26.16295090390226
 20
121.5
 30
0.0
 11
26.16295090390226
 21
109.4154925044895
 31
0.0
1001
DBPROPERTIES
1002
{
1000
PbThick
1002
}
  0
ELLIPSE
  5
15B
330
1F
100
AcDbEntity
  8
THICK
100
AcDbEllipse
 10
151.7628312896628
 20
92.35656001489775
 30
0.0
 11
0.0
 21
-180.0
 31
0.0
210
0.0
220
0.0
230
1.0
 40
0.7071067811865476
 41
-2.280952544182832
 42
-1.733420185294637
1001
DBPROPERTIES
1002
{
1000
PbThick
1002
}
  0
ELLIPSE
  5
15C
330
1F
100
AcDbEntity
  8
THICK
100
AcDbEllipse
 10
7.071067811865475
 20
0.0000000000000009
 30
0.0
 11
0.0
 21
220.5
 31
0.0
210
0.0
220
0.0
230
1.0
 40
0.7071067811865476
 41
0.0
 42
0.3141592653589793
1001
DBPROPERTIES
1002
{
1000
PbThick
1002
}
  0
ELLIPSE
  5
15D
330
1F
100
AcDbEntity
  8
THICK
100
AcDbEllipse
 10
7.071067811865475
 20
0.0000000000000009
 30
0.0
 11
0.0
 21
220.5
 31
0.0
210
0.0
220
0.0
230
1.0
 40
0.7071067811865476
 41
-0.3141592653589798
 42
0.0
1001
DBPROPERTIES
1002
{
1000
PbThick
1002
}
  0
ELLIPSE
  5
15E
330
1F
100
AcDbEntity
  8
THICK
100
AcDbEllipse
 10
86.09905824938032
 20
203.7299179762254
 30
0.0
 11
0.0
 21
180.0
 31
0.0
210
0.0
220
0.0
230
1.0
 40
0.7071067811865476
 41
1.537578863625339
 42
1.570796326794897
1001
DBPROPERTIES
1002
{
1000
PbThick
1002
}
  0
LINE
  5
15F
330
1F
100
AcDbEntity
  8
HIDDEN
100
AcDbLine
 10
19.09188309203678
 20
110.8681649527943
 30
0.0
 11
19.09188309203678
 21
121.5
 31
0.0
1001
DBPROPERTIES
1002
{
1000
PbHidd
1002
}
  0
LINE
  5
160
330
1F
100
AcDbEntity
  8
HIDDEN
100
AcDbLine
 10
19.09188309203679
 20
121.5
 30
0.0
 11
26.16295090390226
 21
121.5
 31
0.0
1001
DBPROPERTIES
1002
{
1000
PbHidd
1002
}
  0
ELLIPSE
  5
161
330
1F
100
AcDbEntity
  8
THICK
100
AcDbEllipse
 10
79.02799043751484
 20
203.7299179762254
 30
0.0
 11
0.0
 21
-180.0
 31
0.0
210
0.0
220
0.0
230
1.0
 40
0.7071067811865476
 41
-1.604013789964454
 42
-1.570796326794897
1001
DBPROPERTIES
1002
{
1000
PbThick
1002
}
  0
LINE
  5
162
330
1F
100
AcDbEntity
  8
THICK
100
AcDbLine
 10
-48.18101669548251
 20
209.7079618430814
 30
0.0
 11
-41.10994888361704
 21
209.7079618430814
 31
0.0
1001
DBPROPERTIES
1002
{
1000
PbThick
1002
}
  0
LINE
  5
163
330
1F
100
AcDbEntity
  8
HIDDEN
100
AcDbLine
 10
48.18101669548255
 20
209.7079618430813
 30
0.0
 11
55.25208450734802
 21
209.7079618430813
 31
0.0
1001
DBPROPERTIES
1002
{
1000
PbHidd
1002
}
  0
ELLIPSE
  5
164
330
1F
100
AcDbEntity
  8
HIDDEN
100
AcDbEllipse
 10
0.0
 20
0.0000000000000009
 30
0.0
 11
0.0
 21
-220.5
 31
0.0
210
0.0
220
0.0
230
1.0
 40
0.7071067811865476
 41
2.827433388230813
 42
3.141592653589793
1001
DBPROPERTIES
1002
{
1000
PbHidd
1002
}
  0
ELLIPSE
  5
165
330
1F
100
AcDbEntity
  8
THICK
100
AcDbEllipse
 10
0.0
 20
0.0000000000000009
 30
0.0
 11
0.0
 21
-220.5
 31
0.0
210
0.0
220
0.0
230
1.0
 40
0.7071067811865476
 41
3.141592653589793
 42
3.455751918948772
1001
DBPROPERTIES
1002
{
1000
PbThick
1002
}
  0
ELLIPSE
  5
166
330
1F
100
AcDbEntity
  8
HIDDEN
100
AcDbEllipse
 10
144.6917634777974
 20
92.35656001489775
 30
0.0
 11
0.0
 21
-180.0
 31
0.0
210
0.0
220
0.0
230
1.0
 40
0.7071067811865476
 41
-2.280952544182832
 42
-1.733420185294637
1001
DBPROPERTIES
1002
{
1000
PbHidd
1002
}
  0
ARC
  5
167
330
1F
100
AcDbEntity
  8
THICK
100
AcDbCircle
 10
0.0
 20
0.0
 30
0.0
 40
109.75
100
AcDbArc
 50
270.0000187239684
 51
89.99998127603165
1001
DBPROPERTIES
1002
{
1000
PbThick
1002
}
  0
ARC
  5
168
330
1F
100
AcDbEntity
  8
THICK
100
AcDbCircle
 10
0.0000000000000003
 20
-0.0000000000000002
 30
0.0
 40
112.5
100
AcDbArc
 50
270.0000187239684
 51
0.0
1001
DBPROPERTIES
1002
{
1000
PbThick
1002
}
  0
ARC
  5
169
330
1F
100
AcDbEntity
  8
HIDDEN
100
AcDbCircle
 10
0.0
 20
0.0
 30
0.0
 40
109.75
100
AcDbArc
 50
89.99998127603165
 51
270.0000187239684
1001
DBPROPERTIES
1002
{
1000
PbHidd
1002
}
  0
ARC
  5
16A
330
1F
100
AcDbEntity
  8
HIDDEN
100
AcDbCircle
 10
0.0
 20
-0.0000000000000007
 30
0.0
 40
101.5
100
AcDbArc
 50
179.9999801521572
 51
270.0000187239684
1001
DBPROPERTIES
1002
{
1000
PbHidd
1002
}
  0
ARC
  5
16B
330
1F
100
AcDbEntity
  8
HIDDEN
100
AcDbCircle
 10
0.0
 20
0.0
 30
0.0
 40
90.5
100
AcDbArc
 50
270.0000187239684
 51
89.99998127603165
1001
DBPROPERTIES
1002
{
1000
PbHidd
1002
}
  0
ARC
  5
16C
330
1F
100
AcDbEntity
  8
HIDDEN
100
AcDbCircle
 10
0.0
 20
0.0
 30
0.0
 40
90.5
100
AcDbArc
 50
89.99998127603165
 51
270.0000187239684
1001
DBPROPERTIES
1002
{
1000
PbHidd
1002
}
  0
LINE
  5
16D
330
1F
100
AcDbEntity
  8
HIDDEN
100
AcDbLine
 10
198.8496854535911
 20
-105.2796399832744
 30
0.0
 11
101.2905320831415
 21
-48.95383652293333
 31
0.0
1001
DBPROPERTIES
1002
{
1000
PbHidd
1002
}
  0
LINE
  5
16E
330
1F
100
AcDbEntity
  8
HIDDEN
100
AcDbLine
 10
190.5996854535911
 20
-119.5690591457176
 30
0.0
 11
93.0405320831415
 21
-63.24325568537656
 31
0.0
1001
DBPROPERTIES
1002
{
1000
PbHidd
1002
}
  0
LINE
  5
16F
330
1F
100
AcDbEntity
  8
THICK
100
AcDbLine
 10
189.1227119326005
 20
-121.8917545663307
 30
0.0
 11
185.3979642058128
 21
-119.7412704636063
 31
0.0
1001
DBPROPERTIES
1002
{
1000
PbThick
1002
}
  0
LINE
  5
170
330
1F
100
AcDbEntity
  8
HIDDEN
100
AcDbLine
 10
185.3979642058128
 20
-119.7412704636063
 30
0.0
 11
91.4610102051335
 21
-65.5067447844607
 31
0.0
1001
DBPROPERTIES
1002
{
1000
PbHidd
1002
}
  0
LINE
  5
171
330
1F
100
AcDbEntity
  8
HIDDEN
100
AcDbLine
 10
91.4610102051335
 20
-65.5067447844607
 30
0.0
 11
91.4610102051335
 21
-65.5067447844607
 31
0.0
1001
DBPROPERTIES
1002
{
1000
PbHidd
1002
}
  0
LINE
  5
172
330
1F
100
AcDbEntity
  8
THICK
100
AcDbLine
 10
190.5996854535911
 20
-119.5690591457176
 30
0.0
 11
186.8281426250312
 21
-117.3915578783883
 31
0.0
1001
DBPROPERTIES
1002
{
1000
PbThick
1002
}
  0
LINE
  5
173
330
1F
100
AcDbEntity
  8
HIDDEN
100
AcDbLine
 10
186.8281426250312
 20
-117.3915578783883
 30
0.0
 11
93.0405320831415
 21
-63.24325568537655
 31
0.0
1001
DBPROPERTIES
1002
{
1000
PbHidd
1002
}
  0
LINE
  5
174
330
1F
100
AcDbEntity
  8
HIDDEN
100
AcDbLine
 10
-190.5996854535911
 20
-119.5690591457176
 30
0.0
 11
-93.0405320831415
 21
-63.24325568537655
 31
0.0
1001
DBPROPERTIES
1002
{
1000
PbHidd
1002
}
  0
LINE
  5
175
330
1F
100
AcDbEntity
  8
HIDDEN
100
AcDbLine
 10
-198.8496854535911
 20
-105.2796399832744
 30
0.0
 11
-101.2905320831415
 21
-48.95383652293332
 31
0.0
1001
DBPROPERTIES
1002
{
1000
PbHidd
1002
}
  0
LINE
  5
176
330
1F
100
AcDbEntity
  8
THICK
100
AcDbLine
 10
-200.1227119326005
 20
-102.839195683073
 30
0.0
 11
-196.3979642058127
 21
-100.6887115803487
 31
0.0
1001
DBPROPERTIES
1002
{
1000
PbThick
1002
}
  0
LINE
  5
177
330
1F
100
AcDbEntity
  8
HIDDEN
100
AcDbLine
 10
-196.3979642058127
 20
-100.6887115803487
 30
0.0
 11
-102.4610102051335
 21
-46.45418590120303
 31
0.0
1001
DBPROPERTIES
1002
{
1000
PbHidd
1002
}
  0
LINE
  5
178
330
1F
100
AcDbEntity
  8
HIDDEN
100
AcDbLine
 10
-102.4610102051335
 20
-46.45418590120303
 30
0.0
 11
-102.4610102051335
 21
-46.45418590120303
 31
0.0
1001
DBPROPERTIES
1002
{
1000
PbHidd
1002
}
  0
LINE
  5
179
330
1F
100
AcDbEntity
  8
THICK
100
AcDbLine
 10
-198.8496854535911
 20
-105.2796399832744
 30
0.0
 11
-195.0781426250312
 21
-103.1021387159451
 31
0.0
1001
DBPROPERTIES
1002
{
1000
PbThick
1002
}
  0
LINE
  5
17A
330
1F
100
AcDbEntity
  8
HIDDEN
100
AcDbLine
 10
-195.0781426250312
 20
-103.1021387159451
 30
0.0
 11
-101.2905320831415
 21
-48.95383652293333
 31
0.0
1001
DBPROPERTIES
1002
{
1000
PbHidd
1002
}
  0
LINE
  5
17B
330
1F
100
AcDbEntity
  8
HIDDEN
100
AcDbLine
 10
-8.249999999999986
 20
224.8486991289921
 30
0.0
 11
-8.249999999999993
 21
112.1970922083099
 31
0.0
1001
DBPROPERTIES
1002
{
1000
PbHidd
1002
}
  0
LINE
  5
17C
330
1F
100
AcDbEntity
  8
HIDDEN
100
AcDbLine
 10
8.25
 20
224.8486991289921
 30
0.0
 11
8.25
 21
112.1970922083099
 31
0.0
1001
DBPROPERTIES
1002
{
1000
PbHidd
1002
}
  0
LINE
  5
17D
330
1F
100
AcDbEntity
  8
HIDDEN
100
AcDbLine
 10
11.0
 20
224.7309502494038
 30
0.0
 11
11.0
 21
224.7309502494038
 31
0.0
1001
DBPROPERTIES
1002
{
1000
PbHidd
1002
}
  0
LINE
  5
17E
330
1F
100
AcDbEntity
  8
THICK
100
AcDbLine
 10
10.99999999999999
 20
224.7309502494038
 30
0.0
 11
10.99999999999999
 21
220.4299820439551
 31
0.0
1001
DBPROPERTIES
1002
{
1000
PbThick
1002
}
  0
LINE
  5
17F
330
1F
100
AcDbEntity
  8
HIDDEN
100
AcDbLine
 10
10.99999999999999
 20
220.4299820439551
 30
0.0
 11
11.0
 21
111.9609306856637
 31
0.0
1001
DBPROPERTIES
1002
{
1000
PbHidd
1002
}
  0
LINE
  5
180
330
1F
100
AcDbEntity
  8
THICK
100
AcDbLine
 10
8.249999999999986
 20
224.8486991289921
 30
0.0
 11
8.249999999999986
 21
220.4936965943335
 31
0.0
1001
DBPROPERTIES
1002
{
1000
PbThick
1002
}
  0
LINE
  5
181
330
1F
100
AcDbEntity
  8
HIDDEN
100
AcDbLine
 10
8.249999999999986
 20
220.4936965943335
 30
0.0
 11
8.249999999999993
 21
112.1970922083099
 31
0.0
1001
DBPROPERTIES
1002
{
1000
PbHidd
1002
}
  0
LINE
  5
182
330
1F
100
AcDbEntity
  8
THICK
100
AcDbLine
 10
200.1227119326005
 20
-102.839195683073
 30
0.0
 11
195.9827748132406
 21
-100.4490018727824
 31
0.0
1001
DBPROPERTIES
1002
{
1000
PbThick
1002
}
  0
LINE
  5
183
330
1F
100
AcDbEntity
  8
HIDDEN
100
AcDbLine
 10
195.9827748132406
 20
-100.4490018727824
 30
0.0
 11
102.4610102051335
 21
-46.45418590120303
 31
0.0
1001
DBPROPERTIES
1002
{
1000
PbHidd
1002
}
  0
LINE
  5
184
330
1F
100
AcDbEntity
  8
HIDDEN
100
AcDbLine
 10
102.4610102051335
 20
-46.45418590120303
 30
0.0
 11
102.4610102051335
 21
-46.45418590120303
 31
0.0
1001
DBPROPERTIES
1002
{
1000
PbHidd
1002
}
  0
LINE
  5
185
330
1F
100
AcDbEntity
  8
THICK
100
AcDbLine
 10
198.8496854535911
 20
-105.2796399832744
 30
0.0
 11
194.8160951011913
 21
-102.9508455075157
 31
0.0
1001
DBPROPERTIES
1002
{
1000
PbThick
1002
}
  0
LINE
  5
186
330
1F
100
AcDbEntity
  8
HIDDEN
100
AcDbLine
 10
194.8160951011913
 20
-102.9508455075157
 30
0.0
 11
101.2905320831415
 21
-48.95383652293332
 31
0.0
1001
DBPROPERTIES
1002
{
1000
PbHidd
1002
}
  0
LINE
  5
187
330
1F
100
AcDbEntity
  8
THICK
100
AcDbLine
 10
-189.1227119326005
 20
-121.8917545663307
 30
0.0
 11
-184.9827748132406
 21
-119.5015607560401
 31
0.0
1001
DBPROPERTIES
1002
{
1000
PbThick
1002
}
  0
LINE
  5
188
330
1F
100
AcDbEntity
  8
HIDDEN
100
AcDbLine
 10
-184.9827748132406
 20
-119.5015607560401
 30
0.0
 11
-91.4610102051335
 21
-65.50674478446068
 31
0.0
1001
DBPROPERTIES
1002
{
1000
PbHidd
1002
}
  0
LINE
  5
189
330
1F
100
AcDbEntity
  8
HIDDEN
100
AcDbLine
 10
-91.4610102051335
 20
-65.5067447844607
 30
0.0
 11
-91.4610102051335
 21
-65.5067447844607
 31
0.0
1001
DBPROPERTIES
1002
{
1000
PbHidd
1002
}
  0
LINE
  5
18A
330
1F
100
AcDbEntity
  8
THICK
100
AcDbLine
 10
-190.5996854535911
 20
-119.5690591457176
 30
0.0
 11
-186.5660951011913
 21
-117.2402646699589
 31
0.0
1001
DBPROPERTIES
1002
{
1000
PbThick
1002
}
  0
LINE
  5
18B
330
1F
100
AcDbEntity
  8
HIDDEN
100
AcDbLine
 10
-186.5660951011913
 20
-117.2402646699589
 30
0.0
 11
-93.0405320831415
 21
-63.24325568537656
 31
0.0
1001
DBPROPERTIES
1002
{
1000
PbHidd
1002
}
  0
LINE
  5
18C
330
1F
100
AcDbEntity
  8
THICK
100
AcDbLine
 10
-11.0
 20
224.7309502494038
 30
0.0
 11
-11.0
 21
219.9505626288226
 31
0.0
1001
DBPROPERTIES
1002
{
1000
PbThick
1002
}
  0
LINE
  5
18D
330
1F
100
AcDbEntity
  8
HIDDEN
100
AcDbLine
 10
-11.0
 20
219.9505626288226
 30
0.0
 11
-11.0
 21
111.9609306856637
 31
0.0
1001
DBPROPERTIES
1002
{
1000
PbHidd
1002
}
  0
LINE
  5
18E
330
1F
100
AcDbEntity
  8
HIDDEN
100
AcDbLine
 10
-11.0
 20
224.7309502494038
 30
0.0
 11
-11.0
 21
224.7309502494038
 31
0.0
1001
DBPROPERTIES
1002
{
1000
PbHidd
1002
}
  0
LINE
  5
18F
330
1F
100
AcDbEntity
  8
THICK
100
AcDbLine
 10
-8.25
 20
224.8486991289921
 30
0.0
 11
-8.25
 21
220.1911101774747
 31
0.0
1001
DBPROPERTIES
1002
{
1000
PbThick
1002
}
  0
LINE
  5
190
330
1F
100
AcDbEntity
  8
HIDDEN
100
AcDbLine
 10
-8.25
 20
220.1911101774747
 30
0.0
 11
-8.25
 21
112.1970922083099
 31
0.0
1001
DBPROPERTIES
1002
{
1000
PbHidd
1002
}
  0
ARC
  5
191
330
1F
100
AcDbEntity
  8
HIDDEN
100
AcDbCircle
 10
0.0
 20
0.0
 30
0.0
 40
109.75
100
AcDbArc
 50
270.0000187239684
 51
89.99998127603165
1001
DBPROPERTIES
1002
{
1000
PbHidd
1002
}
  0
ARC
  5
192
330
1F
100
AcDbEntity
  8
HIDDEN
100
AcDbCircle
 10
0.0
 20
0.0
 30
0.0
 40
109.75
100
AcDbArc
 50
89.99998127603165
 51
270.0000187239684
1001
DBPROPERTIES
1002
{
1000
PbHidd
1002
}
  0
ARC
  5
193
330
1F
100
AcDbEntity
  8
HIDDEN
100
AcDbCircle
 10
0.0000000000000135
 20
0.0
 30
0.0
 40
259.75
100
AcDbArc
 50
270.0000187239684
 51
89.99998127603165
1001
DBPROPERTIES
1002
{
1000
PbHidd
1002
}
  0
ARC
  5
194
330
1F
100
AcDbEntity
  8
HIDDEN
100
AcDbCircle
 10
0.0000000000000135
 20
0.0
 30
0.0
 40
259.75
100
AcDbArc
 50
270.0000187239684
 51
89.99998127603165
1001
DBPROPERTIES
1002
{
1000
PbHidd
1002
}
  0
ARC
  5
195
330
1F
100
AcDbEntity
  8
HIDDEN
100
AcDbCircle
 10
0.0
 20
0.0
 30
0.0
 40
259.75
100
AcDbArc
 50
89.99998127603165
 51
270.0000187239684
1001
DBPROPERTIES
1002
{
1000
PbHidd
1002
}
  0
ARC
  5
196
330
1F
100
AcDbEntity
  8
THICK
100
AcDbCircle
 10
0.0
 20
-0.0000000000000002
 30
0.0
 40
262.5
100
AcDbArc
 50
89.99998127603165
 51
180.0000198478428
1001
DBPROPERTIES
1002
{
1000
PbThick
1002
}
  0
ARC
  5
197
330
1F
100
AcDbEntity
  8
HIDDEN
100
AcDbCircle
 10
0.0
 20
0.0
 30
0.0
 40
236.0
100
AcDbArc
 50
0.0
 51
180.0000198478428
1001
DBPROPERTIES
1002
{
1000
PbHidd
1002
}
  0
LINE
  5
198
330
1F
100
AcDbEntity
  8
THICK
100
AcDbLine
 10
116.3737254604065
 20
187.4230669914596
 30
0.0
 11
110.2499997032121
 21
190.9586017058192
 31
0.0
1001
DBPROPERTIES
1002
{
1000
PbThick
1002
}
  0
LINE
  5
199
330
1F
100
AcDbEntity
  8
THICK
100
AcDbLine
 10
194.4941364201789
 20
104.1262739460176
 30
0.0
 11
190.9586017058193
 21
110.249999703212
 31
0.0
1001
DBPROPERTIES
1002
{
1000
PbThick
1002
}
  0
LINE
  5
19A
330
1F
100
AcDbEntity
  8
THICK
100
AcDbLine
 10
220.5
 20
-7.071067810058612
 30
0.0
 11
220.5
 21
-0.0000000000000405
 31
0.0
1001
DBPROPERTIES
1002
{
1000
PbThick
1002
}
  0
LINE
  5
19B
330
1F
100
AcDbEntity
  8
THICK
100
AcDbLine
 10
187.4230669914596
 20
-116.3737254604065
 30
0.0
 11
190.9586017058192
 21
-110.2499997032121
 31
0.0
1001
DBPROPERTIES
1002
{
1000
PbThick
1002
}
  0
LINE
  5
19C
330
1F
100
AcDbEntity
  8
THICK
100
AcDbLine
 10
104.1262739460176
 20
-194.4941364201789
 30
0.0
 11
110.249999703212
 21
-190.9586017058193
 31
0.0
1001
DBPROPERTIES
1002
{
1000
PbThick
1002
}
  0
LINE
  5
19D
330
1F
100
AcDbEntity
  8
THICK
100
AcDbLine
 10
-7.071067810058605
 20
-220.5
 30
0.0
 11
-0.000000000000027
 21
-220.5
 31
0.0
1001
DBPROPERTIES
1002
{
1000
PbThick
1002
}
  0
LINE
  5
19E
330
1F
100
AcDbEntity
  8
THICK
100
AcDbLine
 10
-116.3737254604064
 20
-187.4230669914596
 30
0.0
 11
-110.2499997032121
 21
-190.9586017058192
 31
0.0
1001
DBPROPERTIES
1002
{
1000
PbThick
1002
}
  0
LINE
  5
19F
330
1F
100
AcDbEntity
  8
THICK
100
AcDbLine
 10
-194.4941364201789
 20
-104.1262739460177
 30
0.0
 11
-190.9586017058193
 21
-110.249999703212
 31
0.0
1001
DBPROPERTIES
1002
{
1000
PbThick
1002
}
  0
LINE
  5
1A0
330
1F
100
AcDbEntity
  8
THICK
100
AcDbLine
 10
-220.5
 20
7.071067810058598
 30
0.0
 11
-220.5
 21
0.0000000000000135
 31
0.0
1001
DBPROPERTIES
1002
{
1000
PbThick
1002
}
  0
LINE
  5
1A1
330
1F
100
AcDbEntity
  8
THICK
100
AcDbLine
 10
-187.4230669914597
 20
116.3737254604064
 30
0.0
 11
-190.9586017058193
 21
110.2499997032121
 31
0.0
1001
DBPROPERTIES
1002
{
1000
PbThick
1002
}
  0
LINE
  5
1A2
330
1F
100
AcDbEntity
  8
THICK
100
AcDbLine
 10
-104.1262739460177
 20
194.4941364201789
 30
0.0
 11
-110.249999703212
 21
190.9586017058193
 31
0.0
1001
DBPROPERTIES
1002
{
1000
PbThick
1002
}
  0
LINE
  5
1A3
330
1F
100
AcDbEntity
  8
THICK
100
AcDbLine
 10
7.071067810058591
 20
220.5
 30
0.0
 11
0.0
 21
220.5
 31
0.0
1001
DBPROPERTIES
1002
{
1000
PbThick
1002
}
  0
ENDSEC
  0
SECTION
  2
OBJECTS
  0
DICTIONARY
  5
C
330
0
100
AcDbDictionary
  3
ACAD_GROUP
350
D
  3
ACAD_LAYOUT
350
1A
  3
ACAD_MATERIAL
350
43
  3
ACAD_MLEADERSTYLE
350
6B
  3
ACAD_MLINESTYLE
350
17
  3
ACAD_PLOTSETTINGS
350
19
  3
ACAD_SCALELIST
350
47
  3
ACAD_VISUALSTYLE
350
2A
  3
ACDBVARIABLEDICTIONARY
350
1A4
1001
ACAD
1000
TREAT_AS_HARD
1070
     0
  0
DICTIONARY
  5
D
102
{ACAD_REACTORS
330
C
102
}
330
C
100
AcDbDictionary
1001
ACAD
1000
TREAT_AS_HARD
1070
     0
  0
DICTIONARY
  5
1A
102
{ACAD_REACTORS
330
C
102
}
330
C
100
AcDbDictionary
1001
ACAD
1000
TREAT_AS_HARD
1070
     0
  0
DICTIONARY
  5
43
102
{ACAD_REACTORS
330
C
102
}
330
C
100
AcDbDictionary
  3
BYBLOCK
350
45
  3
BYLAYER
350
44
  3
GLOBAL
350
46
1001
ACAD
1000
TREAT_AS_HARD
1070
     0
  0
DICTIONARY
  5
6B
102
{ACAD_REACTORS
330
C
102
}
330
C
100
AcDbDictionary
  3
STANDARD
350
6C
1001
ACAD
1000
TREAT_AS_HARD
1070
     0
  0
DICTIONARY
  5
17
102
{ACAD_REACTORS
330
C
102
}
330
C
100
AcDbDictionary
  3
STANDARD
350
18
1001
ACAD
1000
TREAT_AS_HARD
1070
     0
  0
DICTIONARY
  5
19
102
{ACAD_REACTORS
330
C
102
}
330
C
100
AcDbDictionary
1001
ACAD
1000
TREAT_AS_HARD
1070
     0
  0
DICTIONARY
  5
47
102
{ACAD_REACTORS
330
C
102
}
330
C
100
AcDbDictionary
  3
A0
350
48
  3
A1
350
49
  3
A2
350
4A
  3
A3
350
4B
  3
A4
350
4C
  3
A5
350
4D
  3
A6
350
4E
  3
A7
350
4F
  3
A8
350
50
  3
A9
350
51
  3
B0
350
52
  3
B1
350
53
  3
B2
350
54
  3
B3
350
55
  3
B4
350
56
  3
B5
350
57
  3
B6
350
58
  3
B7
350
59
  3
B8
350
5A
  3
B9
350
5B
  3
C0
350
5C
  3
C1
350
5D
  3
C2
350
5E
  3
C3
350
5F
  3
C4
350
60
  3
C5
350
61
  3
C6
350
62
  3
C7
350
63
  3
C8
350
64
  3
C9
350
65
  3
D0
350
66
  3
D1
350
67
  3
D2
350
68
1001
ACAD
1000
TREAT_AS_HARD
1070
     0
  0
DICTIONARY
  5
2A
102
{ACAD_REACTORS
330
C
102
}
330
C
100
AcDbDictionary
  3
2DWIREFRAME
350
2F
  3
BASIC
350
32
  3
BRIGHTEN
350
36
  3
COLORCHANGE
350
3A
  3
CONCEPTUAL
350
34
  3
DIM
350
35
  3
EDGECOLOROFF
350
3D
  3
FACEPATTERN
350
39
  3
FLAT
350
2B
  3
FLATWITHEDGES
350
2C
  3
GOURAUD
350
2D
  3
GOURAUDWITHEDGES
350
2E
  3
HIDDEN
350
31
  3
JITTEROFF
350
3B
  3
LINEPATTERN
350
38
  3
OVERHANGOFF
350
3C
  3
REALISTIC
350
33
  3
SHADED
350
42
  3
SHADED_WITH_EDGES
350
41
  3
SHADES_OF_GRAY
350
3E
  3
SKETCHY
350
3F
  3
THICKEN
350
37
  3
WIREFRAME
350
30
  3
X-RAY
350
40
1001
ACAD
1000
TREAT_AS_HARD
1070
     0
  0
DICTIONARY
  5
1A4
102
{ACAD_REACTORS
330
C
102
}
330
C
100
AcDbDictionary
  3
CANNOSCALE
350
1AF
  3
CENTEREXE
350
1AB
  3
CENTERLTYPEFILE
350
1AC
  3
CMLEADERSTYLE
350
1A6
  3
CTABLESTYLE
350
1A5
  3
DIMASSOC
350
1AD
  3
HIDETEXT
350
1AE
  3
MSLTSCALE
350
1B0
  3
PSOLHEIGHT
350
1A8
  3
PSOLWIDTH
350
1A7
1001
ACAD
1000
TREAT_AS_HARD
1070
     0
  0
MATERIAL
  5
45
102
{ACAD_REACTORS
330
43
102
}
102
{ACAD_XDICTIONARY
360
1B3
102
}
330
43
100
AcDbMaterial
  1
BYBLOCK
  0
MATERIAL
  5
44
102
{ACAD_REACTORS
330
43
102
}
102
{ACAD_XDICTIONARY
360
1B1
102
}
330
43
100
AcDbMaterial
  1
BYLAYER
  0
MATERIAL
  5
46
102
{ACAD_REACTORS
330
43
102
}
102
{ACAD_XDICTIONARY
360
1B5
102
}
330
43
100
AcDbMaterial
  1
GLOBAL
  0
ACAD_PROXY_OBJECT
  5
6C
102
{ACAD_REACTORS
330
6B
102
}
330
6B
100
AcDbZombieObject
 90
      499
 91
      505
 93
      610
310
40901902A4063FBFFFFFE0000000000000020400000000000020404214DD185B99185C990000000000000104090141901A00000000000004100000000000000041025764000000000000039000
340
14
340
0
340
11
340
0
 94
        0
1001
ACAD_MLEADERVER
1070
     2
  0
MLINESTYLE
  5
18
102
{ACAD_REACTORS
330
17
102
}
330
17
100
AcDbMlineStyle
  2
Standard
 70
     0
  3

 62
   256
 51
90.0
 52
90.0
 71
     2
 49
0.5
 62
   256
  6
BYLAYER
 49
-0.5
 62
   256
  6
BYLAYER
  0
ACAD_PROXY_OBJECT
  5
48
102
{ACAD_REACTORS
330
47
102
}
330
47
100
AcDbZombieObject
 90
      499
 91
      503
 93
       41
310
903313A31580
  0
ACAD_PROXY_OBJECT
  5
49
102
{ACAD_REACTORS
330
47
102
}
330
47
100
AcDbZombieObject
 90
      499
 91
      503
 93
      105
310
903313A324000000000000004000
  0
ACAD_PROXY_OBJECT
  5
4A
102
{ACAD_REACTORS
330
47
102
}
330
47
100
AcDbZombieObject
 90
      499
 91
      503
 93
      105
310
903313A344000000000000104000
  0
ACAD_PROXY_OBJECT
  5
4B
102
{ACAD_REACTORS
330
47
102
}
330
47
100
AcDbZombieObject
 90
      499
 91
      503
 93
      105
310
903313A354000000000000144000
  0
ACAD_PROXY_OBJECT
  5
4C
102
{ACAD_REACTORS
330
47
102
}
330
47
100
AcDbZombieObject
 90
      499
 91
      503
 93
      105
310
903313A384000000000000204000
  0
ACAD_PROXY_OBJECT
  5
4D
102
{ACAD_REACTORS
330
47
102
}
330
47
100
AcDbZombieObject
 90
      499
 91
      503
 93
      113
310
904313A31304000000000000244000
  0
ACAD_PROXY_OBJECT
  5
4E
102
{ACAD_REACTORS
330
47
102
}
330
47
100
AcDbZombieObject
 90
      499
 91
      503
 93
      113
310
904313A31364000000000000304000
  0
ACAD_PROXY_OBJECT
  5
4F
102
{ACAD_REACTORS
330
47
102
}
330
47
100
AcDbZombieObject
 90
      499
 91
      503
 93
      113
310
904313A32304000000000000344000
  0
ACAD_PROXY_OBJECT
  5
50
102
{ACAD_REACTORS
330
47
102
}
330
47
100
AcDbZombieObject
 90
      499
 91
      503
 93
      113
310
904313A333040000000000003E4000
  0
ACAD_PROXY_OBJECT
  5
51
102
{ACAD_REACTORS
330
47
102
}
330
47
100
AcDbZombieObject
 90
      499
 91
      503
 93
      113
310
904313A34304000000000000444000
  0
ACAD_PROXY_OBJECT
  5
52
102
{ACAD_REACTORS
330
47
102
}
330
47
100
AcDbZombieObject
 90
      499
 91
      503
 93
      113
310
904313A35304000000000000494000
  0
ACAD_PROXY_OBJECT
  5
53
102
{ACAD_REACTORS
330
47
102
}
330
47
100
AcDbZombieObject
 90
      499
 91
      503
 93
      121
310
905313A3130304000000000000594000
  0
ACAD_PROXY_OBJECT
  5
54
102
{ACAD_REACTORS
330
47
102
}
330
47
100
AcDbZombieObject
 90
      499
 91
      503
 93
      105
310
903323A310000000000000010100
  0
ACAD_PROXY_OBJECT
  5
55
102
{ACAD_REACTORS
330
47
102
}
330
47
100
AcDbZombieObject
 90
      499
 91
      503
 93
      105
310
903343A310000000000000410100
  0
ACAD_PROXY_OBJECT
  5
56
102
{ACAD_REACTORS
330
47
102
}
330
47
100
AcDbZombieObject
 90
      499
 91
      503
 93
      105
310
903383A310000000000000810100
  0
ACAD_PROXY_OBJECT
  5
57
102
{ACAD_REACTORS
330
47
102
}
330
47
100
AcDbZombieObject
 90
      499
 91
      503
 93
      113
310
90431303A310000000000000910100
  0
ACAD_PROXY_OBJECT
  5
58
102
{ACAD_REACTORS
330
47
102
}
330
47
100
AcDbZombieObject
 90
      499
 91
      503
 93
      121
310
9053130303A310000000000001650100
  0
ACAD_PROXY_OBJECT
  5
59
102
{ACAD_REACTORS
330
47
102
}
330
47
100
AcDbZombieObject
 90
      499
 91
      503
 93
      257
310
90E312F31323822203D2031272D3022000000000000200FC000000000000284000
  0
ACAD_PROXY_OBJECT
  5
5A
102
{ACAD_REACTORS
330
47
102
}
330
47
100
AcDbZombieObject
 90
      499
 91
      503
 93
      249
310
90D312F363422203D2031272D3022000000000000240FC000000000000284000
  0
ACAD_PROXY_OBJECT
  5
5B
102
{ACAD_REACTORS
330
47
102
}
330
47
100
AcDbZombieObject
 90
      499
 91
      503
 93
      249
310
90D312F333222203D2031272D3022000000000000280FC000000000000284000
  0
ACAD_PROXY_OBJECT
  5
5C
102
{ACAD_REACTORS
330
47
102
}
330
47
100
AcDbZombieObject
 90
      499
 91
      503
 93
      249
310
90D312F313622203D2031272D30220000000000002C0FC000000000000284000
  0
ACAD_PROXY_OBJECT
  5
5D
102
{ACAD_REACTORS
330
47
102
}
330
47
100
AcDbZombieObject
 90
      499
 91
      503
 93
      249
310
90D332F333222203D2031272D30220000000000002E0FC000000000000284000
  0
ACAD_PROXY_OBJECT
  5
5E
102
{ACAD_REACTORS
330
47
102
}
330
47
100
AcDbZombieObject
 90
      499
 91
      503
 93
      241
310
90C312F3822203D2031272D3022000000000000300FC000000000000284000
  0
ACAD_PROXY_OBJECT
  5
5F
102
{ACAD_REACTORS
330
47
102
}
330
47
100
AcDbZombieObject
 90
      499
 91
      503
 93
      249
310
90D332F313622203D2031272D3022000000000000320FC000000000000284000
  0
ACAD_PROXY_OBJECT
  5
60
102
{ACAD_REACTORS
330
47
102
}
330
47
100
AcDbZombieObject
 90
      499
 91
      503
 93
      241
310
90C312F3422203D2031272D3022000000000000340FC000000000000284000
  0
ACAD_PROXY_OBJECT
  5
61
102
{ACAD_REACTORS
330
47
102
}
330
47
100
AcDbZombieObject
 90
      499
 91
      503
 93
      241
310
90C332F3822203D2031272D3022000000000000360FC000000000000284000
  0
ACAD_PROXY_OBJECT
  5
62
102
{ACAD_REACTORS
330
47
102
}
330
47
100
AcDbZombieObject
 90
      499
 91
      503
 93
      241
310
90C312F3222203D2031272D3022000000000000380FC000000000000284000
  0
ACAD_PROXY_OBJECT
  5
63
102
{ACAD_REACTORS
330
47
102
}
330
47
100
AcDbZombieObject
 90
      499
 91
      503
 93
      241
310
90C332F3422203D2031272D30220000000000003A0FC000000000000284000
  0
ACAD_PROXY_OBJECT
  5
64
102
{ACAD_REACTORS
330
47
102
}
330
47
100
AcDbZombieObject
 90
      499
 91
      503
 93
      161
310
90A3122203D2031272D30224000000000000284000
  0
ACAD_PROXY_OBJECT
  5
65
102
{ACAD_REACTORS
330
47
102
}
330
47
100
AcDbZombieObject
 90
      499
 91
      503
 93
      257
310
90E312D312F3222203D2031272D30220000000000003E0FC000000000000284000
  0
ACAD_PROXY_OBJECT
  5
66
102
{ACAD_REACTORS
330
47
102
}
330
47
100
AcDbZombieObject
 90
      499
 91
      503
 93
      225
310
90A3322203D2031272D302200000000000002100000000000000284000
  0
ACAD_PROXY_OBJECT
  5
67
102
{ACAD_REACTORS
330
47
102
}
330
47
100
AcDbZombieObject
 90
      499
 91
      503
 93
      225
310
90A3622203D2031272D302200000000000006100000000000000284000
  0
ACAD_PROXY_OBJECT
  5
68
102
{ACAD_REACTORS
330
47
102
}
330
47
100
AcDbZombieObject
 90
      499
 91
      503
 93
      249
310
90D31272D3022203D2031272D30220000000000000A100000000000000284000
  0
ACAD_PROXY_OBJECT
  5
2F
102
{ACAD_REACTORS
330
2A
102
}
330
2A
100
AcDbZombieObject
 90
      499
 91
      501
 93
      436
310
42CC9915DA5C99599C985B595049028333333333333E33F0000000000000F90107901411070040501600405405064090741402480A0340
1001
ACAD
1000
AcDbSavedByObjectVersion
1070
     0
  0
ACAD_PROXY_OBJECT
  5
32
102
{ACAD_REACTORS
330
2A
102
}
330
2A
100
AcDbZombieObject
 90
      499
 91
      501
 93
      388
310
4150985CDA58D07406404333333333333E33F0000000000000F90107A41107004050150841D405064090741402480A0350
1001
ACAD
1000
AcDbSavedByObjectVersion
1070
     0
  0
ACAD_PROXY_OBJECT
  5
36
102
{ACAD_REACTORS
330
2A
102
}
330
2A
100
AcDbZombieObject
 90
      499
 91
      501
 93
      428
310
42109C9A59DA1D195B90C409028333333333333E33F0000000000000F9010790141107004050150841D405064090741402480A029950
1001
ACAD
1000
AcDbSavedByObjectVersion
1070
     0
  0
ACAD_PROXY_OBJECT
  5
3A
102
{ACAD_REACTORS
330
2A
102
}
330
2A
100
AcDbZombieObject
 90
      499
 91
      501
 93
      452
310
42D0DBDB1BDC90DA185B99D95104090240C333333333333E33F0000000000000F90108901411070040501508421405064090741402480A0350
1001
ACAD
1000
AcDbSavedByObjectVersion
1070
     0
  0
ACAD_PROXY_OBJECT
  5
34
102
{ACAD_REACTORS
330
2A
102
}
330
2A
100
AcDbZombieObject
 90
      499
 91
      501
 93
      500
310
4290DBDB98D95C1D1D585B10940D028333333333333E33F0000000000000F90107902409070040501000000000018199010841D405064090740C02480A0340
1001
ACAD
1000
AcDbSavedByObjectVersion
1070
     0
  0
ACAD_PROXY_OBJECT
  5
35
102
{ACAD_REACTORS
330
2A
102
}
330
2A
100
AcDbZombieObject
 90
      499
 91
      501
 93
      412
310
40D11A5B50B409028333333333333E33F0000000000000F9010790141107004050150841D405064090741402480A02677FFFFFD0
1001
ACAD
1000
AcDbSavedByObjectVersion
1070
     0
  0
ACAD_PROXY_OBJECT
  5
3D
102
{ACAD_REACTORS
330
2A
102
}
330
2A
100
AcDbZombieObject
 90
      499
 91
      501
 93
      452
310
43115919D950DBDB1BDC93D999916409028333333333333E33F0000000000000F9010790141107004050150841D405064090741402480A0350
1001
ACAD
1000
AcDbSavedByObjectVersion
1070
     0
  0
ACAD_PROXY_OBJECT
  5
39
102
{ACAD_REACTORS
330
2A
102
}
330
2A
100
AcDbZombieObject
 90
      499
 91
      501
 93
      444
310
42D19858D95C185D1D195C9B90F409028333333333333E33F0000000000000F9010790141107004050150841D405064090741402480A0350
1001
ACAD
1000
AcDbSavedByObjectVersion
1070
     0
  0
ACAD_PROXY_OBJECT
  5
2B
102
{ACAD_REACTORS
330
2A
102
}
330
2A
100
AcDbZombieObject
 90
      499
 91
      501
 93
      380
310
41119B185D240901404333333333333E33F0000000000000F9010740A907004050150841D405064090741402480A1B50
1001
ACAD
1000
AcDbSavedByObjectVersion
1070
     0
  0
ACAD_PROXY_OBJECT
  5
2C
102
{ACAD_REACTORS
330
2A
102
}
330
2A
100
AcDbZombieObject
 90
      499
 91
      501
 93
      468
310
43519B185D15DA5D1A115919D95CD0140901404333333333333E33F0000000000000F90107409019070040501600405405064090741402480A1B50
1001
ACAD
1000
AcDbSavedByObjectVersion
1070
     0
  0
ACAD_PROXY_OBJECT
  5
2D
102
{ACAD_REACTORS
330
2A
102
}
330
2A
100
AcDbZombieObject
 90
      499
 91
      501
 93
      404
310
41D1DBDD5C985D5910240902404333333333333E33F0000000000000F9010740A9070040501641D405064090741402480A1B50
1001
ACAD
1000
AcDbSavedByObjectVersion
1070
     0
  0
ACAD_PROXY_OBJECT
  5
2E
102
{ACAD_REACTORS
330
2A
102
}
330
2A
100
AcDbZombieObject
 90
      499
 91
      501
 93
      492
310
4411DBDD5C985D5915DA5D1A115919D95CD0340902404333333333333E33F0000000000000F90107409019070040501600405405064090741402480A1B50
1001
ACAD
1000
AcDbSavedByObjectVersion
1070
     0
  0
ACAD_PROXY_OBJECT
  5
31
102
{ACAD_REACTORS
330
2A
102
}
330
2A
100
AcDbZombieObject
 90
      499
 91
      501
 93
      476
310
41921A5919195B90640502408333333333333E33F0000000000000F901079024090700405020000000000001110200405405064090740C02480A0340
1001
ACAD
1000
AcDbSavedByObjectVersion
1070
     0
  0
ACAD_PROXY_OBJECT
  5
3B
102
{ACAD_REACTORS
330
2A
102
}
330
2A
100
AcDbZombieObject
 90
      499
 91
      501
 93
      428
310
42529A5D1D195C93D999914409028333333333333E33F0000000000000F9010790141107004050150A41D405064090741402480A0350
1001
ACAD
1000
AcDbSavedByObjectVersion
1070
     0
  0
ACAD_PROXY_OBJECT
  5
38
102
{ACAD_REACTORS
330
2A
102
}
330
2A
100
AcDbZombieObject
 90
      499
 91
      501
 93
      444
310
42D31A5B995C185D1D195C9B90E409028333333333333E33F0000000000000F9010790141107004050750841D405064090741402483A0350
1001
ACAD
1000
AcDbSavedByObjectVersion
1070
     0
  0
ACAD_PROXY_OBJECT
  5
3C
102
{ACAD_REACTORS
330
2A
102
}
330
2A
100
AcDbZombieObject
 90
      499
 91
      501
 93
      444
310
42D3DD995C9A185B99D3D999915409028333333333333E33F0000000000000F9010790141107004050150941D405064090741402480A0350
1001
ACAD
1000
AcDbSavedByObjectVersion
1070
     0
  0
ACAD_PROXY_OBJECT
  5
33
102
{ACAD_REACTORS
330
2A
102
}
330
2A
100
AcDbZombieObject
 90
      499
 91
      501
 93
      428
310
425499585B1A5CDD1A58D08409038333333333333E33F0000000000000F9010740A907004050150800405405064090740C02480A1B40
1001
ACAD
1000
AcDbSavedByObjectVersion
1070
     0
  0
ACAD_PROXY_OBJECT
  5
42
102
{ACAD_REACTORS
330
2A
102
}
330
2A
100
AcDbZombieObject
 90
      499
 91
      501
 93
      420
310
4194DA1859195911B40902404333333333333E33F0000000000000F9010740A41107004050150800405405064090840C02480A0B40
1001
ACAD
1000
AcDbSavedByObjectVersion
1070
     0
  0
ACAD_PROXY_OBJECT
  5
41
102
{ACAD_REACTORS
330
2A
102
}
330
2A
100
AcDbZombieObject
 90
      499
 91
      501
 93
      516
310
4454DA18591959081DDA5D1A08195919D95CD1A40902404333333333333E33F0000000000000F901074090142907004050250800405405064090740C02480A0B40
1001
ACAD
1000
AcDbSavedByObjectVersion
1070
     0
  0
ACAD_PROXY_OBJECT
  5
3E
102
{ACAD_REACTORS
330
2A
102
}
330
2A
100
AcDbZombieObject
 90
      499
 91
      501
 93
      532
310
4394DA1859195CC81BD98811DC985E5174090240C333333333333E33F0000000000000F901079024090741D01000000000000111010841D405064090740C02480A0340
1001
ACAD
1000
AcDbSavedByObjectVersion
1070
     0
  0
ACAD_PROXY_OBJECT
  5
3F
102
{ACAD_REACTORS
330
2A
102
}
330
2A
100
AcDbZombieObject
 90
      499
 91
      501
 93
      476
310
41D4DAD95D18DA1E51840502408333333333333E33F0000000000000F901079024090741D01000000000000111010B41D405064090741802480A0340
1001
ACAD
1000
AcDbSavedByObjectVersion
1070
     0
  0
ACAD_PROXY_OBJECT
  5
37
102
{ACAD_REACTORS
330
2A
102
}
330
2A
100
AcDbZombieObject
 90
      499
 91
      501
 93
      412
310
41D51A1A58DAD95B90D409028333333333333E33F0000000000000F9010790141107004050150C41D405064090741402480A0350
1001
ACAD
1000
AcDbSavedByObjectVersion
1070
     0
  0
ACAD_PROXY_OBJECT
  5
30
102
{ACAD_REACTORS
330
2A
102
}
330
2A
100
AcDbZombieObject
 90
      499
 91
      501
 93
      420
310
4255DA5C99599C985B595059028333333333333E33F0000000000000F90107901411070040501600405405064090740C02480A0340
1001
ACAD
1000
AcDbSavedByObjectVersion
1070
     0
  0
ACAD_PROXY_OBJECT
  5
40
102
{ACAD_REACTORS
330
2A
102
}
330
2A
100
AcDbZombieObject
 90
      499
 91
      501
 93
      404
310
41560B54985E51940902404000000000000E03F0000000000000F9010740501907004050150841D405064090740C02480A1B40
1001
ACAD
1000
AcDbSavedByObjectVersion
1070
     0
  0
DICTIONARYVAR
  5
1AF
102
{ACAD_REACTORS
330
1A4
102
}
330
1A4
100
DictionaryVariables
280
     0
  1
1:1
  0
DICTIONARYVAR
  5
1AB
102
{ACAD_REACTORS
330
1A4
102
}
330
1A4
100
DictionaryVariables
280
     0
  1
3.500000
  0
DICTIONARYVAR
  5
1AC
102
{ACAD_REACTORS
330
1A4
102
}
330
1A4
100
DictionaryVariables
280
     0
  1
acadiso.lin
  0
DICTIONARYVAR
  5
1A6
102
{ACAD_REACTORS
330
1A4
102
}
330
1A4
100
DictionaryVariables
280
     0
  1
Standard
  0
DICTIONARYVAR
  5
1A5
102
{ACAD_REACTORS
330
1A4
102
}
330
1A4
100
DictionaryVariables
280
     0
  1
Standard
  0
DICTIONARYVAR
  5
1AD
102
{ACAD_REACTORS
330
1A4
102
}
330
1A4
100
DictionaryVariables
280
     0
  1
2
  0
DICTIONARYVAR
  5
1AE
102
{ACAD_REACTORS
330
1A4
102
}
330
1A4
100
DictionaryVariables
280
     0
  1
1
  0
DICTIONARYVAR
  5
1B0
102
{ACAD_REACTORS
330
1A4
102
}
330
1A4
100
DictionaryVariables
280
     0
  1
1
  0
DICTIONARYVAR
  5
1A8
102
{ACAD_REACTORS
330
1A4
102
}
330
1A4
100
DictionaryVariables
280
     0
  1
80.000000
  0
DICTIONARYVAR
  5
1A7
102
{ACAD_REACTORS
330
1A4
102
}
330
1A4
100
DictionaryVariables
280
     0
  1
5.000000
  0
DICTIONARY
  5
1B3
330
45
100
AcDbDictionary
  3
ACAD_XREC_ROUNDTRIP
360
1B4
1001
ACAD
1000
TREAT_AS_HARD
1070
     1
  0
DICTIONARY
  5
1B1
330
44
100
AcDbDictionary
  3
ACAD_XREC_ROUNDTRIP
360
1B2
1001
ACAD
1000
TREAT_AS_HARD
1070
     1
  0
DICTIONARY
  5
1B5
330
46
100
AcDbDictionary
  3
ACAD_XREC_ROUNDTRIP
360
1B6
1001
ACAD
1000
TREAT_AS_HARD
1070
     1
  0
XRECORD
  5
1B4
102
{ACAD_REACTORS
330
1B3
102
}
330
1B3
100
AcDbXrecord
102
MATERIAL
148
0.0
149
0.0
149
0.0
 93
        0
 94
      127
282
     0
 72
     1
 77
     1
171
     1
175
     1
179
     1
273
     0
  0
XRECORD
  5
1B2
102
{ACAD_REACTORS
330
1B1
102
}
330
1B1
100
AcDbXrecord
102
MATERIAL
148
0.0
149
0.0
149
0.0
 93
        0
 94
      127
282
     0
 72
     1
 77
     1
171
     1
175
     1
179
     1
273
     0
  0
XRECORD
  5
1B6
102
{ACAD_REACTORS
330
1B5
102
}
330
1B5
100
AcDbXrecord
102
MATERIAL
148
0.0
149
0.0
149
0.0
 93
        0
 94
      127
282
     0
 72
     1
 77
     1
171
     1
175
     1
179
     1
273
     0
  0
ENDSEC
  0
EOF
