  0
SECTION
  2
HEADER
  9
$ACADVER
  1
AC1012
  9
$DWGCODEPAGE
  3
ansi_1252
  9
$INSBASE
 10
0.0
 20
0.0
 30
0.0
  9
$EXTMIN
 10
1.000000000000000E+20
 20
1.000000000000000E+20
 30
1.000000000000000E+20
  9
$EXTMAX
 10
-1.000000000000000E+20
 20
-1.000000000000000E+20
 30
-1.000000000000000E+20
  9
$LIMMIN
 10
0.0
 20
0.0
  9
$LIMMAX
 10
420.0
 20
297.0
  9
$ORTHOMODE
 70
     0
  9
$REGENMODE
 70
     1
  9
$FILLMODE
 70
     1
  9
$QTEXTMODE
 70
     0
  9
$MIRRTEXT
 70
     1
  9
$DRAGMODE
 70
     2
  9
$LTSCALE
 40
1.0
  9
$OSMODE
 70
    37
  9
$ATTMODE
 70
     1
  9
$TEXTSIZE
 40
2.5
  9
$TRACEWID
 40
1.0
  9
$TEXTSTYLE
  7
STANDARD
  9
$CLAYER
  8
0
  9
$CELTYPE
  6
BYLAYER
  9
$CECOLOR
 62
   256
  9
$CELTSCALE
 40
1.0
  9
$DELOBJ
 70
     1
  9
$DISPSILH
 70
     0
  9
$DIMSCALE
 40
1.0
  9
$DIMASZ
 40
2.5
  9
$DIMEXO
 40
0.625
  9
$DIMDLI
 40
3.75
  9
$DIMRND
 40
0.0
  9
$DIMDLE
 40
0.0
  9
$DIMEXE
 40
1.25
  9
$DIMTP
 40
0.0
  9
$DIMTM
 40
0.0
  9
$DIMTXT
 40
2.5
  9
$DIMCEN
 40
2.5
  9
$DIMTSZ
 40
0.0
  9
$DIMTOL
 70
     0
  9
$DIMLIM
 70
     0
  9
$DIMTIH
 70
     0
  9
$DIMTOH
 70
     0
  9
$DIMSE1
 70
     0
  9
$DIMSE2
 70
     0
  9
$DIMTAD
 70
     1
  9
$DIMZIN
 70
     8
  9
$DIMBLK
  1

  9
$DIMASO
 70
     1
  9
$DIMSHO
 70
     1
  9
$DIMPOST
  1

  9
$DIMAPOST
  1

  9
$DIMALT
 70
     0
  9
$DIMALTD
 70
     3
  9
$DIMALTF
 40
0.03937007874016
  9
$DIMLFAC
 40
1.0
  9
$DIMTOFL
 70
     1
  9
$DIMTVP
 40
0.0
  9
$DIMTIX
 70
     0
  9
$DIMSOXD
 70
     0
  9
$DIMSAH
 70
     0
  9
$DIMBLK1
  1

  9
$DIMBLK2
  1

  9
$DIMSTYLE
  2
ISO-25
  9
$DIMCLRD
 70
     0
  9
$DIMCLRE
 70
     0
  9
$DIMCLRT
 70
     0
  9
$DIMTFAC
 40
1.0
  9
$DIMGAP
 40
0.625
  9
$DIMJUST
 70
     0
  9
$DIMSD1
 70
     0
  9
$DIMSD2
 70
     0
  9
$DIMTOLJ
 70
     0
  9
$DIMTZIN
 70
     8
  9
$DIMALTZ
 70
     0
  9
$DIMALTTZ
 70
     0
  9
$DIMFIT
 70
     3
  9
$DIMUPT
 70
     0
  9
$DIMUNIT
 70
     2
  9
$DIMDEC
 70
     2
  9
$DIMTDEC
 70
     2
  9
$DIMALTU
 70
     2
  9
$DIMALTTD
 70
     3
  9
$DIMTXSTY
  7
STANDARD
  9
$DIMAUNIT
 70
     0
  9
$LUNITS
 70
     2
  9
$LUPREC
 70
     4
  9
$SKETCHINC
 40
1.0
  9
$FILLETRAD
 40
10.0
  9
$AUNITS
 70
     0
  9
$AUPREC
 70
     0
  9
$MENU
  1
.
  9
$ELEVATION
 40
0.0
  9
$PELEVATION
 40
0.0
  9
$THICKNESS
 40
0.0
  9
$LIMCHECK
 70
     0
  9
$CHAMFERA
 40
0.0
  9
$CHAMFERB
 40
0.0
  9
$CHAMFERC
 40
0.0
  9
$CHAMFERD
 40
0.0
  9
$SKPOLY
 70
     0
  9
$TDCREATE
 40
2457968.445990579
  9
$TDUPDATE
 40
2457968.445991655
  9
$TDINDWG
 40
0.0000000116
  9
$TDUSRTIMER
 40
0.0000000116
  9
$USRTIMER
 70
     1
  9
$ANGBASE
 50
0.0
  9
$ANGDIR
 70
     0
  9
$PDMODE
 70
     0
  9
$PDSIZE
 40
0.0
  9
$PLINEWID
 40
0.0
  9
$COORDS
 70
     1
  9
$SPLFRAME
 70
     0
  9
$SPLINETYPE
 70
     6
  9
$SPLINESEGS
 70
     8
  9
$ATTDIA
 70
     0
  9
$ATTREQ
 70
     1
  9
$HANDLING
 70
     1
  9
$HANDSEED
  5
178
  9
$SURFTAB1
 70
     6
  9
$SURFTAB2
 70
     6
  9
$SURFTYPE
 70
     6
  9
$SURFU
 70
     6
  9
$SURFV
 70
     6
  9
$UCSNAME
  2

  9
$UCSORG
 10
0.0
 20
0.0
 30
0.0
  9
$UCSXDIR
 10
1.0
 20
0.0
 30
0.0
  9
$UCSYDIR
 10
0.0
 20
1.0
 30
0.0
  9
$PUCSNAME
  2

  9
$PUCSORG
 10
0.0
 20
0.0
 30
0.0
  9
$PUCSXDIR
 10
1.0
 20
0.0
 30
0.0
  9
$PUCSYDIR
 10
0.0
 20
1.0
 30
0.0
  9
$USERI1
 70
     0
  9
$USERI2
 70
     0
  9
$USERI3
 70
     0
  9
$USERI4
 70
     0
  9
$USERI5
 70
     0
  9
$USERR1
 40
0.0
  9
$USERR2
 40
0.0
  9
$USERR3
 40
0.0
  9
$USERR4
 40
0.0
  9
$USERR5
 40
0.0
  9
$WORLDVIEW
 70
     1
  9
$SHADEDGE
 70
     3
  9
$SHADEDIF
 70
    70
  9
$TILEMODE
 70
     1
  9
$MAXACTVP
 70
    64
  9
$PINSBASE
 10
0.0
 20
0.0
 30
0.0
  9
$PLIMCHECK
 70
     0
  9
$PEXTMIN
 10
1.000000000000000E+20
 20
1.000000000000000E+20
 30
1.000000000000000E+20
  9
$PEXTMAX
 10
-1.000000000000000E+20
 20
-1.000000000000000E+20
 30
-1.000000000000000E+20
  9
$PLIMMIN
 10
0.0
 20
0.0
  9
$PLIMMAX
 10
420.0
 20
297.0
  9
$UNITMODE
 70
     0
  9
$VISRETAIN
 70
     1
  9
$PLINEGEN
 70
     0
  9
$PSLTSCALE
 70
     1
  9
$TREEDEPTH
 70
  3020
  9
$PICKSTYLE
 70
     1
  9
$CMLSTYLE
  2
STANDARD
  9
$CMLJUST
 70
     0
  9
$CMLSCALE
 40
20.0
  9
$SAVEIMAGES
 70
     1
  0
ENDSEC
  0
SECTION
  2
CLASSES
  0
CLASS
  1
ACDBDICTIONARYWDFLT
  2
AcDbDictionaryWithDefault
  3
ObjectDBX Classes
 90
    32768
280
     0
281
     0
  0
CLASS
  1
VISUALSTYLE
  2
AcDbVisualStyle
  3
ObjectDBX Classes
 90
     4095
280
     0
281
     0
  0
CLASS
  1
MATERIAL
  2
AcDbMaterial
  3
ObjectDBX Classes
 90
     1153
280
     0
281
     0
  0
CLASS
  1
SCALE
  2
AcDbScale
  3
ObjectDBX Classes
 90
     1153
280
     0
281
     0
  0
CLASS
  1
TABLESTYLE
  2
AcDbTableStyle
  3
ObjectDBX Classes
 90
     4095
280
     0
281
     0
  0
CLASS
  1
MLEADERSTYLE
  2
AcDbMLeaderStyle
  3
ACDB_MLEADERSTYLE_CLASS
 90
     4095
280
     0
281
     0
  0
CLASS
  1
SUN
  2
AcDbSun
  3
SCENEOE
 90
     1153
280
     0
281
     0
  0
CLASS
  1
DICTIONARYVAR
  2
AcDbDictionaryVar
  3
ObjectDBX Classes
 90
        0
280
     0
281
     0
  0
CLASS
  1
XRECORD
  2
AcDbXrecord
  3
ObjectDBX Classes
 90
    32768
280
     0
281
     0
  0
CLASS
  1
LWPOLYLINE
  2
AcDbPolyline
  3
ObjectDBX Classes
 90
    32768
280
     0
281
     1
  0
CLASS
  1
HATCH
  2
AcDbHatch
  3
ObjectDBX Classes
 90
    32768
280
     0
281
     1
  0
CLASS
  1
ACDBPLACEHOLDER
  2
AcDbPlaceHolder
  3
ObjectDBX Classes
 90
        0
280
     0
281
     0
  0
CLASS
  1
LAYOUT
  2
AcDbLayout
  3
ObjectDBX Classes
 90
        0
280
     0
281
     0
  0
ENDSEC
  0
SECTION
  2
TABLES
  0
TABLE
  2
VPORT
  5
8
330
0
100
AcDbSymbolTable
 70
     1
  0
VPORT
  5
29
330
8
100
AcDbSymbolTableRecord
100
AcDbViewportTableRecord
  2
*ACTIVE
 70
     0
 10
0.0
 20
0.0
 11
1.0
 21
1.0
 12
5.000000000000057
 22
-0.0000000000000568
 13
0.0
 23
0.0
 14
10.0
 24
10.0
 15
10.0
 25
10.0
 16
0.0
 26
0.0
 36
1.0
 17
0.0
 27
0.0
 37
0.0
 40
688.5
 41
1.511111111111111
 42
50.0
 43
0.0
 44
0.0
 50
0.0
 51
0.0
 71
     0
 72
   100
 73
     1
 74
     3
 75
     0
 76
     0
 77
     0
 78
     0
  0
ENDTAB
  0
TABLE
  2
LTYPE
  5
5
330
0
100
AcDbSymbolTable
 70
     1
  0
LTYPE
  5
14
330
5
100
AcDbSymbolTableRecord
100
AcDbLinetypeTableRecord
  2
BYBLOCK
 70
     0
  3

 72
    65
 73
     0
 40
0.0
  0
LTYPE
  5
15
330
5
100
AcDbSymbolTableRecord
100
AcDbLinetypeTableRecord
  2
BYLAYER
 70
     0
  3

 72
    65
 73
     0
 40
0.0
  0
LTYPE
  5
16
330
5
100
AcDbSymbolTableRecord
100
AcDbLinetypeTableRecord
  2
CONTINUOUS
 70
     0
  3
Solid line
 72
    65
 73
     0
 40
0.0
  0
ENDTAB
  0
TABLE
  2
LAYER
  5
2
330
0
100
AcDbSymbolTable
 70
     4
  0
LAYER
  5
10
330
2
100
AcDbSymbolTableRecord
100
AcDbLayerTableRecord
  2
0
 70
     0
 62
     7
  6
CONTINUOUS
  0
LAYER
  5
6E
330
2
100
AcDbSymbolTableRecord
100
AcDbLayerTableRecord
  2
THICK
 70
     0
 62
     7
  6
CONTINUOUS
  0
LAYER
  5
6F
330
2
100
AcDbSymbolTableRecord
100
AcDbLayerTableRecord
  2
HIDDEN
 70
     0
 62
     7
  6
CONTINUOUS
  0
LAYER
  5
70
330
2
100
AcDbSymbolTableRecord
100
AcDbLayerTableRecord
  2
HASHLINES
 70
     0
 62
     7
  6
CONTINUOUS
  0
ENDTAB
  0
TABLE
  2
STYLE
  5
3
330
0
100
AcDbSymbolTable
 70
     1
  0
STYLE
  5
11
330
3
100
AcDbSymbolTableRecord
100
AcDbTextStyleTableRecord
  2
STANDARD
 70
     0
 40
0.0
 41
1.0
 50
0.0
 71
     0
 42
2.5
  3
txt
  4

  0
ENDTAB
  0
TABLE
  2
VIEW
  5
6
330
0
100
AcDbSymbolTable
 70
     0
  0
ENDTAB
  0
TABLE
  2
UCS
  5
7
330
0
100
AcDbSymbolTable
 70
     0
  0
ENDTAB
  0
TABLE
  2
APPID
  5
9
330
0
100
AcDbSymbolTable
 70
     3
  0
APPID
  5
12
330
9
100
AcDbSymbolTableRecord
100
AcDbRegAppTableRecord
  2
ACAD
 70
     0
  0
APPID
  5
71
330
9
100
AcDbSymbolTableRecord
100
AcDbRegAppTableRecord
  2
DBPROPERTIES
 70
     0
  0
APPID
  5
177
330
9
100
AcDbSymbolTableRecord
100
AcDbRegAppTableRecord
  2
ACAD_MLEADERVER
 70
     0
  0
ENDTAB
  0
TABLE
  2
DIMSTYLE
  5
A
330
0
100
AcDbSymbolTable
 70
     1
  0
DIMSTYLE
105
27
330
A
100
AcDbSymbolTableRecord
100
AcDbDimStyleTableRecord
  2
ISO-25
 70
     0
  3

  4

  5

  6

  7

 40
1.0
 41
2.5
 42
0.625
 43
3.75
 44
1.25
 45
0.0
 46
0.0
 47
0.0
 48
0.0
140
2.5
141
2.5
142
0.0
143
0.03937007874016
144
1.0
145
0.0
146
1.0
147
0.625
 71
     0
 72
     0
 73
     0
 74
     0
 75
     0
 76
     0
 77
     1
 78
     8
170
     0
171
     3
172
     1
173
     0
174
     0
175
     0
176
     0
177
     0
178
     0
270
     2
271
     2
272
     2
273
     2
274
     3
340
11
275
     0
280
     0
281
     0
282
     0
283
     0
284
     8
285
     0
286
     0
287
     3
288
     0
  0
ENDTAB
  0
TABLE
  2
BLOCK_RECORD
  5
1
330
0
100
AcDbSymbolTable
 70
     0
  0
BLOCK_RECORD
  5
1F
330
1
100
AcDbSymbolTableRecord
100
AcDbBlockTableRecord
  2
*MODEL_SPACE
  0
BLOCK_RECORD
  5
1B
330
1
100
AcDbSymbolTableRecord
100
AcDbBlockTableRecord
  2
*PAPER_SPACE
  0
ENDTAB
  0
ENDSEC
  0
SECTION
  2
BLOCKS
  0
BLOCK
  5
20
330
1F
100
AcDbEntity
  8
0
100
AcDbBlockBegin
  2
*MODEL_SPACE
 70
     0
 10
0.0
 20
0.0
 30
0.0
  3
*MODEL_SPACE
  1

  0
ENDBLK
  5
21
330
1F
100
AcDbEntity
  8
0
100
AcDbBlockEnd
  0
BLOCK
  5
1C
330
1B
100
AcDbEntity
 67
     1
  8
0
100
AcDbBlockBegin
  2
*PAPER_SPACE
 70
     0
 10
0.0
 20
0.0
 30
0.0
  3
*PAPER_SPACE
  1

  0
ENDBLK
  5
1D
330
1B
100
AcDbEntity
 67
     1
  8
0
100
AcDbBlockEnd
  0
ENDSEC
  0
SECTION
  2
ENTITIES
  0
LINE
  5
72
330
1F
100
AcDbEntity
  8
HIDDEN
100
AcDbLine
 10
475.0
 20
332.5
 30
0.0
 11
475.0
 21
332.5
 31
0.0
1001
DBPROPERTIES
1002
{
1000
PbHidd
1002
}
  0
LINE
  5
73
330
1F
100
AcDbEntity
  8
THICK
100
AcDbLine
 10
475.0
 20
-332.5
 30
0.0
 11
475.0
 21
332.5
 31
0.0
1001
DBPROPERTIES
1002
{
1000
PbThick
1002
}
  0
LINE
  5
74
330
1F
100
AcDbEntity
  8
HIDDEN
100
AcDbLine
 10
475.0
 20
-332.5000000000001
 30
0.0
 11
475.0
 21
-332.5000000000001
 31
0.0
1001
DBPROPERTIES
1002
{
1000
PbHidd
1002
}
  0
LINE
  5
75
330
1F
100
AcDbEntity
  8
HIDDEN
100
AcDbLine
 10
475.0
 20
-250.0
 30
0.0
 11
475.0
 21
-250.0
 31
0.0
1001
DBPROPERTIES
1002
{
1000
PbHidd
1002
}
  0
LINE
  5
76
330
1F
100
AcDbEntity
  8
HIDDEN
100
AcDbLine
 10
475.0
 20
250.0
 30
0.0
 11
475.0
 21
250.0
 31
0.0
1001
DBPROPERTIES
1002
{
1000
PbHidd
1002
}
  0
ARC
  5
77
330
1F
100
AcDbEntity
  8
THICK
100
AcDbCircle
 10
-171.35
 20
33.84999999999999
 30
0.0
 40
225.65
100
AcDbArc
 50
318.6923212811457
 51
0.0
1001
DBPROPERTIES
1002
{
1000
PbThick
1002
}
  0
LINE
  5
78
330
1F
100
AcDbEntity
  8
HIDDEN
100
AcDbLine
 10
-1.847164477994498
 20
-115.1020434569461
 30
0.0
 11
-1.847164477994523
 21
-115.1020434569461
 31
0.0
1001
DBPROPERTIES
1002
{
1000
PbHidd
1002
}
  0
ARC
  5
79
330
1F
100
AcDbEntity
  8
HIDDEN
100
AcDbCircle
 10
-171.35
 20
33.84999999999999
 30
0.0
 40
221.65
100
AcDbArc
 50
212.5789906368704
 51
0.0
1001
DBPROPERTIES
1002
{
1000
PbHidd
1002
}
  0
LINE
  5
7A
330
1F
100
AcDbEntity
  8
HIDDEN
100
AcDbLine
 10
-358.1233921092617
 20
-85.5
 30
0.0
 11
-358.1233921092617
 21
-85.5
 31
0.0
1001
DBPROPERTIES
1002
{
1000
PbHidd
1002
}
  0
ARC
  5
7B
330
1F
100
AcDbEntity
  8
HIDDEN
100
AcDbCircle
 10
-171.35
 20
33.84999999999999
 30
0.0
 40
114.825
100
AcDbArc
 50
180.0000198478428
 51
0.0
1001
DBPROPERTIES
1002
{
1000
PbHidd
1002
}
  0
ARC
  5
7C
330
1F
100
AcDbEntity
  8
THICK
100
AcDbCircle
 10
-171.35
 20
33.84999999999999
 30
0.0
 40
110.825
100
AcDbArc
 50
342.8671868268801
 51
0.0
1001
DBPROPERTIES
1002
{
1000
PbThick
1002
}
  0
ARC
  5
7D
330
1F
100
AcDbEntity
  8
HIDDEN
100
AcDbCircle
 10
-171.35
 20
33.84999999999999
 30
0.0
 40
110.825
100
AcDbArc
 50
337.4687211853779
 51
342.8671868268801
1001
DBPROPERTIES
1002
{
1000
PbHidd
1002
}
  0
ARC
  5
7E
330
1F
100
AcDbEntity
  8
THICK
100
AcDbCircle
 10
-171.35
 20
33.84999999999999
 30
0.0
 40
110.825
100
AcDbArc
 50
180.0000198478428
 51
337.4687211853779
1001
DBPROPERTIES
1002
{
1000
PbThick
1002
}
  0
LINE
  5
7F
330
1F
100
AcDbEntity
  8
HIDDEN
100
AcDbLine
 10
-80.76425070257595
 20
-29.99671212540423
 30
0.0
 11
-80.76425070257595
 21
-29.99671212540423
 31
0.0
1001
DBPROPERTIES
1002
{
1000
PbHidd
1002
}
  0
LINE
  5
80
330
1F
100
AcDbEntity
  8
HIDDEN
100
AcDbLine
 10
-70.76425070257595
 20
-12.67620404971545
 30
0.0
 11
-70.76425070257595
 21
-12.67620404971545
 31
0.0
1001
DBPROPERTIES
1002
{
1000
PbHidd
1002
}
  0
LINE
  5
81
330
1F
100
AcDbEntity
  8
HIDDEN
100
AcDbLine
 10
-271.935749297424
 20
-12.67620404971545
 30
0.0
 11
-271.935749297424
 21
-12.67620404971545
 31
0.0
1001
DBPROPERTIES
1002
{
1000
PbHidd
1002
}
  0
LINE
  5
82
330
1F
100
AcDbEntity
  8
HIDDEN
100
AcDbLine
 10
-261.935749297424
 20
-29.99671212540423
 30
0.0
 11
-261.935749297424
 21
-29.99671212540423
 31
0.0
1001
DBPROPERTIES
1002
{
1000
PbHidd
1002
}
  0
ARC
  5
83
330
1F
100
AcDbEntity
  8
HIDDEN
100
AcDbCircle
 10
-171.35
 20
33.84999999999999
 30
0.0
 40
10.0
100
AcDbArc
 50
180.0000198478428
 51
0.0
1001
DBPROPERTIES
1002
{
1000
PbHidd
1002
}
  0
ARC
  5
84
330
1F
100
AcDbEntity
  8
HIDDEN
100
AcDbCircle
 10
108.7022606176459
 20
176.5437539731369
 30
0.0
 40
10.0
100
AcDbArc
 50
206.9999859941226
 51
27.0000058419654
1001
DBPROPERTIES
1002
{
1000
PbHidd
1002
}
  0
ARC
  5
85
330
1F
100
AcDbEntity
  8
HIDDEN
100
AcDbCircle
 10
108.7022606176459
 20
176.5437539731369
 30
0.0
 40
75.36099999999999
100
AcDbArc
 50
116.9999871179971
 51
206.9999859941226
1001
DBPROPERTIES
1002
{
1000
PbHidd
1002
}
  0
ARC
  5
86
330
1F
100
AcDbEntity
  8
HIDDEN
100
AcDbCircle
 10
108.7022606176459
 20
176.5437539731369
 30
0.0
 40
79.79400000000001
100
AcDbArc
 50
155.9424387627718
 51
206.9999859941226
1001
DBPROPERTIES
1002
{
1000
PbHidd
1002
}
  0
ARC
  5
87
330
1F
100
AcDbEntity
  8
HIDDEN
100
AcDbCircle
 10
108.7022606176459
 20
176.5437539731369
 30
0.0
 40
75.36099999999999
100
AcDbArc
 50
27.0000058419654
 51
116.9999871179971
1001
DBPROPERTIES
1002
{
1000
PbHidd
1002
}
  0
ARC
  5
88
330
1F
100
AcDbEntity
  8
THICK
100
AcDbCircle
 10
108.7022606176459
 20
176.5437539731369
 30
0.0
 40
75.36099999999999
100
AcDbArc
 50
27.0000058419654
 51
116.9999871179971
1001
DBPROPERTIES
1002
{
1000
PbThick
1002
}
  0
ARC
  5
89
330
1F
100
AcDbEntity
  8
THICK
100
AcDbCircle
 10
108.7022606176459
 20
176.5437539731369
 30
0.0
 40
79.79400000000001
100
AcDbArc
 50
27.0000058419654
 51
155.9424387627718
1001
DBPROPERTIES
1002
{
1000
PbThick
1002
}
  0
ARC
  5
8A
330
1F
100
AcDbEntity
  8
THICK
100
AcDbCircle
 10
108.7022606176459
 20
176.5437539731369
 30
0.0
 40
79.79400000000001
100
AcDbArc
 50
166.0271262106489
 51
206.9999859941226
1001
DBPROPERTIES
1002
{
1000
PbThick
1002
}
  0
ARC
  5
8B
330
1F
100
AcDbEntity
  8
HIDDEN
100
AcDbCircle
 10
108.7022606176459
 20
176.5437539731369
 30
0.0
 40
79.79400000000001
100
AcDbArc
 50
160.7351161274821
 51
166.0271262106489
1001
DBPROPERTIES
1002
{
1000
PbHidd
1002
}
  0
ARC
  5
8C
330
1F
100
AcDbEntity
  8
THICK
100
AcDbCircle
 10
108.7022606176459
 20
176.5437539731369
 30
0.0
 40
79.79400000000001
100
AcDbArc
 50
155.9424387627718
 51
160.7351161274821
1001
DBPROPERTIES
1002
{
1000
PbThick
1002
}
  0
ARC
  5
8D
330
1F
100
AcDbEntity
  8
THICK
100
AcDbCircle
 10
108.7022606176459
 20
176.5437539731369
 30
0.0
 40
75.36099999999999
100
AcDbArc
 50
116.9999871179971
 51
158.0356254757232
1001
DBPROPERTIES
1002
{
1000
PbThick
1002
}
  0
ARC
  5
8E
330
1F
100
AcDbEntity
  8
HIDDEN
100
AcDbCircle
 10
108.7022606176459
 20
176.5437539731369
 30
0.0
 40
75.36099999999999
100
AcDbArc
 50
158.0356254757232
 51
163.8212959951747
1001
DBPROPERTIES
1002
{
1000
PbHidd
1002
}
  0
ARC
  5
8F
330
1F
100
AcDbEntity
  8
THICK
100
AcDbCircle
 10
108.7022606176459
 20
176.5437539731369
 30
0.0
 40
75.36099999999999
100
AcDbArc
 50
163.8212959951747
 51
206.9999859941226
1001
DBPROPERTIES
1002
{
1000
PbThick
1002
}
  0
ARC
  5
90
330
1F
100
AcDbEntity
  8
THICK
100
AcDbCircle
 10
108.7022606176459
 20
176.5437539731369
 30
0.0
 40
79.79400000000001
100
AcDbArc
 50
258.057572921159
 51
27.0000058419654
1001
DBPROPERTIES
1002
{
1000
PbThick
1002
}
  0
LINE
  5
91
330
1F
100
AcDbEntity
  8
HIDDEN
100
AcDbLine
 10
92.19057203007716
 20
98.47681746358026
 30
0.0
 11
92.19057203007716
 21
98.47681746358026
 31
0.0
1001
DBPROPERTIES
1002
{
1000
PbHidd
1002
}
  0
ARC
  5
92
330
1F
100
AcDbEntity
  8
HIDDEN
100
AcDbCircle
 10
-171.35
 20
33.84999999999999
 30
0.0
 40
88.66000000000001
100
AcDbArc
 50
313.9218173831069
 51
0.0
1001
DBPROPERTIES
1002
{
1000
PbHidd
1002
}
  0
LINE
  5
93
330
1F
100
AcDbEntity
  8
HIDDEN
100
AcDbLine
 10
-109.8486454881941
 20
-30.01062161624469
 30
0.0
 11
-109.8486454881941
 21
-30.01062161624469
 31
0.0
1001
DBPROPERTIES
1002
{
1000
PbHidd
1002
}
  0
ARC
  5
94
330
1F
100
AcDbEntity
  8
THICK
100
AcDbCircle
 10
-171.35
 20
33.84999999999999
 30
0.0
 40
99.7425
100
AcDbArc
 50
180.0000198478428
 51
0.0
1001
DBPROPERTIES
1002
{
1000
PbThick
1002
}
  0
ARC
  5
95
330
1F
100
AcDbEntity
  8
HIDDEN
100
AcDbCircle
 10
108.7022606176459
 20
176.5437539731369
 30
0.0
 40
44.33
100
AcDbArc
 50
206.9999859941226
 51
292.7661529388145
1001
DBPROPERTIES
1002
{
1000
PbHidd
1002
}
  0
LINE
  5
96
330
1F
100
AcDbEntity
  8
HIDDEN
100
AcDbLine
 10
125.8566889636012
 20
135.6674223358253
 30
0.0
 11
125.8566889636012
 21
135.6674223358253
 31
0.0
1001
DBPROPERTIES
1002
{
1000
PbHidd
1002
}
  0
ARC
  5
97
330
1F
100
AcDbEntity
  8
THICK
100
AcDbCircle
 10
108.7022606176459
 20
176.5437539731369
 30
0.0
 40
53.19600000000001
100
AcDbArc
 50
206.9999859941226
 51
27.0000058419654
1001
DBPROPERTIES
1002
{
1000
PbThick
1002
}
  0
ARC
  5
98
330
1F
100
AcDbEntity
  8
HIDDEN
100
AcDbCircle
 10
-171.35
 20
33.85000000000004
 30
0.0
 40
93.66000000000001
100
AcDbArc
 50
206.9999859941226
 51
306.999971555911
1001
DBPROPERTIES
1002
{
1000
PbHidd
1002
}
  0
LINE
  5
99
330
1F
100
AcDbEntity
  8
HIDDEN
100
AcDbLine
 10
-114.9840049315792
 20
-40.95020187102945
 30
0.0
 11
-114.9840049315792
 21
-40.95020187102945
 31
0.0
1001
DBPROPERTIES
1002
{
1000
PbHidd
1002
}
  0
ARC
  5
9A
330
1F
100
AcDbEntity
  8
HIDDEN
100
AcDbCircle
 10
108.7022606176459
 20
176.543753973137
 30
0.0
 40
49.33
100
AcDbArc
 50
306.999971555911
 51
27.0000058419654
1001
DBPROPERTIES
1002
{
1000
PbHidd
1002
}
  0
LINE
  5
9B
330
1F
100
AcDbEntity
  8
HIDDEN
100
AcDbLine
 10
138.3897957097364
 20
137.147064262504
 30
0.0
 11
138.3897957097364
 21
137.147064262504
 31
0.0
1001
DBPROPERTIES
1002
{
1000
PbHidd
1002
}
  0
LINE
  5
9C
330
1F
100
AcDbEntity
  8
HIDDEN
100
AcDbLine
 10
-22.39795654305364
 20
-115.102043456946
 30
0.0
 11
-22.39795654305364
 21
-115.102043456946
 31
0.0
1001
DBPROPERTIES
1002
{
1000
PbHidd
1002
}
  0
LINE
  5
9D
330
1F
100
AcDbEntity
  8
HIDDEN
100
AcDbLine
 10
-22.39795654305364
 20
-115.102043456946
 30
0.0
 11
-22.39795654305364
 21
-115.102043456946
 31
0.0
1001
DBPROPERTIES
1002
{
1000
PbHidd
1002
}
  0
LINE
  5
9E
330
1F
100
AcDbEntity
  8
THICK
100
AcDbLine
 10
-22.39795654305364
 20
-115.1020434569461
 30
0.0
 11
17.60204345694633
 21
-115.1020434569461
 31
0.0
1001
DBPROPERTIES
1002
{
1000
PbThick
1002
}
  0
LINE
  5
9F
330
1F
100
AcDbEntity
  8
HIDDEN
100
AcDbLine
 10
17.60204345694633
 20
-115.1020434569461
 30
0.0
 11
17.60204345694633
 21
-115.1020434569461
 31
0.0
1001
DBPROPERTIES
1002
{
1000
PbHidd
1002
}
  0
LINE
  5
A0
330
1F
100
AcDbEntity
  8
HIDDEN
100
AcDbLine
 10
-320.3020434569463
 20
-115.1020434569462
 30
0.0
 11
-320.3020434569463
 21
-115.1020434569462
 31
0.0
1001
DBPROPERTIES
1002
{
1000
PbHidd
1002
}
  0
ARC
  5
A1
330
1F
100
AcDbEntity
  8
THICK
100
AcDbCircle
 10
-171.35
 20
33.85000000000005
 30
0.0
 40
210.65
100
AcDbArc
 50
225.0000280859525
 51
315.0000093619842
1001
DBPROPERTIES
1002
{
1000
PbThick
1002
}
  0
LINE
  5
A2
330
1F
100
AcDbEntity
  8
HIDDEN
100
AcDbLine
 10
-360.3020434569463
 20
-271.0
 30
0.0
 11
-360.3020434569463
 21
-271.0
 31
0.0
1001
DBPROPERTIES
1002
{
1000
PbHidd
1002
}
  0
LINE
  5
A3
330
1F
100
AcDbEntity
  8
HIDDEN
100
AcDbLine
 10
17.60204345694622
 20
-271.0
 30
0.0
 11
17.60204345694622
 21
-271.0
 31
0.0
1001
DBPROPERTIES
1002
{
1000
PbHidd
1002
}
  0
LINE
  5
A4
330
1F
100
AcDbEntity
  8
THICK
100
AcDbLine
 10
17.60204345694621
 20
-271.0
 30
0.0
 11
-360.3020434569464
 21
-271.0
 31
0.0
1001
DBPROPERTIES
1002
{
1000
PbThick
1002
}
  0
LINE
  5
A5
330
1F
100
AcDbEntity
  8
HIDDEN
100
AcDbLine
 10
17.60204345694622
 20
-271.0
 30
0.0
 11
17.60204345694622
 21
-271.0
 31
0.0
1001
DBPROPERTIES
1002
{
1000
PbHidd
1002
}
  0
LINE
  5
A6
330
1F
100
AcDbEntity
  8
HIDDEN
100
AcDbLine
 10
-360.3020434569463
 20
-271.0
 30
0.0
 11
-360.3020434569463
 21
-271.0
 31
0.0
1001
DBPROPERTIES
1002
{
1000
PbHidd
1002
}
  0
LINE
  5
A7
330
1F
100
AcDbEntity
  8
HIDDEN
100
AcDbLine
 10
-360.3020434569463
 20
-271.0
 30
0.0
 11
-360.3020434569463
 21
-271.0
 31
0.0
1001
DBPROPERTIES
1002
{
1000
PbHidd
1002
}
  0
LINE
  5
A8
330
1F
100
AcDbEntity
  8
HIDDEN
100
AcDbLine
 10
17.60204345694622
 20
-271.0
 30
0.0
 11
17.60204345694622
 21
-271.0
 31
0.0
1001
DBPROPERTIES
1002
{
1000
PbHidd
1002
}
  0
LINE
  5
A9
330
1F
100
AcDbEntity
  8
HIDDEN
100
AcDbLine
 10
-340.8528355220054
 20
-115.1020434569462
 30
0.0
 11
-340.8528355220054
 21
-115.1020434569462
 31
0.0
1001
DBPROPERTIES
1002
{
1000
PbHidd
1002
}
  0
LINE
  5
AA
330
1F
100
AcDbEntity
  8
HIDDEN
100
AcDbLine
 10
-320.3020434569463
 20
-115.1020434569462
 30
0.0
 11
-320.3020434569463
 21
-115.1020434569462
 31
0.0
1001
DBPROPERTIES
1002
{
1000
PbHidd
1002
}
  0
LINE
  5
AB
330
1F
100
AcDbEntity
  8
HIDDEN
100
AcDbLine
 10
-360.3020434569463
 20
-115.1020434569462
 30
0.0
 11
-360.3020434569463
 21
-115.1020434569462
 31
0.0
1001
DBPROPERTIES
1002
{
1000
PbHidd
1002
}
  0
LINE
  5
AC
330
1F
100
AcDbEntity
  8
THICK
100
AcDbLine
 10
-360.3020434569463
 20
-115.1020434569462
 30
0.0
 11
-320.3020434569463
 21
-115.1020434569462
 31
0.0
1001
DBPROPERTIES
1002
{
1000
PbThick
1002
}
  0
LINE
  5
AD
330
1F
100
AcDbEntity
  8
THICK
100
AcDbLine
 10
-360.3020434569464
 20
-271.0
 30
0.0
 11
-360.3020434569463
 21
-115.1020434569462
 31
0.0
1001
DBPROPERTIES
1002
{
1000
PbThick
1002
}
  0
LINE
  5
AE
330
1F
100
AcDbEntity
  8
HIDDEN
100
AcDbLine
 10
-360.3020434569463
 20
-271.0
 30
0.0
 11
-360.3020434569463
 21
-271.0
 31
0.0
1001
DBPROPERTIES
1002
{
1000
PbHidd
1002
}
  0
LINE
  5
AF
330
1F
100
AcDbEntity
  8
HIDDEN
100
AcDbLine
 10
-360.3020434569463
 20
-271.0
 30
0.0
 11
-360.3020434569463
 21
-271.0
 31
0.0
1001
DBPROPERTIES
1002
{
1000
PbHidd
1002
}
  0
LINE
  5
B0
330
1F
100
AcDbEntity
  8
THICK
100
AcDbLine
 10
17.60204345694633
 20
-115.1020434569461
 30
0.0
 11
17.60204345694622
 21
-271.0
 31
0.0
1001
DBPROPERTIES
1002
{
1000
PbThick
1002
}
  0
LINE
  5
B1
330
1F
100
AcDbEntity
  8
HIDDEN
100
AcDbLine
 10
17.60204345694622
 20
-271.0
 30
0.0
 11
17.60204345694622
 21
-271.0
 31
0.0
1001
DBPROPERTIES
1002
{
1000
PbHidd
1002
}
  0
LINE
  5
B2
330
1F
100
AcDbEntity
  8
HIDDEN
100
AcDbLine
 10
17.60204345694622
 20
-271.0
 30
0.0
 11
17.60204345694622
 21
-271.0
 31
0.0
1001
DBPROPERTIES
1002
{
1000
PbHidd
1002
}
  0
ARC
  5
B3
330
1F
100
AcDbEntity
  8
THICK
100
AcDbCircle
 10
-171.35
 20
33.84999999999999
 30
0.0
 40
225.65
100
AcDbArc
 50
213.1369942335483
 51
221.3076588710115
1001
DBPROPERTIES
1002
{
1000
PbThick
1002
}
  0
LINE
  5
B4
330
1F
100
AcDbEntity
  8
HIDDEN
100
AcDbLine
 10
-360.3015810994975
 20
-89.5
 30
0.0
 11
-360.3015810994975
 21
-89.5
 31
0.0
1001
DBPROPERTIES
1002
{
1000
PbHidd
1002
}
  0
LINE
  5
B5
330
1F
100
AcDbEntity
  8
HIDDEN
100
AcDbLine
 10
427.5
 20
-271.0
 30
0.0
 11
427.5
 21
-271.0
 31
0.0
1001
DBPROPERTIES
1002
{
1000
PbHidd
1002
}
  0
LINE
  5
B6
330
1F
100
AcDbEntity
  8
HIDDEN
100
AcDbLine
 10
-427.5
 20
-271.0
 30
0.0
 11
-427.5
 21
-271.0
 31
0.0
1001
DBPROPERTIES
1002
{
1000
PbHidd
1002
}
  0
LINE
  5
B7
330
1F
100
AcDbEntity
  8
THICK
100
AcDbLine
 10
17.60204345694622
 20
-271.0
 30
0.0
 11
427.5
 21
-271.0
 31
0.0
1001
DBPROPERTIES
1002
{
1000
PbThick
1002
}
  0
LINE
  5
B8
330
1F
100
AcDbEntity
  8
HIDDEN
100
AcDbLine
 10
427.5
 20
-271.0
 30
0.0
 11
427.5
 21
-271.0
 31
0.0
1001
DBPROPERTIES
1002
{
1000
PbHidd
1002
}
  0
LINE
  5
B9
330
1F
100
AcDbEntity
  8
THICK
100
AcDbLine
 10
-427.5
 20
-271.0
 30
0.0
 11
-360.3020434569464
 21
-271.0
 31
0.0
1001
DBPROPERTIES
1002
{
1000
PbThick
1002
}
  0
LINE
  5
BA
330
1F
100
AcDbEntity
  8
HIDDEN
100
AcDbLine
 10
-427.5
 20
-271.0
 30
0.0
 11
-427.5
 21
-271.0
 31
0.0
1001
DBPROPERTIES
1002
{
1000
PbHidd
1002
}
  0
LINE
  5
BB
330
1F
100
AcDbEntity
  8
HIDDEN
100
AcDbLine
 10
332.5
 20
-291.0
 30
0.0
 11
332.5
 21
-291.0
 31
0.0
1001
DBPROPERTIES
1002
{
1000
PbHidd
1002
}
  0
LINE
  5
BC
330
1F
100
AcDbEntity
  8
HIDDEN
100
AcDbLine
 10
-332.5
 20
-291.0
 30
0.0
 11
-332.5
 21
-291.0
 31
0.0
1001
DBPROPERTIES
1002
{
1000
PbHidd
1002
}
  0
LINE
  5
BD
330
1F
100
AcDbEntity
  8
HIDDEN
100
AcDbLine
 10
427.5
 20
-290.0
 30
0.0
 11
427.5
 21
-290.0
 31
0.0
1001
DBPROPERTIES
1002
{
1000
PbHidd
1002
}
  0
LINE
  5
BE
330
1F
100
AcDbEntity
  8
HIDDEN
100
AcDbLine
 10
427.5
 20
-290.0
 30
0.0
 11
427.5
 21
-290.0
 31
0.0
1001
DBPROPERTIES
1002
{
1000
PbHidd
1002
}
  0
LINE
  5
BF
330
1F
100
AcDbEntity
  8
HIDDEN
100
AcDbLine
 10
427.5
 20
-290.0
 30
0.0
 11
427.5
 21
-290.0
 31
0.0
1001
DBPROPERTIES
1002
{
1000
PbHidd
1002
}
  0
LINE
  5
C0
330
1F
100
AcDbEntity
  8
THICK
100
AcDbLine
 10
427.5
 20
290.0
 30
0.0
 11
427.5
 21
-290.0
 31
0.0
1001
DBPROPERTIES
1002
{
1000
PbThick
1002
}
  0
LINE
  5
C1
330
1F
100
AcDbEntity
  8
HIDDEN
100
AcDbLine
 10
427.5
 20
290.0
 30
0.0
 11
427.5
 21
290.0
 31
0.0
1001
DBPROPERTIES
1002
{
1000
PbHidd
1002
}
  0
LINE
  5
C2
330
1F
100
AcDbEntity
  8
HIDDEN
100
AcDbLine
 10
427.5
 20
-246.0
 30
0.0
 11
427.5
 21
-246.0
 31
0.0
1001
DBPROPERTIES
1002
{
1000
PbHidd
1002
}
  0
LINE
  5
C3
330
1F
100
AcDbEntity
  8
HIDDEN
100
AcDbLine
 10
427.5
 20
246.0
 30
0.0
 11
427.5
 21
246.0
 31
0.0
1001
DBPROPERTIES
1002
{
1000
PbHidd
1002
}
  0
LINE
  5
C4
330
1F
100
AcDbEntity
  8
HIDDEN
100
AcDbLine
 10
-427.5
 20
-290.0
 30
0.0
 11
-427.5
 21
-290.0
 31
0.0
1001
DBPROPERTIES
1002
{
1000
PbHidd
1002
}
  0
LINE
  5
C5
330
1F
100
AcDbEntity
  8
HIDDEN
100
AcDbLine
 10
-427.5
 20
-290.0
 30
0.0
 11
-427.5
 21
-290.0
 31
0.0
1001
DBPROPERTIES
1002
{
1000
PbHidd
1002
}
  0
LINE
  5
C6
330
1F
100
AcDbEntity
  8
HIDDEN
100
AcDbLine
 10
-427.5
 20
290.0
 30
0.0
 11
-427.5
 21
290.0
 31
0.0
1001
DBPROPERTIES
1002
{
1000
PbHidd
1002
}
  0
LINE
  5
C7
330
1F
100
AcDbEntity
  8
THICK
100
AcDbLine
 10
-427.5
 20
-290.0
 30
0.0
 11
-427.5
 21
290.0
 31
0.0
1001
DBPROPERTIES
1002
{
1000
PbThick
1002
}
  0
LINE
  5
C8
330
1F
100
AcDbEntity
  8
HIDDEN
100
AcDbLine
 10
-427.5
 20
-290.0
 30
0.0
 11
-427.5
 21
-290.0
 31
0.0
1001
DBPROPERTIES
1002
{
1000
PbHidd
1002
}
  0
LINE
  5
C9
330
1F
100
AcDbEntity
  8
HIDDEN
100
AcDbLine
 10
-427.5
 20
259.5
 30
0.0
 11
-427.5
 21
259.5
 31
0.0
1001
DBPROPERTIES
1002
{
1000
PbHidd
1002
}
  0
LINE
  5
CA
330
1F
100
AcDbEntity
  8
HIDDEN
100
AcDbLine
 10
-427.5
 20
-89.5
 30
0.0
 11
-427.5
 21
-89.5
 31
0.0
1001
DBPROPERTIES
1002
{
1000
PbHidd
1002
}
  0
LINE
  5
CB
330
1F
100
AcDbEntity
  8
HIDDEN
100
AcDbLine
 10
-332.5
 20
-290.0
 30
0.0
 11
-332.5
 21
-290.0
 31
0.0
1001
DBPROPERTIES
1002
{
1000
PbHidd
1002
}
  0
LINE
  5
CC
330
1F
100
AcDbEntity
  8
HIDDEN
100
AcDbLine
 10
332.5
 20
-290.0
 30
0.0
 11
332.5
 21
-290.0
 31
0.0
1001
DBPROPERTIES
1002
{
1000
PbHidd
1002
}
  0
LINE
  5
CD
330
1F
100
AcDbEntity
  8
HIDDEN
100
AcDbLine
 10
-332.5
 20
-291.0
 30
0.0
 11
332.5
 21
-291.0
 31
0.0
1001
DBPROPERTIES
1002
{
1000
PbHidd
1002
}
  0
LINE
  5
CE
330
1F
100
AcDbEntity
  8
HIDDEN
100
AcDbLine
 10
-332.5
 20
-291.0
 30
0.0
 11
-332.5
 21
-291.0
 31
0.0
1001
DBPROPERTIES
1002
{
1000
PbHidd
1002
}
  0
LINE
  5
CF
330
1F
100
AcDbEntity
  8
HIDDEN
100
AcDbLine
 10
332.5
 20
-291.0
 30
0.0
 11
332.5
 21
-291.0
 31
0.0
1001
DBPROPERTIES
1002
{
1000
PbHidd
1002
}
  0
LINE
  5
D0
330
1F
100
AcDbEntity
  8
HIDDEN
100
AcDbLine
 10
332.5
 20
-290.0
 30
0.0
 11
332.5
 21
-290.0
 31
0.0
1001
DBPROPERTIES
1002
{
1000
PbHidd
1002
}
  0
LINE
  5
D1
330
1F
100
AcDbEntity
  8
HIDDEN
100
AcDbLine
 10
332.5
 20
-337.5
 30
0.0
 11
332.5
 21
-337.5
 31
0.0
1001
DBPROPERTIES
1002
{
1000
PbHidd
1002
}
  0
LINE
  5
D2
330
1F
100
AcDbEntity
  8
HIDDEN
100
AcDbLine
 10
332.5
 20
-290.0
 30
0.0
 11
332.5
 21
-337.5
 31
0.0
1001
DBPROPERTIES
1002
{
1000
PbHidd
1002
}
  0
LINE
  5
D3
330
1F
100
AcDbEntity
  8
HIDDEN
100
AcDbLine
 10
332.5
 20
-290.0
 30
0.0
 11
332.5
 21
-290.0
 31
0.0
1001
DBPROPERTIES
1002
{
1000
PbHidd
1002
}
  0
LINE
  5
D4
330
1F
100
AcDbEntity
  8
HIDDEN
100
AcDbLine
 10
-332.5
 20
-290.0
 30
0.0
 11
-332.5
 21
-290.0
 31
0.0
1001
DBPROPERTIES
1002
{
1000
PbHidd
1002
}
  0
LINE
  5
D5
330
1F
100
AcDbEntity
  8
HIDDEN
100
AcDbLine
 10
-332.5
 20
-290.0
 30
0.0
 11
-332.5
 21
-290.0
 31
0.0
1001
DBPROPERTIES
1002
{
1000
PbHidd
1002
}
  0
LINE
  5
D6
330
1F
100
AcDbEntity
  8
THICK
100
AcDbLine
 10
427.5
 20
-290.0
 30
0.0
 11
-427.5
 21
-290.0
 31
0.0
1001
DBPROPERTIES
1002
{
1000
PbThick
1002
}
  0
LINE
  5
D7
330
1F
100
AcDbEntity
  8
THICK
100
AcDbLine
 10
-154.6203824194864
 20
132.1794777869779
 30
0.0
 11
65.44902167304399
 21
207.5110227710335
 31
0.0
1001
DBPROPERTIES
1002
{
1000
PbThick
1002
}
  0
LINE
  5
D8
330
1F
100
AcDbEntity
  8
THICK
100
AcDbLine
 10
-169.0840634381622
 20
133.5667580587523
 30
0.0
 11
73.83586038224401
 21
216.720221595674
 31
0.0
1001
DBPROPERTIES
1002
{
1000
PbThick
1002
}
  0
LINE
  5
D9
330
1F
100
AcDbEntity
  8
THICK
100
AcDbLine
 10
120.7117498393369
 20
124.7211084922847
 30
0.0
 11
-89.34556401281597
 21
-22.92885860664902
 31
0.0
1001
DBPROPERTIES
1002
{
1000
PbThick
1002
}
  0
LINE
  5
DA
330
1F
100
AcDbEntity
  8
THICK
100
AcDbLine
 10
108.3316913790018
 20
123.3490447020133
 30
0.0
 11
-81.96635893200215
 21
-10.4120719767764
 31
0.0
1001
DBPROPERTIES
1002
{
1000
PbThick
1002
}
  0
LINE
  5
DB
330
1F
100
AcDbEntity
  8
HIDDEN
100
AcDbLine
 10
125.8566889636012
 20
135.6674223358253
 30
0.0
 11
108.3316913790018
 21
123.3490447020133
 31
0.0
1001
DBPROPERTIES
1002
{
1000
PbHidd
1002
}
  0
LINE
  5
DC
330
1F
100
AcDbEntity
  8
HIDDEN
100
AcDbLine
 10
-81.96635893200218
 20
-10.41207197677641
 30
0.0
 11
-109.8486454881941
 21
-30.01062161624466
 31
0.0
1001
DBPROPERTIES
1002
{
1000
PbHidd
1002
}
  0
LINE
  5
DD
330
1F
100
AcDbEntity
  8
HIDDEN
100
AcDbLine
 10
85.71573364861511
 20
214.4484829380302
 30
0.0
 11
85.71573364861511
 21
214.4484829380302
 31
0.0
1001
DBPROPERTIES
1002
{
1000
PbHidd
1002
}
  0
LINE
  5
DE
330
1F
100
AcDbEntity
  8
HIDDEN
100
AcDbLine
 10
65.449021673044
 20
207.5110227710335
 30
0.0
 11
85.71573364861509
 21
214.4484829380302
 31
0.0
1001
DBPROPERTIES
1002
{
1000
PbHidd
1002
}
  0
LINE
  5
DF
330
1F
100
AcDbEntity
  8
HIDDEN
100
AcDbLine
 10
-186.8647389808397
 20
121.1419725653878
 30
0.0
 11
-154.6203824194864
 21
132.1794777869779
 31
0.0
1001
DBPROPERTIES
1002
{
1000
PbHidd
1002
}
  0
LINE
  5
E0
330
1F
100
AcDbEntity
  8
HIDDEN
100
AcDbLine
 10
-186.8647389808397
 20
121.1419725653878
 30
0.0
 11
-186.8647389808397
 21
121.1419725653878
 31
0.0
1001
DBPROPERTIES
1002
{
1000
PbHidd
1002
}
  0
LINE
  5
E1
330
1F
100
AcDbEntity
  8
HIDDEN
100
AcDbLine
 10
-198.7335338643315
 20
123.4175034434979
 30
0.0
 11
-198.7335338643315
 21
123.4175034434979
 31
0.0
1001
DBPROPERTIES
1002
{
1000
PbHidd
1002
}
  0
LINE
  5
E2
330
1F
100
AcDbEntity
  8
HIDDEN
100
AcDbLine
 10
-169.0840634381624
 20
133.5667580587522
 30
0.0
 11
-198.7335338643315
 21
123.4175034434979
 31
0.0
1001
DBPROPERTIES
1002
{
1000
PbHidd
1002
}
  0
LINE
  5
E3
330
1F
100
AcDbEntity
  8
HIDDEN
100
AcDbLine
 10
94.27956442367328
 20
223.7182675847935
 30
0.0
 11
73.83586038224398
 21
216.720221595674
 31
0.0
1001
DBPROPERTIES
1002
{
1000
PbHidd
1002
}
  0
LINE
  5
E4
330
1F
100
AcDbEntity
  8
HIDDEN
100
AcDbLine
 10
94.2795644236733
 20
223.7182675847935
 30
0.0
 11
94.2795644236733
 21
223.7182675847935
 31
0.0
1001
DBPROPERTIES
1002
{
1000
PbHidd
1002
}
  0
ARC
  5
E5
330
1F
100
AcDbEntity
  8
HIDDEN
100
AcDbCircle
 10
108.7022606176459
 20
176.543753973137
 30
0.0
 40
49.33
100
AcDbArc
 50
27.0000058419654
 51
106.9999828322403
1001
DBPROPERTIES
1002
{
1000
PbHidd
1002
}
  0
LINE
  5
E6
330
1F
100
AcDbEntity
  8
HIDDEN
100
AcDbLine
 10
120.7117498393371
 20
124.7211084922848
 30
0.0
 11
138.3897957097364
 21
137.147064262504
 31
0.0
1001
DBPROPERTIES
1002
{
1000
PbHidd
1002
}
  0
LINE
  5
E7
330
1F
100
AcDbEntity
  8
HIDDEN
100
AcDbLine
 10
-114.9840049315792
 20
-40.95020187102943
 30
0.0
 11
-89.34556401281594
 21
-22.92885860664898
 31
0.0
1001
DBPROPERTIES
1002
{
1000
PbHidd
1002
}
  0
ARC
  5
E8
330
1F
100
AcDbEntity
  8
HIDDEN
100
AcDbCircle
 10
-171.35
 20
33.85000000000004
 30
0.0
 40
93.66000000000001
100
AcDbArc
 50
106.9999828322403
 51
206.9999859941226
1001
DBPROPERTIES
1002
{
1000
PbHidd
1002
}
  0
ARC
  5
E9
330
1F
100
AcDbEntity
  8
HIDDEN
100
AcDbCircle
 10
108.7022606176459
 20
176.5437539731369
 30
0.0
 40
44.33
100
AcDbArc
 50
121.2338587451163
 51
206.9999859941226
1001
DBPROPERTIES
1002
{
1000
PbHidd
1002
}
  0
ARC
  5
EA
330
1F
100
AcDbEntity
  8
HIDDEN
100
AcDbCircle
 10
-171.35
 20
33.84999999999999
 30
0.0
 40
88.66000000000001
100
AcDbArc
 50
0.0
 51
100.0781370050443
1001
DBPROPERTIES
1002
{
1000
PbHidd
1002
}
  0
ARC
  5
EB
330
1F
100
AcDbEntity
  8
HIDDEN
100
AcDbCircle
 10
108.7022606176459
 20
176.5437539731369
 30
0.0
 40
10.0
100
AcDbArc
 50
27.0000058419654
 51
206.9999859941226
1001
DBPROPERTIES
1002
{
1000
PbHidd
1002
}
  0
ARC
  5
EC
330
1F
100
AcDbEntity
  8
THICK
100
AcDbCircle
 10
108.7022606176459
 20
176.5437539731369
 30
0.0
 40
53.19600000000001
100
AcDbArc
 50
27.0000058419654
 51
206.9999859941226
1001
DBPROPERTIES
1002
{
1000
PbThick
1002
}
  0
ARC
  5
ED
330
1F
100
AcDbEntity
  8
HIDDEN
100
AcDbCircle
 10
-171.35
 20
33.84999999999999
 30
0.0
 40
10.0
100
AcDbArc
 50
0.0
 51
180.0000198478428
1001
DBPROPERTIES
1002
{
1000
PbHidd
1002
}
  0
ARC
  5
EE
330
1F
100
AcDbEntity
  8
THICK
100
AcDbCircle
 10
-171.35
 20
33.84999999999999
 30
0.0
 40
99.7425
100
AcDbArc
 50
0.0
 51
180.0000198478428
1001
DBPROPERTIES
1002
{
1000
PbThick
1002
}
  0
LINE
  5
EF
330
1F
100
AcDbEntity
  8
HIDDEN
100
AcDbLine
 10
-6.223893998751595
 20
187.6397643436145
 30
0.0
 11
-6.223893998751605
 21
187.6397643436145
 31
0.0
1001
DBPROPERTIES
1002
{
1000
PbHidd
1002
}
  0
LINE
  5
F0
330
1F
100
AcDbEntity
  8
HIDDEN
100
AcDbLine
 10
-6.223893998751578
 20
187.6397643436145
 30
0.0
 11
3.795120951184632
 21
192.7447074394721
 31
0.0
1001
DBPROPERTIES
1002
{
1000
PbHidd
1002
}
  0
LINE
  5
F1
330
1F
100
AcDbEntity
  8
THICK
100
AcDbLine
 10
3.795120951184632
 20
192.7447074394721
 30
0.0
 11
35.8394552404056
 21
209.0721112719372
 31
0.0
1001
DBPROPERTIES
1002
{
1000
PbThick
1002
}
  0
LINE
  5
F2
330
1F
100
AcDbEntity
  8
HIDDEN
100
AcDbLine
 10
35.83945524040564
 20
209.0721112719372
 30
0.0
 11
35.83945524040566
 21
209.0721112719372
 31
0.0
1001
DBPROPERTIES
1002
{
1000
PbHidd
1002
}
  0
LINE
  5
F3
330
1F
100
AcDbEntity
  8
HIDDEN
100
AcDbLine
 10
50.12722279091994
 20
77.04447053525755
 30
0.0
 11
60.14623774085602
 21
82.14941363111514
 31
0.0
1001
DBPROPERTIES
1002
{
1000
PbHidd
1002
}
  0
LINE
  5
F4
330
1F
100
AcDbEntity
  8
THICK
100
AcDbLine
 10
60.14623774085602
 20
82.14941363111514
 30
0.0
 11
92.1905720300771
 21
98.47681746358025
 31
0.0
1001
DBPROPERTIES
1002
{
1000
PbThick
1002
}
  0
ARC
  5
F5
330
1F
100
AcDbEntity
  8
THICK
100
AcDbCircle
 10
108.7022606176459
 20
176.5437539731369
 30
0.0
 40
79.79400000000001
100
AcDbArc
 50
253.2648955564487
 51
258.057572921159
1001
DBPROPERTIES
1002
{
1000
PbThick
1002
}
  0
ARC
  5
F6
330
1F
100
AcDbEntity
  8
HIDDEN
100
AcDbCircle
 10
108.7022606176459
 20
176.5437539731369
 30
0.0
 40
79.79400000000001
100
AcDbArc
 50
247.9728854732819
 51
253.2648955564487
1001
DBPROPERTIES
1002
{
1000
PbHidd
1002
}
  0
ARC
  5
F7
330
1F
100
AcDbEntity
  8
THICK
100
AcDbCircle
 10
108.7022606176459
 20
176.5437539731369
 30
0.0
 40
79.79400000000001
100
AcDbArc
 50
206.9999859941226
 51
247.9728854732819
1001
DBPROPERTIES
1002
{
1000
PbThick
1002
}
  0
LINE
  5
F8
330
1F
100
AcDbEntity
  8
HIDDEN
100
AcDbLine
 10
50.12722279091989
 20
77.04447053525752
 30
0.0
 11
50.1272227909199
 21
77.04447053525752
 31
0.0
1001
DBPROPERTIES
1002
{
1000
PbHidd
1002
}
  0
ARC
  5
F9
330
1F
100
AcDbEntity
  8
HIDDEN
100
AcDbCircle
 10
108.7022606176459
 20
176.5437539731369
 30
0.0
 40
79.79400000000001
100
AcDbArc
 50
206.9999859941226
 51
258.057572921159
1001
DBPROPERTIES
1002
{
1000
PbHidd
1002
}
  0
ARC
  5
FA
330
1F
100
AcDbEntity
  8
THICK
100
AcDbCircle
 10
108.7022606176459
 20
176.5437539731369
 30
0.0
 40
75.36099999999999
100
AcDbArc
 50
206.9999859941226
 51
250.178715688756
1001
DBPROPERTIES
1002
{
1000
PbThick
1002
}
  0
ARC
  5
FB
330
1F
100
AcDbEntity
  8
HIDDEN
100
AcDbCircle
 10
108.7022606176459
 20
176.5437539731369
 30
0.0
 40
75.36099999999999
100
AcDbArc
 50
250.178715688756
 51
255.9643289124281
1001
DBPROPERTIES
1002
{
1000
PbHidd
1002
}
  0
ARC
  5
FC
330
1F
100
AcDbEntity
  8
THICK
100
AcDbCircle
 10
108.7022606176459
 20
176.5437539731369
 30
0.0
 40
75.36099999999999
100
AcDbArc
 50
255.9643289124281
 51
27.0000058419654
1001
DBPROPERTIES
1002
{
1000
PbThick
1002
}
  0
ARC
  5
FD
330
1F
100
AcDbEntity
  8
HIDDEN
100
AcDbCircle
 10
108.7022606176459
 20
176.5437539731369
 30
0.0
 40
75.36099999999999
100
AcDbArc
 50
206.9999859941226
 51
27.0000058419654
1001
DBPROPERTIES
1002
{
1000
PbHidd
1002
}
  0
LINE
  5
FE
330
1F
100
AcDbEntity
  8
HIDDEN
100
AcDbLine
 10
-181.35
 20
39.62350269189623
 30
0.0
 11
-181.35
 21
133.0899430987846
 31
0.0
1001
DBPROPERTIES
1002
{
1000
PbHidd
1002
}
  0
LINE
  5
FF
330
1F
100
AcDbEntity
  8
THICK
100
AcDbLine
 10
-181.35
 20
133.0899430987846
 30
0.0
 11
-181.35
 21
144.2229161751197
 31
0.0
1001
DBPROPERTIES
1002
{
1000
PbThick
1002
}
  0
LINE
  5
100
330
1F
100
AcDbEntity
  8
HIDDEN
100
AcDbLine
 10
-181.35
 20
144.2229161751197
 30
0.0
 11
-181.35
 21
144.2229161751197
 31
0.0
1001
DBPROPERTIES
1002
{
1000
PbHidd
1002
}
  0
LINE
  5
101
330
1F
100
AcDbEntity
  8
HIDDEN
100
AcDbLine
 10
-181.35
 20
39.62350269189625
 30
0.0
 11
-181.35
 21
39.62350269189625
 31
0.0
1001
DBPROPERTIES
1002
{
1000
PbHidd
1002
}
  0
LINE
  5
102
330
1F
100
AcDbEntity
  8
HIDDEN
100
AcDbLine
 10
-171.35
 20
22.30299461620745
 30
0.0
 11
-252.2943117936696
 21
-24.43022558723668
 31
0.0
1001
DBPROPERTIES
1002
{
1000
PbHidd
1002
}
  0
LINE
  5
103
330
1F
100
AcDbEntity
  8
THICK
100
AcDbLine
 10
-252.2943117936696
 20
-24.43022558723668
 30
0.0
 11
-261.935749297424
 21
-29.99671212540422
 31
0.0
1001
DBPROPERTIES
1002
{
1000
PbThick
1002
}
  0
LINE
  5
104
330
1F
100
AcDbEntity
  8
HIDDEN
100
AcDbLine
 10
-171.35
 20
22.30299461620747
 30
0.0
 11
-171.35
 21
22.30299461620747
 31
0.0
1001
DBPROPERTIES
1002
{
1000
PbHidd
1002
}
  0
LINE
  5
105
330
1F
100
AcDbEntity
  8
HIDDEN
100
AcDbLine
 10
-161.35
 20
39.62350269189623
 30
0.0
 11
-80.40568820633035
 21
-7.109717511547888
 31
0.0
1001
DBPROPERTIES
1002
{
1000
PbHidd
1002
}
  0
LINE
  5
106
330
1F
100
AcDbEntity
  8
THICK
100
AcDbLine
 10
-80.40568820633035
 20
-7.109717511547888
 30
0.0
 11
-78.68309660219103
 21
-8.10425623790152
 31
0.0
1001
DBPROPERTIES
1002
{
1000
PbThick
1002
}
  0
LINE
  5
107
330
1F
100
AcDbEntity
  8
HIDDEN
100
AcDbLine
 10
-78.68309660219103
 20
-8.10425623790152
 30
0.0
 11
-72.95773097773497
 21
-11.40979762239026
 31
0.0
1001
DBPROPERTIES
1002
{
1000
PbHidd
1002
}
  0
LINE
  5
108
330
1F
100
AcDbEntity
  8
THICK
100
AcDbLine
 10
-72.95773097773497
 20
-11.40979762239026
 30
0.0
 11
-70.76425070257594
 21
-12.67620404971545
 31
0.0
1001
DBPROPERTIES
1002
{
1000
PbThick
1002
}
  0
LINE
  5
109
330
1F
100
AcDbEntity
  8
HIDDEN
100
AcDbLine
 10
-161.35
 20
39.62350269189625
 30
0.0
 11
-161.35
 21
39.62350269189625
 31
0.0
1001
DBPROPERTIES
1002
{
1000
PbHidd
1002
}
  0
LINE
  5
10A
330
1F
100
AcDbEntity
  8
THICK
100
AcDbLine
 10
-161.35
 20
144.2229161751197
 30
0.0
 11
-161.35
 21
136.2141908093608
 31
0.0
1001
DBPROPERTIES
1002
{
1000
PbThick
1002
}
  0
LINE
  5
10B
330
1F
100
AcDbEntity
  8
HIDDEN
100
AcDbLine
 10
-161.35
 20
136.2141908093608
 30
0.0
 11
-161.35
 21
39.62350269189623
 31
0.0
1001
DBPROPERTIES
1002
{
1000
PbHidd
1002
}
  0
LINE
  5
10C
330
1F
100
AcDbEntity
  8
THICK
100
AcDbLine
 10
-271.935749297424
 20
-12.67620404971544
 30
0.0
 11
-262.2943117936696
 21
-7.109717511547867
 31
0.0
1001
DBPROPERTIES
1002
{
1000
PbThick
1002
}
  0
LINE
  5
10D
330
1F
100
AcDbEntity
  8
HIDDEN
100
AcDbLine
 10
-262.2943117936696
 20
-7.109717511547867
 30
0.0
 11
-181.35
 21
39.62350269189623
 31
0.0
1001
DBPROPERTIES
1002
{
1000
PbHidd
1002
}
  0
LINE
  5
10E
330
1F
100
AcDbEntity
  8
THICK
100
AcDbLine
 10
-80.76425070257594
 20
-29.99671212540423
 30
0.0
 11
-90.4056882063303
 21
-24.43022558723669
 31
0.0
1001
DBPROPERTIES
1002
{
1000
PbThick
1002
}
  0
LINE
  5
10F
330
1F
100
AcDbEntity
  8
HIDDEN
100
AcDbLine
 10
-90.4056882063303
 20
-24.43022558723669
 30
0.0
 11
-171.3499999999999
 21
22.30299461620745
 31
0.0
1001
DBPROPERTIES
1002
{
1000
PbHidd
1002
}
  0
LINE
  5
110
330
1F
100
AcDbEntity
  8
HIDDEN
100
AcDbLine
 10
-161.35
 20
144.2229161751197
 30
0.0
 11
-161.35
 21
144.2229161751197
 31
0.0
1001
DBPROPERTIES
1002
{
1000
PbHidd
1002
}
  0
ARC
  5
111
330
1F
100
AcDbEntity
  8
THICK
100
AcDbCircle
 10
-171.35
 20
33.84999999999999
 30
0.0
 40
110.825
100
AcDbArc
 50
76.53129049855286
 51
180.0000198478428
1001
DBPROPERTIES
1002
{
1000
PbThick
1002
}
  0
ARC
  5
112
330
1F
100
AcDbEntity
  8
HIDDEN
100
AcDbCircle
 10
-171.35
 20
33.84999999999999
 30
0.0
 40
110.825
100
AcDbArc
 50
71.13282485705072
 51
76.53129049855286
1001
DBPROPERTIES
1002
{
1000
PbHidd
1002
}
  0
ARC
  5
113
330
1F
100
AcDbEntity
  8
THICK
100
AcDbCircle
 10
-171.35
 20
33.84999999999999
 30
0.0
 40
110.825
100
AcDbArc
 50
0.0
 51
71.13282485705072
1001
DBPROPERTIES
1002
{
1000
PbThick
1002
}
  0
LINE
  5
114
330
1F
100
AcDbEntity
  8
HIDDEN
100
AcDbLine
 10
-427.5
 20
-85.5
 30
0.0
 11
-427.5
 21
-85.5
 31
0.0
1001
DBPROPERTIES
1002
{
1000
PbHidd
1002
}
  0
LINE
  5
115
330
1F
100
AcDbEntity
  8
HIDDEN
100
AcDbLine
 10
-427.5
 20
-85.5
 30
0.0
 11
-358.1233921092617
 21
-85.5
 31
0.0
1001
DBPROPERTIES
1002
{
1000
PbHidd
1002
}
  0
LINE
  5
116
330
1F
100
AcDbEntity
  8
THICK
100
AcDbLine
 10
-427.5
 20
259.5
 30
0.0
 11
-172.35
 21
259.5
 31
0.0
1001
DBPROPERTIES
1002
{
1000
PbThick
1002
}
  0
LINE
  5
117
330
1F
100
AcDbEntity
  8
HIDDEN
100
AcDbLine
 10
-172.35
 20
259.5
 30
0.0
 11
-172.35
 21
259.5
 31
0.0
1001
DBPROPERTIES
1002
{
1000
PbHidd
1002
}
  0
ARC
  5
118
330
1F
100
AcDbEntity
  8
HIDDEN
100
AcDbCircle
 10
-171.35
 20
33.84999999999999
 30
0.0
 40
114.825
100
AcDbArc
 50
0.0
 51
180.0000198478428
1001
DBPROPERTIES
1002
{
1000
PbHidd
1002
}
  0
ARC
  5
119
330
1F
100
AcDbEntity
  8
HIDDEN
100
AcDbCircle
 10
-171.35
 20
33.84999999999999
 30
0.0
 40
221.65
100
AcDbArc
 50
0.0
 51
89.99998127603165
1001
DBPROPERTIES
1002
{
1000
PbHidd
1002
}
  0
LINE
  5
11A
330
1F
100
AcDbEntity
  8
HIDDEN
100
AcDbLine
 10
-171.35
 20
255.5
 30
0.0
 11
-171.35
 21
255.5
 31
0.0
1001
DBPROPERTIES
1002
{
1000
PbHidd
1002
}
  0
LINE
  5
11B
330
1F
100
AcDbEntity
  8
HIDDEN
100
AcDbLine
 10
-427.5
 20
255.5
 30
0.0
 11
-171.35
 21
255.5
 31
0.0
1001
DBPROPERTIES
1002
{
1000
PbHidd
1002
}
  0
LINE
  5
11C
330
1F
100
AcDbEntity
  8
HIDDEN
100
AcDbLine
 10
-427.5
 20
255.5
 30
0.0
 11
-427.5
 21
255.5
 31
0.0
1001
DBPROPERTIES
1002
{
1000
PbHidd
1002
}
  0
LINE
  5
11D
330
1F
100
AcDbEntity
  8
HIDDEN
100
AcDbLine
 10
-427.5
 20
255.5
 30
0.0
 11
-427.5
 21
-85.5
 31
0.0
1001
DBPROPERTIES
1002
{
1000
PbHidd
1002
}
  0
LINE
  5
11E
330
1F
100
AcDbEntity
  8
THICK
100
AcDbLine
 10
-427.5
 20
-89.5
 30
0.0
 11
-360.3015810994975
 21
-89.5
 31
0.0
1001
DBPROPERTIES
1002
{
1000
PbThick
1002
}
  0
LINE
  5
11F
330
1F
100
AcDbEntity
  8
THICK
100
AcDbLine
 10
-172.35
 20
259.5
 30
0.0
 11
-172.35
 21
259.4977841681589
 31
0.0
1001
DBPROPERTIES
1002
{
1000
PbThick
1002
}
  0
LINE
  5
120
330
1F
100
AcDbEntity
  8
HIDDEN
100
AcDbLine
 10
-172.35
 20
259.4977841681589
 30
0.0
 11
-172.35
 21
259.4977841681589
 31
0.0
1001
DBPROPERTIES
1002
{
1000
PbHidd
1002
}
  0
ARC
  5
121
330
1F
100
AcDbEntity
  8
THICK
100
AcDbCircle
 10
-171.35
 20
33.84999999999999
 30
0.0
 40
225.65
100
AcDbArc
 50
0.0
 51
10.59427611086649
1001
DBPROPERTIES
1002
{
1000
PbThick
1002
}
  0
ARC
  5
122
330
1F
100
AcDbEntity
  8
HIDDEN
100
AcDbCircle
 10
-171.35
 20
33.84999999999999
 30
0.0
 40
225.65
100
AcDbArc
 50
10.59427611086649
 51
12.25694233655662
1001
DBPROPERTIES
1002
{
1000
PbHidd
1002
}
  0
ARC
  5
123
330
1F
100
AcDbEntity
  8
THICK
100
AcDbCircle
 10
-171.35
 20
33.84999999999999
 30
0.0
 40
225.65
100
AcDbArc
 50
12.25694233655662
 51
41.74306934737417
1001
DBPROPERTIES
1002
{
1000
PbThick
1002
}
  0
ARC
  5
124
330
1F
100
AcDbEntity
  8
HIDDEN
100
AcDbCircle
 10
-171.35
 20
33.84999999999999
 30
0.0
 40
225.65
100
AcDbArc
 50
41.74306934737417
 51
43.40573557306431
1001
DBPROPERTIES
1002
{
1000
PbHidd
1002
}
  0
ARC
  5
125
330
1F
100
AcDbEntity
  8
THICK
100
AcDbCircle
 10
-171.35
 20
33.84999999999999
 30
0.0
 40
225.65
100
AcDbArc
 50
43.40573557306431
 51
90.25391617083363
1001
DBPROPERTIES
1002
{
1000
PbThick
1002
}
  0
LINE
  5
126
330
1F
100
AcDbEntity
  8
HIDDEN
100
AcDbLine
 10
515.0
 20
246.0
 30
0.0
 11
515.0
 21
246.0
 31
0.0
1001
DBPROPERTIES
1002
{
1000
PbHidd
1002
}
  0
LINE
  5
127
330
1F
100
AcDbEntity
  8
HIDDEN
100
AcDbLine
 10
427.5
 20
246.0
 30
0.0
 11
515.0
 21
246.0
 31
0.0
1001
DBPROPERTIES
1002
{
1000
PbHidd
1002
}
  0
LINE
  5
128
330
1F
100
AcDbEntity
  8
HIDDEN
100
AcDbLine
 10
427.5
 20
-246.0
 30
0.0
 11
515.0
 21
-246.0
 31
0.0
1001
DBPROPERTIES
1002
{
1000
PbHidd
1002
}
  0
LINE
  5
129
330
1F
100
AcDbEntity
  8
HIDDEN
100
AcDbLine
 10
515.0
 20
-246.0
 30
0.0
 11
515.0
 21
-246.0
 31
0.0
1001
DBPROPERTIES
1002
{
1000
PbHidd
1002
}
  0
LINE
  5
12A
330
1F
100
AcDbEntity
  8
THICK
100
AcDbLine
 10
475.0
 20
250.0
 30
0.0
 11
515.0
 21
250.0
 31
0.0
1001
DBPROPERTIES
1002
{
1000
PbThick
1002
}
  0
LINE
  5
12B
330
1F
100
AcDbEntity
  8
THICK
100
AcDbLine
 10
475.0
 20
-250.0
 30
0.0
 11
515.0
 21
-250.0
 31
0.0
1001
DBPROPERTIES
1002
{
1000
PbThick
1002
}
  0
LINE
  5
12C
330
1F
100
AcDbEntity
  8
THICK
100
AcDbLine
 10
515.0
 20
250.0
 30
0.0
 11
515.0
 21
-250.0
 31
0.0
1001
DBPROPERTIES
1002
{
1000
PbThick
1002
}
  0
LINE
  5
12D
330
1F
100
AcDbEntity
  8
HIDDEN
100
AcDbLine
 10
515.0
 20
-250.0
 30
0.0
 11
515.0
 21
-250.0
 31
0.0
1001
DBPROPERTIES
1002
{
1000
PbHidd
1002
}
  0
LINE
  5
12E
330
1F
100
AcDbEntity
  8
HIDDEN
100
AcDbLine
 10
515.0
 20
250.0
 30
0.0
 11
515.0
 21
250.0
 31
0.0
1001
DBPROPERTIES
1002
{
1000
PbHidd
1002
}
  0
LINE
  5
12F
330
1F
100
AcDbEntity
  8
HIDDEN
100
AcDbLine
 10
-505.0
 20
251.5
 30
0.0
 11
-427.5
 21
251.5
 31
0.0
1001
DBPROPERTIES
1002
{
1000
PbHidd
1002
}
  0
LINE
  5
130
330
1F
100
AcDbEntity
  8
HIDDEN
100
AcDbLine
 10
-505.0
 20
251.5
 30
0.0
 11
-505.0
 21
251.5
 31
0.0
1001
DBPROPERTIES
1002
{
1000
PbHidd
1002
}
  0
LINE
  5
131
330
1F
100
AcDbEntity
  8
HIDDEN
100
AcDbLine
 10
-427.5
 20
251.5
 30
0.0
 11
-427.5
 21
251.5
 31
0.0
1001
DBPROPERTIES
1002
{
1000
PbHidd
1002
}
  0
LINE
  5
132
330
1F
100
AcDbEntity
  8
HIDDEN
100
AcDbLine
 10
-505.0
 20
-81.5
 30
0.0
 11
-427.5
 21
-81.5
 31
0.0
1001
DBPROPERTIES
1002
{
1000
PbHidd
1002
}
  0
LINE
  5
133
330
1F
100
AcDbEntity
  8
HIDDEN
100
AcDbLine
 10
-505.0
 20
-81.5
 30
0.0
 11
-505.0
 21
-81.5
 31
0.0
1001
DBPROPERTIES
1002
{
1000
PbHidd
1002
}
  0
LINE
  5
134
330
1F
100
AcDbEntity
  8
HIDDEN
100
AcDbLine
 10
-427.5
 20
-81.5
 30
0.0
 11
-427.5
 21
-81.5
 31
0.0
1001
DBPROPERTIES
1002
{
1000
PbHidd
1002
}
  0
LINE
  5
135
330
1F
100
AcDbEntity
  8
HIDDEN
100
AcDbLine
 10
-475.0
 20
-85.5
 30
0.0
 11
-475.0
 21
-85.5
 31
0.0
1001
DBPROPERTIES
1002
{
1000
PbHidd
1002
}
  0
LINE
  5
136
330
1F
100
AcDbEntity
  8
THICK
100
AcDbLine
 10
-505.0
 20
-85.5
 30
0.0
 11
-475.0
 21
-85.5
 31
0.0
1001
DBPROPERTIES
1002
{
1000
PbThick
1002
}
  0
LINE
  5
137
330
1F
100
AcDbEntity
  8
HIDDEN
100
AcDbLine
 10
-505.0
 20
-85.5
 30
0.0
 11
-505.0
 21
-85.5
 31
0.0
1001
DBPROPERTIES
1002
{
1000
PbHidd
1002
}
  0
LINE
  5
138
330
1F
100
AcDbEntity
  8
THICK
100
AcDbLine
 10
-505.0
 20
-85.5
 30
0.0
 11
-505.0
 21
255.5
 31
0.0
1001
DBPROPERTIES
1002
{
1000
PbThick
1002
}
  0
LINE
  5
139
330
1F
100
AcDbEntity
  8
HIDDEN
100
AcDbLine
 10
-505.0
 20
255.5
 30
0.0
 11
-505.0
 21
255.5
 31
0.0
1001
DBPROPERTIES
1002
{
1000
PbHidd
1002
}
  0
LINE
  5
13A
330
1F
100
AcDbEntity
  8
THICK
100
AcDbLine
 10
-505.0
 20
255.5
 30
0.0
 11
-475.0
 21
255.5
 31
0.0
1001
DBPROPERTIES
1002
{
1000
PbThick
1002
}
  0
LINE
  5
13B
330
1F
100
AcDbEntity
  8
HIDDEN
100
AcDbLine
 10
-475.0
 20
255.5
 30
0.0
 11
-475.0
 21
255.5
 31
0.0
1001
DBPROPERTIES
1002
{
1000
PbHidd
1002
}
  0
LINE
  5
13C
330
1F
100
AcDbEntity
  8
HIDDEN
100
AcDbLine
 10
-332.5
 20
-337.5
 30
0.0
 11
-332.5
 21
-290.0
 31
0.0
1001
DBPROPERTIES
1002
{
1000
PbHidd
1002
}
  0
LINE
  5
13D
330
1F
100
AcDbEntity
  8
HIDDEN
100
AcDbLine
 10
-332.5
 20
-337.5
 30
0.0
 11
-332.5
 21
-337.5
 31
0.0
1001
DBPROPERTIES
1002
{
1000
PbHidd
1002
}
  0
LINE
  5
13E
330
1F
100
AcDbEntity
  8
THICK
100
AcDbLine
 10
-427.5
 20
290.0
 30
0.0
 11
427.5
 21
290.0
 31
0.0
1001
DBPROPERTIES
1002
{
1000
PbThick
1002
}
  0
LINE
  5
13F
330
1F
100
AcDbEntity
  8
THICK
100
AcDbLine
 10
-475.0000000000001
 20
-332.5
 30
0.0
 11
-470.0
 21
-332.5000000000001
 31
0.0
1001
DBPROPERTIES
1002
{
1000
PbThick
1002
}
  0
ARC
  5
140
330
1F
100
AcDbEntity
  8
THICK
100
AcDbCircle
 10
-470.0
 20
-332.4999999999999
 30
0.0
 40
5.0
100
AcDbArc
 50
180.0000198478428
 51
270.0000187239684
1001
DBPROPERTIES
1002
{
1000
PbThick
1002
}
  0
LINE
  5
141
330
1F
100
AcDbEntity
  8
THICK
100
AcDbLine
 10
-469.9999999999999
 20
-337.5000000000001
 30
0.0
 11
-470.0
 21
-332.5000000000001
 31
0.0
1001
DBPROPERTIES
1002
{
1000
PbThick
1002
}
  0
LINE
  5
142
330
1F
100
AcDbEntity
  8
THICK
100
AcDbLine
 10
-470.0
 20
-332.5000000000001
 30
0.0
 11
469.9999999999999
 21
-332.5000000000001
 31
0.0
1001
DBPROPERTIES
1002
{
1000
PbThick
1002
}
  0
LINE
  5
143
330
1F
100
AcDbEntity
  8
THICK
100
AcDbLine
 10
-470.0
 20
-337.5
 30
0.0
 11
469.9999999999999
 21
-337.5
 31
0.0
1001
DBPROPERTIES
1002
{
1000
PbThick
1002
}
  0
LINE
  5
144
330
1F
100
AcDbEntity
  8
THICK
100
AcDbLine
 10
470.0000000000001
 20
-337.5000000000001
 30
0.0
 11
470.0000000000001
 21
-332.5
 31
0.0
1001
DBPROPERTIES
1002
{
1000
PbThick
1002
}
  0
LINE
  5
145
330
1F
100
AcDbEntity
  8
HIDDEN
100
AcDbLine
 10
-470.0
 20
-337.5
 30
0.0
 11
-470.0000000000001
 21
-337.5
 31
0.0
1001
DBPROPERTIES
1002
{
1000
PbHidd
1002
}
  0
LINE
  5
146
330
1F
100
AcDbEntity
  8
HIDDEN
100
AcDbLine
 10
-474.9999999999999
 20
-332.4999999999999
 30
0.0
 11
-475.0000000000001
 21
-332.4999999999999
 31
0.0
1001
DBPROPERTIES
1002
{
1000
PbHidd
1002
}
  0
LINE
  5
147
330
1F
100
AcDbEntity
  8
HIDDEN
100
AcDbLine
 10
470.0000000000001
 20
-332.4999999999999
 30
0.0
 11
475.0000000000001
 21
-332.5
 31
0.0
1001
DBPROPERTIES
1002
{
1000
PbHidd
1002
}
  0
LINE
  5
148
330
1F
100
AcDbEntity
  8
HIDDEN
100
AcDbLine
 10
470.0
 20
-332.5
 30
0.0
 11
470.0
 21
-337.4999999999999
 31
0.0
1001
DBPROPERTIES
1002
{
1000
PbHidd
1002
}
  0
LINE
  5
149
330
1F
100
AcDbEntity
  8
HIDDEN
100
AcDbLine
 10
-470.0
 20
-332.4999999999999
 30
0.0
 11
470.0000000000001
 21
-332.4999999999999
 31
0.0
1001
DBPROPERTIES
1002
{
1000
PbHidd
1002
}
  0
LINE
  5
14A
330
1F
100
AcDbEntity
  8
HIDDEN
100
AcDbLine
 10
-470.0
 20
-332.4999999999999
 30
0.0
 11
-470.0
 21
-337.4999999999999
 31
0.0
1001
DBPROPERTIES
1002
{
1000
PbHidd
1002
}
  0
LINE
  5
14B
330
1F
100
AcDbEntity
  8
HIDDEN
100
AcDbLine
 10
-475.0
 20
332.5
 30
0.0
 11
-470.0
 21
332.5
 31
0.0
1001
DBPROPERTIES
1002
{
1000
PbHidd
1002
}
  0
LINE
  5
14C
330
1F
100
AcDbEntity
  8
HIDDEN
100
AcDbLine
 10
-469.9999999999999
 20
337.5
 30
0.0
 11
-470.0
 21
332.5
 31
0.0
1001
DBPROPERTIES
1002
{
1000
PbHidd
1002
}
  0
LINE
  5
14D
330
1F
100
AcDbEntity
  8
HIDDEN
100
AcDbLine
 10
-470.0
 20
332.5
 30
0.0
 11
470.0000000000001
 21
332.5
 31
0.0
1001
DBPROPERTIES
1002
{
1000
PbHidd
1002
}
  0
LINE
  5
14E
330
1F
100
AcDbEntity
  8
HIDDEN
100
AcDbLine
 10
470.0000000000001
 20
337.5
 30
0.0
 11
470.0000000000001
 21
332.5
 31
0.0
1001
DBPROPERTIES
1002
{
1000
PbHidd
1002
}
  0
LINE
  5
14F
330
1F
100
AcDbEntity
  8
THICK
100
AcDbLine
 10
474.9999999999999
 20
332.5
 30
0.0
 11
469.9999999999999
 21
332.5
 31
0.0
1001
DBPROPERTIES
1002
{
1000
PbThick
1002
}
  0
ARC
  5
150
330
1F
100
AcDbEntity
  8
THICK
100
AcDbCircle
 10
469.9999999999999
 20
332.5
 30
0.0
 40
5.0
100
AcDbArc
 50
0.0
 51
89.99998127603165
1001
DBPROPERTIES
1002
{
1000
PbThick
1002
}
  0
LINE
  5
151
330
1F
100
AcDbEntity
  8
THICK
100
AcDbLine
 10
470.0
 20
332.5
 30
0.0
 11
470.0
 21
337.5
 31
0.0
1001
DBPROPERTIES
1002
{
1000
PbThick
1002
}
  0
LINE
  5
152
330
1F
100
AcDbEntity
  8
THICK
100
AcDbLine
 10
-470.0
 20
332.5
 30
0.0
 11
469.9999999999999
 21
332.5
 31
0.0
1001
DBPROPERTIES
1002
{
1000
PbThick
1002
}
  0
LINE
  5
153
330
1F
100
AcDbEntity
  8
THICK
100
AcDbLine
 10
-470.0
 20
337.5
 30
0.0
 11
469.9999999999999
 21
337.5
 31
0.0
1001
DBPROPERTIES
1002
{
1000
PbThick
1002
}
  0
LINE
  5
154
330
1F
100
AcDbEntity
  8
THICK
100
AcDbLine
 10
-470.0
 20
337.5
 30
0.0
 11
-470.0
 21
332.5
 31
0.0
1001
DBPROPERTIES
1002
{
1000
PbThick
1002
}
  0
LINE
  5
155
330
1F
100
AcDbEntity
  8
HIDDEN
100
AcDbLine
 10
470.0
 20
337.5
 30
0.0
 11
470.0
 21
337.5
 31
0.0
1001
DBPROPERTIES
1002
{
1000
PbHidd
1002
}
  0
LINE
  5
156
330
1F
100
AcDbEntity
  8
THICK
100
AcDbLine
 10
469.9999999999999
 20
-332.5
 30
0.0
 11
474.9999999999999
 21
-332.5
 31
0.0
1001
DBPROPERTIES
1002
{
1000
PbThick
1002
}
  0
ARC
  5
157
330
1F
100
AcDbEntity
  8
THICK
100
AcDbCircle
 10
469.9999999999999
 20
-332.5
 30
0.0
 40
5.0
100
AcDbArc
 50
270.0000187239684
 51
0.0
1001
DBPROPERTIES
1002
{
1000
PbThick
1002
}
  0
LINE
  5
158
330
1F
100
AcDbEntity
  8
HIDDEN
100
AcDbLine
 10
469.9999999999999
 20
-337.5
 30
0.0
 11
469.9999999999999
 21
-337.5
 31
0.0
1001
DBPROPERTIES
1002
{
1000
PbHidd
1002
}
  0
LINE
  5
159
330
1F
100
AcDbEntity
  8
HIDDEN
100
AcDbLine
 10
-475.0
 20
-332.4999999999999
 30
0.0
 11
-470.0
 21
-332.5
 31
0.0
1001
DBPROPERTIES
1002
{
1000
PbHidd
1002
}
  0
LINE
  5
15A
330
1F
100
AcDbEntity
  8
HIDDEN
100
AcDbLine
 10
470.0000000000001
 20
332.5
 30
0.0
 11
475.0000000000001
 21
332.5
 31
0.0
1001
DBPROPERTIES
1002
{
1000
PbHidd
1002
}
  0
LINE
  5
15B
330
1F
100
AcDbEntity
  8
THICK
100
AcDbLine
 10
-475.0
 20
332.5
 30
0.0
 11
-470.0
 21
332.5
 31
0.0
1001
DBPROPERTIES
1002
{
1000
PbThick
1002
}
  0
ARC
  5
15C
330
1F
100
AcDbEntity
  8
THICK
100
AcDbCircle
 10
-470.0
 20
332.4999999999999
 30
0.0
 40
5.0
100
AcDbArc
 50
89.99998127603165
 51
180.0000198478428
1001
DBPROPERTIES
1002
{
1000
PbThick
1002
}
  0
LINE
  5
15D
330
1F
100
AcDbEntity
  8
HIDDEN
100
AcDbLine
 10
-470.0
 20
337.5
 30
0.0
 11
-470.0
 21
337.5
 31
0.0
1001
DBPROPERTIES
1002
{
1000
PbHidd
1002
}
  0
LINE
  5
15E
330
1F
100
AcDbEntity
  8
HIDDEN
100
AcDbLine
 10
-475.0
 20
332.5
 30
0.0
 11
-475.0
 21
332.5
 31
0.0
1001
DBPROPERTIES
1002
{
1000
PbHidd
1002
}
  0
LINE
  5
15F
330
1F
100
AcDbEntity
  8
THICK
100
AcDbLine
 10
469.9999999999999
 20
-332.5000000000001
 30
0.0
 11
469.9999999999999
 21
332.5
 31
0.0
1001
DBPROPERTIES
1002
{
1000
PbThick
1002
}
  0
LINE
  5
160
330
1F
100
AcDbEntity
  8
HIDDEN
100
AcDbLine
 10
470.0000000000001
 20
-332.4999999999999
 30
0.0
 11
470.0000000000001
 21
332.5
 31
0.0
1001
DBPROPERTIES
1002
{
1000
PbHidd
1002
}
  0
LINE
  5
161
330
1F
100
AcDbEntity
  8
THICK
100
AcDbLine
 10
-470.0
 20
-332.5000000000001
 30
0.0
 11
-470.0
 21
332.5
 31
0.0
1001
DBPROPERTIES
1002
{
1000
PbThick
1002
}
  0
LINE
  5
162
330
1F
100
AcDbEntity
  8
HIDDEN
100
AcDbLine
 10
-470.0
 20
-332.4999999999999
 30
0.0
 11
-470.0
 21
332.5
 31
0.0
1001
DBPROPERTIES
1002
{
1000
PbHidd
1002
}
  0
LINE
  5
163
330
1F
100
AcDbEntity
  8
THICK
100
AcDbLine
 10
-475.0
 20
-332.4999999999999
 30
0.0
 11
-475.0
 21
332.5
 31
0.0
1001
DBPROPERTIES
1002
{
1000
PbThick
1002
}
  0
ENDSEC
  0
SECTION
  2
OBJECTS
  0
DICTIONARY
  5
C
330
0
100
AcDbDictionary
  3
ACAD_GROUP
350
D
  3
ACAD_LAYOUT
350
1A
  3
ACAD_MATERIAL
350
43
  3
ACAD_MLEADERSTYLE
350
6B
  3
ACAD_MLINESTYLE
350
17
  3
ACAD_PLOTSETTINGS
350
19
  3
ACAD_SCALELIST
350
47
  3
ACAD_VISUALSTYLE
350
2A
  3
ACDBVARIABLEDICTIONARY
350
164
1001
ACAD
1000
TREAT_AS_HARD
1070
     0
  0
DICTIONARY
  5
D
102
{ACAD_REACTORS
330
C
102
}
330
C
100
AcDbDictionary
1001
ACAD
1000
TREAT_AS_HARD
1070
     0
  0
DICTIONARY
  5
1A
102
{ACAD_REACTORS
330
C
102
}
330
C
100
AcDbDictionary
1001
ACAD
1000
TREAT_AS_HARD
1070
     0
  0
DICTIONARY
  5
43
102
{ACAD_REACTORS
330
C
102
}
330
C
100
AcDbDictionary
  3
BYBLOCK
350
45
  3
BYLAYER
350
44
  3
GLOBAL
350
46
1001
ACAD
1000
TREAT_AS_HARD
1070
     0
  0
DICTIONARY
  5
6B
102
{ACAD_REACTORS
330
C
102
}
330
C
100
AcDbDictionary
  3
STANDARD
350
6C
1001
ACAD
1000
TREAT_AS_HARD
1070
     0
  0
DICTIONARY
  5
17
102
{ACAD_REACTORS
330
C
102
}
330
C
100
AcDbDictionary
  3
STANDARD
350
18
1001
ACAD
1000
TREAT_AS_HARD
1070
     0
  0
DICTIONARY
  5
19
102
{ACAD_REACTORS
330
C
102
}
330
C
100
AcDbDictionary
1001
ACAD
1000
TREAT_AS_HARD
1070
     0
  0
DICTIONARY
  5
47
102
{ACAD_REACTORS
330
C
102
}
330
C
100
AcDbDictionary
  3
A0
350
48
  3
A1
350
49
  3
A2
350
4A
  3
A3
350
4B
  3
A4
350
4C
  3
A5
350
4D
  3
A6
350
4E
  3
A7
350
4F
  3
A8
350
50
  3
A9
350
51
  3
B0
350
52
  3
B1
350
53
  3
B2
350
54
  3
B3
350
55
  3
B4
350
56
  3
B5
350
57
  3
B6
350
58
  3
B7
350
59
  3
B8
350
5A
  3
B9
350
5B
  3
C0
350
5C
  3
C1
350
5D
  3
C2
350
5E
  3
C3
350
5F
  3
C4
350
60
  3
C5
350
61
  3
C6
350
62
  3
C7
350
63
  3
C8
350
64
  3
C9
350
65
  3
D0
350
66
  3
D1
350
67
  3
D2
350
68
1001
ACAD
1000
TREAT_AS_HARD
1070
     0
  0
DICTIONARY
  5
2A
102
{ACAD_REACTORS
330
C
102
}
330
C
100
AcDbDictionary
  3
2DWIREFRAME
350
2F
  3
BASIC
350
32
  3
BRIGHTEN
350
36
  3
COLORCHANGE
350
3A
  3
CONCEPTUAL
350
34
  3
DIM
350
35
  3
EDGECOLOROFF
350
3D
  3
FACEPATTERN
350
39
  3
FLAT
350
2B
  3
FLATWITHEDGES
350
2C
  3
GOURAUD
350
2D
  3
GOURAUDWITHEDGES
350
2E
  3
HIDDEN
350
31
  3
JITTEROFF
350
3B
  3
LINEPATTERN
350
38
  3
OVERHANGOFF
350
3C
  3
REALISTIC
350
33
  3
SHADED
350
42
  3
SHADED_WITH_EDGES
350
41
  3
SHADES_OF_GRAY
350
3E
  3
SKETCHY
350
3F
  3
THICKEN
350
37
  3
WIREFRAME
350
30
  3
X-RAY
350
40
1001
ACAD
1000
TREAT_AS_HARD
1070
     0
  0
DICTIONARY
  5
164
102
{ACAD_REACTORS
330
C
102
}
330
C
100
AcDbDictionary
  3
CANNOSCALE
350
16F
  3
CENTEREXE
350
16B
  3
CENTERLTYPEFILE
350
16C
  3
CMLEADERSTYLE
350
166
  3
CTABLESTYLE
350
165
  3
DIMASSOC
350
16D
  3
HIDETEXT
350
16E
  3
MSLTSCALE
350
170
  3
PSOLHEIGHT
350
168
  3
PSOLWIDTH
350
167
1001
ACAD
1000
TREAT_AS_HARD
1070
     0
  0
MATERIAL
  5
45
102
{ACAD_REACTORS
330
43
102
}
102
{ACAD_XDICTIONARY
360
173
102
}
330
43
100
AcDbMaterial
  1
BYBLOCK
  0
MATERIAL
  5
44
102
{ACAD_REACTORS
330
43
102
}
102
{ACAD_XDICTIONARY
360
171
102
}
330
43
100
AcDbMaterial
  1
BYLAYER
  0
MATERIAL
  5
46
102
{ACAD_REACTORS
330
43
102
}
102
{ACAD_XDICTIONARY
360
175
102
}
330
43
100
AcDbMaterial
  1
GLOBAL
  0
ACAD_PROXY_OBJECT
  5
6C
102
{ACAD_REACTORS
330
6B
102
}
330
6B
100
AcDbZombieObject
 90
      499
 91
      505
 93
      610
310
40901902A4063FBFFFFFE0000000000000020400000000000020404214DD185B99185C990000000000000104090141901A00000000000004100000000000000041025764000000000000039000
340
14
340
0
340
11
340
0
 94
        0
1001
ACAD_MLEADERVER
1070
     2
  0
MLINESTYLE
  5
18
102
{ACAD_REACTORS
330
17
102
}
330
17
100
AcDbMlineStyle
  2
Standard
 70
     0
  3

 62
   256
 51
90.0
 52
90.0
 71
     2
 49
0.5
 62
   256
  6
BYLAYER
 49
-0.5
 62
   256
  6
BYLAYER
  0
ACAD_PROXY_OBJECT
  5
48
102
{ACAD_REACTORS
330
47
102
}
330
47
100
AcDbZombieObject
 90
      499
 91
      503
 93
       41
310
903313A31580
  0
ACAD_PROXY_OBJECT
  5
49
102
{ACAD_REACTORS
330
47
102
}
330
47
100
AcDbZombieObject
 90
      499
 91
      503
 93
      105
310
903313A324000000000000004000
  0
ACAD_PROXY_OBJECT
  5
4A
102
{ACAD_REACTORS
330
47
102
}
330
47
100
AcDbZombieObject
 90
      499
 91
      503
 93
      105
310
903313A344000000000000104000
  0
ACAD_PROXY_OBJECT
  5
4B
102
{ACAD_REACTORS
330
47
102
}
330
47
100
AcDbZombieObject
 90
      499
 91
      503
 93
      105
310
903313A354000000000000144000
  0
ACAD_PROXY_OBJECT
  5
4C
102
{ACAD_REACTORS
330
47
102
}
330
47
100
AcDbZombieObject
 90
      499
 91
      503
 93
      105
310
903313A384000000000000204000
  0
ACAD_PROXY_OBJECT
  5
4D
102
{ACAD_REACTORS
330
47
102
}
330
47
100
AcDbZombieObject
 90
      499
 91
      503
 93
      113
310
904313A31304000000000000244000
  0
ACAD_PROXY_OBJECT
  5
4E
102
{ACAD_REACTORS
330
47
102
}
330
47
100
AcDbZombieObject
 90
      499
 91
      503
 93
      113
310
904313A31364000000000000304000
  0
ACAD_PROXY_OBJECT
  5
4F
102
{ACAD_REACTORS
330
47
102
}
330
47
100
AcDbZombieObject
 90
      499
 91
      503
 93
      113
310
904313A32304000000000000344000
  0
ACAD_PROXY_OBJECT
  5
50
102
{ACAD_REACTORS
330
47
102
}
330
47
100
AcDbZombieObject
 90
      499
 91
      503
 93
      113
310
904313A333040000000000003E4000
  0
ACAD_PROXY_OBJECT
  5
51
102
{ACAD_REACTORS
330
47
102
}
330
47
100
AcDbZombieObject
 90
      499
 91
      503
 93
      113
310
904313A34304000000000000444000
  0
ACAD_PROXY_OBJECT
  5
52
102
{ACAD_REACTORS
330
47
102
}
330
47
100
AcDbZombieObject
 90
      499
 91
      503
 93
      113
310
904313A35304000000000000494000
  0
ACAD_PROXY_OBJECT
  5
53
102
{ACAD_REACTORS
330
47
102
}
330
47
100
AcDbZombieObject
 90
      499
 91
      503
 93
      121
310
905313A3130304000000000000594000
  0
ACAD_PROXY_OBJECT
  5
54
102
{ACAD_REACTORS
330
47
102
}
330
47
100
AcDbZombieObject
 90
      499
 91
      503
 93
      105
310
903323A310000000000000010100
  0
ACAD_PROXY_OBJECT
  5
55
102
{ACAD_REACTORS
330
47
102
}
330
47
100
AcDbZombieObject
 90
      499
 91
      503
 93
      105
310
903343A310000000000000410100
  0
ACAD_PROXY_OBJECT
  5
56
102
{ACAD_REACTORS
330
47
102
}
330
47
100
AcDbZombieObject
 90
      499
 91
      503
 93
      105
310
903383A310000000000000810100
  0
ACAD_PROXY_OBJECT
  5
57
102
{ACAD_REACTORS
330
47
102
}
330
47
100
AcDbZombieObject
 90
      499
 91
      503
 93
      113
310
90431303A310000000000000910100
  0
ACAD_PROXY_OBJECT
  5
58
102
{ACAD_REACTORS
330
47
102
}
330
47
100
AcDbZombieObject
 90
      499
 91
      503
 93
      121
310
9053130303A310000000000001650100
  0
ACAD_PROXY_OBJECT
  5
59
102
{ACAD_REACTORS
330
47
102
}
330
47
100
AcDbZombieObject
 90
      499
 91
      503
 93
      257
310
90E312F31323822203D2031272D3022000000000000200FC000000000000284000
  0
ACAD_PROXY_OBJECT
  5
5A
102
{ACAD_REACTORS
330
47
102
}
330
47
100
AcDbZombieObject
 90
      499
 91
      503
 93
      249
310
90D312F363422203D2031272D3022000000000000240FC000000000000284000
  0
ACAD_PROXY_OBJECT
  5
5B
102
{ACAD_REACTORS
330
47
102
}
330
47
100
AcDbZombieObject
 90
      499
 91
      503
 93
      249
310
90D312F333222203D2031272D3022000000000000280FC000000000000284000
  0
ACAD_PROXY_OBJECT
  5
5C
102
{ACAD_REACTORS
330
47
102
}
330
47
100
AcDbZombieObject
 90
      499
 91
      503
 93
      249
310
90D312F313622203D2031272D30220000000000002C0FC000000000000284000
  0
ACAD_PROXY_OBJECT
  5
5D
102
{ACAD_REACTORS
330
47
102
}
330
47
100
AcDbZombieObject
 90
      499
 91
      503
 93
      249
310
90D332F333222203D2031272D30220000000000002E0FC000000000000284000
  0
ACAD_PROXY_OBJECT
  5
5E
102
{ACAD_REACTORS
330
47
102
}
330
47
100
AcDbZombieObject
 90
      499
 91
      503
 93
      241
310
90C312F3822203D2031272D3022000000000000300FC000000000000284000
  0
ACAD_PROXY_OBJECT
  5
5F
102
{ACAD_REACTORS
330
47
102
}
330
47
100
AcDbZombieObject
 90
      499
 91
      503
 93
      249
310
90D332F313622203D2031272D3022000000000000320FC000000000000284000
  0
ACAD_PROXY_OBJECT
  5
60
102
{ACAD_REACTORS
330
47
102
}
330
47
100
AcDbZombieObject
 90
      499
 91
      503
 93
      241
310
90C312F3422203D2031272D3022000000000000340FC000000000000284000
  0
ACAD_PROXY_OBJECT
  5
61
102
{ACAD_REACTORS
330
47
102
}
330
47
100
AcDbZombieObject
 90
      499
 91
      503
 93
      241
310
90C332F3822203D2031272D3022000000000000360FC000000000000284000
  0
ACAD_PROXY_OBJECT
  5
62
102
{ACAD_REACTORS
330
47
102
}
330
47
100
AcDbZombieObject
 90
      499
 91
      503
 93
      241
310
90C312F3222203D2031272D3022000000000000380FC000000000000284000
  0
ACAD_PROXY_OBJECT
  5
63
102
{ACAD_REACTORS
330
47
102
}
330
47
100
AcDbZombieObject
 90
      499
 91
      503
 93
      241
310
90C332F3422203D2031272D30220000000000003A0FC000000000000284000
  0
ACAD_PROXY_OBJECT
  5
64
102
{ACAD_REACTORS
330
47
102
}
330
47
100
AcDbZombieObject
 90
      499
 91
      503
 93
      161
310
90A3122203D2031272D30224000000000000284000
  0
ACAD_PROXY_OBJECT
  5
65
102
{ACAD_REACTORS
330
47
102
}
330
47
100
AcDbZombieObject
 90
      499
 91
      503
 93
      257
310
90E312D312F3222203D2031272D30220000000000003E0FC000000000000284000
  0
ACAD_PROXY_OBJECT
  5
66
102
{ACAD_REACTORS
330
47
102
}
330
47
100
AcDbZombieObject
 90
      499
 91
      503
 93
      225
310
90A3322203D2031272D302200000000000002100000000000000284000
  0
ACAD_PROXY_OBJECT
  5
67
102
{ACAD_REACTORS
330
47
102
}
330
47
100
AcDbZombieObject
 90
      499
 91
      503
 93
      225
310
90A3622203D2031272D302200000000000006100000000000000284000
  0
ACAD_PROXY_OBJECT
  5
68
102
{ACAD_REACTORS
330
47
102
}
330
47
100
AcDbZombieObject
 90
      499
 91
      503
 93
      249
310
90D31272D3022203D2031272D30220000000000000A100000000000000284000
  0
ACAD_PROXY_OBJECT
  5
2F
102
{ACAD_REACTORS
330
2A
102
}
330
2A
100
AcDbZombieObject
 90
      499
 91
      501
 93
      436
310
42CC9915DA5C99599C985B595049028333333333333E33F0000000000000F90107901411070040501600405405064090741402480A0340
1001
ACAD
1000
AcDbSavedByObjectVersion
1070
     0
  0
ACAD_PROXY_OBJECT
  5
32
102
{ACAD_REACTORS
330
2A
102
}
330
2A
100
AcDbZombieObject
 90
      499
 91
      501
 93
      388
310
4150985CDA58D07406404333333333333E33F0000000000000F90107A41107004050150841D405064090741402480A0350
1001
ACAD
1000
AcDbSavedByObjectVersion
1070
     0
  0
ACAD_PROXY_OBJECT
  5
36
102
{ACAD_REACTORS
330
2A
102
}
330
2A
100
AcDbZombieObject
 90
      499
 91
      501
 93
      428
310
42109C9A59DA1D195B90C409028333333333333E33F0000000000000F9010790141107004050150841D405064090741402480A029950
1001
ACAD
1000
AcDbSavedByObjectVersion
1070
     0
  0
ACAD_PROXY_OBJECT
  5
3A
102
{ACAD_REACTORS
330
2A
102
}
330
2A
100
AcDbZombieObject
 90
      499
 91
      501
 93
      452
310
42D0DBDB1BDC90DA185B99D95104090240C333333333333E33F0000000000000F90108901411070040501508421405064090741402480A0350
1001
ACAD
1000
AcDbSavedByObjectVersion
1070
     0
  0
ACAD_PROXY_OBJECT
  5
34
102
{ACAD_REACTORS
330
2A
102
}
330
2A
100
AcDbZombieObject
 90
      499
 91
      501
 93
      500
310
4290DBDB98D95C1D1D585B10940D028333333333333E33F0000000000000F90107902409070040501000000000018199010841D405064090740C02480A0340
1001
ACAD
1000
AcDbSavedByObjectVersion
1070
     0
  0
ACAD_PROXY_OBJECT
  5
35
102
{ACAD_REACTORS
330
2A
102
}
330
2A
100
AcDbZombieObject
 90
      499
 91
      501
 93
      412
310
40D11A5B50B409028333333333333E33F0000000000000F9010790141107004050150841D405064090741402480A02677FFFFFD0
1001
ACAD
1000
AcDbSavedByObjectVersion
1070
     0
  0
ACAD_PROXY_OBJECT
  5
3D
102
{ACAD_REACTORS
330
2A
102
}
330
2A
100
AcDbZombieObject
 90
      499
 91
      501
 93
      452
310
43115919D950DBDB1BDC93D999916409028333333333333E33F0000000000000F9010790141107004050150841D405064090741402480A0350
1001
ACAD
1000
AcDbSavedByObjectVersion
1070
     0
  0
ACAD_PROXY_OBJECT
  5
39
102
{ACAD_REACTORS
330
2A
102
}
330
2A
100
AcDbZombieObject
 90
      499
 91
      501
 93
      444
310
42D19858D95C185D1D195C9B90F409028333333333333E33F0000000000000F9010790141107004050150841D405064090741402480A0350
1001
ACAD
1000
AcDbSavedByObjectVersion
1070
     0
  0
ACAD_PROXY_OBJECT
  5
2B
102
{ACAD_REACTORS
330
2A
102
}
330
2A
100
AcDbZombieObject
 90
      499
 91
      501
 93
      380
310
41119B185D240901404333333333333E33F0000000000000F9010740A907004050150841D405064090741402480A1B50
1001
ACAD
1000
AcDbSavedByObjectVersion
1070
     0
  0
ACAD_PROXY_OBJECT
  5
2C
102
{ACAD_REACTORS
330
2A
102
}
330
2A
100
AcDbZombieObject
 90
      499
 91
      501
 93
      468
310
43519B185D15DA5D1A115919D95CD0140901404333333333333E33F0000000000000F90107409019070040501600405405064090741402480A1B50
1001
ACAD
1000
AcDbSavedByObjectVersion
1070
     0
  0
ACAD_PROXY_OBJECT
  5
2D
102
{ACAD_REACTORS
330
2A
102
}
330
2A
100
AcDbZombieObject
 90
      499
 91
      501
 93
      404
310
41D1DBDD5C985D5910240902404333333333333E33F0000000000000F9010740A9070040501641D405064090741402480A1B50
1001
ACAD
1000
AcDbSavedByObjectVersion
1070
     0
  0
ACAD_PROXY_OBJECT
  5
2E
102
{ACAD_REACTORS
330
2A
102
}
330
2A
100
AcDbZombieObject
 90
      499
 91
      501
 93
      492
310
4411DBDD5C985D5915DA5D1A115919D95CD0340902404333333333333E33F0000000000000F90107409019070040501600405405064090741402480A1B50
1001
ACAD
1000
AcDbSavedByObjectVersion
1070
     0
  0
ACAD_PROXY_OBJECT
  5
31
102
{ACAD_REACTORS
330
2A
102
}
330
2A
100
AcDbZombieObject
 90
      499
 91
      501
 93
      476
310
41921A5919195B90640502408333333333333E33F0000000000000F901079024090700405020000000000001110200405405064090740C02480A0340
1001
ACAD
1000
AcDbSavedByObjectVersion
1070
     0
  0
ACAD_PROXY_OBJECT
  5
3B
102
{ACAD_REACTORS
330
2A
102
}
330
2A
100
AcDbZombieObject
 90
      499
 91
      501
 93
      428
310
42529A5D1D195C93D999914409028333333333333E33F0000000000000F9010790141107004050150A41D405064090741402480A0350
1001
ACAD
1000
AcDbSavedByObjectVersion
1070
     0
  0
ACAD_PROXY_OBJECT
  5
38
102
{ACAD_REACTORS
330
2A
102
}
330
2A
100
AcDbZombieObject
 90
      499
 91
      501
 93
      444
310
42D31A5B995C185D1D195C9B90E409028333333333333E33F0000000000000F9010790141107004050750841D405064090741402483A0350
1001
ACAD
1000
AcDbSavedByObjectVersion
1070
     0
  0
ACAD_PROXY_OBJECT
  5
3C
102
{ACAD_REACTORS
330
2A
102
}
330
2A
100
AcDbZombieObject
 90
      499
 91
      501
 93
      444
310
42D3DD995C9A185B99D3D999915409028333333333333E33F0000000000000F9010790141107004050150941D405064090741402480A0350
1001
ACAD
1000
AcDbSavedByObjectVersion
1070
     0
  0
ACAD_PROXY_OBJECT
  5
33
102
{ACAD_REACTORS
330
2A
102
}
330
2A
100
AcDbZombieObject
 90
      499
 91
      501
 93
      428
310
425499585B1A5CDD1A58D08409038333333333333E33F0000000000000F9010740A907004050150800405405064090740C02480A1B40
1001
ACAD
1000
AcDbSavedByObjectVersion
1070
     0
  0
ACAD_PROXY_OBJECT
  5
42
102
{ACAD_REACTORS
330
2A
102
}
330
2A
100
AcDbZombieObject
 90
      499
 91
      501
 93
      420
310
4194DA1859195911B40902404333333333333E33F0000000000000F9010740A41107004050150800405405064090840C02480A0B40
1001
ACAD
1000
AcDbSavedByObjectVersion
1070
     0
  0
ACAD_PROXY_OBJECT
  5
41
102
{ACAD_REACTORS
330
2A
102
}
330
2A
100
AcDbZombieObject
 90
      499
 91
      501
 93
      516
310
4454DA18591959081DDA5D1A08195919D95CD1A40902404333333333333E33F0000000000000F901074090142907004050250800405405064090740C02480A0B40
1001
ACAD
1000
AcDbSavedByObjectVersion
1070
     0
  0
ACAD_PROXY_OBJECT
  5
3E
102
{ACAD_REACTORS
330
2A
102
}
330
2A
100
AcDbZombieObject
 90
      499
 91
      501
 93
      532
310
4394DA1859195CC81BD98811DC985E5174090240C333333333333E33F0000000000000F901079024090741D01000000000000111010841D405064090740C02480A0340
1001
ACAD
1000
AcDbSavedByObjectVersion
1070
     0
  0
ACAD_PROXY_OBJECT
  5
3F
102
{ACAD_REACTORS
330
2A
102
}
330
2A
100
AcDbZombieObject
 90
      499
 91
      501
 93
      476
310
41D4DAD95D18DA1E51840502408333333333333E33F0000000000000F901079024090741D01000000000000111010B41D405064090741802480A0340
1001
ACAD
1000
AcDbSavedByObjectVersion
1070
     0
  0
ACAD_PROXY_OBJECT
  5
37
102
{ACAD_REACTORS
330
2A
102
}
330
2A
100
AcDbZombieObject
 90
      499
 91
      501
 93
      412
310
41D51A1A58DAD95B90D409028333333333333E33F0000000000000F9010790141107004050150C41D405064090741402480A0350
1001
ACAD
1000
AcDbSavedByObjectVersion
1070
     0
  0
ACAD_PROXY_OBJECT
  5
30
102
{ACAD_REACTORS
330
2A
102
}
330
2A
100
AcDbZombieObject
 90
      499
 91
      501
 93
      420
310
4255DA5C99599C985B595059028333333333333E33F0000000000000F90107901411070040501600405405064090740C02480A0340
1001
ACAD
1000
AcDbSavedByObjectVersion
1070
     0
  0
ACAD_PROXY_OBJECT
  5
40
102
{ACAD_REACTORS
330
2A
102
}
330
2A
100
AcDbZombieObject
 90
      499
 91
      501
 93
      404
310
41560B54985E51940902404000000000000E03F0000000000000F9010740501907004050150841D405064090740C02480A1B40
1001
ACAD
1000
AcDbSavedByObjectVersion
1070
     0
  0
DICTIONARYVAR
  5
16F
102
{ACAD_REACTORS
330
164
102
}
330
164
100
DictionaryVariables
280
     0
  1
1:1
  0
DICTIONARYVAR
  5
16B
102
{ACAD_REACTORS
330
164
102
}
330
164
100
DictionaryVariables
280
     0
  1
3.500000
  0
DICTIONARYVAR
  5
16C
102
{ACAD_REACTORS
330
164
102
}
330
164
100
DictionaryVariables
280
     0
  1
acadiso.lin
  0
DICTIONARYVAR
  5
166
102
{ACAD_REACTORS
330
164
102
}
330
164
100
DictionaryVariables
280
     0
  1
Standard
  0
DICTIONARYVAR
  5
165
102
{ACAD_REACTORS
330
164
102
}
330
164
100
DictionaryVariables
280
     0
  1
Standard
  0
DICTIONARYVAR
  5
16D
102
{ACAD_REACTORS
330
164
102
}
330
164
100
DictionaryVariables
280
     0
  1
2
  0
DICTIONARYVAR
  5
16E
102
{ACAD_REACTORS
330
164
102
}
330
164
100
DictionaryVariables
280
     0
  1
1
  0
DICTIONARYVAR
  5
170
102
{ACAD_REACTORS
330
164
102
}
330
164
100
DictionaryVariables
280
     0
  1
1
  0
DICTIONARYVAR
  5
168
102
{ACAD_REACTORS
330
164
102
}
330
164
100
DictionaryVariables
280
     0
  1
80.000000
  0
DICTIONARYVAR
  5
167
102
{ACAD_REACTORS
330
164
102
}
330
164
100
DictionaryVariables
280
     0
  1
5.000000
  0
DICTIONARY
  5
173
330
45
100
AcDbDictionary
  3
ACAD_XREC_ROUNDTRIP
360
174
1001
ACAD
1000
TREAT_AS_HARD
1070
     1
  0
DICTIONARY
  5
171
330
44
100
AcDbDictionary
  3
ACAD_XREC_ROUNDTRIP
360
172
1001
ACAD
1000
TREAT_AS_HARD
1070
     1
  0
DICTIONARY
  5
175
330
46
100
AcDbDictionary
  3
ACAD_XREC_ROUNDTRIP
360
176
1001
ACAD
1000
TREAT_AS_HARD
1070
     1
  0
XRECORD
  5
174
102
{ACAD_REACTORS
330
173
102
}
330
173
100
AcDbXrecord
102
MATERIAL
148
0.0
149
0.0
149
0.0
 93
        0
 94
      127
282
     0
 72
     1
 77
     1
171
     1
175
     1
179
     1
273
     0
  0
XRECORD
  5
172
102
{ACAD_REACTORS
330
171
102
}
330
171
100
AcDbXrecord
102
MATERIAL
148
0.0
149
0.0
149
0.0
 93
        0
 94
      127
282
     0
 72
     1
 77
     1
171
     1
175
     1
179
     1
273
     0
  0
XRECORD
  5
176
102
{ACAD_REACTORS
330
175
102
}
330
175
100
AcDbXrecord
102
MATERIAL
148
0.0
149
0.0
149
0.0
 93
        0
 94
      127
282
     0
 72
     1
 77
     1
171
     1
175
     1
179
     1
273
     0
  0
ENDSEC
  0
EOF
