  0
SECTION
  2
HEADER
  9
$ACADVER
  1
AC1012
  9
$DWGCODEPAGE
  3
ansi_1252
  9
$INSBASE
 10
0.0
 20
0.0
 30
0.0
  9
$EXTMIN
 10
1.000000000000000E+20
 20
1.000000000000000E+20
 30
1.000000000000000E+20
  9
$EXTMAX
 10
-1.000000000000000E+20
 20
-1.000000000000000E+20
 30
-1.000000000000000E+20
  9
$LIMMIN
 10
0.0
 20
0.0
  9
$LIMMAX
 10
420.0
 20
297.0
  9
$ORTHOMODE
 70
     0
  9
$REGENMODE
 70
     1
  9
$FILLMODE
 70
     1
  9
$QTEXTMODE
 70
     0
  9
$MIRRTEXT
 70
     1
  9
$DRAGMODE
 70
     2
  9
$LTSCALE
 40
1.0
  9
$OSMODE
 70
    37
  9
$ATTMODE
 70
     1
  9
$TEXTSIZE
 40
2.5
  9
$TRACEWID
 40
1.0
  9
$TEXTSTYLE
  7
STANDARD
  9
$CLAYER
  8
0
  9
$CELTYPE
  6
BYLAYER
  9
$CECOLOR
 62
   256
  9
$CELTSCALE
 40
1.0
  9
$DELOBJ
 70
     1
  9
$DISPSILH
 70
     0
  9
$DIMSCALE
 40
1.0
  9
$DIMASZ
 40
2.5
  9
$DIMEXO
 40
0.625
  9
$DIMDLI
 40
3.75
  9
$DIMRND
 40
0.0
  9
$DIMDLE
 40
0.0
  9
$DIMEXE
 40
1.25
  9
$DIMTP
 40
0.0
  9
$DIMTM
 40
0.0
  9
$DIMTXT
 40
2.5
  9
$DIMCEN
 40
2.5
  9
$DIMTSZ
 40
0.0
  9
$DIMTOL
 70
     0
  9
$DIMLIM
 70
     0
  9
$DIMTIH
 70
     0
  9
$DIMTOH
 70
     0
  9
$DIMSE1
 70
     0
  9
$DIMSE2
 70
     0
  9
$DIMTAD
 70
     1
  9
$DIMZIN
 70
     8
  9
$DIMBLK
  1

  9
$DIMASO
 70
     1
  9
$DIMSHO
 70
     1
  9
$DIMPOST
  1

  9
$DIMAPOST
  1

  9
$DIMALT
 70
     0
  9
$DIMALTD
 70
     3
  9
$DIMALTF
 40
0.03937007874016
  9
$DIMLFAC
 40
1.0
  9
$DIMTOFL
 70
     1
  9
$DIMTVP
 40
0.0
  9
$DIMTIX
 70
     0
  9
$DIMSOXD
 70
     0
  9
$DIMSAH
 70
     0
  9
$DIMBLK1
  1

  9
$DIMBLK2
  1

  9
$DIMSTYLE
  2
ISO-25
  9
$DIMCLRD
 70
     0
  9
$DIMCLRE
 70
     0
  9
$DIMCLRT
 70
     0
  9
$DIMTFAC
 40
1.0
  9
$DIMGAP
 40
0.625
  9
$DIMJUST
 70
     0
  9
$DIMSD1
 70
     0
  9
$DIMSD2
 70
     0
  9
$DIMTOLJ
 70
     0
  9
$DIMTZIN
 70
     8
  9
$DIMALTZ
 70
     0
  9
$DIMALTTZ
 70
     0
  9
$DIMFIT
 70
     3
  9
$DIMUPT
 70
     0
  9
$DIMUNIT
 70
     2
  9
$DIMDEC
 70
     2
  9
$DIMTDEC
 70
     2
  9
$DIMALTU
 70
     2
  9
$DIMALTTD
 70
     3
  9
$DIMTXSTY
  7
STANDARD
  9
$DIMAUNIT
 70
     0
  9
$LUNITS
 70
     2
  9
$LUPREC
 70
     4
  9
$SKETCHINC
 40
1.0
  9
$FILLETRAD
 40
10.0
  9
$AUNITS
 70
     0
  9
$AUPREC
 70
     0
  9
$MENU
  1
.
  9
$ELEVATION
 40
0.0
  9
$PELEVATION
 40
0.0
  9
$THICKNESS
 40
0.0
  9
$LIMCHECK
 70
     0
  9
$CHAMFERA
 40
0.0
  9
$CHAMFERB
 40
0.0
  9
$CHAMFERC
 40
0.0
  9
$CHAMFERD
 40
0.0
  9
$SKPOLY
 70
     0
  9
$TDCREATE
 40
2458051.656230255
  9
$TDUPDATE
 40
2458051.656232778
  9
$TDINDWG
 40
0.0000000116
  9
$TDUSRTIMER
 40
0.0000000116
  9
$USRTIMER
 70
     1
  9
$ANGBASE
 50
0.0
  9
$ANGDIR
 70
     0
  9
$PDMODE
 70
     0
  9
$PDSIZE
 40
0.0
  9
$PLINEWID
 40
0.0
  9
$COORDS
 70
     1
  9
$SPLFRAME
 70
     0
  9
$SPLINETYPE
 70
     6
  9
$SPLINESEGS
 70
     8
  9
$ATTDIA
 70
     0
  9
$ATTREQ
 70
     1
  9
$HANDLING
 70
     1
  9
$HANDSEED
  5
27C
  9
$SURFTAB1
 70
     6
  9
$SURFTAB2
 70
     6
  9
$SURFTYPE
 70
     6
  9
$SURFU
 70
     6
  9
$SURFV
 70
     6
  9
$UCSNAME
  2

  9
$UCSORG
 10
0.0
 20
0.0
 30
0.0
  9
$UCSXDIR
 10
1.0
 20
0.0
 30
0.0
  9
$UCSYDIR
 10
0.0
 20
1.0
 30
0.0
  9
$PUCSNAME
  2

  9
$PUCSORG
 10
0.0
 20
0.0
 30
0.0
  9
$PUCSXDIR
 10
1.0
 20
0.0
 30
0.0
  9
$PUCSYDIR
 10
0.0
 20
1.0
 30
0.0
  9
$USERI1
 70
     0
  9
$USERI2
 70
     0
  9
$USERI3
 70
     0
  9
$USERI4
 70
     0
  9
$USERI5
 70
     0
  9
$USERR1
 40
0.0
  9
$USERR2
 40
0.0
  9
$USERR3
 40
0.0
  9
$USERR4
 40
0.0
  9
$USERR5
 40
0.0
  9
$WORLDVIEW
 70
     1
  9
$SHADEDGE
 70
     3
  9
$SHADEDIF
 70
    70
  9
$TILEMODE
 70
     1
  9
$MAXACTVP
 70
    64
  9
$PINSBASE
 10
0.0
 20
0.0
 30
0.0
  9
$PLIMCHECK
 70
     0
  9
$PEXTMIN
 10
1.000000000000000E+20
 20
1.000000000000000E+20
 30
1.000000000000000E+20
  9
$PEXTMAX
 10
-1.000000000000000E+20
 20
-1.000000000000000E+20
 30
-1.000000000000000E+20
  9
$PLIMMIN
 10
0.0
 20
0.0
  9
$PLIMMAX
 10
420.0
 20
297.0
  9
$UNITMODE
 70
     0
  9
$VISRETAIN
 70
     1
  9
$PLINEGEN
 70
     0
  9
$PSLTSCALE
 70
     1
  9
$TREEDEPTH
 70
  3020
  9
$PICKSTYLE
 70
     1
  9
$CMLSTYLE
  2
STANDARD
  9
$CMLJUST
 70
     0
  9
$CMLSCALE
 40
20.0
  9
$SAVEIMAGES
 70
     1
  0
ENDSEC
  0
SECTION
  2
CLASSES
  0
CLASS
  1
ACDBDICTIONARYWDFLT
  2
AcDbDictionaryWithDefault
  3
ObjectDBX Classes
 90
    32768
280
     0
281
     0
  0
CLASS
  1
VISUALSTYLE
  2
AcDbVisualStyle
  3
ObjectDBX Classes
 90
     4095
280
     0
281
     0
  0
CLASS
  1
MATERIAL
  2
AcDbMaterial
  3
ObjectDBX Classes
 90
     1153
280
     0
281
     0
  0
CLASS
  1
SCALE
  2
AcDbScale
  3
ObjectDBX Classes
 90
     1153
280
     0
281
     0
  0
CLASS
  1
TABLESTYLE
  2
AcDbTableStyle
  3
ObjectDBX Classes
 90
     4095
280
     0
281
     0
  0
CLASS
  1
MLEADERSTYLE
  2
AcDbMLeaderStyle
  3
ACDB_MLEADERSTYLE_CLASS
 90
     4095
280
     0
281
     0
  0
CLASS
  1
SUN
  2
AcDbSun
  3
SCENEOE
 90
     1153
280
     0
281
     0
  0
CLASS
  1
DICTIONARYVAR
  2
AcDbDictionaryVar
  3
ObjectDBX Classes
 90
        0
280
     0
281
     0
  0
CLASS
  1
XRECORD
  2
AcDbXrecord
  3
ObjectDBX Classes
 90
    32768
280
     0
281
     0
  0
CLASS
  1
LWPOLYLINE
  2
AcDbPolyline
  3
ObjectDBX Classes
 90
    32768
280
     0
281
     1
  0
CLASS
  1
HATCH
  2
AcDbHatch
  3
ObjectDBX Classes
 90
    32768
280
     0
281
     1
  0
CLASS
  1
ACDBPLACEHOLDER
  2
AcDbPlaceHolder
  3
ObjectDBX Classes
 90
        0
280
     0
281
     0
  0
CLASS
  1
LAYOUT
  2
AcDbLayout
  3
ObjectDBX Classes
 90
        0
280
     0
281
     0
  0
ENDSEC
  0
SECTION
  2
TABLES
  0
TABLE
  2
VPORT
  5
8
330
0
100
AcDbSymbolTable
 70
     1
  0
VPORT
  5
29
330
8
100
AcDbSymbolTableRecord
100
AcDbViewportTableRecord
  2
*ACTIVE
 70
     0
 10
0.0
 20
0.0
 11
1.0
 21
1.0
 12
0.0000000000000568
 22
0.5
 13
0.0
 23
0.0
 14
10.0
 24
10.0
 15
10.0
 25
10.0
 16
0.0
 26
0.0
 36
1.0
 17
0.0
 27
0.0
 37
0.0
 40
1310.7
 41
1.680933852140078
 42
50.0
 43
0.0
 44
0.0
 50
0.0
 51
0.0
 71
     0
 72
   100
 73
     1
 74
     3
 75
     0
 76
     0
 77
     0
 78
     0
  0
ENDTAB
  0
TABLE
  2
LTYPE
  5
5
330
0
100
AcDbSymbolTable
 70
     1
  0
LTYPE
  5
14
330
5
100
AcDbSymbolTableRecord
100
AcDbLinetypeTableRecord
  2
BYBLOCK
 70
     0
  3

 72
    65
 73
     0
 40
0.0
  0
LTYPE
  5
15
330
5
100
AcDbSymbolTableRecord
100
AcDbLinetypeTableRecord
  2
BYLAYER
 70
     0
  3

 72
    65
 73
     0
 40
0.0
  0
LTYPE
  5
16
330
5
100
AcDbSymbolTableRecord
100
AcDbLinetypeTableRecord
  2
CONTINUOUS
 70
     0
  3
Solid line
 72
    65
 73
     0
 40
0.0
  0
ENDTAB
  0
TABLE
  2
LAYER
  5
2
330
0
100
AcDbSymbolTable
 70
     4
  0
LAYER
  5
10
330
2
100
AcDbSymbolTableRecord
100
AcDbLayerTableRecord
  2
0
 70
     0
 62
     7
  6
CONTINUOUS
  0
LAYER
  5
6E
330
2
100
AcDbSymbolTableRecord
100
AcDbLayerTableRecord
  2
THICK
 70
     0
 62
     7
  6
CONTINUOUS
  0
LAYER
  5
6F
330
2
100
AcDbSymbolTableRecord
100
AcDbLayerTableRecord
  2
HIDDEN
 70
     0
 62
     7
  6
CONTINUOUS
  0
LAYER
  5
70
330
2
100
AcDbSymbolTableRecord
100
AcDbLayerTableRecord
  2
HASHLINES
 70
     0
 62
     7
  6
CONTINUOUS
  0
ENDTAB
  0
TABLE
  2
STYLE
  5
3
330
0
100
AcDbSymbolTable
 70
     1
  0
STYLE
  5
11
330
3
100
AcDbSymbolTableRecord
100
AcDbTextStyleTableRecord
  2
STANDARD
 70
     0
 40
0.0
 41
1.0
 50
0.0
 71
     0
 42
2.5
  3
txt
  4

  0
ENDTAB
  0
TABLE
  2
VIEW
  5
6
330
0
100
AcDbSymbolTable
 70
     0
  0
ENDTAB
  0
TABLE
  2
UCS
  5
7
330
0
100
AcDbSymbolTable
 70
     0
  0
ENDTAB
  0
TABLE
  2
APPID
  5
9
330
0
100
AcDbSymbolTable
 70
     3
  0
APPID
  5
12
330
9
100
AcDbSymbolTableRecord
100
AcDbRegAppTableRecord
  2
ACAD
 70
     0
  0
APPID
  5
71
330
9
100
AcDbSymbolTableRecord
100
AcDbRegAppTableRecord
  2
DBPROPERTIES
 70
     0
  0
APPID
  5
27B
330
9
100
AcDbSymbolTableRecord
100
AcDbRegAppTableRecord
  2
ACAD_MLEADERVER
 70
     0
  0
ENDTAB
  0
TABLE
  2
DIMSTYLE
  5
A
330
0
100
AcDbSymbolTable
 70
     1
  0
DIMSTYLE
105
27
330
A
100
AcDbSymbolTableRecord
100
AcDbDimStyleTableRecord
  2
ISO-25
 70
     0
  3

  4

  5

  6

  7

 40
1.0
 41
2.5
 42
0.625
 43
3.75
 44
1.25
 45
0.0
 46
0.0
 47
0.0
 48
0.0
140
2.5
141
2.5
142
0.0
143
0.03937007874016
144
1.0
145
0.0
146
1.0
147
0.625
 71
     0
 72
     0
 73
     0
 74
     0
 75
     0
 76
     0
 77
     1
 78
     8
170
     0
171
     3
172
     1
173
     0
174
     0
175
     0
176
     0
177
     0
178
     0
270
     2
271
     2
272
     2
273
     2
274
     3
340
11
275
     0
280
     0
281
     0
282
     0
283
     0
284
     8
285
     0
286
     0
287
     3
288
     0
  0
ENDTAB
  0
TABLE
  2
BLOCK_RECORD
  5
1
330
0
100
AcDbSymbolTable
 70
     0
  0
BLOCK_RECORD
  5
1F
330
1
100
AcDbSymbolTableRecord
100
AcDbBlockTableRecord
  2
*MODEL_SPACE
  0
BLOCK_RECORD
  5
1B
330
1
100
AcDbSymbolTableRecord
100
AcDbBlockTableRecord
  2
*PAPER_SPACE
  0
ENDTAB
  0
ENDSEC
  0
SECTION
  2
BLOCKS
  0
BLOCK
  5
20
330
1F
100
AcDbEntity
  8
0
100
AcDbBlockBegin
  2
*MODEL_SPACE
 70
     0
 10
0.0
 20
0.0
 30
0.0
  3
*MODEL_SPACE
  1

  0
ENDBLK
  5
21
330
1F
100
AcDbEntity
  8
0
100
AcDbBlockEnd
  0
BLOCK
  5
1C
330
1B
100
AcDbEntity
 67
     1
  8
0
100
AcDbBlockBegin
  2
*PAPER_SPACE
 70
     0
 10
0.0
 20
0.0
 30
0.0
  3
*PAPER_SPACE
  1

  0
ENDBLK
  5
1D
330
1B
100
AcDbEntity
 67
     1
  8
0
100
AcDbBlockEnd
  0
ENDSEC
  0
SECTION
  2
ENTITIES
  0
LINE
  5
72
330
1F
100
AcDbEntity
  8
HIDDEN
100
AcDbLine
 10
809.9999999999999
 20
549.0
 30
0.0
 11
810.0
 21
549.0
 31
0.0
1001
DBPROPERTIES
1002
{
1000
PbHidd
1002
}
  0
LINE
  5
73
330
1F
100
AcDbEntity
  8
THICK
100
AcDbLine
 10
-810.0
 20
549.0
 30
0.0
 11
810.0
 21
549.0
 31
0.0
1001
DBPROPERTIES
1002
{
1000
PbThick
1002
}
  0
LINE
  5
74
330
1F
100
AcDbEntity
  8
HIDDEN
100
AcDbLine
 10
-810.0
 20
549.0
 30
0.0
 11
-810.0
 21
549.0
 31
0.0
1001
DBPROPERTIES
1002
{
1000
PbHidd
1002
}
  0
LINE
  5
75
330
1F
100
AcDbEntity
  8
HIDDEN
100
AcDbLine
 10
364.0000000000001
 20
549.0
 30
0.0
 11
363.9999999999999
 21
549.0
 31
0.0
1001
DBPROPERTIES
1002
{
1000
PbHidd
1002
}
  0
LINE
  5
76
330
1F
100
AcDbEntity
  8
THICK
100
AcDbLine
 10
-769.0
 20
643.0
 30
0.0
 11
-765.0
 21
643.0
 31
0.0
1001
DBPROPERTIES
1002
{
1000
PbThick
1002
}
  0
ARC
  5
77
330
1F
100
AcDbEntity
  8
THICK
100
AcDbCircle
 10
-769.0
 20
642.0
 30
0.0
 40
1.0
100
AcDbArc
 50
89.99998127603165
 51
180.0000198478428
1001
DBPROPERTIES
1002
{
1000
PbThick
1002
}
  0
LINE
  5
78
330
1F
100
AcDbEntity
  8
THICK
100
AcDbLine
 10
-770.0
 20
642.0
 30
0.0
 11
-765.0
 21
642.0
 31
0.0
1001
DBPROPERTIES
1002
{
1000
PbThick
1002
}
  0
LINE
  5
79
330
1F
100
AcDbEntity
  8
THICK
100
AcDbLine
 10
-765.0
 20
642.0
 30
0.0
 11
-760.0
 21
642.0
 31
0.0
1001
DBPROPERTIES
1002
{
1000
PbThick
1002
}
  0
ARC
  5
7A
330
1F
100
AcDbEntity
  8
THICK
100
AcDbCircle
 10
-761.0
 20
642.0
 30
0.0
 40
1.0
100
AcDbArc
 50
0.0
 51
89.99998127603165
1001
DBPROPERTIES
1002
{
1000
PbThick
1002
}
  0
LINE
  5
7B
330
1F
100
AcDbEntity
  8
THICK
100
AcDbLine
 10
-765.0
 20
643.0
 30
0.0
 11
-761.0
 21
643.0
 31
0.0
1001
DBPROPERTIES
1002
{
1000
PbThick
1002
}
  0
LINE
  5
7C
330
1F
100
AcDbEntity
  8
HIDDEN
100
AcDbLine
 10
-765.0
 20
642.0
 30
0.0
 11
-770.0
 21
642.0
 31
0.0
1001
DBPROPERTIES
1002
{
1000
PbHidd
1002
}
  0
LINE
  5
7D
330
1F
100
AcDbEntity
  8
THICK
100
AcDbLine
 10
311.0000000000001
 20
643.0
 30
0.0
 11
315.0000000000001
 21
643.0
 31
0.0
1001
DBPROPERTIES
1002
{
1000
PbThick
1002
}
  0
ARC
  5
7E
330
1F
100
AcDbEntity
  8
THICK
100
AcDbCircle
 10
311.0000000000001
 20
642.0
 30
0.0
 40
1.0
100
AcDbArc
 50
89.99998127603165
 51
180.0000198478428
1001
DBPROPERTIES
1002
{
1000
PbThick
1002
}
  0
LINE
  5
7F
330
1F
100
AcDbEntity
  8
THICK
100
AcDbLine
 10
310.0000000000001
 20
642.0
 30
0.0
 11
315.0000000000001
 21
642.0
 31
0.0
1001
DBPROPERTIES
1002
{
1000
PbThick
1002
}
  0
LINE
  5
80
330
1F
100
AcDbEntity
  8
THICK
100
AcDbLine
 10
315.0000000000001
 20
642.0
 30
0.0
 11
320.0000000000001
 21
642.0
 31
0.0
1001
DBPROPERTIES
1002
{
1000
PbThick
1002
}
  0
ARC
  5
81
330
1F
100
AcDbEntity
  8
THICK
100
AcDbCircle
 10
319.0000000000001
 20
642.0
 30
0.0
 40
1.0
100
AcDbArc
 50
0.0
 51
89.99998127603165
1001
DBPROPERTIES
1002
{
1000
PbThick
1002
}
  0
LINE
  5
82
330
1F
100
AcDbEntity
  8
THICK
100
AcDbLine
 10
315.0000000000001
 20
643.0
 30
0.0
 11
319.0000000000001
 21
643.0
 31
0.0
1001
DBPROPERTIES
1002
{
1000
PbThick
1002
}
  0
LINE
  5
83
330
1F
100
AcDbEntity
  8
HIDDEN
100
AcDbLine
 10
315.0000000000001
 20
642.0
 30
0.0
 11
310.0000000000001
 21
642.0
 31
0.0
1001
DBPROPERTIES
1002
{
1000
PbHidd
1002
}
  0
LINE
  5
84
330
1F
100
AcDbEntity
  8
HIDDEN
100
AcDbLine
 10
-765.0
 20
642.0
 30
0.0
 11
-770.0
 21
642.0
 31
0.0
1001
DBPROPERTIES
1002
{
1000
PbHidd
1002
}
  0
LINE
  5
85
330
1F
100
AcDbEntity
  8
HIDDEN
100
AcDbLine
 10
-760.0
 20
642.0
 30
0.0
 11
-765.0
 21
642.0
 31
0.0
1001
DBPROPERTIES
1002
{
1000
PbHidd
1002
}
  0
LINE
  5
86
330
1F
100
AcDbEntity
  8
HIDDEN
100
AcDbLine
 10
-765.0
 20
642.0
 30
0.0
 11
-770.0
 21
642.0
 31
0.0
1001
DBPROPERTIES
1002
{
1000
PbHidd
1002
}
  0
LINE
  5
87
330
1F
100
AcDbEntity
  8
HIDDEN
100
AcDbLine
 10
310.0
 20
642.0
 30
0.0
 11
315.0
 21
642.0
 31
0.0
1001
DBPROPERTIES
1002
{
1000
PbHidd
1002
}
  0
LINE
  5
88
330
1F
100
AcDbEntity
  8
HIDDEN
100
AcDbLine
 10
315.0
 20
642.0
 30
0.0
 11
320.0
 21
642.0
 31
0.0
1001
DBPROPERTIES
1002
{
1000
PbHidd
1002
}
  0
LINE
  5
89
330
1F
100
AcDbEntity
  8
HIDDEN
100
AcDbLine
 10
315.0
 20
642.0
 30
0.0
 11
310.0
 21
642.0
 31
0.0
1001
DBPROPERTIES
1002
{
1000
PbHidd
1002
}
  0
LINE
  5
8A
330
1F
100
AcDbEntity
  8
HIDDEN
100
AcDbLine
 10
-765.0
 20
642.0
 30
0.0
 11
-770.0
 21
642.0
 31
0.0
1001
DBPROPERTIES
1002
{
1000
PbHidd
1002
}
  0
LINE
  5
8B
330
1F
100
AcDbEntity
  8
HIDDEN
100
AcDbLine
 10
-760.0
 20
642.0
 30
0.0
 11
-765.0
 21
642.0
 31
0.0
1001
DBPROPERTIES
1002
{
1000
PbHidd
1002
}
  0
LINE
  5
8C
330
1F
100
AcDbEntity
  8
HIDDEN
100
AcDbLine
 10
-765.0
 20
642.0
 30
0.0
 11
-770.0
 21
642.0
 31
0.0
1001
DBPROPERTIES
1002
{
1000
PbHidd
1002
}
  0
LINE
  5
8D
330
1F
100
AcDbEntity
  8
HIDDEN
100
AcDbLine
 10
310.0
 20
642.0
 30
0.0
 11
315.0
 21
642.0
 31
0.0
1001
DBPROPERTIES
1002
{
1000
PbHidd
1002
}
  0
LINE
  5
8E
330
1F
100
AcDbEntity
  8
HIDDEN
100
AcDbLine
 10
315.0
 20
642.0
 30
0.0
 11
320.0
 21
642.0
 31
0.0
1001
DBPROPERTIES
1002
{
1000
PbHidd
1002
}
  0
LINE
  5
8F
330
1F
100
AcDbEntity
  8
HIDDEN
100
AcDbLine
 10
315.0
 20
642.0
 30
0.0
 11
310.0
 21
642.0
 31
0.0
1001
DBPROPERTIES
1002
{
1000
PbHidd
1002
}
  0
LINE
  5
90
330
1F
100
AcDbEntity
  8
HIDDEN
100
AcDbLine
 10
-770.0
 20
642.0
 30
0.0
 11
-765.0
 21
642.0
 31
0.0
1001
DBPROPERTIES
1002
{
1000
PbHidd
1002
}
  0
LINE
  5
91
330
1F
100
AcDbEntity
  8
HIDDEN
100
AcDbLine
 10
-765.0
 20
642.0
 30
0.0
 11
-760.0
 21
642.0
 31
0.0
1001
DBPROPERTIES
1002
{
1000
PbHidd
1002
}
  0
LINE
  5
92
330
1F
100
AcDbEntity
  8
HIDDEN
100
AcDbLine
 10
-765.0
 20
642.0
 30
0.0
 11
-770.0
 21
642.0
 31
0.0
1001
DBPROPERTIES
1002
{
1000
PbHidd
1002
}
  0
LINE
  5
93
330
1F
100
AcDbEntity
  8
HIDDEN
100
AcDbLine
 10
310.0
 20
642.0
 30
0.0
 11
315.0
 21
642.0
 31
0.0
1001
DBPROPERTIES
1002
{
1000
PbHidd
1002
}
  0
LINE
  5
94
330
1F
100
AcDbEntity
  8
HIDDEN
100
AcDbLine
 10
315.0
 20
642.0
 30
0.0
 11
320.0
 21
642.0
 31
0.0
1001
DBPROPERTIES
1002
{
1000
PbHidd
1002
}
  0
LINE
  5
95
330
1F
100
AcDbEntity
  8
HIDDEN
100
AcDbLine
 10
315.0
 20
642.0
 30
0.0
 11
310.0
 21
642.0
 31
0.0
1001
DBPROPERTIES
1002
{
1000
PbHidd
1002
}
  0
LINE
  5
96
330
1F
100
AcDbEntity
  8
HIDDEN
100
AcDbLine
 10
-770.0
 20
642.0
 30
0.0
 11
-765.0
 21
642.0
 31
0.0
1001
DBPROPERTIES
1002
{
1000
PbHidd
1002
}
  0
LINE
  5
97
330
1F
100
AcDbEntity
  8
HIDDEN
100
AcDbLine
 10
-765.0
 20
642.0
 30
0.0
 11
-760.0
 21
642.0
 31
0.0
1001
DBPROPERTIES
1002
{
1000
PbHidd
1002
}
  0
LINE
  5
98
330
1F
100
AcDbEntity
  8
HIDDEN
100
AcDbLine
 10
-765.0
 20
642.0
 30
0.0
 11
-770.0
 21
642.0
 31
0.0
1001
DBPROPERTIES
1002
{
1000
PbHidd
1002
}
  0
LINE
  5
99
330
1F
100
AcDbEntity
  8
HIDDEN
100
AcDbLine
 10
309.9999999999999
 20
642.0
 30
0.0
 11
314.9999999999999
 21
642.0
 31
0.0
1001
DBPROPERTIES
1002
{
1000
PbHidd
1002
}
  0
LINE
  5
9A
330
1F
100
AcDbEntity
  8
HIDDEN
100
AcDbLine
 10
314.9999999999999
 20
642.0
 30
0.0
 11
319.9999999999999
 21
642.0
 31
0.0
1001
DBPROPERTIES
1002
{
1000
PbHidd
1002
}
  0
LINE
  5
9B
330
1F
100
AcDbEntity
  8
HIDDEN
100
AcDbLine
 10
314.9999999999999
 20
642.0
 30
0.0
 11
309.9999999999999
 21
642.0
 31
0.0
1001
DBPROPERTIES
1002
{
1000
PbHidd
1002
}
  0
LINE
  5
9C
330
1F
100
AcDbEntity
  8
THICK
100
AcDbLine
 10
-724.0
 20
643.0
 30
0.0
 11
-720.0
 21
643.0
 31
0.0
1001
DBPROPERTIES
1002
{
1000
PbThick
1002
}
  0
ARC
  5
9D
330
1F
100
AcDbEntity
  8
THICK
100
AcDbCircle
 10
-724.0
 20
642.0
 30
0.0
 40
1.0
100
AcDbArc
 50
89.99998127603165
 51
180.0000198478428
1001
DBPROPERTIES
1002
{
1000
PbThick
1002
}
  0
LINE
  5
9E
330
1F
100
AcDbEntity
  8
THICK
100
AcDbLine
 10
-725.0
 20
642.0
 30
0.0
 11
-720.0
 21
642.0
 31
0.0
1001
DBPROPERTIES
1002
{
1000
PbThick
1002
}
  0
LINE
  5
9F
330
1F
100
AcDbEntity
  8
THICK
100
AcDbLine
 10
-720.0
 20
642.0
 30
0.0
 11
-715.0
 21
642.0
 31
0.0
1001
DBPROPERTIES
1002
{
1000
PbThick
1002
}
  0
ARC
  5
A0
330
1F
100
AcDbEntity
  8
THICK
100
AcDbCircle
 10
-716.0
 20
642.0
 30
0.0
 40
1.0
100
AcDbArc
 50
0.0
 51
89.99998127603165
1001
DBPROPERTIES
1002
{
1000
PbThick
1002
}
  0
LINE
  5
A1
330
1F
100
AcDbEntity
  8
THICK
100
AcDbLine
 10
-720.0
 20
643.0
 30
0.0
 11
-716.0
 21
643.0
 31
0.0
1001
DBPROPERTIES
1002
{
1000
PbThick
1002
}
  0
LINE
  5
A2
330
1F
100
AcDbEntity
  8
HIDDEN
100
AcDbLine
 10
-720.0
 20
642.0
 30
0.0
 11
-725.0
 21
642.0
 31
0.0
1001
DBPROPERTIES
1002
{
1000
PbHidd
1002
}
  0
LINE
  5
A3
330
1F
100
AcDbEntity
  8
THICK
100
AcDbLine
 10
-476.4999999999999
 20
643.0
 30
0.0
 11
-472.4999999999999
 21
643.0
 31
0.0
1001
DBPROPERTIES
1002
{
1000
PbThick
1002
}
  0
ARC
  5
A4
330
1F
100
AcDbEntity
  8
THICK
100
AcDbCircle
 10
-476.4999999999999
 20
642.0
 30
0.0
 40
1.0
100
AcDbArc
 50
89.99998127603165
 51
180.0000198478428
1001
DBPROPERTIES
1002
{
1000
PbThick
1002
}
  0
LINE
  5
A5
330
1F
100
AcDbEntity
  8
THICK
100
AcDbLine
 10
-477.4999999999999
 20
642.0
 30
0.0
 11
-472.4999999999999
 21
642.0
 31
0.0
1001
DBPROPERTIES
1002
{
1000
PbThick
1002
}
  0
LINE
  5
A6
330
1F
100
AcDbEntity
  8
THICK
100
AcDbLine
 10
-472.4999999999999
 20
642.0
 30
0.0
 11
-467.4999999999999
 21
642.0
 31
0.0
1001
DBPROPERTIES
1002
{
1000
PbThick
1002
}
  0
ARC
  5
A7
330
1F
100
AcDbEntity
  8
THICK
100
AcDbCircle
 10
-468.4999999999999
 20
642.0
 30
0.0
 40
1.0
100
AcDbArc
 50
0.0
 51
89.99998127603165
1001
DBPROPERTIES
1002
{
1000
PbThick
1002
}
  0
LINE
  5
A8
330
1F
100
AcDbEntity
  8
THICK
100
AcDbLine
 10
-472.4999999999999
 20
643.0
 30
0.0
 11
-468.4999999999999
 21
643.0
 31
0.0
1001
DBPROPERTIES
1002
{
1000
PbThick
1002
}
  0
LINE
  5
A9
330
1F
100
AcDbEntity
  8
HIDDEN
100
AcDbLine
 10
-472.4999999999999
 20
642.0
 30
0.0
 11
-477.4999999999999
 21
642.0
 31
0.0
1001
DBPROPERTIES
1002
{
1000
PbHidd
1002
}
  0
LINE
  5
AA
330
1F
100
AcDbEntity
  8
THICK
100
AcDbLine
 10
-228.9999999999999
 20
643.0
 30
0.0
 11
-224.9999999999999
 21
643.0
 31
0.0
1001
DBPROPERTIES
1002
{
1000
PbThick
1002
}
  0
ARC
  5
AB
330
1F
100
AcDbEntity
  8
THICK
100
AcDbCircle
 10
-228.9999999999999
 20
642.0
 30
0.0
 40
1.0
100
AcDbArc
 50
89.99998127603165
 51
180.0000198478428
1001
DBPROPERTIES
1002
{
1000
PbThick
1002
}
  0
LINE
  5
AC
330
1F
100
AcDbEntity
  8
THICK
100
AcDbLine
 10
-229.9999999999999
 20
642.0
 30
0.0
 11
-224.9999999999999
 21
642.0
 31
0.0
1001
DBPROPERTIES
1002
{
1000
PbThick
1002
}
  0
LINE
  5
AD
330
1F
100
AcDbEntity
  8
THICK
100
AcDbLine
 10
-224.9999999999999
 20
642.0
 30
0.0
 11
-219.9999999999999
 21
642.0
 31
0.0
1001
DBPROPERTIES
1002
{
1000
PbThick
1002
}
  0
ARC
  5
AE
330
1F
100
AcDbEntity
  8
THICK
100
AcDbCircle
 10
-220.9999999999999
 20
642.0
 30
0.0
 40
1.0
100
AcDbArc
 50
0.0
 51
89.99998127603165
1001
DBPROPERTIES
1002
{
1000
PbThick
1002
}
  0
LINE
  5
AF
330
1F
100
AcDbEntity
  8
THICK
100
AcDbLine
 10
-224.9999999999999
 20
643.0
 30
0.0
 11
-220.9999999999999
 21
643.0
 31
0.0
1001
DBPROPERTIES
1002
{
1000
PbThick
1002
}
  0
LINE
  5
B0
330
1F
100
AcDbEntity
  8
HIDDEN
100
AcDbLine
 10
-224.9999999999999
 20
642.0
 30
0.0
 11
-229.9999999999999
 21
642.0
 31
0.0
1001
DBPROPERTIES
1002
{
1000
PbHidd
1002
}
  0
LINE
  5
B1
330
1F
100
AcDbEntity
  8
THICK
100
AcDbLine
 10
18.50000000000004
 20
643.0
 30
0.0
 11
22.50000000000004
 21
643.0
 31
0.0
1001
DBPROPERTIES
1002
{
1000
PbThick
1002
}
  0
ARC
  5
B2
330
1F
100
AcDbEntity
  8
THICK
100
AcDbCircle
 10
18.50000000000004
 20
642.0
 30
0.0
 40
1.0
100
AcDbArc
 50
89.99998127603165
 51
180.0000198478428
1001
DBPROPERTIES
1002
{
1000
PbThick
1002
}
  0
LINE
  5
B3
330
1F
100
AcDbEntity
  8
THICK
100
AcDbLine
 10
17.50000000000004
 20
642.0
 30
0.0
 11
22.50000000000004
 21
642.0
 31
0.0
1001
DBPROPERTIES
1002
{
1000
PbThick
1002
}
  0
LINE
  5
B4
330
1F
100
AcDbEntity
  8
THICK
100
AcDbLine
 10
22.50000000000004
 20
642.0
 30
0.0
 11
27.50000000000004
 21
642.0
 31
0.0
1001
DBPROPERTIES
1002
{
1000
PbThick
1002
}
  0
ARC
  5
B5
330
1F
100
AcDbEntity
  8
THICK
100
AcDbCircle
 10
26.50000000000004
 20
642.0
 30
0.0
 40
1.0
100
AcDbArc
 50
0.0
 51
89.99998127603165
1001
DBPROPERTIES
1002
{
1000
PbThick
1002
}
  0
LINE
  5
B6
330
1F
100
AcDbEntity
  8
THICK
100
AcDbLine
 10
22.50000000000004
 20
643.0
 30
0.0
 11
26.50000000000004
 21
643.0
 31
0.0
1001
DBPROPERTIES
1002
{
1000
PbThick
1002
}
  0
LINE
  5
B7
330
1F
100
AcDbEntity
  8
HIDDEN
100
AcDbLine
 10
22.50000000000004
 20
642.0
 30
0.0
 11
17.50000000000004
 21
642.0
 31
0.0
1001
DBPROPERTIES
1002
{
1000
PbHidd
1002
}
  0
LINE
  5
B8
330
1F
100
AcDbEntity
  8
THICK
100
AcDbLine
 10
266.0000000000001
 20
643.0
 30
0.0
 11
270.0000000000001
 21
643.0
 31
0.0
1001
DBPROPERTIES
1002
{
1000
PbThick
1002
}
  0
ARC
  5
B9
330
1F
100
AcDbEntity
  8
THICK
100
AcDbCircle
 10
266.0000000000001
 20
642.0
 30
0.0
 40
1.0
100
AcDbArc
 50
89.99998127603165
 51
180.0000198478428
1001
DBPROPERTIES
1002
{
1000
PbThick
1002
}
  0
LINE
  5
BA
330
1F
100
AcDbEntity
  8
THICK
100
AcDbLine
 10
265.0000000000001
 20
642.0
 30
0.0
 11
270.0000000000001
 21
642.0
 31
0.0
1001
DBPROPERTIES
1002
{
1000
PbThick
1002
}
  0
LINE
  5
BB
330
1F
100
AcDbEntity
  8
THICK
100
AcDbLine
 10
270.0000000000001
 20
642.0
 30
0.0
 11
275.0000000000001
 21
642.0
 31
0.0
1001
DBPROPERTIES
1002
{
1000
PbThick
1002
}
  0
ARC
  5
BC
330
1F
100
AcDbEntity
  8
THICK
100
AcDbCircle
 10
274.0000000000001
 20
642.0
 30
0.0
 40
1.0
100
AcDbArc
 50
0.0
 51
89.99998127603165
1001
DBPROPERTIES
1002
{
1000
PbThick
1002
}
  0
LINE
  5
BD
330
1F
100
AcDbEntity
  8
THICK
100
AcDbLine
 10
270.0000000000001
 20
643.0
 30
0.0
 11
274.0000000000001
 21
643.0
 31
0.0
1001
DBPROPERTIES
1002
{
1000
PbThick
1002
}
  0
LINE
  5
BE
330
1F
100
AcDbEntity
  8
HIDDEN
100
AcDbLine
 10
270.0000000000001
 20
642.0
 30
0.0
 11
265.0000000000001
 21
642.0
 31
0.0
1001
DBPROPERTIES
1002
{
1000
PbHidd
1002
}
  0
LINE
  5
BF
330
1F
100
AcDbEntity
  8
HIDDEN
100
AcDbLine
 10
-725.0
 20
642.0
 30
0.0
 11
-720.0
 21
642.0
 31
0.0
1001
DBPROPERTIES
1002
{
1000
PbHidd
1002
}
  0
LINE
  5
C0
330
1F
100
AcDbEntity
  8
HIDDEN
100
AcDbLine
 10
-720.0
 20
642.0
 30
0.0
 11
-715.0
 21
642.0
 31
0.0
1001
DBPROPERTIES
1002
{
1000
PbHidd
1002
}
  0
LINE
  5
C1
330
1F
100
AcDbEntity
  8
HIDDEN
100
AcDbLine
 10
-720.0
 20
642.0
 30
0.0
 11
-725.0
 21
642.0
 31
0.0
1001
DBPROPERTIES
1002
{
1000
PbHidd
1002
}
  0
LINE
  5
C2
330
1F
100
AcDbEntity
  8
HIDDEN
100
AcDbLine
 10
-477.5000000000001
 20
642.0
 30
0.0
 11
-472.5000000000001
 21
642.0
 31
0.0
1001
DBPROPERTIES
1002
{
1000
PbHidd
1002
}
  0
LINE
  5
C3
330
1F
100
AcDbEntity
  8
HIDDEN
100
AcDbLine
 10
-472.5000000000001
 20
642.0
 30
0.0
 11
-467.5000000000001
 21
642.0
 31
0.0
1001
DBPROPERTIES
1002
{
1000
PbHidd
1002
}
  0
LINE
  5
C4
330
1F
100
AcDbEntity
  8
HIDDEN
100
AcDbLine
 10
-472.5000000000001
 20
642.0
 30
0.0
 11
-477.5000000000001
 21
642.0
 31
0.0
1001
DBPROPERTIES
1002
{
1000
PbHidd
1002
}
  0
LINE
  5
C5
330
1F
100
AcDbEntity
  8
HIDDEN
100
AcDbLine
 10
-230.0000000000001
 20
642.0
 30
0.0
 11
-225.0000000000001
 21
642.0
 31
0.0
1001
DBPROPERTIES
1002
{
1000
PbHidd
1002
}
  0
LINE
  5
C6
330
1F
100
AcDbEntity
  8
HIDDEN
100
AcDbLine
 10
-225.0000000000001
 20
642.0
 30
0.0
 11
-220.0000000000001
 21
642.0
 31
0.0
1001
DBPROPERTIES
1002
{
1000
PbHidd
1002
}
  0
LINE
  5
C7
330
1F
100
AcDbEntity
  8
HIDDEN
100
AcDbLine
 10
-225.0000000000001
 20
642.0
 30
0.0
 11
-230.0000000000001
 21
642.0
 31
0.0
1001
DBPROPERTIES
1002
{
1000
PbHidd
1002
}
  0
LINE
  5
C8
330
1F
100
AcDbEntity
  8
HIDDEN
100
AcDbLine
 10
17.49999999999996
 20
642.0
 30
0.0
 11
22.49999999999996
 21
642.0
 31
0.0
1001
DBPROPERTIES
1002
{
1000
PbHidd
1002
}
  0
LINE
  5
C9
330
1F
100
AcDbEntity
  8
HIDDEN
100
AcDbLine
 10
22.49999999999996
 20
642.0
 30
0.0
 11
27.49999999999996
 21
642.0
 31
0.0
1001
DBPROPERTIES
1002
{
1000
PbHidd
1002
}
  0
LINE
  5
CA
330
1F
100
AcDbEntity
  8
HIDDEN
100
AcDbLine
 10
22.49999999999996
 20
642.0
 30
0.0
 11
17.49999999999996
 21
642.0
 31
0.0
1001
DBPROPERTIES
1002
{
1000
PbHidd
1002
}
  0
LINE
  5
CB
330
1F
100
AcDbEntity
  8
HIDDEN
100
AcDbLine
 10
264.9999999999999
 20
642.0
 30
0.0
 11
269.9999999999999
 21
642.0
 31
0.0
1001
DBPROPERTIES
1002
{
1000
PbHidd
1002
}
  0
LINE
  5
CC
330
1F
100
AcDbEntity
  8
HIDDEN
100
AcDbLine
 10
269.9999999999999
 20
642.0
 30
0.0
 11
274.9999999999999
 21
642.0
 31
0.0
1001
DBPROPERTIES
1002
{
1000
PbHidd
1002
}
  0
LINE
  5
CD
330
1F
100
AcDbEntity
  8
HIDDEN
100
AcDbLine
 10
269.9999999999999
 20
642.0
 30
0.0
 11
264.9999999999999
 21
642.0
 31
0.0
1001
DBPROPERTIES
1002
{
1000
PbHidd
1002
}
  0
ARC
  5
CE
330
1F
100
AcDbEntity
  8
HIDDEN
100
AcDbCircle
 10
585.0
 20
-319.5
 30
0.0
 40
162.0
100
AcDbArc
 50
89.99998127603165
 51
179.9999801521572
1001
DBPROPERTIES
1002
{
1000
PbHidd
1002
}
  0
ARC
  5
CF
330
1F
100
AcDbEntity
  8
HIDDEN
100
AcDbCircle
 10
585.0
 20
-319.5
 30
0.0
 40
162.0
100
AcDbArc
 50
0.0
 51
89.99998127603165
1001
DBPROPERTIES
1002
{
1000
PbHidd
1002
}
  0
ARC
  5
D0
330
1F
100
AcDbEntity
  8
THICK
100
AcDbCircle
 10
585.0
 20
-319.5
 30
0.0
 40
162.0
100
AcDbArc
 50
0.0
 51
89.99998127603165
1001
DBPROPERTIES
1002
{
1000
PbThick
1002
}
  0
ARC
  5
D1
330
1F
100
AcDbEntity
  8
THICK
100
AcDbCircle
 10
585.0
 20
-319.5
 30
0.0
 40
180.0
100
AcDbArc
 50
0.0
 51
135.2084139599161
1001
DBPROPERTIES
1002
{
1000
PbThick
1002
}
  0
ARC
  5
D2
330
1F
100
AcDbEntity
  8
HIDDEN
100
AcDbCircle
 10
585.0
 20
-319.5
 30
0.0
 40
180.0
100
AcDbArc
 50
135.2084139599161
 51
137.2034530025616
1001
DBPROPERTIES
1002
{
1000
PbHidd
1002
}
  0
ARC
  5
D3
330
1F
100
AcDbEntity
  8
THICK
100
AcDbCircle
 10
585.0
 20
-319.5
 30
0.0
 40
180.0
100
AcDbArc
 50
137.2034530025616
 51
168.7965177134137
1001
DBPROPERTIES
1002
{
1000
PbThick
1002
}
  0
ARC
  5
D4
330
1F
100
AcDbEntity
  8
HIDDEN
100
AcDbCircle
 10
585.0
 20
-319.5
 30
0.0
 40
180.0
100
AcDbArc
 50
168.7965177134137
 51
170.7916140518388
1001
DBPROPERTIES
1002
{
1000
PbHidd
1002
}
  0
ARC
  5
D5
330
1F
100
AcDbEntity
  8
THICK
100
AcDbCircle
 10
585.0
 20
-319.5
 30
0.0
 40
180.0
100
AcDbArc
 50
170.7916140518388
 51
180.0000198478428
1001
DBPROPERTIES
1002
{
1000
PbThick
1002
}
  0
ARC
  5
D6
330
1F
100
AcDbEntity
  8
THICK
100
AcDbCircle
 10
585.0
 20
-319.5
 30
0.0
 40
162.0
100
AcDbArc
 50
89.99998127603165
 51
133.1532143487818
1001
DBPROPERTIES
1002
{
1000
PbThick
1002
}
  0
ARC
  5
D7
330
1F
100
AcDbEntity
  8
HIDDEN
100
AcDbCircle
 10
585.0
 20
-319.5
 30
0.0
 40
162.0
100
AcDbArc
 50
133.1532143487818
 51
135.3940522855385
1001
DBPROPERTIES
1002
{
1000
PbHidd
1002
}
  0
ARC
  5
D8
330
1F
100
AcDbEntity
  8
THICK
100
AcDbCircle
 10
585.0
 20
-319.5
 30
0.0
 40
162.0
100
AcDbArc
 50
135.3940522855385
 51
170.6059757262164
1001
DBPROPERTIES
1002
{
1000
PbThick
1002
}
  0
ARC
  5
D9
330
1F
100
AcDbEntity
  8
HIDDEN
100
AcDbCircle
 10
585.0
 20
-319.5
 30
0.0
 40
162.0
100
AcDbArc
 50
170.6059757262164
 51
172.846813662973
1001
DBPROPERTIES
1002
{
1000
PbHidd
1002
}
  0
ARC
  5
DA
330
1F
100
AcDbEntity
  8
THICK
100
AcDbCircle
 10
585.0
 20
-319.5
 30
0.0
 40
162.0
100
AcDbArc
 50
172.846813662973
 51
180.0000198478428
1001
DBPROPERTIES
1002
{
1000
PbThick
1002
}
  0
ARC
  5
DB
330
1F
100
AcDbEntity
  8
THICK
100
AcDbCircle
 10
585.0
 20
-319.5
 30
0.0
 40
180.0
100
AcDbArc
 50
180.0000198478428
 51
221.4096453585447
1001
DBPROPERTIES
1002
{
1000
PbThick
1002
}
  0
LINE
  5
DC
330
1F
100
AcDbEntity
  8
HIDDEN
100
AcDbLine
 10
450.0
 20
-438.5588089979066
 30
0.0
 11
450.0
 21
-438.5588089979066
 31
0.0
1001
DBPROPERTIES
1002
{
1000
PbHidd
1002
}
  0
ARC
  5
DD
330
1F
100
AcDbEntity
  8
THICK
100
AcDbCircle
 10
585.0
 20
-319.5
 30
0.0
 40
180.0
100
AcDbArc
 50
318.590392089392
 51
0.0
1001
DBPROPERTIES
1002
{
1000
PbThick
1002
}
  0
LINE
  5
DE
330
1F
100
AcDbEntity
  8
HIDDEN
100
AcDbLine
 10
720.0
 20
-438.5588089979066
 30
0.0
 11
720.0
 21
-438.5588089979066
 31
0.0
1001
DBPROPERTIES
1002
{
1000
PbHidd
1002
}
  0
ARC
  5
DF
330
1F
100
AcDbEntity
  8
HIDDEN
100
AcDbCircle
 10
-100.8659000361028
 20
316.8327173481389
 30
0.0
 40
38.33999999999999
100
AcDbArc
 50
153.0000140058774
 51
157.3012081739245
1001
DBPROPERTIES
1002
{
1000
PbHidd
1002
}
  0
LINE
  5
E0
330
1F
100
AcDbEntity
  8
HIDDEN
100
AcDbLine
 10
-136.2363260167101
 20
331.6276004483997
 30
0.0
 11
-136.2363260167101
 21
331.6276004483997
 31
0.0
1001
DBPROPERTIES
1002
{
1000
PbHidd
1002
}
  0
ARC
  5
E1
330
1F
100
AcDbEntity
  8
HIDDEN
100
AcDbCircle
 10
-100.8659000361028
 20
316.8327173481389
 30
0.0
 40
38.33999999999999
100
AcDbArc
 50
328.6987999899875
 51
332.9999941580346
1001
DBPROPERTIES
1002
{
1000
PbHidd
1002
}
  0
LINE
  5
E2
330
1F
100
AcDbEntity
  8
HIDDEN
100
AcDbLine
 10
-68.10637341949771
 20
296.9136557272709
 30
0.0
 11
-68.10637341949766
 21
296.9136557272709
 31
0.0
1001
DBPROPERTIES
1002
{
1000
PbHidd
1002
}
  0
ARC
  5
E3
330
1F
100
AcDbEntity
  8
HIDDEN
100
AcDbCircle
 10
-176.921222505248
 20
341.5445896217093
 30
0.0
 40
38.34
100
AcDbArc
 50
170.9999988019279
 51
175.3012502657545
1001
DBPROPERTIES
1002
{
1000
PbHidd
1002
}
  0
LINE
  5
E4
330
1F
100
AcDbEntity
  8
HIDDEN
100
AcDbLine
 10
-215.1323669260113
 20
344.6852968757485
 30
0.0
 11
-215.1323669260113
 21
344.6852968757485
 31
0.0
1001
DBPROPERTIES
1002
{
1000
PbHidd
1002
}
  0
ARC
  5
E5
330
1F
100
AcDbEntity
  8
HIDDEN
100
AcDbCircle
 10
-176.921222505248
 20
341.5445896217093
 30
0.0
 40
38.34
100
AcDbArc
 50
346.6987847860379
 51
350.9999789540851
1001
DBPROPERTIES
1002
{
1000
PbHidd
1002
}
  0
LINE
  5
E6
330
1F
100
AcDbEntity
  8
HIDDEN
100
AcDbLine
 10
-139.6097326929312
 20
332.7236867209074
 30
0.0
 11
-139.6097326929311
 21
332.7236867209074
 31
0.0
1001
DBPROPERTIES
1002
{
1000
PbHidd
1002
}
  0
ARC
  5
E7
330
1F
100
AcDbEntity
  8
HIDDEN
100
AcDbCircle
 10
-256.8905210338139
 20
341.5445896217093
 30
0.0
 40
38.34
100
AcDbArc
 50
189.0000011980722
 51
193.3011953661192
1001
DBPROPERTIES
1002
{
1000
PbHidd
1002
}
  0
LINE
  5
E8
330
1F
100
AcDbEntity
  8
HIDDEN
100
AcDbLine
 10
-294.2020108461309
 20
332.7236867209074
 30
0.0
 11
-294.2020108461309
 21
332.7236867209074
 31
0.0
1001
DBPROPERTIES
1002
{
1000
PbHidd
1002
}
  0
ARC
  5
E9
330
1F
100
AcDbEntity
  8
HIDDEN
100
AcDbCircle
 10
-256.8905210338139
 20
341.5445896217093
 30
0.0
 40
38.34
100
AcDbArc
 50
4.698769582088368
 51
9.000021045914972
1001
DBPROPERTIES
1002
{
1000
PbHidd
1002
}
  0
LINE
  5
EA
330
1F
100
AcDbEntity
  8
HIDDEN
100
AcDbLine
 10
-218.6793766130508
 20
344.6852968757485
 30
0.0
 11
-218.6793766130507
 21
344.6852968757485
 31
0.0
1001
DBPROPERTIES
1002
{
1000
PbHidd
1002
}
  0
ARC
  5
EB
330
1F
100
AcDbEntity
  8
HIDDEN
100
AcDbCircle
 10
-332.9458435029593
 20
316.832717348139
 30
0.0
 40
38.34
100
AcDbArc
 50
206.9999859941226
 51
211.3012374579492
1001
DBPROPERTIES
1002
{
1000
PbHidd
1002
}
  0
LINE
  5
EC
330
1F
100
AcDbEntity
  8
HIDDEN
100
AcDbLine
 10
-365.7053701195643
 20
296.9136557272708
 30
0.0
 11
-365.7053701195643
 21
296.9136557272708
 31
0.0
1001
DBPROPERTIES
1002
{
1000
PbHidd
1002
}
  0
ARC
  5
ED
330
1F
100
AcDbEntity
  8
HIDDEN
100
AcDbCircle
 10
-332.9458435029593
 20
316.832717348139
 30
0.0
 40
38.34
100
AcDbArc
 50
22.69875437813879
 51
27.0000058419654
1001
DBPROPERTIES
1002
{
1000
PbHidd
1002
}
  0
LINE
  5
EE
330
1F
100
AcDbEntity
  8
HIDDEN
100
AcDbLine
 10
-297.5754175223519
 20
331.6276004483996
 30
0.0
 11
-297.5754175223519
 21
331.6276004483996
 31
0.0
1001
DBPROPERTIES
1002
{
1000
PbHidd
1002
}
  0
ARC
  5
EF
330
1F
100
AcDbEntity
  8
HIDDEN
100
AcDbCircle
 10
-397.6423650408126
 20
269.8279430368736
 30
0.0
 40
38.34
100
AcDbArc
 50
225.0000280859525
 51
229.3012222539996
1001
DBPROPERTIES
1002
{
1000
PbHidd
1002
}
  0
LINE
  5
F0
330
1F
100
AcDbEntity
  8
HIDDEN
100
AcDbLine
 10
-422.6431977474294
 20
240.760539231653
 30
0.0
 11
-422.6431977474294
 21
240.760539231653
 31
0.0
1001
DBPROPERTIES
1002
{
1000
PbHidd
1002
}
  0
ARC
  5
F1
330
1F
100
AcDbEntity
  8
HIDDEN
100
AcDbCircle
 10
-397.6423650408126
 20
269.8279430368736
 30
0.0
 40
38.34
100
AcDbArc
 50
40.69879646996873
 51
44.99999063801582
1001
DBPROPERTIES
1002
{
1000
PbHidd
1002
}
  0
LINE
  5
F2
330
1F
100
AcDbEntity
  8
HIDDEN
100
AcDbLine
 10
-368.5749612355919
 20
294.8287757434905
 30
0.0
 11
-368.5749612355919
 21
294.8287757434905
 31
0.0
1001
DBPROPERTIES
1002
{
1000
PbHidd
1002
}
  0
ARC
  5
F3
330
1F
100
AcDbEntity
  8
HIDDEN
100
AcDbCircle
 10
-444.6471393520778
 20
205.1314214990202
 30
0.0
 40
38.33999999999999
100
AcDbArc
 50
243.0000128820029
 51
247.30120705005
1001
DBPROPERTIES
1002
{
1000
PbHidd
1002
}
  0
LINE
  5
F4
330
1F
100
AcDbEntity
  8
HIDDEN
100
AcDbLine
 10
-459.4420224523385
 20
169.760995518413
 30
0.0
 11
-459.4420224523385
 21
169.760995518413
 31
0.0
1001
DBPROPERTIES
1002
{
1000
PbHidd
1002
}
  0
ARC
  5
F5
330
1F
100
AcDbEntity
  8
HIDDEN
100
AcDbCircle
 10
-444.6471393520778
 20
205.1314214990202
 30
0.0
 40
38.33999999999999
100
AcDbArc
 50
58.69878126601917
 51
62.99997543406626
1001
DBPROPERTIES
1002
{
1000
PbHidd
1002
}
  0
LINE
  5
F6
330
1F
100
AcDbEntity
  8
HIDDEN
100
AcDbLine
 10
-424.7280777312099
 20
237.8909481156254
 30
0.0
 11
-424.7280777312099
 21
237.8909481156254
 31
0.0
1001
DBPROPERTIES
1002
{
1000
PbHidd
1002
}
  0
ARC
  5
F7
330
1F
100
AcDbEntity
  8
HIDDEN
100
AcDbCircle
 10
-469.3590116256485
 20
129.0760990298752
 30
0.0
 40
38.34
100
AcDbArc
 50
260.9999976780534
 51
265.30124914188
1001
DBPROPERTIES
1002
{
1000
PbHidd
1002
}
  0
LINE
  5
F8
330
1F
100
AcDbEntity
  8
HIDDEN
100
AcDbLine
 10
-472.4997188796874
 20
90.86495460911192
 30
0.0
 11
-472.4997188796874
 21
90.86495460911192
 31
0.0
1001
DBPROPERTIES
1002
{
1000
PbHidd
1002
}
  0
ARC
  5
F9
330
1F
100
AcDbEntity
  8
HIDDEN
100
AcDbCircle
 10
-469.3590116256485
 20
129.0760990298752
 30
0.0
 40
38.34
100
AcDbArc
 50
76.6987660620696
 51
81.0000175258962
1001
DBPROPERTIES
1002
{
1000
PbHidd
1002
}
  0
LINE
  5
FA
330
1F
100
AcDbEntity
  8
HIDDEN
100
AcDbLine
 10
-460.5381087248463
 20
166.387588842192
 30
0.0
 11
-460.5381087248463
 21
166.387588842192
 31
0.0
1001
DBPROPERTIES
1002
{
1000
PbHidd
1002
}
  0
ARC
  5
FB
330
1F
100
AcDbEntity
  8
HIDDEN
100
AcDbCircle
 10
-469.3590116256482
 20
49.10680050130924
 30
0.0
 40
38.33999999999999
100
AcDbArc
 50
278.9999824741038
 51
283.3012339379304
1001
DBPROPERTIES
1002
{
1000
PbHidd
1002
}
  0
LINE
  5
FC
330
1F
100
AcDbEntity
  8
HIDDEN
100
AcDbLine
 10
-460.5381087248466
 20
11.7953106889924
 30
0.0
 11
-460.5381087248466
 21
11.7953106889924
 31
0.0
1001
DBPROPERTIES
1002
{
1000
PbHidd
1002
}
  0
ARC
  5
FD
330
1F
100
AcDbEntity
  8
HIDDEN
100
AcDbCircle
 10
-469.3590116256482
 20
49.10680050130924
 30
0.0
 40
38.33999999999999
100
AcDbArc
 50
94.69875085812002
 51
99.00000232194662
1001
DBPROPERTIES
1002
{
1000
PbHidd
1002
}
  0
LINE
  5
FE
330
1F
100
AcDbEntity
  8
HIDDEN
100
AcDbLine
 10
-472.4997188796874
 20
87.31794492207246
 30
0.0
 11
-472.4997188796874
 21
87.31794492207246
 31
0.0
1001
DBPROPERTIES
1002
{
1000
PbHidd
1002
}
  0
ARC
  5
FF
330
1F
100
AcDbEntity
  8
HIDDEN
100
AcDbCircle
 10
-444.6471393520778
 20
-26.94852196783609
 30
0.0
 40
38.33999999999999
100
AcDbArc
 50
297.0000245659338
 51
301.3012187339808
1001
DBPROPERTIES
1002
{
1000
PbHidd
1002
}
  0
LINE
  5
100
330
1F
100
AcDbEntity
  8
HIDDEN
100
AcDbLine
 10
-424.7280777312097
 20
-59.70804858444126
 30
0.0
 11
-424.7280777312097
 21
-59.70804858444126
 31
0.0
1001
DBPROPERTIES
1002
{
1000
PbHidd
1002
}
  0
ARC
  5
101
330
1F
100
AcDbEntity
  8
HIDDEN
100
AcDbCircle
 10
-444.6471393520778
 20
-26.94852196783609
 30
0.0
 40
38.33999999999999
100
AcDbArc
 50
112.69879294995
 51
116.9999871179971
1001
DBPROPERTIES
1002
{
1000
PbHidd
1002
}
  0
LINE
  5
102
330
1F
100
AcDbEntity
  8
HIDDEN
100
AcDbLine
 10
-459.4420224523385
 20
8.421904012771165
 30
0.0
 11
-459.4420224523385
 21
8.421904012771165
 31
0.0
1001
DBPROPERTIES
1002
{
1000
PbHidd
1002
}
  0
ARC
  5
103
330
1F
100
AcDbEntity
  8
HIDDEN
100
AcDbCircle
 10
-397.6423650408127
 20
-91.64504350568944
 30
0.0
 40
38.34
100
AcDbArc
 50
315.0000093619842
 51
319.3012035300313
1001
DBPROPERTIES
1002
{
1000
PbHidd
1002
}
  0
LINE
  5
104
330
1F
100
AcDbEntity
  8
HIDDEN
100
AcDbLine
 10
-368.5749612355919
 20
-116.6458762123062
 30
0.0
 11
-368.5749612355919
 21
-116.6458762123062
 31
0.0
1001
DBPROPERTIES
1002
{
1000
PbHidd
1002
}
  0
ARC
  5
105
330
1F
100
AcDbEntity
  8
HIDDEN
100
AcDbCircle
 10
-397.6423650408127
 20
-91.64504350568944
 30
0.0
 40
38.34
100
AcDbArc
 50
130.6987777460004
 51
134.9999719140475
1001
DBPROPERTIES
1002
{
1000
PbHidd
1002
}
  0
LINE
  5
106
330
1F
100
AcDbEntity
  8
HIDDEN
100
AcDbLine
 10
-422.6431977474294
 20
-62.57763970046869
 30
0.0
 11
-422.6431977474294
 21
-62.57763970046869
 31
0.0
1001
DBPROPERTIES
1002
{
1000
PbHidd
1002
}
  0
ARC
  5
107
330
1F
100
AcDbEntity
  8
HIDDEN
100
AcDbCircle
 10
-332.9458435029592
 20
-138.6498178169548
 30
0.0
 40
38.33999999999999
100
AcDbArc
 50
332.9999941580346
 51
337.3012456218612
1001
DBPROPERTIES
1002
{
1000
PbHidd
1002
}
  0
LINE
  5
108
330
1F
100
AcDbEntity
  8
HIDDEN
100
AcDbLine
 10
-297.5754175223519
 20
-153.4447009172155
 30
0.0
 11
-297.5754175223519
 21
-153.4447009172155
 31
0.0
1001
DBPROPERTIES
1002
{
1000
PbHidd
1002
}
  0
ARC
  5
109
330
1F
100
AcDbEntity
  8
HIDDEN
100
AcDbCircle
 10
-332.9458435029592
 20
-138.6498178169548
 30
0.0
 40
38.33999999999999
100
AcDbArc
 50
148.6987625420508
 51
153.0000140058774
1001
DBPROPERTIES
1002
{
1000
PbHidd
1002
}
  0
LINE
  5
10A
330
1F
100
AcDbEntity
  8
HIDDEN
100
AcDbLine
 10
-365.7053701195643
 20
-118.7307561960867
 30
0.0
 11
-365.7053701195643
 21
-118.7307561960867
 31
0.0
1001
DBPROPERTIES
1002
{
1000
PbHidd
1002
}
  0
ARC
  5
10B
330
1F
100
AcDbEntity
  8
HIDDEN
100
AcDbCircle
 10
-256.890521033814
 20
-163.3616900905251
 30
0.0
 40
38.34
100
AcDbArc
 50
350.9999789540851
 51
355.3012304179116
1001
DBPROPERTIES
1002
{
1000
PbHidd
1002
}
  0
LINE
  5
10C
330
1F
100
AcDbEntity
  8
HIDDEN
100
AcDbLine
 10
-218.6793766130507
 20
-166.5023973445643
 30
0.0
 11
-218.6793766130508
 21
-166.5023973445643
 31
0.0
1001
DBPROPERTIES
1002
{
1000
PbHidd
1002
}
  0
ARC
  5
10D
330
1F
100
AcDbEntity
  8
HIDDEN
100
AcDbCircle
 10
-256.890521033814
 20
-163.3616900905251
 30
0.0
 40
38.34
100
AcDbArc
 50
166.6988046338808
 51
170.9999988019279
1001
DBPROPERTIES
1002
{
1000
PbHidd
1002
}
  0
LINE
  5
10E
330
1F
100
AcDbEntity
  8
HIDDEN
100
AcDbLine
 10
-294.2020108461309
 20
-154.5407871897233
 30
0.0
 11
-294.2020108461309
 21
-154.5407871897233
 31
0.0
1001
DBPROPERTIES
1002
{
1000
PbHidd
1002
}
  0
ARC
  5
10F
330
1F
100
AcDbEntity
  8
HIDDEN
100
AcDbCircle
 10
-176.9212225052481
 20
-163.3616900905251
 30
0.0
 40
38.33999999999999
100
AcDbArc
 50
9.000021045914972
 51
13.30121521396206
1001
DBPROPERTIES
1002
{
1000
PbHidd
1002
}
  0
LINE
  5
110
330
1F
100
AcDbEntity
  8
HIDDEN
100
AcDbLine
 10
-139.6097326929311
 20
-154.5407871897233
 30
0.0
 11
-139.6097326929312
 21
-154.5407871897233
 31
0.0
1001
DBPROPERTIES
1002
{
1000
PbHidd
1002
}
  0
ARC
  5
111
330
1F
100
AcDbEntity
  8
HIDDEN
100
AcDbCircle
 10
-176.9212225052481
 20
-163.3616900905251
 30
0.0
 40
38.33999999999999
100
AcDbArc
 50
184.6987497342455
 51
189.0000011980722
1001
DBPROPERTIES
1002
{
1000
PbHidd
1002
}
  0
LINE
  5
112
330
1F
100
AcDbEntity
  8
HIDDEN
100
AcDbLine
 10
-215.1323669260113
 20
-166.5023973445643
 30
0.0
 11
-215.1323669260113
 21
-166.5023973445643
 31
0.0
1001
DBPROPERTIES
1002
{
1000
PbHidd
1002
}
  0
ARC
  5
113
330
1F
100
AcDbEntity
  8
HIDDEN
100
AcDbCircle
 10
-100.8659000361028
 20
-138.6498178169548
 30
0.0
 40
38.33999999999999
100
AcDbArc
 50
27.0000058419654
 51
31.30120001001249
1001
DBPROPERTIES
1002
{
1000
PbHidd
1002
}
  0
LINE
  5
114
330
1F
100
AcDbEntity
  8
HIDDEN
100
AcDbLine
 10
-68.10637341949766
 20
-118.7307561960867
 30
0.0
 11
-68.10637341949771
 21
-118.7307561960867
 31
0.0
1001
DBPROPERTIES
1002
{
1000
PbHidd
1002
}
  0
ARC
  5
115
330
1F
100
AcDbEntity
  8
HIDDEN
100
AcDbCircle
 10
-100.8659000361028
 20
-138.6498178169548
 30
0.0
 40
38.33999999999999
100
AcDbArc
 50
202.6987918260755
 51
206.9999859941226
1001
DBPROPERTIES
1002
{
1000
PbHidd
1002
}
  0
LINE
  5
116
330
1F
100
AcDbEntity
  8
HIDDEN
100
AcDbLine
 10
-136.2363260167101
 20
-153.4447009172155
 30
0.0
 11
-136.2363260167101
 21
-153.4447009172155
 31
0.0
1001
DBPROPERTIES
1002
{
1000
PbHidd
1002
}
  0
ARC
  5
117
330
1F
100
AcDbEntity
  8
HIDDEN
100
AcDbCircle
 10
-36.16937849824942
 20
-91.64504350568944
 30
0.0
 40
38.34
100
AcDbArc
 50
44.99999063801582
 51
49.30124210184243
1001
DBPROPERTIES
1002
{
1000
PbHidd
1002
}
  0
LINE
  5
118
330
1F
100
AcDbEntity
  8
HIDDEN
100
AcDbLine
 10
-11.16854579163257
 20
-62.57763970046881
 30
0.0
 11
-11.16854579163263
 21
-62.57763970046881
 31
0.0
1001
DBPROPERTIES
1002
{
1000
PbHidd
1002
}
  0
ARC
  5
119
330
1F
100
AcDbEntity
  8
HIDDEN
100
AcDbCircle
 10
-36.16937849824942
 20
-91.64504350568944
 30
0.0
 40
38.34
100
AcDbArc
 50
220.6987766221259
 51
225.0000280859525
1001
DBPROPERTIES
1002
{
1000
PbHidd
1002
}
  0
LINE
  5
11A
330
1F
100
AcDbEntity
  8
HIDDEN
100
AcDbLine
 10
-65.23678230347016
 20
-116.6458762123063
 30
0.0
 11
-65.23678230347011
 21
-116.6458762123063
 31
0.0
1001
DBPROPERTIES
1002
{
1000
PbHidd
1002
}
  0
ARC
  5
11B
330
1F
100
AcDbEntity
  8
HIDDEN
100
AcDbCircle
 10
10.83539581301593
 20
-26.94852196783614
 30
0.0
 40
38.34
100
AcDbArc
 50
62.99997543406626
 51
67.30122689789286
1001
DBPROPERTIES
1002
{
1000
PbHidd
1002
}
  0
LINE
  5
11C
330
1F
100
AcDbEntity
  8
HIDDEN
100
AcDbLine
 10
25.63027891327661
 20
8.421904012771165
 30
0.0
 11
25.63027891327655
 21
8.421904012771165
 31
0.0
1001
DBPROPERTIES
1002
{
1000
PbHidd
1002
}
  0
ARC
  5
11D
330
1F
100
AcDbEntity
  8
HIDDEN
100
AcDbCircle
 10
10.83539581301593
 20
-26.94852196783614
 30
0.0
 40
38.34
100
AcDbArc
 50
238.6987614181764
 51
243.0000128820029
1001
DBPROPERTIES
1002
{
1000
PbHidd
1002
}
  0
LINE
  5
11E
330
1F
100
AcDbEntity
  8
HIDDEN
100
AcDbLine
 10
-9.083665807852215
 20
-59.70804858444126
 30
0.0
 11
-9.083665807852162
 21
-59.70804858444126
 31
0.0
1001
DBPROPERTIES
1002
{
1000
PbHidd
1002
}
  0
ARC
  5
11F
330
1F
100
AcDbEntity
  8
HIDDEN
100
AcDbCircle
 10
35.54726808658611
 20
49.10680050130895
 30
0.0
 40
38.34
100
AcDbArc
 50
81.0000175258962
 51
85.30121169394329
1001
DBPROPERTIES
1002
{
1000
PbHidd
1002
}
  0
LINE
  5
120
330
1F
100
AcDbEntity
  8
HIDDEN
100
AcDbLine
 10
38.6879753406254
 20
87.31794492207223
 30
0.0
 11
38.68797534062534
 21
87.31794492207223
 31
0.0
1001
DBPROPERTIES
1002
{
1000
PbHidd
1002
}
  0
ARC
  5
121
330
1F
100
AcDbEntity
  8
HIDDEN
100
AcDbCircle
 10
35.54726808658611
 20
49.10680050130895
 30
0.0
 40
38.34
100
AcDbArc
 50
256.6988035100063
 51
260.9999976780534
1001
DBPROPERTIES
1002
{
1000
PbHidd
1002
}
  0
LINE
  5
122
330
1F
100
AcDbEntity
  8
HIDDEN
100
AcDbLine
 10
26.72636518578426
 20
11.79531068899212
 30
0.0
 11
26.72636518578431
 21
11.79531068899212
 31
0.0
1001
DBPROPERTIES
1002
{
1000
PbHidd
1002
}
  0
ARC
  5
123
330
1F
100
AcDbEntity
  8
HIDDEN
100
AcDbCircle
 10
35.54726808658611
 20
129.076099029875
 30
0.0
 40
38.33999999999999
100
AcDbArc
 50
99.00000232194662
 51
103.3011964899937
1001
DBPROPERTIES
1002
{
1000
PbHidd
1002
}
  0
LINE
  5
124
330
1F
100
AcDbEntity
  8
HIDDEN
100
AcDbLine
 10
26.72636518578443
 20
166.3875888421919
 30
0.0
 11
26.72636518578437
 21
166.3875888421919
 31
0.0
1001
DBPROPERTIES
1002
{
1000
PbHidd
1002
}
  0
ARC
  5
125
330
1F
100
AcDbEntity
  8
HIDDEN
100
AcDbCircle
 10
35.54726808658611
 20
129.076099029875
 30
0.0
 40
38.33999999999999
100
AcDbArc
 50
274.6987883060567
 51
278.9999824741038
1001
DBPROPERTIES
1002
{
1000
PbHidd
1002
}
  0
LINE
  5
126
330
1F
100
AcDbEntity
  8
HIDDEN
100
AcDbLine
 10
38.68797534062534
 20
90.8649546091118
 30
0.0
 11
38.6879753406254
 21
90.8649546091118
 31
0.0
1001
DBPROPERTIES
1002
{
1000
PbHidd
1002
}
  0
ARC
  5
127
330
1F
100
AcDbEntity
  8
HIDDEN
100
AcDbCircle
 10
10.83539581301593
 20
205.1314214990201
 30
0.0
 40
38.33999999999999
100
AcDbArc
 50
116.9999871179971
 51
121.3012385818236
1001
DBPROPERTIES
1002
{
1000
PbHidd
1002
}
  0
LINE
  5
128
330
1F
100
AcDbEntity
  8
HIDDEN
100
AcDbLine
 10
-9.083665807852162
 20
237.8909481156253
 30
0.0
 11
-9.083665807852215
 21
237.8909481156253
 31
0.0
1001
DBPROPERTIES
1002
{
1000
PbHidd
1002
}
  0
ARC
  5
129
330
1F
100
AcDbEntity
  8
HIDDEN
100
AcDbCircle
 10
10.83539581301593
 20
205.1314214990201
 30
0.0
 40
38.33999999999999
100
AcDbArc
 50
292.6987731021071
 51
297.0000245659338
1001
DBPROPERTIES
1002
{
1000
PbHidd
1002
}
  0
LINE
  5
12A
330
1F
100
AcDbEntity
  8
HIDDEN
100
AcDbLine
 10
25.63027891327655
 20
169.7609955184129
 30
0.0
 11
25.63027891327661
 21
169.7609955184129
 31
0.0
1001
DBPROPERTIES
1002
{
1000
PbHidd
1002
}
  0
ARC
  5
12B
330
1F
100
AcDbEntity
  8
HIDDEN
100
AcDbCircle
 10
-36.16937849824942
 20
269.8279430368735
 30
0.0
 40
38.34
100
AcDbArc
 50
134.9999719140475
 51
139.3012233778741
1001
DBPROPERTIES
1002
{
1000
PbHidd
1002
}
  0
LINE
  5
12C
330
1F
100
AcDbEntity
  8
HIDDEN
100
AcDbLine
 10
-65.23678230347011
 20
294.8287757434905
 30
0.0
 11
-65.23678230347016
 21
294.8287757434905
 31
0.0
1001
DBPROPERTIES
1002
{
1000
PbHidd
1002
}
  0
ARC
  5
12D
330
1F
100
AcDbEntity
  8
HIDDEN
100
AcDbCircle
 10
-36.16937849824942
 20
269.8279430368735
 30
0.0
 40
38.34
100
AcDbArc
 50
310.6987578981576
 51
315.0000093619842
1001
DBPROPERTIES
1002
{
1000
PbHidd
1002
}
  0
LINE
  5
12E
330
1F
100
AcDbEntity
  8
HIDDEN
100
AcDbLine
 10
-11.16854579163263
 20
240.760539231653
 30
0.0
 11
-11.16854579163257
 21
240.760539231653
 31
0.0
1001
DBPROPERTIES
1002
{
1000
PbHidd
1002
}
  0
ARC
  5
12F
330
1F
100
AcDbEntity
  8
HIDDEN
100
AcDbCircle
 10
-216.905871769531
 20
89.09144976559207
 30
0.0
 40
319.4999999999999
100
AcDbArc
 50
153.0000140058774
 51
332.9999941580346
1001
DBPROPERTIES
1002
{
1000
PbHidd
1002
}
  0
ARC
  5
130
330
1F
100
AcDbEntity
  8
THICK
100
AcDbCircle
 10
-216.905871769531
 20
89.09144976559207
 30
0.0
 40
59.99999999999999
100
AcDbArc
 50
153.0000140058774
 51
332.9999941580346
1001
DBPROPERTIES
1002
{
1000
PbThick
1002
}
  0
ARC
  5
131
330
1F
100
AcDbEntity
  8
HIDDEN
100
AcDbCircle
 10
-216.905871769531
 20
89.09144976559207
 30
0.0
 40
5.0
100
AcDbArc
 50
153.0000140058774
 51
332.9999941580346
1001
DBPROPERTIES
1002
{
1000
PbHidd
1002
}
  0
ARC
  5
132
330
1F
100
AcDbEntity
  8
THICK
100
AcDbCircle
 10
585.0
 20
-319.5
 30
0.0
 40
60.0
100
AcDbArc
 50
180.0000198478428
 51
0.0
1001
DBPROPERTIES
1002
{
1000
PbThick
1002
}
  0
ARC
  5
133
330
1F
100
AcDbEntity
  8
HIDDEN
100
AcDbCircle
 10
585.0
 20
-319.5
 30
0.0
 40
5.0
100
AcDbArc
 50
180.0000198478428
 51
0.0
1001
DBPROPERTIES
1002
{
1000
PbHidd
1002
}
  0
ARC
  5
134
330
1F
100
AcDbEntity
  8
HIDDEN
100
AcDbCircle
 10
-216.905871769531
 20
89.09144976559207
 30
0.0
 40
49.99999999999999
100
AcDbArc
 50
254.4783628707563
 51
332.9999941580346
1001
DBPROPERTIES
1002
{
1000
PbHidd
1002
}
  0
LINE
  5
135
330
1F
100
AcDbEntity
  8
HIDDEN
100
AcDbLine
 10
-230.2860032772938
 20
40.91498164229591
 30
0.0
 11
-230.2860032772938
 21
40.91498164229591
 31
0.0
1001
DBPROPERTIES
1002
{
1000
PbHidd
1002
}
  0
ARC
  5
136
330
1F
100
AcDbEntity
  8
HIDDEN
100
AcDbCircle
 10
585.0
 20
-319.5
 30
0.0
 40
50.0
100
AcDbArc
 50
180.0000198478428
 51
231.5216628932496
1001
DBPROPERTIES
1002
{
1000
PbHidd
1002
}
  0
LINE
  5
137
330
1F
100
AcDbEntity
  8
HIDDEN
100
AcDbLine
 10
553.8890625332878
 20
-358.6421712471641
 30
0.0
 11
553.8890625332878
 21
-358.6421712471641
 31
0.0
1001
DBPROPERTIES
1002
{
1000
PbHidd
1002
}
  0
ARC
  5
138
330
1F
100
AcDbEntity
  8
HIDDEN
100
AcDbCircle
 10
-216.905871769531
 20
89.09144976559213
 30
0.0
 40
55.0
100
AcDbArc
 50
62.99997543406626
 51
153.0000140058774
1001
DBPROPERTIES
1002
{
1000
PbHidd
1002
}
  0
LINE
  5
139
330
1F
100
AcDbEntity
  8
HIDDEN
100
AcDbLine
 10
-191.9363942838559
 20
138.0968085959524
 30
0.0
 11
-191.9363942838559
 21
138.0968085959524
 31
0.0
1001
DBPROPERTIES
1002
{
1000
PbHidd
1002
}
  0
ARC
  5
13A
330
1F
100
AcDbEntity
  8
HIDDEN
100
AcDbCircle
 10
585.0
 20
-319.5000000000001
 30
0.0
 40
55.0
100
AcDbArc
 50
332.9999941580346
 51
62.99997543406626
1001
DBPROPERTIES
1002
{
1000
PbHidd
1002
}
  0
LINE
  5
13B
330
1F
100
AcDbEntity
  8
HIDDEN
100
AcDbLine
 10
609.969477485675
 20
-270.4946411696398
 30
0.0
 11
609.969477485675
 21
-270.4946411696398
 31
0.0
1001
DBPROPERTIES
1002
{
1000
PbHidd
1002
}
  0
ARC
  5
13C
330
1F
100
AcDbEntity
  8
THICK
100
AcDbCircle
 10
-939.75
 20
-549.0
 30
0.0
 40
7.5
100
AcDbArc
 50
180.0000198478428
 51
0.0
1001
DBPROPERTIES
1002
{
1000
PbThick
1002
}
  0
ARC
  5
13D
330
1F
100
AcDbEntity
  8
THICK
100
AcDbCircle
 10
939.75
 20
-549.0
 30
0.0
 40
7.5
100
AcDbArc
 50
180.0000198478428
 51
0.0
1001
DBPROPERTIES
1002
{
1000
PbThick
1002
}
  0
LINE
  5
13E
330
1F
100
AcDbEntity
  8
HIDDEN
100
AcDbLine
 10
811.0
 20
-458.0
 30
0.0
 11
811.0
 21
-458.0
 31
0.0
1001
DBPROPERTIES
1002
{
1000
PbHidd
1002
}
  0
LINE
  5
13F
330
1F
100
AcDbEntity
  8
THICK
100
AcDbLine
 10
989.9999999999999
 20
-458.0
 30
0.0
 11
811.0
 21
-458.0
 31
0.0
1001
DBPROPERTIES
1002
{
1000
PbThick
1002
}
  0
LINE
  5
140
330
1F
100
AcDbEntity
  8
HIDDEN
100
AcDbLine
 10
990.0
 20
-458.0
 30
0.0
 11
990.0
 21
-458.0
 31
0.0
1001
DBPROPERTIES
1002
{
1000
PbHidd
1002
}
  0
LINE
  5
141
330
1F
100
AcDbEntity
  8
HIDDEN
100
AcDbLine
 10
811.0
 20
-550.0
 30
0.0
 11
811.0
 21
-550.0
 31
0.0
1001
DBPROPERTIES
1002
{
1000
PbHidd
1002
}
  0
LINE
  5
142
330
1F
100
AcDbEntity
  8
THICK
100
AcDbLine
 10
811.0
 20
-458.0
 30
0.0
 11
811.0
 21
-550.0
 31
0.0
1001
DBPROPERTIES
1002
{
1000
PbThick
1002
}
  0
LINE
  5
143
330
1F
100
AcDbEntity
  8
HIDDEN
100
AcDbLine
 10
720.0
 20
-550.0
 30
0.0
 11
720.0
 21
-550.0
 31
0.0
1001
DBPROPERTIES
1002
{
1000
PbHidd
1002
}
  0
LINE
  5
144
330
1F
100
AcDbEntity
  8
THICK
100
AcDbLine
 10
811.0
 20
-550.0
 30
0.0
 11
720.0
 21
-550.0
 31
0.0
1001
DBPROPERTIES
1002
{
1000
PbThick
1002
}
  0
LINE
  5
145
330
1F
100
AcDbEntity
  8
HIDDEN
100
AcDbLine
 10
895.0
 20
-639.0
 30
0.0
 11
720.0
 21
-639.0
 31
0.0
1001
DBPROPERTIES
1002
{
1000
PbHidd
1002
}
  0
ARC
  5
146
330
1F
100
AcDbEntity
  8
HIDDEN
100
AcDbCircle
 10
894.9999999999999
 20
-634.0
 30
0.0
 40
5.0
100
AcDbArc
 50
270.0000187239684
 51
281.4783114169422
1001
DBPROPERTIES
1002
{
1000
PbHidd
1002
}
  0
LINE
  5
147
330
1F
100
AcDbEntity
  8
THICK
100
AcDbLine
 10
990.0
 20
-459.0
 30
0.0
 11
990.0
 21
-458.0
 31
0.0
1001
DBPROPERTIES
1002
{
1000
PbThick
1002
}
  0
LINE
  5
148
330
1F
100
AcDbEntity
  8
HIDDEN
100
AcDbLine
 10
990.0
 20
-459.0
 30
0.0
 11
990.0
 21
-459.0
 31
0.0
1001
DBPROPERTIES
1002
{
1000
PbHidd
1002
}
  0
LINE
  5
149
330
1F
100
AcDbEntity
  8
THICK
100
AcDbLine
 10
1080.0
 20
-549.0
 30
0.0
 11
989.9999999999999
 21
-459.0
 31
0.0
1001
DBPROPERTIES
1002
{
1000
PbThick
1002
}
  0
LINE
  5
14A
330
1F
100
AcDbEntity
  8
HIDDEN
100
AcDbLine
 10
1080.0
 20
-549.0
 30
0.0
 11
1080.0
 21
-549.0
 31
0.0
1001
DBPROPERTIES
1002
{
1000
PbHidd
1002
}
  0
ARC
  5
14B
330
1F
100
AcDbEntity
  8
HIDDEN
100
AcDbCircle
 10
895.0000000000001
 20
-634.0000000000001
 30
0.0
 40
0.994987437105057
100
AcDbArc
 50
270.0000187239684
 51
0.0
1001
DBPROPERTIES
1002
{
1000
PbHidd
1002
}
  0
LINE
  5
14C
330
1F
100
AcDbEntity
  8
HIDDEN
100
AcDbLine
 10
895.9949874371072
 20
-458.0
 30
0.0
 11
895.9949874371072
 21
-634.0
 31
0.0
1001
DBPROPERTIES
1002
{
1000
PbHidd
1002
}
  0
LINE
  5
14D
330
1F
100
AcDbEntity
  8
HIDDEN
100
AcDbLine
 10
1080.0
 20
-638.9
 30
0.0
 11
719.9999999999999
 21
-638.9
 31
0.0
1001
DBPROPERTIES
1002
{
1000
PbHidd
1002
}
  0
LINE
  5
14E
330
1F
100
AcDbEntity
  8
HIDDEN
100
AcDbLine
 10
895.0000000000001
 20
-634.9949874371057
 30
0.0
 11
719.9999999999999
 21
-634.9949874371057
 31
0.0
1001
DBPROPERTIES
1002
{
1000
PbHidd
1002
}
  0
LINE
  5
14F
330
1F
100
AcDbEntity
  8
HIDDEN
100
AcDbLine
 10
719.9999999999999
 20
-638.9000000000001
 30
0.0
 11
719.9999999999999
 21
-638.9000000000001
 31
0.0
1001
DBPROPERTIES
1002
{
1000
PbHidd
1002
}
  0
LINE
  5
150
330
1F
100
AcDbEntity
  8
HIDDEN
100
AcDbLine
 10
720.0
 20
-639.0
 30
0.0
 11
720.0
 21
-639.0
 31
0.0
1001
DBPROPERTIES
1002
{
1000
PbHidd
1002
}
  0
LINE
  5
151
330
1F
100
AcDbEntity
  8
HIDDEN
100
AcDbLine
 10
719.9999999999999
 20
-642.0
 30
0.0
 11
719.9999999999999
 21
-642.0
 31
0.0
1001
DBPROPERTIES
1002
{
1000
PbHidd
1002
}
  0
LINE
  5
152
330
1F
100
AcDbEntity
  8
THICK
100
AcDbLine
 10
719.9999999999999
 20
-642.0
 30
0.0
 11
719.9999999999999
 21
-550.0
 31
0.0
1001
DBPROPERTIES
1002
{
1000
PbThick
1002
}
  0
ARC
  5
153
330
1F
100
AcDbEntity
  8
THICK
100
AcDbCircle
 10
939.75
 20
-549.0
 30
0.0
 40
7.5
100
AcDbArc
 50
0.0
 51
180.0000198478428
1001
DBPROPERTIES
1002
{
1000
PbThick
1002
}
  0
LINE
  5
154
330
1F
100
AcDbEntity
  8
HIDDEN
100
AcDbLine
 10
1080.0
 20
-638.9000000000001
 30
0.0
 11
1080.0
 21
-638.9000000000001
 31
0.0
1001
DBPROPERTIES
1002
{
1000
PbHidd
1002
}
  0
LINE
  5
155
330
1F
100
AcDbEntity
  8
HIDDEN
100
AcDbLine
 10
895.9949874371066
 20
-638.9
 30
0.0
 11
895.9949874371066
 21
-638.9
 31
0.0
1001
DBPROPERTIES
1002
{
1000
PbHidd
1002
}
  0
LINE
  5
156
330
1F
100
AcDbEntity
  8
THICK
100
AcDbLine
 10
1080.0
 20
-549.0
 30
0.0
 11
1080.0
 21
-642.0
 31
0.0
1001
DBPROPERTIES
1002
{
1000
PbThick
1002
}
  0
LINE
  5
157
330
1F
100
AcDbEntity
  8
HIDDEN
100
AcDbLine
 10
1080.0
 20
-642.0
 30
0.0
 11
1080.0
 21
-642.0
 31
0.0
1001
DBPROPERTIES
1002
{
1000
PbHidd
1002
}
  0
LINE
  5
158
330
1F
100
AcDbEntity
  8
THICK
100
AcDbLine
 10
1080.0
 20
-642.0
 30
0.0
 11
719.9999999999999
 21
-642.0
 31
0.0
1001
DBPROPERTIES
1002
{
1000
PbThick
1002
}
  0
LINE
  5
159
330
1F
100
AcDbEntity
  8
HIDDEN
100
AcDbLine
 10
895.0000000000001
 20
-638.9
 30
0.0
 11
895.0000000000001
 21
-634.9949874371057
 31
0.0
1001
DBPROPERTIES
1002
{
1000
PbHidd
1002
}
  0
LINE
  5
15A
330
1F
100
AcDbEntity
  8
THICK
100
AcDbLine
 10
-720.0000000000001
 20
-634.0000000000001
 30
0.0
 11
719.9999999999999
 21
-634.0000000000001
 31
0.0
1001
DBPROPERTIES
1002
{
1000
PbThick
1002
}
  0
LINE
  5
15B
330
1F
100
AcDbEntity
  8
HIDDEN
100
AcDbLine
 10
-720.0
 20
-634.9949874371068
 30
0.0
 11
-895.0
 21
-634.9949874371068
 31
0.0
1001
DBPROPERTIES
1002
{
1000
PbHidd
1002
}
  0
LINE
  5
15C
330
1F
100
AcDbEntity
  8
HIDDEN
100
AcDbLine
 10
-894.9999999999999
 20
-638.9
 30
0.0
 11
-895.0
 21
-634.9949874371068
 31
0.0
1001
DBPROPERTIES
1002
{
1000
PbHidd
1002
}
  0
LINE
  5
15D
330
1F
100
AcDbEntity
  8
THICK
100
AcDbLine
 10
-720.0000000000001
 20
-639.0
 30
0.0
 11
719.9999999999999
 21
-639.0
 31
0.0
1001
DBPROPERTIES
1002
{
1000
PbThick
1002
}
  0
LINE
  5
15E
330
1F
100
AcDbEntity
  8
HIDDEN
100
AcDbLine
 10
895.9949874371072
 20
-634.0
 30
0.0
 11
899.9999999999999
 21
-634.0
 31
0.0
1001
DBPROPERTIES
1002
{
1000
PbHidd
1002
}
  0
ARC
  5
15F
330
1F
100
AcDbEntity
  8
HIDDEN
100
AcDbCircle
 10
894.9999999999999
 20
-634.0
 30
0.0
 40
5.0
100
AcDbArc
 50
281.4783114169422
 51
0.0
1001
DBPROPERTIES
1002
{
1000
PbHidd
1002
}
  0
LINE
  5
160
330
1F
100
AcDbEntity
  8
HIDDEN
100
AcDbLine
 10
-811.0
 20
-550.0
 30
0.0
 11
-811.0
 21
-550.0
 31
0.0
1001
DBPROPERTIES
1002
{
1000
PbHidd
1002
}
  0
LINE
  5
161
330
1F
100
AcDbEntity
  8
HIDDEN
100
AcDbLine
 10
-811.0
 20
-458.0
 30
0.0
 11
-811.0
 21
-458.0
 31
0.0
1001
DBPROPERTIES
1002
{
1000
PbHidd
1002
}
  0
LINE
  5
162
330
1F
100
AcDbEntity
  8
THICK
100
AcDbLine
 10
-811.0
 20
-550.0
 30
0.0
 11
-811.0
 21
-458.0
 31
0.0
1001
DBPROPERTIES
1002
{
1000
PbThick
1002
}
  0
LINE
  5
163
330
1F
100
AcDbEntity
  8
HIDDEN
100
AcDbLine
 10
-990.0000000000001
 20
-458.0
 30
0.0
 11
-990.0000000000001
 21
-458.0
 31
0.0
1001
DBPROPERTIES
1002
{
1000
PbHidd
1002
}
  0
LINE
  5
164
330
1F
100
AcDbEntity
  8
THICK
100
AcDbLine
 10
-811.0
 20
-458.0
 30
0.0
 11
-990.0000000000001
 21
-458.0
 31
0.0
1001
DBPROPERTIES
1002
{
1000
PbThick
1002
}
  0
LINE
  5
165
330
1F
100
AcDbEntity
  8
HIDDEN
100
AcDbLine
 10
-895.9949874371074
 20
-634.0
 30
0.0
 11
-895.9949874371074
 21
-458.0
 31
0.0
1001
DBPROPERTIES
1002
{
1000
PbHidd
1002
}
  0
ARC
  5
166
330
1F
100
AcDbEntity
  8
HIDDEN
100
AcDbCircle
 10
-894.9999999999999
 20
-634.0000000000001
 30
0.0
 40
0.9949874371072869
100
AcDbArc
 50
180.0000198478428
 51
270.0000187239684
1001
DBPROPERTIES
1002
{
1000
PbHidd
1002
}
  0
LINE
  5
167
330
1F
100
AcDbEntity
  8
HIDDEN
100
AcDbLine
 10
-720.0000000000001
 20
-638.9
 30
0.0
 11
-1080.0
 21
-638.9
 31
0.0
1001
DBPROPERTIES
1002
{
1000
PbHidd
1002
}
  0
ARC
  5
168
330
1F
100
AcDbEntity
  8
HIDDEN
100
AcDbCircle
 10
-895.0
 20
-633.9999999999999
 30
0.0
 40
5.0
100
AcDbArc
 50
258.521668735215
 51
270.0000187239684
1001
DBPROPERTIES
1002
{
1000
PbHidd
1002
}
  0
LINE
  5
169
330
1F
100
AcDbEntity
  8
HIDDEN
100
AcDbLine
 10
-720.0
 20
-639.0
 30
0.0
 11
-895.0
 21
-639.0
 31
0.0
1001
DBPROPERTIES
1002
{
1000
PbHidd
1002
}
  0
LINE
  5
16A
330
1F
100
AcDbEntity
  8
HIDDEN
100
AcDbLine
 10
-990.0000000000001
 20
-459.0
 30
0.0
 11
-990.0000000000001
 21
-459.0
 31
0.0
1001
DBPROPERTIES
1002
{
1000
PbHidd
1002
}
  0
LINE
  5
16B
330
1F
100
AcDbEntity
  8
THICK
100
AcDbLine
 10
-990.0000000000001
 20
-458.0
 30
0.0
 11
-990.0000000000001
 21
-459.0
 31
0.0
1001
DBPROPERTIES
1002
{
1000
PbThick
1002
}
  0
LINE
  5
16C
330
1F
100
AcDbEntity
  8
HIDDEN
100
AcDbLine
 10
-1080.0
 20
-549.0
 30
0.0
 11
-1080.0
 21
-549.0
 31
0.0
1001
DBPROPERTIES
1002
{
1000
PbHidd
1002
}
  0
LINE
  5
16D
330
1F
100
AcDbEntity
  8
THICK
100
AcDbLine
 10
-990.0
 20
-459.0000000000001
 30
0.0
 11
-1080.0
 21
-549.0
 31
0.0
1001
DBPROPERTIES
1002
{
1000
PbThick
1002
}
  0
LINE
  5
16E
330
1F
100
AcDbEntity
  8
THICK
100
AcDbLine
 10
-1080.0
 20
-642.0
 30
0.0
 11
-1080.0
 21
-549.0
 31
0.0
1001
DBPROPERTIES
1002
{
1000
PbThick
1002
}
  0
LINE
  5
16F
330
1F
100
AcDbEntity
  8
THICK
100
AcDbLine
 10
-720.0000000000001
 20
-642.0
 30
0.0
 11
-1080.0
 21
-642.0
 31
0.0
1001
DBPROPERTIES
1002
{
1000
PbThick
1002
}
  0
LINE
  5
170
330
1F
100
AcDbEntity
  8
THICK
100
AcDbLine
 10
-720.0000000000001
 20
-550.0
 30
0.0
 11
-720.0000000000001
 21
-642.0
 31
0.0
1001
DBPROPERTIES
1002
{
1000
PbThick
1002
}
  0
LINE
  5
171
330
1F
100
AcDbEntity
  8
THICK
100
AcDbLine
 10
-720.0
 20
-550.0
 30
0.0
 11
-811.0
 21
-550.0
 31
0.0
1001
DBPROPERTIES
1002
{
1000
PbThick
1002
}
  0
ARC
  5
172
330
1F
100
AcDbEntity
  8
THICK
100
AcDbCircle
 10
-939.75
 20
-549.0
 30
0.0
 40
7.5
100
AcDbArc
 50
0.0
 51
180.0000198478428
1001
DBPROPERTIES
1002
{
1000
PbThick
1002
}
  0
LINE
  5
173
330
1F
100
AcDbEntity
  8
HIDDEN
100
AcDbLine
 10
-720.0
 20
-550.0
 30
0.0
 11
-720.0
 21
-550.0
 31
0.0
1001
DBPROPERTIES
1002
{
1000
PbHidd
1002
}
  0
LINE
  5
174
330
1F
100
AcDbEntity
  8
HIDDEN
100
AcDbLine
 10
-895.9949874371061
 20
-638.9
 30
0.0
 11
-895.9949874371061
 21
-638.9
 31
0.0
1001
DBPROPERTIES
1002
{
1000
PbHidd
1002
}
  0
LINE
  5
175
330
1F
100
AcDbEntity
  8
HIDDEN
100
AcDbLine
 10
-1080.0
 20
-638.9000000000001
 30
0.0
 11
-1080.0
 21
-638.9000000000001
 31
0.0
1001
DBPROPERTIES
1002
{
1000
PbHidd
1002
}
  0
LINE
  5
176
330
1F
100
AcDbEntity
  8
HIDDEN
100
AcDbLine
 10
-720.0000000000001
 20
-638.9000000000001
 30
0.0
 11
-720.0000000000001
 21
-638.9000000000001
 31
0.0
1001
DBPROPERTIES
1002
{
1000
PbHidd
1002
}
  0
LINE
  5
177
330
1F
100
AcDbEntity
  8
HIDDEN
100
AcDbLine
 10
-1080.0
 20
-642.0
 30
0.0
 11
-1080.0
 21
-642.0
 31
0.0
1001
DBPROPERTIES
1002
{
1000
PbHidd
1002
}
  0
LINE
  5
178
330
1F
100
AcDbEntity
  8
HIDDEN
100
AcDbLine
 10
-720.0000000000001
 20
-642.0
 30
0.0
 11
-720.0000000000001
 21
-642.0
 31
0.0
1001
DBPROPERTIES
1002
{
1000
PbHidd
1002
}
  0
LINE
  5
179
330
1F
100
AcDbEntity
  8
HIDDEN
100
AcDbLine
 10
-720.0
 20
-639.0
 30
0.0
 11
-720.0
 21
-639.0
 31
0.0
1001
DBPROPERTIES
1002
{
1000
PbHidd
1002
}
  0
LINE
  5
17A
330
1F
100
AcDbEntity
  8
THICK
100
AcDbLine
 10
894.9999999999999
 20
-458.0
 30
0.0
 11
894.9999999999999
 21
634.0
 31
0.0
1001
DBPROPERTIES
1002
{
1000
PbThick
1002
}
  0
LINE
  5
17B
330
1F
100
AcDbEntity
  8
THICK
100
AcDbLine
 10
-895.0
 20
634.0
 30
0.0
 11
894.9999999999999
 21
634.0
 31
0.0
1001
DBPROPERTIES
1002
{
1000
PbThick
1002
}
  0
LINE
  5
17C
330
1F
100
AcDbEntity
  8
THICK
100
AcDbLine
 10
-895.0
 20
-458.0
 30
0.0
 11
-895.0
 21
634.0
 31
0.0
1001
DBPROPERTIES
1002
{
1000
PbThick
1002
}
  0
LINE
  5
17D
330
1F
100
AcDbEntity
  8
THICK
100
AcDbLine
 10
810.0
 20
549.0
 30
0.0
 11
810.0
 21
-549.0
 31
0.0
1001
DBPROPERTIES
1002
{
1000
PbThick
1002
}
  0
LINE
  5
17E
330
1F
100
AcDbEntity
  8
THICK
100
AcDbLine
 10
810.0
 20
-549.0
 30
0.0
 11
-810.0
 21
-549.0
 31
0.0
1001
DBPROPERTIES
1002
{
1000
PbThick
1002
}
  0
LINE
  5
17F
330
1F
100
AcDbEntity
  8
THICK
100
AcDbLine
 10
-810.0
 20
-549.0
 30
0.0
 11
-810.0
 21
549.0
 31
0.0
1001
DBPROPERTIES
1002
{
1000
PbThick
1002
}
  0
LINE
  5
180
330
1F
100
AcDbEntity
  8
HIDDEN
100
AcDbLine
 10
-811.0
 20
-458.0
 30
0.0
 11
-811.0
 21
-458.0
 31
0.0
1001
DBPROPERTIES
1002
{
1000
PbHidd
1002
}
  0
LINE
  5
181
330
1F
100
AcDbEntity
  8
HIDDEN
100
AcDbLine
 10
-989.9999999999998
 20
-458.0
 30
0.0
 11
-989.9999999999998
 21
-458.0
 31
0.0
1001
DBPROPERTIES
1002
{
1000
PbHidd
1002
}
  0
LINE
  5
182
330
1F
100
AcDbEntity
  8
HIDDEN
100
AcDbLine
 10
-811.0
 20
-550.0
 30
0.0
 11
-811.0
 21
-550.0
 31
0.0
1001
DBPROPERTIES
1002
{
1000
PbHidd
1002
}
  0
LINE
  5
183
330
1F
100
AcDbEntity
  8
HIDDEN
100
AcDbLine
 10
-720.0
 20
-550.0
 30
0.0
 11
-720.0
 21
-550.0
 31
0.0
1001
DBPROPERTIES
1002
{
1000
PbHidd
1002
}
  0
LINE
  5
184
330
1F
100
AcDbEntity
  8
HIDDEN
100
AcDbLine
 10
-989.9999999999999
 20
-459.0
 30
0.0
 11
-989.9999999999999
 21
-459.0
 31
0.0
1001
DBPROPERTIES
1002
{
1000
PbHidd
1002
}
  0
LINE
  5
185
330
1F
100
AcDbEntity
  8
HIDDEN
100
AcDbLine
 10
-1080.0
 20
-549.0
 30
0.0
 11
-1080.0
 21
-549.0
 31
0.0
1001
DBPROPERTIES
1002
{
1000
PbHidd
1002
}
  0
ARC
  5
186
330
1F
100
AcDbEntity
  8
HIDDEN
100
AcDbCircle
 10
-895.0
 20
-633.9999999999999
 30
0.0
 40
0.9949874371072922
100
AcDbArc
 50
179.9999801521572
 51
270.0000187239684
1001
DBPROPERTIES
1002
{
1000
PbHidd
1002
}
  0
LINE
  5
187
330
1F
100
AcDbEntity
  8
HIDDEN
100
AcDbLine
 10
-895.9949874371073
 20
-458.0
 30
0.0
 11
-895.9949874371073
 21
-634.0
 31
0.0
1001
DBPROPERTIES
1002
{
1000
PbHidd
1002
}
  0
LINE
  5
188
330
1F
100
AcDbEntity
  8
HIDDEN
100
AcDbLine
 10
-895.0
 20
-634.9949874371072
 30
0.0
 11
-720.0
 21
-634.9949874371072
 31
0.0
1001
DBPROPERTIES
1002
{
1000
PbHidd
1002
}
  0
LINE
  5
189
330
1F
100
AcDbEntity
  8
HIDDEN
100
AcDbLine
 10
-720.0
 20
-638.9000000000001
 30
0.0
 11
-720.0
 21
-638.9000000000001
 31
0.0
1001
DBPROPERTIES
1002
{
1000
PbHidd
1002
}
  0
LINE
  5
18A
330
1F
100
AcDbEntity
  8
HIDDEN
100
AcDbLine
 10
-720.0
 20
-639.0
 30
0.0
 11
-720.0
 21
-639.0
 31
0.0
1001
DBPROPERTIES
1002
{
1000
PbHidd
1002
}
  0
LINE
  5
18B
330
1F
100
AcDbEntity
  8
HIDDEN
100
AcDbLine
 10
-720.0
 20
-642.0
 30
0.0
 11
-720.0
 21
-642.0
 31
0.0
1001
DBPROPERTIES
1002
{
1000
PbHidd
1002
}
  0
LINE
  5
18C
330
1F
100
AcDbEntity
  8
HIDDEN
100
AcDbLine
 10
-1080.0
 20
-638.9000000000001
 30
0.0
 11
-1080.0
 21
-638.9000000000001
 31
0.0
1001
DBPROPERTIES
1002
{
1000
PbHidd
1002
}
  0
LINE
  5
18D
330
1F
100
AcDbEntity
  8
HIDDEN
100
AcDbLine
 10
-895.9949874371063
 20
-638.9
 30
0.0
 11
-895.9949874371063
 21
-638.9
 31
0.0
1001
DBPROPERTIES
1002
{
1000
PbHidd
1002
}
  0
LINE
  5
18E
330
1F
100
AcDbEntity
  8
HIDDEN
100
AcDbLine
 10
-1080.0
 20
-642.0
 30
0.0
 11
-1080.0
 21
-642.0
 31
0.0
1001
DBPROPERTIES
1002
{
1000
PbHidd
1002
}
  0
LINE
  5
18F
330
1F
100
AcDbEntity
  8
HIDDEN
100
AcDbLine
 10
-895.0
 20
-634.9949874371072
 30
0.0
 11
-895.0
 21
-638.9
 31
0.0
1001
DBPROPERTIES
1002
{
1000
PbHidd
1002
}
  0
LINE
  5
190
330
1F
100
AcDbEntity
  8
HIDDEN
100
AcDbLine
 10
-720.0
 20
-633.9999999999999
 30
0.0
 11
720.0
 21
-633.9999999999999
 31
0.0
1001
DBPROPERTIES
1002
{
1000
PbHidd
1002
}
  0
LINE
  5
191
330
1F
100
AcDbEntity
  8
HIDDEN
100
AcDbLine
 10
720.0
 20
-634.9949874371072
 30
0.0
 11
895.0
 21
-634.9949874371072
 31
0.0
1001
DBPROPERTIES
1002
{
1000
PbHidd
1002
}
  0
LINE
  5
192
330
1F
100
AcDbEntity
  8
HIDDEN
100
AcDbLine
 10
895.0
 20
-634.9949874371072
 30
0.0
 11
895.0
 21
-638.9
 31
0.0
1001
DBPROPERTIES
1002
{
1000
PbHidd
1002
}
  0
LINE
  5
193
330
1F
100
AcDbEntity
  8
HIDDEN
100
AcDbLine
 10
-900.0
 20
-634.0
 30
0.0
 11
-895.9949874371073
 21
-634.0
 31
0.0
1001
DBPROPERTIES
1002
{
1000
PbHidd
1002
}
  0
LINE
  5
194
330
1F
100
AcDbEntity
  8
HIDDEN
100
AcDbLine
 10
811.0
 20
-550.0
 30
0.0
 11
811.0
 21
-550.0
 31
0.0
1001
DBPROPERTIES
1002
{
1000
PbHidd
1002
}
  0
LINE
  5
195
330
1F
100
AcDbEntity
  8
HIDDEN
100
AcDbLine
 10
811.0
 20
-458.0
 30
0.0
 11
811.0
 21
-458.0
 31
0.0
1001
DBPROPERTIES
1002
{
1000
PbHidd
1002
}
  0
LINE
  5
196
330
1F
100
AcDbEntity
  8
HIDDEN
100
AcDbLine
 10
990.0
 20
-458.0
 30
0.0
 11
990.0
 21
-458.0
 31
0.0
1001
DBPROPERTIES
1002
{
1000
PbHidd
1002
}
  0
LINE
  5
197
330
1F
100
AcDbEntity
  8
HIDDEN
100
AcDbLine
 10
895.9949874371064
 20
-634.0
 30
0.0
 11
895.9949874371064
 21
-458.0
 31
0.0
1001
DBPROPERTIES
1002
{
1000
PbHidd
1002
}
  0
ARC
  5
198
330
1F
100
AcDbEntity
  8
HIDDEN
100
AcDbCircle
 10
895.0
 20
-633.9999999999999
 30
0.0
 40
0.9949874371072922
100
AcDbArc
 50
270.0000187239684
 51
0.0
1001
DBPROPERTIES
1002
{
1000
PbHidd
1002
}
  0
LINE
  5
199
330
1F
100
AcDbEntity
  8
HIDDEN
100
AcDbLine
 10
720.0
 20
-638.9000000000001
 30
0.0
 11
720.0
 21
-638.9000000000001
 31
0.0
1001
DBPROPERTIES
1002
{
1000
PbHidd
1002
}
  0
LINE
  5
19A
330
1F
100
AcDbEntity
  8
HIDDEN
100
AcDbLine
 10
895.9949874371072
 20
-638.9
 30
0.0
 11
895.9949874371072
 21
-638.9
 31
0.0
1001
DBPROPERTIES
1002
{
1000
PbHidd
1002
}
  0
LINE
  5
19B
330
1F
100
AcDbEntity
  8
HIDDEN
100
AcDbLine
 10
1080.0
 20
-638.9000000000001
 30
0.0
 11
1080.0
 21
-638.9000000000001
 31
0.0
1001
DBPROPERTIES
1002
{
1000
PbHidd
1002
}
  0
LINE
  5
19C
330
1F
100
AcDbEntity
  8
HIDDEN
100
AcDbLine
 10
990.0
 20
-459.0
 30
0.0
 11
990.0
 21
-459.0
 31
0.0
1001
DBPROPERTIES
1002
{
1000
PbHidd
1002
}
  0
LINE
  5
19D
330
1F
100
AcDbEntity
  8
HIDDEN
100
AcDbLine
 10
1080.0
 20
-549.0
 30
0.0
 11
1080.0
 21
-549.0
 31
0.0
1001
DBPROPERTIES
1002
{
1000
PbHidd
1002
}
  0
LINE
  5
19E
330
1F
100
AcDbEntity
  8
HIDDEN
100
AcDbLine
 10
720.0
 20
-550.0
 30
0.0
 11
720.0
 21
-550.0
 31
0.0
1001
DBPROPERTIES
1002
{
1000
PbHidd
1002
}
  0
LINE
  5
19F
330
1F
100
AcDbEntity
  8
HIDDEN
100
AcDbLine
 10
1080.0
 20
-642.0
 30
0.0
 11
1080.0
 21
-642.0
 31
0.0
1001
DBPROPERTIES
1002
{
1000
PbHidd
1002
}
  0
LINE
  5
1A0
330
1F
100
AcDbEntity
  8
HIDDEN
100
AcDbLine
 10
720.0
 20
-642.0
 30
0.0
 11
720.0
 21
-642.0
 31
0.0
1001
DBPROPERTIES
1002
{
1000
PbHidd
1002
}
  0
LINE
  5
1A1
330
1F
100
AcDbEntity
  8
HIDDEN
100
AcDbLine
 10
720.0
 20
-639.0
 30
0.0
 11
720.0
 21
-639.0
 31
0.0
1001
DBPROPERTIES
1002
{
1000
PbHidd
1002
}
  0
LINE
  5
1A2
330
1F
100
AcDbEntity
  8
HIDDEN
100
AcDbLine
 10
-895.0
 20
-458.0
 30
0.0
 11
-895.0
 21
634.0
 31
0.0
1001
DBPROPERTIES
1002
{
1000
PbHidd
1002
}
  0
LINE
  5
1A3
330
1F
100
AcDbEntity
  8
HIDDEN
100
AcDbLine
 10
-895.0
 20
634.0
 30
0.0
 11
895.0000000000001
 21
634.0
 31
0.0
1001
DBPROPERTIES
1002
{
1000
PbHidd
1002
}
  0
LINE
  5
1A4
330
1F
100
AcDbEntity
  8
HIDDEN
100
AcDbLine
 10
895.0000000000001
 20
-458.0
 30
0.0
 11
895.0000000000001
 21
634.0
 31
0.0
1001
DBPROPERTIES
1002
{
1000
PbHidd
1002
}
  0
LINE
  5
1A5
330
1F
100
AcDbEntity
  8
HIDDEN
100
AcDbLine
 10
-895.0
 20
-639.0
 30
0.0
 11
-895.0000000000002
 21
-639.0
 31
0.0
1001
DBPROPERTIES
1002
{
1000
PbHidd
1002
}
  0
LINE
  5
1A6
330
1F
100
AcDbEntity
  8
HIDDEN
100
AcDbLine
 10
894.9999999999999
 20
-639.0
 30
0.0
 11
894.9999999999999
 21
-639.0
 31
0.0
1001
DBPROPERTIES
1002
{
1000
PbHidd
1002
}
  0
LINE
  5
1A7
330
1F
100
AcDbEntity
  8
HIDDEN
100
AcDbLine
 10
900.0
 20
-634.0000000000001
 30
0.0
 11
900.0
 21
-634.0000000000001
 31
0.0
1001
DBPROPERTIES
1002
{
1000
PbHidd
1002
}
  0
LINE
  5
1A8
330
1F
100
AcDbEntity
  8
HIDDEN
100
AcDbLine
 10
598.3801315077628
 20
-271.3235318767038
 30
0.0
 11
598.3801315077628
 21
-271.3235318767038
 31
0.0
1001
DBPROPERTIES
1002
{
1000
PbHidd
1002
}
  0
LINE
  5
1A9
330
1F
100
AcDbEntity
  8
HIDDEN
100
AcDbLine
 10
576.393026343663
 20
-260.1205422348845
 30
0.0
 11
598.3801315077628
 21
-271.3235318767038
 31
0.0
1001
DBPROPERTIES
1002
{
1000
PbHidd
1002
}
  0
LINE
  5
1AA
330
1F
100
AcDbEntity
  8
THICK
100
AcDbLine
 10
-163.8078291387185
 20
117.0306313709367
 30
0.0
 11
576.393026343663
 21
-260.1205422348846
 31
0.0
1001
DBPROPERTIES
1002
{
1000
PbThick
1002
}
  0
LINE
  5
1AB
330
1F
100
AcDbEntity
  8
HIDDEN
100
AcDbLine
 10
-185.7949343028188
 20
128.2336210127562
 30
0.0
 11
-163.8078291387186
 21
117.0306313709368
 31
0.0
1001
DBPROPERTIES
1002
{
1000
PbHidd
1002
}
  0
LINE
  5
1AC
330
1F
100
AcDbEntity
  8
HIDDEN
100
AcDbLine
 10
-185.7949343028188
 20
128.2336210127562
 30
0.0
 11
-185.7949343028188
 21
128.2336210127562
 31
0.0
1001
DBPROPERTIES
1002
{
1000
PbHidd
1002
}
  0
LINE
  5
1AD
330
1F
100
AcDbEntity
  8
THICK
100
AcDbLine
 10
-170.5708084029565
 20
127.2104988462752
 30
0.0
 11
588.6038916047755
 21
-259.6083314199627
 31
0.0
1001
DBPROPERTIES
1002
{
1000
PbThick
1002
}
  0
LINE
  5
1AE
330
1F
100
AcDbEntity
  8
THICK
100
AcDbLine
 10
538.6649366334257
 20
-357.6190490806832
 30
0.0
 11
-220.5097633743065
 21
29.19978118555475
 31
0.0
1001
DBPROPERTIES
1002
{
1000
PbThick
1002
}
  0
LINE
  5
1AF
330
1F
100
AcDbEntity
  8
THICK
100
AcDbLine
 10
531.9019573691876
 20
-347.4391816053447
 30
0.0
 11
-208.298898113194
 21
29.71199200047667
 31
0.0
1001
DBPROPERTIES
1002
{
1000
PbThick
1002
}
  0
LINE
  5
1B0
330
1F
100
AcDbEntity
  8
HIDDEN
100
AcDbLine
 10
553.8890625332879
 20
-358.6421712471641
 30
0.0
 11
531.9019573691877
 21
-347.4391816053446
 31
0.0
1001
DBPROPERTIES
1002
{
1000
PbHidd
1002
}
  0
LINE
  5
1B1
330
1F
100
AcDbEntity
  8
HIDDEN
100
AcDbLine
 10
-208.298898113194
 20
29.71199200047666
 30
0.0
 11
-230.2860032772938
 21
40.9149816422959
 31
0.0
1001
DBPROPERTIES
1002
{
1000
PbHidd
1002
}
  0
LINE
  5
1B2
330
1F
100
AcDbEntity
  8
HIDDEN
100
AcDbLine
 10
-170.5708084029566
 20
127.2104988462753
 30
0.0
 11
-191.9363942838559
 21
138.0968085959524
 31
0.0
1001
DBPROPERTIES
1002
{
1000
PbHidd
1002
}
  0
LINE
  5
1B3
330
1F
100
AcDbEntity
  8
HIDDEN
100
AcDbLine
 10
609.969477485675
 20
-270.4946411696398
 30
0.0
 11
588.6038916047755
 21
-259.6083314199627
 31
0.0
1001
DBPROPERTIES
1002
{
1000
PbHidd
1002
}
  0
ARC
  5
1B4
330
1F
100
AcDbEntity
  8
HIDDEN
100
AcDbCircle
 10
585.0
 20
-319.5000000000001
 30
0.0
 40
55.0
100
AcDbArc
 50
243.0000128820029
 51
332.9999941580346
1001
DBPROPERTIES
1002
{
1000
PbHidd
1002
}
  0
LINE
  5
1B5
330
1F
100
AcDbEntity
  8
HIDDEN
100
AcDbLine
 10
560.030522514325
 20
-368.5053588303603
 30
0.0
 11
560.030522514325
 21
-368.5053588303603
 31
0.0
1001
DBPROPERTIES
1002
{
1000
PbHidd
1002
}
  0
LINE
  5
1B6
330
1F
100
AcDbEntity
  8
HIDDEN
100
AcDbLine
 10
538.6649366334257
 20
-357.6190490806832
 30
0.0
 11
560.030522514325
 21
-368.5053588303603
 31
0.0
1001
DBPROPERTIES
1002
{
1000
PbHidd
1002
}
  0
LINE
  5
1B7
330
1F
100
AcDbEntity
  8
HIDDEN
100
AcDbLine
 10
-241.8753492552061
 20
40.08609093523193
 30
0.0
 11
-220.5097633743065
 21
29.19978118555475
 31
0.0
1001
DBPROPERTIES
1002
{
1000
PbHidd
1002
}
  0
LINE
  5
1B8
330
1F
100
AcDbEntity
  8
HIDDEN
100
AcDbLine
 10
-241.8753492552061
 20
40.08609093523194
 30
0.0
 11
-241.8753492552061
 21
40.08609093523194
 31
0.0
1001
DBPROPERTIES
1002
{
1000
PbHidd
1002
}
  0
ARC
  5
1B9
330
1F
100
AcDbEntity
  8
HIDDEN
100
AcDbCircle
 10
-216.905871769531
 20
89.09144976559213
 30
0.0
 40
55.0
100
AcDbArc
 50
153.0000140058774
 51
243.0000128820029
1001
DBPROPERTIES
1002
{
1000
PbHidd
1002
}
  0
ARC
  5
1BA
330
1F
100
AcDbEntity
  8
HIDDEN
100
AcDbCircle
 10
585.0
 20
-319.5
 30
0.0
 40
50.0
100
AcDbArc
 50
74.47832542281961
 51
180.0000198478428
1001
DBPROPERTIES
1002
{
1000
PbHidd
1002
}
  0
ARC
  5
1BB
330
1F
100
AcDbEntity
  8
HIDDEN
100
AcDbCircle
 10
-216.905871769531
 20
89.09144976559207
 30
0.0
 40
49.99999999999999
100
AcDbArc
 50
332.9999941580346
 51
51.52168274109243
1001
DBPROPERTIES
1002
{
1000
PbHidd
1002
}
  0
ARC
  5
1BC
330
1F
100
AcDbEntity
  8
HIDDEN
100
AcDbCircle
 10
585.0
 20
-319.5
 30
0.0
 40
5.0
100
AcDbArc
 50
0.0
 51
180.0000198478428
1001
DBPROPERTIES
1002
{
1000
PbHidd
1002
}
  0
ARC
  5
1BD
330
1F
100
AcDbEntity
  8
THICK
100
AcDbCircle
 10
585.0
 20
-319.5
 30
0.0
 40
60.0
100
AcDbArc
 50
0.0
 51
180.0000198478428
1001
DBPROPERTIES
1002
{
1000
PbThick
1002
}
  0
ARC
  5
1BE
330
1F
100
AcDbEntity
  8
HIDDEN
100
AcDbCircle
 10
-216.905871769531
 20
89.09144976559207
 30
0.0
 40
5.0
100
AcDbArc
 50
332.9999941580346
 51
153.0000140058774
1001
DBPROPERTIES
1002
{
1000
PbHidd
1002
}
  0
ARC
  5
1BF
330
1F
100
AcDbEntity
  8
THICK
100
AcDbCircle
 10
-216.905871769531
 20
89.09144976559207
 30
0.0
 40
59.99999999999999
100
AcDbArc
 50
332.9999941580346
 51
153.0000140058774
1001
DBPROPERTIES
1002
{
1000
PbThick
1002
}
  0
ARC
  5
1C0
330
1F
100
AcDbEntity
  8
HIDDEN
100
AcDbCircle
 10
-216.905871769531
 20
89.09144976559207
 30
0.0
 40
319.4999999999999
100
AcDbArc
 50
332.9999941580346
 51
153.0000140058774
1001
DBPROPERTIES
1002
{
1000
PbHidd
1002
}
  0
ARC
  5
1C1
330
1F
100
AcDbEntity
  8
HIDDEN
100
AcDbCircle
 10
-36.16937849824942
 20
269.8279430368735
 30
0.0
 40
38.34
100
AcDbArc
 50
315.0000093619842
 51
134.9999719140475
1001
DBPROPERTIES
1002
{
1000
PbHidd
1002
}
  0
ARC
  5
1C2
330
1F
100
AcDbEntity
  8
HIDDEN
100
AcDbCircle
 10
-216.905871769531
 20
89.09144976559207
 30
0.0
 40
255.6
100
AcDbArc
 50
35.60245147383909
 51
36.39754500614214
1001
DBPROPERTIES
1002
{
1000
PbHidd
1002
}
  0
ARC
  5
1C3
330
1F
100
AcDbEntity
  8
HIDDEN
100
AcDbCircle
 10
10.83539581301593
 20
205.1314214990201
 30
0.0
 40
38.33999999999999
100
AcDbArc
 50
297.0000245659338
 51
116.9999871179971
1001
DBPROPERTIES
1002
{
1000
PbHidd
1002
}
  0
ARC
  5
1C4
330
1F
100
AcDbEntity
  8
HIDDEN
100
AcDbCircle
 10
-216.905871769531
 20
89.09144976559207
 30
0.0
 40
255.6
100
AcDbArc
 50
17.60246667778866
 51
18.39756021009171
1001
DBPROPERTIES
1002
{
1000
PbHidd
1002
}
  0
ARC
  5
1C5
330
1F
100
AcDbEntity
  8
HIDDEN
100
AcDbCircle
 10
35.54726808658611
 20
129.076099029875
 30
0.0
 40
38.33999999999999
100
AcDbArc
 50
278.9999824741038
 51
99.00000232194662
1001
DBPROPERTIES
1002
{
1000
PbHidd
1002
}
  0
ARC
  5
1C6
330
1F
100
AcDbEntity
  8
HIDDEN
100
AcDbCircle
 10
-216.905871769531
 20
89.09144976559207
 30
0.0
 40
255.6
100
AcDbArc
 50
359.6024245859587
 51
0.3975754140412783
1001
DBPROPERTIES
1002
{
1000
PbHidd
1002
}
  0
ARC
  5
1C7
330
1F
100
AcDbEntity
  8
HIDDEN
100
AcDbCircle
 10
35.54726808658611
 20
49.10680050130895
 30
0.0
 40
38.34
100
AcDbArc
 50
260.9999976780534
 51
81.0000175258962
1001
DBPROPERTIES
1002
{
1000
PbHidd
1002
}
  0
ARC
  5
1C8
330
1F
100
AcDbEntity
  8
HIDDEN
100
AcDbCircle
 10
-216.905871769531
 20
89.09144976559207
 30
0.0
 40
255.6
100
AcDbArc
 50
341.6024397899083
 51
342.3975333222114
1001
DBPROPERTIES
1002
{
1000
PbHidd
1002
}
  0
ARC
  5
1C9
330
1F
100
AcDbEntity
  8
HIDDEN
100
AcDbCircle
 10
10.83539581301593
 20
-26.94852196783614
 30
0.0
 40
38.34
100
AcDbArc
 50
243.0000128820029
 51
62.99997543406626
1001
DBPROPERTIES
1002
{
1000
PbHidd
1002
}
  0
ARC
  5
1CA
330
1F
100
AcDbEntity
  8
HIDDEN
100
AcDbCircle
 10
-216.905871769531
 20
89.09144976559207
 30
0.0
 40
255.6
100
AcDbArc
 50
323.6024549938579
 51
324.3975485261609
1001
DBPROPERTIES
1002
{
1000
PbHidd
1002
}
  0
ARC
  5
1CB
330
1F
100
AcDbEntity
  8
HIDDEN
100
AcDbCircle
 10
-36.16937849824942
 20
-91.64504350568944
 30
0.0
 40
38.34
100
AcDbArc
 50
225.0000280859525
 51
44.99999063801582
1001
DBPROPERTIES
1002
{
1000
PbHidd
1002
}
  0
ARC
  5
1CC
330
1F
100
AcDbEntity
  8
HIDDEN
100
AcDbCircle
 10
-216.905871769531
 20
89.09144976559207
 30
0.0
 40
255.6
100
AcDbArc
 50
305.6024701978074
 51
306.3975637301104
1001
DBPROPERTIES
1002
{
1000
PbHidd
1002
}
  0
ARC
  5
1CD
330
1F
100
AcDbEntity
  8
HIDDEN
100
AcDbCircle
 10
-100.8659000361028
 20
-138.6498178169548
 30
0.0
 40
38.33999999999999
100
AcDbArc
 50
206.9999859941226
 51
27.0000058419654
1001
DBPROPERTIES
1002
{
1000
PbHidd
1002
}
  0
ARC
  5
1CE
330
1F
100
AcDbEntity
  8
HIDDEN
100
AcDbCircle
 10
-216.905871769531
 20
89.09144976559207
 30
0.0
 40
255.6
100
AcDbArc
 50
287.6024281059775
 51
288.39757893406
1001
DBPROPERTIES
1002
{
1000
PbHidd
1002
}
  0
ARC
  5
1CF
330
1F
100
AcDbEntity
  8
HIDDEN
100
AcDbCircle
 10
-176.9212225052481
 20
-163.3616900905251
 30
0.0
 40
38.33999999999999
100
AcDbArc
 50
189.0000011980722
 51
9.000021045914972
1001
DBPROPERTIES
1002
{
1000
PbHidd
1002
}
  0
ARC
  5
1D0
330
1F
100
AcDbEntity
  8
HIDDEN
100
AcDbCircle
 10
-216.905871769531
 20
89.09144976559207
 30
0.0
 40
255.6
100
AcDbArc
 50
269.6024433099271
 51
270.3975368422301
1001
DBPROPERTIES
1002
{
1000
PbHidd
1002
}
  0
ARC
  5
1D1
330
1F
100
AcDbEntity
  8
HIDDEN
100
AcDbCircle
 10
-256.890521033814
 20
-163.3616900905251
 30
0.0
 40
38.34
100
AcDbArc
 50
170.9999988019279
 51
350.9999789540851
1001
DBPROPERTIES
1002
{
1000
PbHidd
1002
}
  0
ARC
  5
1D2
330
1F
100
AcDbEntity
  8
HIDDEN
100
AcDbCircle
 10
-216.905871769531
 20
89.09144976559207
 30
0.0
 40
255.6
100
AcDbArc
 50
251.6024585138766
 51
252.3975520461797
1001
DBPROPERTIES
1002
{
1000
PbHidd
1002
}
  0
ARC
  5
1D3
330
1F
100
AcDbEntity
  8
HIDDEN
100
AcDbCircle
 10
-332.9458435029592
 20
-138.6498178169548
 30
0.0
 40
38.33999999999999
100
AcDbArc
 50
153.0000140058774
 51
332.9999941580346
1001
DBPROPERTIES
1002
{
1000
PbHidd
1002
}
  0
ARC
  5
1D4
330
1F
100
AcDbEntity
  8
HIDDEN
100
AcDbCircle
 10
-216.905871769531
 20
89.09144976559207
 30
0.0
 40
255.6
100
AcDbArc
 50
233.6024164220467
 51
234.3975672501292
1001
DBPROPERTIES
1002
{
1000
PbHidd
1002
}
  0
ARC
  5
1D5
330
1F
100
AcDbEntity
  8
HIDDEN
100
AcDbCircle
 10
-397.6423650408127
 20
-91.64504350568944
 30
0.0
 40
38.34
100
AcDbArc
 50
134.9999719140475
 51
315.0000093619842
1001
DBPROPERTIES
1002
{
1000
PbHidd
1002
}
  0
ARC
  5
1D6
330
1F
100
AcDbEntity
  8
HIDDEN
100
AcDbCircle
 10
-216.905871769531
 20
89.09144976559207
 30
0.0
 40
255.6
100
AcDbArc
 50
215.6024316259962
 51
216.3975824540788
1001
DBPROPERTIES
1002
{
1000
PbHidd
1002
}
  0
ARC
  5
1D7
330
1F
100
AcDbEntity
  8
HIDDEN
100
AcDbCircle
 10
-444.6471393520778
 20
-26.94852196783609
 30
0.0
 40
38.33999999999999
100
AcDbArc
 50
116.9999871179971
 51
297.0000245659338
1001
DBPROPERTIES
1002
{
1000
PbHidd
1002
}
  0
ARC
  5
1D8
330
1F
100
AcDbEntity
  8
HIDDEN
100
AcDbCircle
 10
-216.905871769531
 20
89.09144976559207
 30
0.0
 40
255.6
100
AcDbArc
 50
197.6024468299458
 51
198.3975403622489
1001
DBPROPERTIES
1002
{
1000
PbHidd
1002
}
  0
ARC
  5
1D9
330
1F
100
AcDbEntity
  8
HIDDEN
100
AcDbCircle
 10
-469.3590116256482
 20
49.10680050130924
 30
0.0
 40
38.33999999999999
100
AcDbArc
 50
99.00000232194662
 51
278.9999824741038
1001
DBPROPERTIES
1002
{
1000
PbHidd
1002
}
  0
ARC
  5
1DA
330
1F
100
AcDbEntity
  8
HIDDEN
100
AcDbCircle
 10
-216.905871769531
 20
89.09144976559207
 30
0.0
 40
255.6
100
AcDbArc
 50
179.6024444338016
 51
180.3975555661984
1001
DBPROPERTIES
1002
{
1000
PbHidd
1002
}
  0
ARC
  5
1DB
330
1F
100
AcDbEntity
  8
HIDDEN
100
AcDbCircle
 10
-469.3590116256485
 20
129.0760990298752
 30
0.0
 40
38.34
100
AcDbArc
 50
81.0000175258962
 51
260.9999976780534
1001
DBPROPERTIES
1002
{
1000
PbHidd
1002
}
  0
ARC
  5
1DC
330
1F
100
AcDbEntity
  8
HIDDEN
100
AcDbCircle
 10
-216.905871769531
 20
89.09144976559207
 30
0.0
 40
255.6
100
AcDbArc
 50
161.6024596377511
 51
162.3975531700542
1001
DBPROPERTIES
1002
{
1000
PbHidd
1002
}
  0
ARC
  5
1DD
330
1F
100
AcDbEntity
  8
HIDDEN
100
AcDbCircle
 10
-444.6471393520778
 20
205.1314214990202
 30
0.0
 40
38.33999999999999
100
AcDbArc
 50
62.99997543406626
 51
243.0000128820029
1001
DBPROPERTIES
1002
{
1000
PbHidd
1002
}
  0
ARC
  5
1DE
330
1F
100
AcDbEntity
  8
HIDDEN
100
AcDbCircle
 10
-216.905871769531
 20
89.09144976559207
 30
0.0
 40
255.6
100
AcDbArc
 50
143.6024175459212
 51
144.3975683740037
1001
DBPROPERTIES
1002
{
1000
PbHidd
1002
}
  0
ARC
  5
1DF
330
1F
100
AcDbEntity
  8
HIDDEN
100
AcDbCircle
 10
-397.6423650408126
 20
269.8279430368736
 30
0.0
 40
38.34
100
AcDbArc
 50
44.99999063801582
 51
225.0000280859525
1001
DBPROPERTIES
1002
{
1000
PbHidd
1002
}
  0
ARC
  5
1E0
330
1F
100
AcDbEntity
  8
HIDDEN
100
AcDbCircle
 10
-216.905871769531
 20
89.09144976559207
 30
0.0
 40
255.6
100
AcDbArc
 50
125.6024327498707
 51
126.3975835779533
1001
DBPROPERTIES
1002
{
1000
PbHidd
1002
}
  0
ARC
  5
1E1
330
1F
100
AcDbEntity
  8
HIDDEN
100
AcDbCircle
 10
-332.9458435029593
 20
316.832717348139
 30
0.0
 40
38.34
100
AcDbArc
 50
27.0000058419654
 51
206.9999859941226
1001
DBPROPERTIES
1002
{
1000
PbHidd
1002
}
  0
ARC
  5
1E2
330
1F
100
AcDbEntity
  8
HIDDEN
100
AcDbCircle
 10
-216.905871769531
 20
89.09144976559207
 30
0.0
 40
255.6
100
AcDbArc
 50
107.6024479538203
 51
108.3975414861234
1001
DBPROPERTIES
1002
{
1000
PbHidd
1002
}
  0
ARC
  5
1E3
330
1F
100
AcDbEntity
  8
HIDDEN
100
AcDbCircle
 10
-256.8905210338139
 20
341.5445896217093
 30
0.0
 40
38.34
100
AcDbArc
 50
9.000021045914972
 51
189.0000011980722
1001
DBPROPERTIES
1002
{
1000
PbHidd
1002
}
  0
ARC
  5
1E4
330
1F
100
AcDbEntity
  8
HIDDEN
100
AcDbCircle
 10
-216.905871769531
 20
89.09144976559207
 30
0.0
 40
255.6
100
AcDbArc
 50
89.6024631577699
 51
90.39755669007295
1001
DBPROPERTIES
1002
{
1000
PbHidd
1002
}
  0
ARC
  5
1E5
330
1F
100
AcDbEntity
  8
HIDDEN
100
AcDbCircle
 10
-176.921222505248
 20
341.5445896217093
 30
0.0
 40
38.34
100
AcDbArc
 50
350.9999789540851
 51
170.9999988019279
1001
DBPROPERTIES
1002
{
1000
PbHidd
1002
}
  0
ARC
  5
1E6
330
1F
100
AcDbEntity
  8
HIDDEN
100
AcDbCircle
 10
-216.905871769531
 20
89.09144976559207
 30
0.0
 40
255.6
100
AcDbArc
 50
71.60242106593995
 51
72.39757189402252
1001
DBPROPERTIES
1002
{
1000
PbHidd
1002
}
  0
ARC
  5
1E7
330
1F
100
AcDbEntity
  8
HIDDEN
100
AcDbCircle
 10
-100.8659000361028
 20
316.8327173481389
 30
0.0
 40
38.33999999999999
100
AcDbArc
 50
332.9999941580346
 51
153.0000140058774
1001
DBPROPERTIES
1002
{
1000
PbHidd
1002
}
  0
ARC
  5
1E8
330
1F
100
AcDbEntity
  8
HIDDEN
100
AcDbCircle
 10
-216.905871769531
 20
89.09144976559207
 30
0.0
 40
255.6
100
AcDbArc
 50
53.60243626988952
 51
54.39752980219256
1001
DBPROPERTIES
1002
{
1000
PbHidd
1002
}
  0
LINE
  5
1E9
330
1F
100
AcDbEntity
  8
THICK
100
AcDbLine
 10
720.0
 20
-438.5588089979066
 30
0.0
 11
720.0
 21
-549.0
 31
0.0
1001
DBPROPERTIES
1002
{
1000
PbThick
1002
}
  0
LINE
  5
1EA
330
1F
100
AcDbEntity
  8
HIDDEN
100
AcDbLine
 10
720.0
 20
-549.0
 30
0.0
 11
720.0
 21
-549.0
 31
0.0
1001
DBPROPERTIES
1002
{
1000
PbHidd
1002
}
  0
ARC
  5
1EB
330
1F
100
AcDbEntity
  8
HIDDEN
100
AcDbCircle
 10
585.0
 20
-319.5
 30
0.0
 40
180.0
100
AcDbArc
 50
221.4096453585447
 51
318.590392089392
1001
DBPROPERTIES
1002
{
1000
PbHidd
1002
}
  0
LINE
  5
1EC
330
1F
100
AcDbEntity
  8
HIDDEN
100
AcDbLine
 10
450.0000000000001
 20
-549.0
 30
0.0
 11
450.0
 21
-549.0
 31
0.0
1001
DBPROPERTIES
1002
{
1000
PbHidd
1002
}
  0
LINE
  5
1ED
330
1F
100
AcDbEntity
  8
THICK
100
AcDbLine
 10
450.0000000000001
 20
-549.0
 30
0.0
 11
450.0000000000001
 21
-438.5588089979066
 31
0.0
1001
DBPROPERTIES
1002
{
1000
PbThick
1002
}
  0
ARC
  5
1EE
330
1F
100
AcDbEntity
  8
THICK
100
AcDbCircle
 10
585.0
 20
-319.5
 30
0.0
 40
180.0
100
AcDbArc
 50
221.4096453585447
 51
318.590392089392
1001
DBPROPERTIES
1002
{
1000
PbThick
1002
}
  0
ARC
  5
1EF
330
1F
100
AcDbEntity
  8
THICK
100
AcDbCircle
 10
585.0
 20
-319.5
 30
0.0
 40
162.0
100
AcDbArc
 50
180.0000198478428
 51
0.0
1001
DBPROPERTIES
1002
{
1000
PbThick
1002
}
  0
ARC
  5
1F0
330
1F
100
AcDbEntity
  8
HIDDEN
100
AcDbCircle
 10
585.0
 20
-319.5
 30
0.0
 40
162.0
100
AcDbArc
 50
179.9999801521572
 51
0.0
1001
DBPROPERTIES
1002
{
1000
PbHidd
1002
}
  0
LINE
  5
1F1
330
1F
100
AcDbEntity
  8
HIDDEN
100
AcDbLine
 10
274.9999999999999
 20
642.0
 30
0.0
 11
269.9999999999999
 21
642.0
 31
0.0
1001
DBPROPERTIES
1002
{
1000
PbHidd
1002
}
  0
LINE
  5
1F2
330
1F
100
AcDbEntity
  8
HIDDEN
100
AcDbLine
 10
27.49999999999996
 20
642.0
 30
0.0
 11
22.49999999999996
 21
642.0
 31
0.0
1001
DBPROPERTIES
1002
{
1000
PbHidd
1002
}
  0
LINE
  5
1F3
330
1F
100
AcDbEntity
  8
HIDDEN
100
AcDbLine
 10
-220.0000000000001
 20
642.0
 30
0.0
 11
-225.0000000000001
 21
642.0
 31
0.0
1001
DBPROPERTIES
1002
{
1000
PbHidd
1002
}
  0
LINE
  5
1F4
330
1F
100
AcDbEntity
  8
HIDDEN
100
AcDbLine
 10
-467.5000000000001
 20
642.0
 30
0.0
 11
-472.5000000000001
 21
642.0
 31
0.0
1001
DBPROPERTIES
1002
{
1000
PbHidd
1002
}
  0
LINE
  5
1F5
330
1F
100
AcDbEntity
  8
HIDDEN
100
AcDbLine
 10
-715.0
 20
642.0
 30
0.0
 11
-720.0
 21
642.0
 31
0.0
1001
DBPROPERTIES
1002
{
1000
PbHidd
1002
}
  0
LINE
  5
1F6
330
1F
100
AcDbEntity
  8
HIDDEN
100
AcDbLine
 10
275.0000000000001
 20
642.0
 30
0.0
 11
270.0000000000001
 21
642.0
 31
0.0
1001
DBPROPERTIES
1002
{
1000
PbHidd
1002
}
  0
LINE
  5
1F7
330
1F
100
AcDbEntity
  8
HIDDEN
100
AcDbLine
 10
27.50000000000004
 20
642.0
 30
0.0
 11
22.50000000000004
 21
642.0
 31
0.0
1001
DBPROPERTIES
1002
{
1000
PbHidd
1002
}
  0
LINE
  5
1F8
330
1F
100
AcDbEntity
  8
HIDDEN
100
AcDbLine
 10
-219.9999999999999
 20
642.0
 30
0.0
 11
-224.9999999999999
 21
642.0
 31
0.0
1001
DBPROPERTIES
1002
{
1000
PbHidd
1002
}
  0
LINE
  5
1F9
330
1F
100
AcDbEntity
  8
HIDDEN
100
AcDbLine
 10
-467.4999999999999
 20
642.0
 30
0.0
 11
-472.4999999999999
 21
642.0
 31
0.0
1001
DBPROPERTIES
1002
{
1000
PbHidd
1002
}
  0
LINE
  5
1FA
330
1F
100
AcDbEntity
  8
HIDDEN
100
AcDbLine
 10
-715.0
 20
642.0
 30
0.0
 11
-720.0
 21
642.0
 31
0.0
1001
DBPROPERTIES
1002
{
1000
PbHidd
1002
}
  0
LINE
  5
1FB
330
1F
100
AcDbEntity
  8
HIDDEN
100
AcDbLine
 10
319.9999999999999
 20
642.0
 30
0.0
 11
314.9999999999999
 21
642.0
 31
0.0
1001
DBPROPERTIES
1002
{
1000
PbHidd
1002
}
  0
LINE
  5
1FC
330
1F
100
AcDbEntity
  8
HIDDEN
100
AcDbLine
 10
-760.0
 20
642.0
 30
0.0
 11
-765.0
 21
642.0
 31
0.0
1001
DBPROPERTIES
1002
{
1000
PbHidd
1002
}
  0
LINE
  5
1FD
330
1F
100
AcDbEntity
  8
HIDDEN
100
AcDbLine
 10
320.0
 20
642.0
 30
0.0
 11
315.0
 21
642.0
 31
0.0
1001
DBPROPERTIES
1002
{
1000
PbHidd
1002
}
  0
LINE
  5
1FE
330
1F
100
AcDbEntity
  8
HIDDEN
100
AcDbLine
 10
-760.0
 20
642.0
 30
0.0
 11
-765.0
 21
642.0
 31
0.0
1001
DBPROPERTIES
1002
{
1000
PbHidd
1002
}
  0
LINE
  5
1FF
330
1F
100
AcDbEntity
  8
HIDDEN
100
AcDbLine
 10
320.0
 20
642.0
 30
0.0
 11
315.0
 21
642.0
 31
0.0
1001
DBPROPERTIES
1002
{
1000
PbHidd
1002
}
  0
LINE
  5
200
330
1F
100
AcDbEntity
  8
HIDDEN
100
AcDbLine
 10
-760.0
 20
642.0
 30
0.0
 11
-765.0
 21
642.0
 31
0.0
1001
DBPROPERTIES
1002
{
1000
PbHidd
1002
}
  0
LINE
  5
201
330
1F
100
AcDbEntity
  8
HIDDEN
100
AcDbLine
 10
320.0
 20
642.0
 30
0.0
 11
315.0
 21
642.0
 31
0.0
1001
DBPROPERTIES
1002
{
1000
PbHidd
1002
}
  0
LINE
  5
202
330
1F
100
AcDbEntity
  8
HIDDEN
100
AcDbLine
 10
-760.0
 20
642.0
 30
0.0
 11
-765.0
 21
642.0
 31
0.0
1001
DBPROPERTIES
1002
{
1000
PbHidd
1002
}
  0
LINE
  5
203
330
1F
100
AcDbEntity
  8
HIDDEN
100
AcDbLine
 10
320.0000000000001
 20
642.0
 30
0.0
 11
315.0000000000001
 21
642.0
 31
0.0
1001
DBPROPERTIES
1002
{
1000
PbHidd
1002
}
  0
LINE
  5
204
330
1F
100
AcDbEntity
  8
HIDDEN
100
AcDbLine
 10
-760.0
 20
642.0
 30
0.0
 11
-765.0
 21
642.0
 31
0.0
1001
DBPROPERTIES
1002
{
1000
PbHidd
1002
}
  0
LINE
  5
205
330
1F
100
AcDbEntity
  8
HIDDEN
100
AcDbLine
 10
940.0
 20
496.0
 30
0.0
 11
940.0
 21
496.0
 31
0.0
1001
DBPROPERTIES
1002
{
1000
PbHidd
1002
}
  0
LINE
  5
206
330
1F
100
AcDbEntity
  8
HIDDEN
100
AcDbLine
 10
810.0
 20
496.0
 30
0.0
 11
940.0
 21
496.0
 31
0.0
1001
DBPROPERTIES
1002
{
1000
PbHidd
1002
}
  0
LINE
  5
207
330
1F
100
AcDbEntity
  8
HIDDEN
100
AcDbLine
 10
810.0
 20
496.0
 30
0.0
 11
810.0
 21
496.0
 31
0.0
1001
DBPROPERTIES
1002
{
1000
PbHidd
1002
}
  0
LINE
  5
208
330
1F
100
AcDbEntity
  8
HIDDEN
100
AcDbLine
 10
810.0
 20
-496.0
 30
0.0
 11
940.0
 21
-496.0
 31
0.0
1001
DBPROPERTIES
1002
{
1000
PbHidd
1002
}
  0
LINE
  5
209
330
1F
100
AcDbEntity
  8
HIDDEN
100
AcDbLine
 10
940.0
 20
-496.0
 30
0.0
 11
940.0
 21
-496.0
 31
0.0
1001
DBPROPERTIES
1002
{
1000
PbHidd
1002
}
  0
LINE
  5
20A
330
1F
100
AcDbEntity
  8
HIDDEN
100
AcDbLine
 10
810.0
 20
-496.0
 30
0.0
 11
810.0
 21
-496.0
 31
0.0
1001
DBPROPERTIES
1002
{
1000
PbHidd
1002
}
  0
LINE
  5
20B
330
1F
100
AcDbEntity
  8
THICK
100
AcDbLine
 10
900.0
 20
500.0
 30
0.0
 11
940.0
 21
500.0
 31
0.0
1001
DBPROPERTIES
1002
{
1000
PbThick
1002
}
  0
LINE
  5
20C
330
1F
100
AcDbEntity
  8
HIDDEN
100
AcDbLine
 10
900.0
 20
-500.0
 30
0.0
 11
940.0
 21
-500.0
 31
0.0
1001
DBPROPERTIES
1002
{
1000
PbHidd
1002
}
  0
LINE
  5
20D
330
1F
100
AcDbEntity
  8
THICK
100
AcDbLine
 10
940.0
 20
500.0
 30
0.0
 11
940.0
 21
-458.0
 31
0.0
1001
DBPROPERTIES
1002
{
1000
PbThick
1002
}
  0
LINE
  5
20E
330
1F
100
AcDbEntity
  8
HIDDEN
100
AcDbLine
 10
940.0
 20
-458.0
 30
0.0
 11
940.0
 21
-500.0
 31
0.0
1001
DBPROPERTIES
1002
{
1000
PbHidd
1002
}
  0
LINE
  5
20F
330
1F
100
AcDbEntity
  8
HIDDEN
100
AcDbLine
 10
900.0
 20
-500.0
 30
0.0
 11
900.0
 21
-500.0
 31
0.0
1001
DBPROPERTIES
1002
{
1000
PbHidd
1002
}
  0
LINE
  5
210
330
1F
100
AcDbEntity
  8
HIDDEN
100
AcDbLine
 10
940.0
 20
-500.0
 30
0.0
 11
940.0
 21
-500.0
 31
0.0
1001
DBPROPERTIES
1002
{
1000
PbHidd
1002
}
  0
LINE
  5
211
330
1F
100
AcDbEntity
  8
HIDDEN
100
AcDbLine
 10
940.0
 20
500.0
 30
0.0
 11
940.0
 21
500.0
 31
0.0
1001
DBPROPERTIES
1002
{
1000
PbHidd
1002
}
  0
LINE
  5
212
330
1F
100
AcDbEntity
  8
HIDDEN
100
AcDbLine
 10
900.0
 20
500.0
 30
0.0
 11
900.0
 21
500.0
 31
0.0
1001
DBPROPERTIES
1002
{
1000
PbHidd
1002
}
  0
LINE
  5
213
330
1F
100
AcDbEntity
  8
HIDDEN
100
AcDbLine
 10
-930.0
 20
569.5
 30
0.0
 11
-809.0
 21
569.5
 31
0.0
1001
DBPROPERTIES
1002
{
1000
PbHidd
1002
}
  0
LINE
  5
214
330
1F
100
AcDbEntity
  8
HIDDEN
100
AcDbLine
 10
-930.0
 20
569.5
 30
0.0
 11
-930.0
 21
569.5
 31
0.0
1001
DBPROPERTIES
1002
{
1000
PbHidd
1002
}
  0
LINE
  5
215
330
1F
100
AcDbEntity
  8
HIDDEN
100
AcDbLine
 10
-809.0
 20
569.5
 30
0.0
 11
-809.0
 21
569.5
 31
0.0
1001
DBPROPERTIES
1002
{
1000
PbHidd
1002
}
  0
LINE
  5
216
330
1F
100
AcDbEntity
  8
HIDDEN
100
AcDbLine
 10
-809.0
 20
549.0
 30
0.0
 11
-809.0
 21
549.0
 31
0.0
1001
DBPROPERTIES
1002
{
1000
PbHidd
1002
}
  0
LINE
  5
217
330
1F
100
AcDbEntity
  8
HIDDEN
100
AcDbLine
 10
-809.0
 20
569.5
 30
0.0
 11
-809.0
 21
549.0
 31
0.0
1001
DBPROPERTIES
1002
{
1000
PbHidd
1002
}
  0
LINE
  5
218
330
1F
100
AcDbEntity
  8
HIDDEN
100
AcDbLine
 10
-930.0
 20
-227.5
 30
0.0
 11
-810.0
 21
-227.5
 31
0.0
1001
DBPROPERTIES
1002
{
1000
PbHidd
1002
}
  0
LINE
  5
219
330
1F
100
AcDbEntity
  8
HIDDEN
100
AcDbLine
 10
-930.0
 20
-227.5
 30
0.0
 11
-930.0
 21
-227.5
 31
0.0
1001
DBPROPERTIES
1002
{
1000
PbHidd
1002
}
  0
LINE
  5
21A
330
1F
100
AcDbEntity
  8
HIDDEN
100
AcDbLine
 10
-810.0
 20
-227.5
 30
0.0
 11
-810.0
 21
-227.5
 31
0.0
1001
DBPROPERTIES
1002
{
1000
PbHidd
1002
}
  0
LINE
  5
21B
330
1F
100
AcDbEntity
  8
HIDDEN
100
AcDbLine
 10
-810.0
 20
549.0
 30
0.0
 11
-810.0
 21
549.0
 31
0.0
1001
DBPROPERTIES
1002
{
1000
PbHidd
1002
}
  0
LINE
  5
21C
330
1F
100
AcDbEntity
  8
HIDDEN
100
AcDbLine
 10
-810.0
 20
549.0
 30
0.0
 11
-810.0
 21
549.0
 31
0.0
1001
DBPROPERTIES
1002
{
1000
PbHidd
1002
}
  0
LINE
  5
21D
330
1F
100
AcDbEntity
  8
HIDDEN
100
AcDbLine
 10
359.9999999999999
 20
549.0
 30
0.0
 11
360.0000000000001
 21
549.0
 31
0.0
1001
DBPROPERTIES
1002
{
1000
PbHidd
1002
}
  0
LINE
  5
21E
330
1F
100
AcDbEntity
  8
HIDDEN
100
AcDbLine
 10
-810.0
 20
549.0
 30
0.0
 11
360.0
 21
549.0
 31
0.0
1001
DBPROPERTIES
1002
{
1000
PbHidd
1002
}
  0
LINE
  5
21F
330
1F
100
AcDbEntity
  8
HIDDEN
100
AcDbLine
 10
-810.0
 20
-549.0
 30
0.0
 11
-810.0
 21
-549.0
 31
0.0
1001
DBPROPERTIES
1002
{
1000
PbHidd
1002
}
  0
LINE
  5
220
330
1F
100
AcDbEntity
  8
HIDDEN
100
AcDbLine
 10
360.0000000000001
 20
-549.0
 30
0.0
 11
359.9999999999999
 21
-549.0
 31
0.0
1001
DBPROPERTIES
1002
{
1000
PbHidd
1002
}
  0
LINE
  5
221
330
1F
100
AcDbEntity
  8
HIDDEN
100
AcDbLine
 10
360.0000000000001
 20
549.0
 30
0.0
 11
360.0000000000001
 21
-549.0
 31
0.0
1001
DBPROPERTIES
1002
{
1000
PbHidd
1002
}
  0
LINE
  5
222
330
1F
100
AcDbEntity
  8
HIDDEN
100
AcDbLine
 10
-810.0
 20
-549.0
 30
0.0
 11
360.0
 21
-549.0
 31
0.0
1001
DBPROPERTIES
1002
{
1000
PbHidd
1002
}
  0
LINE
  5
223
330
1F
100
AcDbEntity
  8
HIDDEN
100
AcDbLine
 10
-900.0
 20
-231.5
 30
0.0
 11
-900.0
 21
-231.5
 31
0.0
1001
DBPROPERTIES
1002
{
1000
PbHidd
1002
}
  0
LINE
  5
224
330
1F
100
AcDbEntity
  8
THICK
100
AcDbLine
 10
-930.0
 20
-231.5
 30
0.0
 11
-900.0
 21
-231.5
 31
0.0
1001
DBPROPERTIES
1002
{
1000
PbThick
1002
}
  0
LINE
  5
225
330
1F
100
AcDbEntity
  8
HIDDEN
100
AcDbLine
 10
-930.0
 20
-231.5
 30
0.0
 11
-930.0
 21
-231.5
 31
0.0
1001
DBPROPERTIES
1002
{
1000
PbHidd
1002
}
  0
LINE
  5
226
330
1F
100
AcDbEntity
  8
THICK
100
AcDbLine
 10
-930.0
 20
-231.5
 30
0.0
 11
-930.0
 21
573.5
 31
0.0
1001
DBPROPERTIES
1002
{
1000
PbThick
1002
}
  0
LINE
  5
227
330
1F
100
AcDbEntity
  8
HIDDEN
100
AcDbLine
 10
-930.0
 20
573.5
 30
0.0
 11
-930.0
 21
573.5
 31
0.0
1001
DBPROPERTIES
1002
{
1000
PbHidd
1002
}
  0
LINE
  5
228
330
1F
100
AcDbEntity
  8
THICK
100
AcDbLine
 10
-930.0
 20
573.5
 30
0.0
 11
-900.0
 21
573.5
 31
0.0
1001
DBPROPERTIES
1002
{
1000
PbThick
1002
}
  0
LINE
  5
229
330
1F
100
AcDbEntity
  8
HIDDEN
100
AcDbLine
 10
-900.0
 20
573.5
 30
0.0
 11
-900.0
 21
573.5
 31
0.0
1001
DBPROPERTIES
1002
{
1000
PbHidd
1002
}
  0
LINE
  5
22A
330
1F
100
AcDbEntity
  8
THICK
100
AcDbLine
 10
364.0000000000001
 20
504.0
 30
0.0
 11
364.0000000000001
 21
-145.1669325918415
 31
0.0
1001
DBPROPERTIES
1002
{
1000
PbThick
1002
}
  0
LINE
  5
22B
330
1F
100
AcDbEntity
  8
HIDDEN
100
AcDbLine
 10
364.0000000000001
 20
-145.1669325918415
 30
0.0
 11
364.0000000000001
 21
-151.9008900176476
 31
0.0
1001
DBPROPERTIES
1002
{
1000
PbHidd
1002
}
  0
LINE
  5
22C
330
1F
100
AcDbEntity
  8
THICK
100
AcDbLine
 10
364.0000000000001
 20
-151.9008900176476
 30
0.0
 11
364.0000000000001
 21
-261.888861305815
 31
0.0
1001
DBPROPERTIES
1002
{
1000
PbThick
1002
}
  0
LINE
  5
22D
330
1F
100
AcDbEntity
  8
HIDDEN
100
AcDbLine
 10
364.0000000000001
 20
-261.888861305815
 30
0.0
 11
364.0000000000001
 21
-268.622818731621
 31
0.0
1001
DBPROPERTIES
1002
{
1000
PbHidd
1002
}
  0
LINE
  5
22E
330
1F
100
AcDbEntity
  8
THICK
100
AcDbLine
 10
364.0000000000001
 20
-268.622818731621
 30
0.0
 11
364.0000000000001
 21
-504.0
 31
0.0
1001
DBPROPERTIES
1002
{
1000
PbThick
1002
}
  0
LINE
  5
22F
330
1F
100
AcDbEntity
  8
THICK
100
AcDbLine
 10
364.0000000000001
 20
-504.0
 30
0.0
 11
-765.0
 21
-504.0
 31
0.0
1001
DBPROPERTIES
1002
{
1000
PbThick
1002
}
  0
LINE
  5
230
330
1F
100
AcDbEntity
  8
HIDDEN
100
AcDbLine
 10
364.0
 20
-504.0
 30
0.0
 11
364.0
 21
-504.0
 31
0.0
1001
DBPROPERTIES
1002
{
1000
PbHidd
1002
}
  0
LINE
  5
231
330
1F
100
AcDbEntity
  8
HIDDEN
100
AcDbLine
 10
-765.0
 20
-504.0
 30
0.0
 11
-765.0
 21
-504.0
 31
0.0
1001
DBPROPERTIES
1002
{
1000
PbHidd
1002
}
  0
LINE
  5
232
330
1F
100
AcDbEntity
  8
HIDDEN
100
AcDbLine
 10
-765.0
 20
504.0
 30
0.0
 11
-765.0
 21
504.0
 31
0.0
1001
DBPROPERTIES
1002
{
1000
PbHidd
1002
}
  0
LINE
  5
233
330
1F
100
AcDbEntity
  8
THICK
100
AcDbLine
 10
-765.0
 20
-504.0
 30
0.0
 11
-765.0
 21
504.0
 31
0.0
1001
DBPROPERTIES
1002
{
1000
PbThick
1002
}
  0
LINE
  5
234
330
1F
100
AcDbEntity
  8
HIDDEN
100
AcDbLine
 10
364.0
 20
504.0
 30
0.0
 11
364.0
 21
504.0
 31
0.0
1001
DBPROPERTIES
1002
{
1000
PbHidd
1002
}
  0
LINE
  5
235
330
1F
100
AcDbEntity
  8
THICK
100
AcDbLine
 10
-765.0
 20
504.0
 30
0.0
 11
364.0000000000001
 21
504.0
 31
0.0
1001
DBPROPERTIES
1002
{
1000
PbThick
1002
}
  0
LINE
  5
236
330
1F
100
AcDbEntity
  8
THICK
100
AcDbLine
 10
364.0000000000001
 20
504.0
 30
0.0
 11
364.0000000000001
 21
549.0
 31
0.0
1001
DBPROPERTIES
1002
{
1000
PbThick
1002
}
  0
LINE
  5
237
330
1F
100
AcDbEntity
  8
THICK
100
AcDbLine
 10
364.0000000000001
 20
-549.0
 30
0.0
 11
364.0000000000001
 21
-504.0
 31
0.0
1001
DBPROPERTIES
1002
{
1000
PbThick
1002
}
  0
LINE
  5
238
330
1F
100
AcDbEntity
  8
HIDDEN
100
AcDbLine
 10
363.9999999999999
 20
-549.0
 30
0.0
 11
364.0000000000001
 21
-549.0
 31
0.0
1001
DBPROPERTIES
1002
{
1000
PbHidd
1002
}
  0
LINE
  5
239
330
1F
100
AcDbEntity
  8
HIDDEN
100
AcDbLine
 10
-810.0
 20
-549.0
 30
0.0
 11
-810.0
 21
-549.0
 31
0.0
1001
DBPROPERTIES
1002
{
1000
PbHidd
1002
}
  0
LINE
  5
23A
330
1F
100
AcDbEntity
  8
HIDDEN
100
AcDbLine
 10
-900.0000000000001
 20
-634.0
 30
0.0
 11
-895.9949874371074
 21
-634.0000000000001
 31
0.0
1001
DBPROPERTIES
1002
{
1000
PbHidd
1002
}
  0
ARC
  5
23B
330
1F
100
AcDbEntity
  8
HIDDEN
100
AcDbCircle
 10
-895.0
 20
-633.9999999999999
 30
0.0
 40
5.0
100
AcDbArc
 50
180.0000198478428
 51
258.521668735215
1001
DBPROPERTIES
1002
{
1000
PbHidd
1002
}
  0
LINE
  5
23C
330
1F
100
AcDbEntity
  8
HIDDEN
100
AcDbLine
 10
-899.9999999999999
 20
-633.9999999999999
 30
0.0
 11
-900.0000000000001
 21
-633.9999999999999
 31
0.0
1001
DBPROPERTIES
1002
{
1000
PbHidd
1002
}
  0
LINE
  5
23D
330
1F
100
AcDbEntity
  8
HIDDEN
100
AcDbLine
 10
895.9949874371064
 20
-633.9999999999999
 30
0.0
 11
900.0000000000002
 21
-634.0
 31
0.0
1001
DBPROPERTIES
1002
{
1000
PbHidd
1002
}
  0
LINE
  5
23E
330
1F
100
AcDbEntity
  8
HIDDEN
100
AcDbLine
 10
-900.0
 20
634.0
 30
0.0
 11
-895.0
 21
634.0
 31
0.0
1001
DBPROPERTIES
1002
{
1000
PbHidd
1002
}
  0
LINE
  5
23F
330
1F
100
AcDbEntity
  8
HIDDEN
100
AcDbLine
 10
-894.9999999999999
 20
639.0
 30
0.0
 11
-895.0
 21
634.0
 31
0.0
1001
DBPROPERTIES
1002
{
1000
PbHidd
1002
}
  0
LINE
  5
240
330
1F
100
AcDbEntity
  8
HIDDEN
100
AcDbLine
 10
895.0000000000001
 20
639.0
 30
0.0
 11
895.0000000000001
 21
634.0
 31
0.0
1001
DBPROPERTIES
1002
{
1000
PbHidd
1002
}
  0
LINE
  5
241
330
1F
100
AcDbEntity
  8
THICK
100
AcDbLine
 10
894.9999999999999
 20
634.0
 30
0.0
 11
899.9999999999999
 21
634.0
 31
0.0
1001
DBPROPERTIES
1002
{
1000
PbThick
1002
}
  0
ARC
  5
242
330
1F
100
AcDbEntity
  8
THICK
100
AcDbCircle
 10
894.9999999999999
 20
634.0
 30
0.0
 40
5.0
100
AcDbArc
 50
0.0
 51
89.99998127603165
1001
DBPROPERTIES
1002
{
1000
PbThick
1002
}
  0
LINE
  5
243
330
1F
100
AcDbEntity
  8
THICK
100
AcDbLine
 10
895.0
 20
634.0
 30
0.0
 11
895.0
 21
639.0
 31
0.0
1001
DBPROPERTIES
1002
{
1000
PbThick
1002
}
  0
LINE
  5
244
330
1F
100
AcDbEntity
  8
THICK
100
AcDbLine
 10
-895.0
 20
639.0
 30
0.0
 11
894.9999999999999
 21
639.0
 31
0.0
1001
DBPROPERTIES
1002
{
1000
PbThick
1002
}
  0
LINE
  5
245
330
1F
100
AcDbEntity
  8
THICK
100
AcDbLine
 10
-895.0
 20
634.0
 30
0.0
 11
-895.0
 21
639.0
 31
0.0
1001
DBPROPERTIES
1002
{
1000
PbThick
1002
}
  0
LINE
  5
246
330
1F
100
AcDbEntity
  8
HIDDEN
100
AcDbLine
 10
895.0
 20
639.0
 30
0.0
 11
895.0
 21
639.0
 31
0.0
1001
DBPROPERTIES
1002
{
1000
PbHidd
1002
}
  0
LINE
  5
247
330
1F
100
AcDbEntity
  8
HIDDEN
100
AcDbLine
 10
900.0
 20
634.0
 30
0.0
 11
900.0
 21
634.0
 31
0.0
1001
DBPROPERTIES
1002
{
1000
PbHidd
1002
}
  0
LINE
  5
248
330
1F
100
AcDbEntity
  8
HIDDEN
100
AcDbLine
 10
895.0000000000001
 20
634.0
 30
0.0
 11
900.0000000000001
 21
634.0
 31
0.0
1001
DBPROPERTIES
1002
{
1000
PbHidd
1002
}
  0
LINE
  5
249
330
1F
100
AcDbEntity
  8
THICK
100
AcDbLine
 10
-900.0
 20
634.0
 30
0.0
 11
-895.0
 21
634.0
 31
0.0
1001
DBPROPERTIES
1002
{
1000
PbThick
1002
}
  0
ARC
  5
24A
330
1F
100
AcDbEntity
  8
THICK
100
AcDbCircle
 10
-895.0
 20
633.9999999999999
 30
0.0
 40
5.0
100
AcDbArc
 50
89.99998127603165
 51
180.0000198478428
1001
DBPROPERTIES
1002
{
1000
PbThick
1002
}
  0
LINE
  5
24B
330
1F
100
AcDbEntity
  8
HIDDEN
100
AcDbLine
 10
-895.0
 20
639.0
 30
0.0
 11
-895.0
 21
639.0
 31
0.0
1001
DBPROPERTIES
1002
{
1000
PbHidd
1002
}
  0
LINE
  5
24C
330
1F
100
AcDbEntity
  8
HIDDEN
100
AcDbLine
 10
-900.0
 20
634.0
 30
0.0
 11
-900.0
 21
634.0
 31
0.0
1001
DBPROPERTIES
1002
{
1000
PbHidd
1002
}
  0
LINE
  5
24D
330
1F
100
AcDbEntity
  8
HIDDEN
100
AcDbLine
 10
900.0
 20
-634.0
 30
0.0
 11
900.0
 21
-458.0
 31
0.0
1001
DBPROPERTIES
1002
{
1000
PbHidd
1002
}
  0
LINE
  5
24E
330
1F
100
AcDbEntity
  8
THICK
100
AcDbLine
 10
900.0
 20
-458.0
 30
0.0
 11
900.0
 21
634.0
 31
0.0
1001
DBPROPERTIES
1002
{
1000
PbThick
1002
}
  0
LINE
  5
24F
330
1F
100
AcDbEntity
  8
HIDDEN
100
AcDbLine
 10
-900.0
 20
-633.9999999999999
 30
0.0
 11
-900.0
 21
-458.0000000000001
 31
0.0
1001
DBPROPERTIES
1002
{
1000
PbHidd
1002
}
  0
LINE
  5
250
330
1F
100
AcDbEntity
  8
THICK
100
AcDbLine
 10
-900.0
 20
-458.0000000000001
 30
0.0
 11
-900.0
 21
634.0
 31
0.0
1001
DBPROPERTIES
1002
{
1000
PbThick
1002
}
  0
LINE
  5
251
330
1F
100
AcDbEntity
  8
HIDDEN
100
AcDbLine
 10
810.0
 20
-549.0
 30
0.0
 11
809.9999999999999
 21
-549.0
 31
0.0
1001
DBPROPERTIES
1002
{
1000
PbHidd
1002
}
  0
LINE
  5
252
330
1F
100
AcDbEntity
  8
THICK
100
AcDbLine
 10
-770.0
 20
642.0
 30
0.0
 11
-770.0
 21
639.0
 31
0.0
1001
DBPROPERTIES
1002
{
1000
PbThick
1002
}
  0
LINE
  5
253
330
1F
100
AcDbEntity
  8
THICK
100
AcDbLine
 10
310.0000000000001
 20
642.0
 30
0.0
 11
310.0000000000001
 21
639.0
 31
0.0
1001
DBPROPERTIES
1002
{
1000
PbThick
1002
}
  0
LINE
  5
254
330
1F
100
AcDbEntity
  8
THICK
100
AcDbLine
 10
-725.0
 20
642.0
 30
0.0
 11
-725.0
 21
639.0
 31
0.0
1001
DBPROPERTIES
1002
{
1000
PbThick
1002
}
  0
LINE
  5
255
330
1F
100
AcDbEntity
  8
THICK
100
AcDbLine
 10
-477.4999999999999
 20
642.0
 30
0.0
 11
-477.4999999999999
 21
639.0
 31
0.0
1001
DBPROPERTIES
1002
{
1000
PbThick
1002
}
  0
LINE
  5
256
330
1F
100
AcDbEntity
  8
THICK
100
AcDbLine
 10
-229.9999999999999
 20
642.0
 30
0.0
 11
-229.9999999999999
 21
639.0
 31
0.0
1001
DBPROPERTIES
1002
{
1000
PbThick
1002
}
  0
LINE
  5
257
330
1F
100
AcDbEntity
  8
THICK
100
AcDbLine
 10
17.50000000000004
 20
642.0
 30
0.0
 11
17.50000000000004
 21
639.0
 31
0.0
1001
DBPROPERTIES
1002
{
1000
PbThick
1002
}
  0
LINE
  5
258
330
1F
100
AcDbEntity
  8
THICK
100
AcDbLine
 10
265.0000000000001
 20
642.0
 30
0.0
 11
265.0000000000001
 21
639.0
 31
0.0
1001
DBPROPERTIES
1002
{
1000
PbThick
1002
}
  0
LINE
  5
259
330
1F
100
AcDbEntity
  8
HIDDEN
100
AcDbLine
 10
947.25
 20
-642.0
 30
0.0
 11
947.25
 21
-638.9000244140625
 31
0.0
1001
DBPROPERTIES
1002
{
1000
PbHidd
1002
}
  0
LINE
  5
25A
330
1F
100
AcDbEntity
  8
HIDDEN
100
AcDbLine
 10
-932.25
 20
-642.0
 30
0.0
 11
-932.25
 21
-638.9000244140625
 31
0.0
1001
DBPROPERTIES
1002
{
1000
PbHidd
1002
}
  0
LINE
  5
25B
330
1F
100
AcDbEntity
  8
HIDDEN
100
AcDbLine
 10
-932.25
 20
-642.0
 30
0.0
 11
-932.25
 21
-638.9000244140625
 31
0.0
1001
DBPROPERTIES
1002
{
1000
PbHidd
1002
}
  0
LINE
  5
25C
330
1F
100
AcDbEntity
  8
HIDDEN
100
AcDbLine
 10
947.25
 20
-642.0
 30
0.0
 11
947.25
 21
-638.9000244140625
 31
0.0
1001
DBPROPERTIES
1002
{
1000
PbHidd
1002
}
  0
LINE
  5
25D
330
1F
100
AcDbEntity
  8
HIDDEN
100
AcDbLine
 10
932.25
 20
-642.0
 30
0.0
 11
932.25
 21
-638.9000244140625
 31
0.0
1001
DBPROPERTIES
1002
{
1000
PbHidd
1002
}
  0
LINE
  5
25E
330
1F
100
AcDbEntity
  8
HIDDEN
100
AcDbLine
 10
-947.25
 20
-642.0
 30
0.0
 11
-947.25
 21
-638.9000244140625
 31
0.0
1001
DBPROPERTIES
1002
{
1000
PbHidd
1002
}
  0
LINE
  5
25F
330
1F
100
AcDbEntity
  8
HIDDEN
100
AcDbLine
 10
-947.25
 20
-642.0
 30
0.0
 11
-947.25
 21
-638.9000244140625
 31
0.0
1001
DBPROPERTIES
1002
{
1000
PbHidd
1002
}
  0
LINE
  5
260
330
1F
100
AcDbEntity
  8
HIDDEN
100
AcDbLine
 10
932.25
 20
-642.0
 30
0.0
 11
932.25
 21
-638.9000244140625
 31
0.0
1001
DBPROPERTIES
1002
{
1000
PbHidd
1002
}
  0
LINE
  5
261
330
1F
100
AcDbEntity
  8
THICK
100
AcDbLine
 10
275.0
 20
642.0
 30
0.0
 11
275.0
 21
639.0
 31
0.0
1001
DBPROPERTIES
1002
{
1000
PbThick
1002
}
  0
LINE
  5
262
330
1F
100
AcDbEntity
  8
THICK
100
AcDbLine
 10
27.5
 20
642.0
 30
0.0
 11
27.5
 21
639.0
 31
0.0
1001
DBPROPERTIES
1002
{
1000
PbThick
1002
}
  0
LINE
  5
263
330
1F
100
AcDbEntity
  8
THICK
100
AcDbLine
 10
-220.0
 20
642.0
 30
0.0
 11
-220.0
 21
639.0
 31
0.0
1001
DBPROPERTIES
1002
{
1000
PbThick
1002
}
  0
LINE
  5
264
330
1F
100
AcDbEntity
  8
THICK
100
AcDbLine
 10
-467.5
 20
642.0
 30
0.0
 11
-467.5
 21
639.0
 31
0.0
1001
DBPROPERTIES
1002
{
1000
PbThick
1002
}
  0
LINE
  5
265
330
1F
100
AcDbEntity
  8
THICK
100
AcDbLine
 10
-715.0
 20
642.0
 30
0.0
 11
-715.0
 21
639.0
 31
0.0
1001
DBPROPERTIES
1002
{
1000
PbThick
1002
}
  0
LINE
  5
266
330
1F
100
AcDbEntity
  8
THICK
100
AcDbLine
 10
320.0
 20
642.0
 30
0.0
 11
320.0
 21
639.0
 31
0.0
1001
DBPROPERTIES
1002
{
1000
PbThick
1002
}
  0
LINE
  5
267
330
1F
100
AcDbEntity
  8
THICK
100
AcDbLine
 10
-760.0
 20
642.0
 30
0.0
 11
-760.0
 21
639.0
 31
0.0
1001
DBPROPERTIES
1002
{
1000
PbThick
1002
}
  0
ENDSEC
  0
SECTION
  2
OBJECTS
  0
DICTIONARY
  5
C
330
0
100
AcDbDictionary
  3
ACAD_GROUP
350
D
  3
ACAD_LAYOUT
350
1A
  3
ACAD_MATERIAL
350
43
  3
ACAD_MLEADERSTYLE
350
6B
  3
ACAD_MLINESTYLE
350
17
  3
ACAD_PLOTSETTINGS
350
19
  3
ACAD_SCALELIST
350
47
  3
ACAD_VISUALSTYLE
350
2A
  3
ACDBVARIABLEDICTIONARY
350
268
1001
ACAD
1000
TREAT_AS_HARD
1070
     0
  0
DICTIONARY
  5
D
102
{ACAD_REACTORS
330
C
102
}
330
C
100
AcDbDictionary
1001
ACAD
1000
TREAT_AS_HARD
1070
     0
  0
DICTIONARY
  5
1A
102
{ACAD_REACTORS
330
C
102
}
330
C
100
AcDbDictionary
1001
ACAD
1000
TREAT_AS_HARD
1070
     0
  0
DICTIONARY
  5
43
102
{ACAD_REACTORS
330
C
102
}
330
C
100
AcDbDictionary
  3
BYBLOCK
350
45
  3
BYLAYER
350
44
  3
GLOBAL
350
46
1001
ACAD
1000
TREAT_AS_HARD
1070
     0
  0
DICTIONARY
  5
6B
102
{ACAD_REACTORS
330
C
102
}
330
C
100
AcDbDictionary
  3
STANDARD
350
6C
1001
ACAD
1000
TREAT_AS_HARD
1070
     0
  0
DICTIONARY
  5
17
102
{ACAD_REACTORS
330
C
102
}
330
C
100
AcDbDictionary
  3
STANDARD
350
18
1001
ACAD
1000
TREAT_AS_HARD
1070
     0
  0
DICTIONARY
  5
19
102
{ACAD_REACTORS
330
C
102
}
330
C
100
AcDbDictionary
1001
ACAD
1000
TREAT_AS_HARD
1070
     0
  0
DICTIONARY
  5
47
102
{ACAD_REACTORS
330
C
102
}
330
C
100
AcDbDictionary
  3
A0
350
48
  3
A1
350
49
  3
A2
350
4A
  3
A3
350
4B
  3
A4
350
4C
  3
A5
350
4D
  3
A6
350
4E
  3
A7
350
4F
  3
A8
350
50
  3
A9
350
51
  3
B0
350
52
  3
B1
350
53
  3
B2
350
54
  3
B3
350
55
  3
B4
350
56
  3
B5
350
57
  3
B6
350
58
  3
B7
350
59
  3
B8
350
5A
  3
B9
350
5B
  3
C0
350
5C
  3
C1
350
5D
  3
C2
350
5E
  3
C3
350
5F
  3
C4
350
60
  3
C5
350
61
  3
C6
350
62
  3
C7
350
63
  3
C8
350
64
  3
C9
350
65
  3
D0
350
66
  3
D1
350
67
  3
D2
350
68
1001
ACAD
1000
TREAT_AS_HARD
1070
     0
  0
DICTIONARY
  5
2A
102
{ACAD_REACTORS
330
C
102
}
330
C
100
AcDbDictionary
  3
2DWIREFRAME
350
2F
  3
BASIC
350
32
  3
BRIGHTEN
350
36
  3
COLORCHANGE
350
3A
  3
CONCEPTUAL
350
34
  3
DIM
350
35
  3
EDGECOLOROFF
350
3D
  3
FACEPATTERN
350
39
  3
FLAT
350
2B
  3
FLATWITHEDGES
350
2C
  3
GOURAUD
350
2D
  3
GOURAUDWITHEDGES
350
2E
  3
HIDDEN
350
31
  3
JITTEROFF
350
3B
  3
LINEPATTERN
350
38
  3
OVERHANGOFF
350
3C
  3
REALISTIC
350
33
  3
SHADED
350
42
  3
SHADED_WITH_EDGES
350
41
  3
SHADES_OF_GRAY
350
3E
  3
SKETCHY
350
3F
  3
THICKEN
350
37
  3
WIREFRAME
350
30
  3
X-RAY
350
40
1001
ACAD
1000
TREAT_AS_HARD
1070
     0
  0
DICTIONARY
  5
268
102
{ACAD_REACTORS
330
C
102
}
330
C
100
AcDbDictionary
  3
CANNOSCALE
350
273
  3
CENTEREXE
350
26F
  3
CENTERLTYPEFILE
350
270
  3
CMLEADERSTYLE
350
26A
  3
CTABLESTYLE
350
269
  3
DIMASSOC
350
271
  3
HIDETEXT
350
272
  3
MSLTSCALE
350
274
  3
PSOLHEIGHT
350
26C
  3
PSOLWIDTH
350
26B
1001
ACAD
1000
TREAT_AS_HARD
1070
     0
  0
MATERIAL
  5
45
102
{ACAD_REACTORS
330
43
102
}
102
{ACAD_XDICTIONARY
360
277
102
}
330
43
100
AcDbMaterial
  1
BYBLOCK
  0
MATERIAL
  5
44
102
{ACAD_REACTORS
330
43
102
}
102
{ACAD_XDICTIONARY
360
275
102
}
330
43
100
AcDbMaterial
  1
BYLAYER
  0
MATERIAL
  5
46
102
{ACAD_REACTORS
330
43
102
}
102
{ACAD_XDICTIONARY
360
279
102
}
330
43
100
AcDbMaterial
  1
GLOBAL
  0
ACAD_PROXY_OBJECT
  5
6C
102
{ACAD_REACTORS
330
6B
102
}
330
6B
100
AcDbZombieObject
 90
      499
 91
      505
 93
      610
310
40901902A4063FBFFFFFE0000000000000020400000000000020404214DD185B99185C990000000000000104090141901A00000000000004100000000000000041025764000000000000039000
340
14
340
0
340
11
340
0
 94
        0
1001
ACAD_MLEADERVER
1070
     2
  0
MLINESTYLE
  5
18
102
{ACAD_REACTORS
330
17
102
}
330
17
100
AcDbMlineStyle
  2
Standard
 70
     0
  3

 62
   256
 51
90.0
 52
90.0
 71
     2
 49
0.5
 62
   256
  6
BYLAYER
 49
-0.5
 62
   256
  6
BYLAYER
  0
ACAD_PROXY_OBJECT
  5
48
102
{ACAD_REACTORS
330
47
102
}
330
47
100
AcDbZombieObject
 90
      499
 91
      503
 93
       41
310
903313A31580
  0
ACAD_PROXY_OBJECT
  5
49
102
{ACAD_REACTORS
330
47
102
}
330
47
100
AcDbZombieObject
 90
      499
 91
      503
 93
      105
310
903313A324000000000000004000
  0
ACAD_PROXY_OBJECT
  5
4A
102
{ACAD_REACTORS
330
47
102
}
330
47
100
AcDbZombieObject
 90
      499
 91
      503
 93
      105
310
903313A344000000000000104000
  0
ACAD_PROXY_OBJECT
  5
4B
102
{ACAD_REACTORS
330
47
102
}
330
47
100
AcDbZombieObject
 90
      499
 91
      503
 93
      105
310
903313A354000000000000144000
  0
ACAD_PROXY_OBJECT
  5
4C
102
{ACAD_REACTORS
330
47
102
}
330
47
100
AcDbZombieObject
 90
      499
 91
      503
 93
      105
310
903313A384000000000000204000
  0
ACAD_PROXY_OBJECT
  5
4D
102
{ACAD_REACTORS
330
47
102
}
330
47
100
AcDbZombieObject
 90
      499
 91
      503
 93
      113
310
904313A31304000000000000244000
  0
ACAD_PROXY_OBJECT
  5
4E
102
{ACAD_REACTORS
330
47
102
}
330
47
100
AcDbZombieObject
 90
      499
 91
      503
 93
      113
310
904313A31364000000000000304000
  0
ACAD_PROXY_OBJECT
  5
4F
102
{ACAD_REACTORS
330
47
102
}
330
47
100
AcDbZombieObject
 90
      499
 91
      503
 93
      113
310
904313A32304000000000000344000
  0
ACAD_PROXY_OBJECT
  5
50
102
{ACAD_REACTORS
330
47
102
}
330
47
100
AcDbZombieObject
 90
      499
 91
      503
 93
      113
310
904313A333040000000000003E4000
  0
ACAD_PROXY_OBJECT
  5
51
102
{ACAD_REACTORS
330
47
102
}
330
47
100
AcDbZombieObject
 90
      499
 91
      503
 93
      113
310
904313A34304000000000000444000
  0
ACAD_PROXY_OBJECT
  5
52
102
{ACAD_REACTORS
330
47
102
}
330
47
100
AcDbZombieObject
 90
      499
 91
      503
 93
      113
310
904313A35304000000000000494000
  0
ACAD_PROXY_OBJECT
  5
53
102
{ACAD_REACTORS
330
47
102
}
330
47
100
AcDbZombieObject
 90
      499
 91
      503
 93
      121
310
905313A3130304000000000000594000
  0
ACAD_PROXY_OBJECT
  5
54
102
{ACAD_REACTORS
330
47
102
}
330
47
100
AcDbZombieObject
 90
      499
 91
      503
 93
      105
310
903323A310000000000000010100
  0
ACAD_PROXY_OBJECT
  5
55
102
{ACAD_REACTORS
330
47
102
}
330
47
100
AcDbZombieObject
 90
      499
 91
      503
 93
      105
310
903343A310000000000000410100
  0
ACAD_PROXY_OBJECT
  5
56
102
{ACAD_REACTORS
330
47
102
}
330
47
100
AcDbZombieObject
 90
      499
 91
      503
 93
      105
310
903383A310000000000000810100
  0
ACAD_PROXY_OBJECT
  5
57
102
{ACAD_REACTORS
330
47
102
}
330
47
100
AcDbZombieObject
 90
      499
 91
      503
 93
      113
310
90431303A310000000000000910100
  0
ACAD_PROXY_OBJECT
  5
58
102
{ACAD_REACTORS
330
47
102
}
330
47
100
AcDbZombieObject
 90
      499
 91
      503
 93
      121
310
9053130303A310000000000001650100
  0
ACAD_PROXY_OBJECT
  5
59
102
{ACAD_REACTORS
330
47
102
}
330
47
100
AcDbZombieObject
 90
      499
 91
      503
 93
      257
310
90E312F31323822203D2031272D3022000000000000200FC000000000000284000
  0
ACAD_PROXY_OBJECT
  5
5A
102
{ACAD_REACTORS
330
47
102
}
330
47
100
AcDbZombieObject
 90
      499
 91
      503
 93
      249
310
90D312F363422203D2031272D3022000000000000240FC000000000000284000
  0
ACAD_PROXY_OBJECT
  5
5B
102
{ACAD_REACTORS
330
47
102
}
330
47
100
AcDbZombieObject
 90
      499
 91
      503
 93
      249
310
90D312F333222203D2031272D3022000000000000280FC000000000000284000
  0
ACAD_PROXY_OBJECT
  5
5C
102
{ACAD_REACTORS
330
47
102
}
330
47
100
AcDbZombieObject
 90
      499
 91
      503
 93
      249
310
90D312F313622203D2031272D30220000000000002C0FC000000000000284000
  0
ACAD_PROXY_OBJECT
  5
5D
102
{ACAD_REACTORS
330
47
102
}
330
47
100
AcDbZombieObject
 90
      499
 91
      503
 93
      249
310
90D332F333222203D2031272D30220000000000002E0FC000000000000284000
  0
ACAD_PROXY_OBJECT
  5
5E
102
{ACAD_REACTORS
330
47
102
}
330
47
100
AcDbZombieObject
 90
      499
 91
      503
 93
      241
310
90C312F3822203D2031272D3022000000000000300FC000000000000284000
  0
ACAD_PROXY_OBJECT
  5
5F
102
{ACAD_REACTORS
330
47
102
}
330
47
100
AcDbZombieObject
 90
      499
 91
      503
 93
      249
310
90D332F313622203D2031272D3022000000000000320FC000000000000284000
  0
ACAD_PROXY_OBJECT
  5
60
102
{ACAD_REACTORS
330
47
102
}
330
47
100
AcDbZombieObject
 90
      499
 91
      503
 93
      241
310
90C312F3422203D2031272D3022000000000000340FC000000000000284000
  0
ACAD_PROXY_OBJECT
  5
61
102
{ACAD_REACTORS
330
47
102
}
330
47
100
AcDbZombieObject
 90
      499
 91
      503
 93
      241
310
90C332F3822203D2031272D3022000000000000360FC000000000000284000
  0
ACAD_PROXY_OBJECT
  5
62
102
{ACAD_REACTORS
330
47
102
}
330
47
100
AcDbZombieObject
 90
      499
 91
      503
 93
      241
310
90C312F3222203D2031272D3022000000000000380FC000000000000284000
  0
ACAD_PROXY_OBJECT
  5
63
102
{ACAD_REACTORS
330
47
102
}
330
47
100
AcDbZombieObject
 90
      499
 91
      503
 93
      241
310
90C332F3422203D2031272D30220000000000003A0FC000000000000284000
  0
ACAD_PROXY_OBJECT
  5
64
102
{ACAD_REACTORS
330
47
102
}
330
47
100
AcDbZombieObject
 90
      499
 91
      503
 93
      161
310
90A3122203D2031272D30224000000000000284000
  0
ACAD_PROXY_OBJECT
  5
65
102
{ACAD_REACTORS
330
47
102
}
330
47
100
AcDbZombieObject
 90
      499
 91
      503
 93
      257
310
90E312D312F3222203D2031272D30220000000000003E0FC000000000000284000
  0
ACAD_PROXY_OBJECT
  5
66
102
{ACAD_REACTORS
330
47
102
}
330
47
100
AcDbZombieObject
 90
      499
 91
      503
 93
      225
310
90A3322203D2031272D302200000000000002100000000000000284000
  0
ACAD_PROXY_OBJECT
  5
67
102
{ACAD_REACTORS
330
47
102
}
330
47
100
AcDbZombieObject
 90
      499
 91
      503
 93
      225
310
90A3622203D2031272D302200000000000006100000000000000284000
  0
ACAD_PROXY_OBJECT
  5
68
102
{ACAD_REACTORS
330
47
102
}
330
47
100
AcDbZombieObject
 90
      499
 91
      503
 93
      249
310
90D31272D3022203D2031272D30220000000000000A100000000000000284000
  0
ACAD_PROXY_OBJECT
  5
2F
102
{ACAD_REACTORS
330
2A
102
}
330
2A
100
AcDbZombieObject
 90
      499
 91
      501
 93
      436
310
42CC9915DA5C99599C985B595049028333333333333E33F0000000000000F90107901411070040501600405405064090741402480A0340
1001
ACAD
1000
AcDbSavedByObjectVersion
1070
     0
  0
ACAD_PROXY_OBJECT
  5
32
102
{ACAD_REACTORS
330
2A
102
}
330
2A
100
AcDbZombieObject
 90
      499
 91
      501
 93
      388
310
4150985CDA58D07406404333333333333E33F0000000000000F90107A41107004050150841D405064090741402480A0350
1001
ACAD
1000
AcDbSavedByObjectVersion
1070
     0
  0
ACAD_PROXY_OBJECT
  5
36
102
{ACAD_REACTORS
330
2A
102
}
330
2A
100
AcDbZombieObject
 90
      499
 91
      501
 93
      428
310
42109C9A59DA1D195B90C409028333333333333E33F0000000000000F9010790141107004050150841D405064090741402480A029950
1001
ACAD
1000
AcDbSavedByObjectVersion
1070
     0
  0
ACAD_PROXY_OBJECT
  5
3A
102
{ACAD_REACTORS
330
2A
102
}
330
2A
100
AcDbZombieObject
 90
      499
 91
      501
 93
      452
310
42D0DBDB1BDC90DA185B99D95104090240C333333333333E33F0000000000000F90108901411070040501508421405064090741402480A0350
1001
ACAD
1000
AcDbSavedByObjectVersion
1070
     0
  0
ACAD_PROXY_OBJECT
  5
34
102
{ACAD_REACTORS
330
2A
102
}
330
2A
100
AcDbZombieObject
 90
      499
 91
      501
 93
      500
310
4290DBDB98D95C1D1D585B10940D028333333333333E33F0000000000000F90107902409070040501000000000018199010841D405064090740C02480A0340
1001
ACAD
1000
AcDbSavedByObjectVersion
1070
     0
  0
ACAD_PROXY_OBJECT
  5
35
102
{ACAD_REACTORS
330
2A
102
}
330
2A
100
AcDbZombieObject
 90
      499
 91
      501
 93
      412
310
40D11A5B50B409028333333333333E33F0000000000000F9010790141107004050150841D405064090741402480A02677FFFFFD0
1001
ACAD
1000
AcDbSavedByObjectVersion
1070
     0
  0
ACAD_PROXY_OBJECT
  5
3D
102
{ACAD_REACTORS
330
2A
102
}
330
2A
100
AcDbZombieObject
 90
      499
 91
      501
 93
      452
310
43115919D950DBDB1BDC93D999916409028333333333333E33F0000000000000F9010790141107004050150841D405064090741402480A0350
1001
ACAD
1000
AcDbSavedByObjectVersion
1070
     0
  0
ACAD_PROXY_OBJECT
  5
39
102
{ACAD_REACTORS
330
2A
102
}
330
2A
100
AcDbZombieObject
 90
      499
 91
      501
 93
      444
310
42D19858D95C185D1D195C9B90F409028333333333333E33F0000000000000F9010790141107004050150841D405064090741402480A0350
1001
ACAD
1000
AcDbSavedByObjectVersion
1070
     0
  0
ACAD_PROXY_OBJECT
  5
2B
102
{ACAD_REACTORS
330
2A
102
}
330
2A
100
AcDbZombieObject
 90
      499
 91
      501
 93
      380
310
41119B185D240901404333333333333E33F0000000000000F9010740A907004050150841D405064090741402480A1B50
1001
ACAD
1000
AcDbSavedByObjectVersion
1070
     0
  0
ACAD_PROXY_OBJECT
  5
2C
102
{ACAD_REACTORS
330
2A
102
}
330
2A
100
AcDbZombieObject
 90
      499
 91
      501
 93
      468
310
43519B185D15DA5D1A115919D95CD0140901404333333333333E33F0000000000000F90107409019070040501600405405064090741402480A1B50
1001
ACAD
1000
AcDbSavedByObjectVersion
1070
     0
  0
ACAD_PROXY_OBJECT
  5
2D
102
{ACAD_REACTORS
330
2A
102
}
330
2A
100
AcDbZombieObject
 90
      499
 91
      501
 93
      404
310
41D1DBDD5C985D5910240902404333333333333E33F0000000000000F9010740A9070040501641D405064090741402480A1B50
1001
ACAD
1000
AcDbSavedByObjectVersion
1070
     0
  0
ACAD_PROXY_OBJECT
  5
2E
102
{ACAD_REACTORS
330
2A
102
}
330
2A
100
AcDbZombieObject
 90
      499
 91
      501
 93
      492
310
4411DBDD5C985D5915DA5D1A115919D95CD0340902404333333333333E33F0000000000000F90107409019070040501600405405064090741402480A1B50
1001
ACAD
1000
AcDbSavedByObjectVersion
1070
     0
  0
ACAD_PROXY_OBJECT
  5
31
102
{ACAD_REACTORS
330
2A
102
}
330
2A
100
AcDbZombieObject
 90
      499
 91
      501
 93
      476
310
41921A5919195B90640502408333333333333E33F0000000000000F901079024090700405020000000000001110200405405064090740C02480A0340
1001
ACAD
1000
AcDbSavedByObjectVersion
1070
     0
  0
ACAD_PROXY_OBJECT
  5
3B
102
{ACAD_REACTORS
330
2A
102
}
330
2A
100
AcDbZombieObject
 90
      499
 91
      501
 93
      428
310
42529A5D1D195C93D999914409028333333333333E33F0000000000000F9010790141107004050150A41D405064090741402480A0350
1001
ACAD
1000
AcDbSavedByObjectVersion
1070
     0
  0
ACAD_PROXY_OBJECT
  5
38
102
{ACAD_REACTORS
330
2A
102
}
330
2A
100
AcDbZombieObject
 90
      499
 91
      501
 93
      444
310
42D31A5B995C185D1D195C9B90E409028333333333333E33F0000000000000F9010790141107004050750841D405064090741402483A0350
1001
ACAD
1000
AcDbSavedByObjectVersion
1070
     0
  0
ACAD_PROXY_OBJECT
  5
3C
102
{ACAD_REACTORS
330
2A
102
}
330
2A
100
AcDbZombieObject
 90
      499
 91
      501
 93
      444
310
42D3DD995C9A185B99D3D999915409028333333333333E33F0000000000000F9010790141107004050150941D405064090741402480A0350
1001
ACAD
1000
AcDbSavedByObjectVersion
1070
     0
  0
ACAD_PROXY_OBJECT
  5
33
102
{ACAD_REACTORS
330
2A
102
}
330
2A
100
AcDbZombieObject
 90
      499
 91
      501
 93
      428
310
425499585B1A5CDD1A58D08409038333333333333E33F0000000000000F9010740A907004050150800405405064090740C02480A1B40
1001
ACAD
1000
AcDbSavedByObjectVersion
1070
     0
  0
ACAD_PROXY_OBJECT
  5
42
102
{ACAD_REACTORS
330
2A
102
}
330
2A
100
AcDbZombieObject
 90
      499
 91
      501
 93
      420
310
4194DA1859195911B40902404333333333333E33F0000000000000F9010740A41107004050150800405405064090840C02480A0B40
1001
ACAD
1000
AcDbSavedByObjectVersion
1070
     0
  0
ACAD_PROXY_OBJECT
  5
41
102
{ACAD_REACTORS
330
2A
102
}
330
2A
100
AcDbZombieObject
 90
      499
 91
      501
 93
      516
310
4454DA18591959081DDA5D1A08195919D95CD1A40902404333333333333E33F0000000000000F901074090142907004050250800405405064090740C02480A0B40
1001
ACAD
1000
AcDbSavedByObjectVersion
1070
     0
  0
ACAD_PROXY_OBJECT
  5
3E
102
{ACAD_REACTORS
330
2A
102
}
330
2A
100
AcDbZombieObject
 90
      499
 91
      501
 93
      532
310
4394DA1859195CC81BD98811DC985E5174090240C333333333333E33F0000000000000F901079024090741D01000000000000111010841D405064090740C02480A0340
1001
ACAD
1000
AcDbSavedByObjectVersion
1070
     0
  0
ACAD_PROXY_OBJECT
  5
3F
102
{ACAD_REACTORS
330
2A
102
}
330
2A
100
AcDbZombieObject
 90
      499
 91
      501
 93
      476
310
41D4DAD95D18DA1E51840502408333333333333E33F0000000000000F901079024090741D01000000000000111010B41D405064090741802480A0340
1001
ACAD
1000
AcDbSavedByObjectVersion
1070
     0
  0
ACAD_PROXY_OBJECT
  5
37
102
{ACAD_REACTORS
330
2A
102
}
330
2A
100
AcDbZombieObject
 90
      499
 91
      501
 93
      412
310
41D51A1A58DAD95B90D409028333333333333E33F0000000000000F9010790141107004050150C41D405064090741402480A0350
1001
ACAD
1000
AcDbSavedByObjectVersion
1070
     0
  0
ACAD_PROXY_OBJECT
  5
30
102
{ACAD_REACTORS
330
2A
102
}
330
2A
100
AcDbZombieObject
 90
      499
 91
      501
 93
      420
310
4255DA5C99599C985B595059028333333333333E33F0000000000000F90107901411070040501600405405064090740C02480A0340
1001
ACAD
1000
AcDbSavedByObjectVersion
1070
     0
  0
ACAD_PROXY_OBJECT
  5
40
102
{ACAD_REACTORS
330
2A
102
}
330
2A
100
AcDbZombieObject
 90
      499
 91
      501
 93
      404
310
41560B54985E51940902404000000000000E03F0000000000000F9010740501907004050150841D405064090740C02480A1B40
1001
ACAD
1000
AcDbSavedByObjectVersion
1070
     0
  0
DICTIONARYVAR
  5
273
102
{ACAD_REACTORS
330
268
102
}
330
268
100
DictionaryVariables
280
     0
  1
1:1
  0
DICTIONARYVAR
  5
26F
102
{ACAD_REACTORS
330
268
102
}
330
268
100
DictionaryVariables
280
     0
  1
3.500000
  0
DICTIONARYVAR
  5
270
102
{ACAD_REACTORS
330
268
102
}
330
268
100
DictionaryVariables
280
     0
  1
acadiso.lin
  0
DICTIONARYVAR
  5
26A
102
{ACAD_REACTORS
330
268
102
}
330
268
100
DictionaryVariables
280
     0
  1
Standard
  0
DICTIONARYVAR
  5
269
102
{ACAD_REACTORS
330
268
102
}
330
268
100
DictionaryVariables
280
     0
  1
Standard
  0
DICTIONARYVAR
  5
271
102
{ACAD_REACTORS
330
268
102
}
330
268
100
DictionaryVariables
280
     0
  1
2
  0
DICTIONARYVAR
  5
272
102
{ACAD_REACTORS
330
268
102
}
330
268
100
DictionaryVariables
280
     0
  1
1
  0
DICTIONARYVAR
  5
274
102
{ACAD_REACTORS
330
268
102
}
330
268
100
DictionaryVariables
280
     0
  1
1
  0
DICTIONARYVAR
  5
26C
102
{ACAD_REACTORS
330
268
102
}
330
268
100
DictionaryVariables
280
     0
  1
80.000000
  0
DICTIONARYVAR
  5
26B
102
{ACAD_REACTORS
330
268
102
}
330
268
100
DictionaryVariables
280
     0
  1
5.000000
  0
DICTIONARY
  5
277
330
45
100
AcDbDictionary
  3
ACAD_XREC_ROUNDTRIP
360
278
1001
ACAD
1000
TREAT_AS_HARD
1070
     1
  0
DICTIONARY
  5
275
330
44
100
AcDbDictionary
  3
ACAD_XREC_ROUNDTRIP
360
276
1001
ACAD
1000
TREAT_AS_HARD
1070
     1
  0
DICTIONARY
  5
279
330
46
100
AcDbDictionary
  3
ACAD_XREC_ROUNDTRIP
360
27A
1001
ACAD
1000
TREAT_AS_HARD
1070
     1
  0
XRECORD
  5
278
102
{ACAD_REACTORS
330
277
102
}
330
277
100
AcDbXrecord
102
MATERIAL
148
0.0
149
0.0
149
0.0
 93
        0
 94
      127
282
     0
 72
     1
 77
     1
171
     1
175
     1
179
     1
273
     0
  0
XRECORD
  5
276
102
{ACAD_REACTORS
330
275
102
}
330
275
100
AcDbXrecord
102
MATERIAL
148
0.0
149
0.0
149
0.0
 93
        0
 94
      127
282
     0
 72
     1
 77
     1
171
     1
175
     1
179
     1
273
     0
  0
XRECORD
  5
27A
102
{ACAD_REACTORS
330
279
102
}
330
279
100
AcDbXrecord
102
MATERIAL
148
0.0
149
0.0
149
0.0
 93
        0
 94
      127
282
     0
 72
     1
 77
     1
171
     1
175
     1
179
     1
273
     0
  0
ENDSEC
  0
EOF
