  0
SECTION
  2
HEADER
  9
$ACADVER
  1
AC1012
  9
$DWGCODEPAGE
  3
ansi_1252
  9
$INSBASE
 10
0.0
 20
0.0
 30
0.0
  9
$EXTMIN
 10
1.000000000000000E+20
 20
1.000000000000000E+20
 30
1.000000000000000E+20
  9
$EXTMAX
 10
-1.000000000000000E+20
 20
-1.000000000000000E+20
 30
-1.000000000000000E+20
  9
$LIMMIN
 10
0.0
 20
0.0
  9
$LIMMAX
 10
420.0
 20
297.0
  9
$ORTHOMODE
 70
     0
  9
$REGENMODE
 70
     1
  9
$FILLMODE
 70
     1
  9
$QTEXTMODE
 70
     0
  9
$MIRRTEXT
 70
     1
  9
$DRAGMODE
 70
     2
  9
$LTSCALE
 40
1.0
  9
$OSMODE
 70
    37
  9
$ATTMODE
 70
     1
  9
$TEXTSIZE
 40
2.5
  9
$TRACEWID
 40
1.0
  9
$TEXTSTYLE
  7
STANDARD
  9
$CLAYER
  8
0
  9
$CELTYPE
  6
BYLAYER
  9
$CECOLOR
 62
   256
  9
$CELTSCALE
 40
1.0
  9
$DELOBJ
 70
     1
  9
$DISPSILH
 70
     0
  9
$DIMSCALE
 40
1.0
  9
$DIMASZ
 40
2.5
  9
$DIMEXO
 40
0.625
  9
$DIMDLI
 40
3.75
  9
$DIMRND
 40
0.0
  9
$DIMDLE
 40
0.0
  9
$DIMEXE
 40
1.25
  9
$DIMTP
 40
0.0
  9
$DIMTM
 40
0.0
  9
$DIMTXT
 40
2.5
  9
$DIMCEN
 40
2.5
  9
$DIMTSZ
 40
0.0
  9
$DIMTOL
 70
     0
  9
$DIMLIM
 70
     0
  9
$DIMTIH
 70
     0
  9
$DIMTOH
 70
     0
  9
$DIMSE1
 70
     0
  9
$DIMSE2
 70
     0
  9
$DIMTAD
 70
     1
  9
$DIMZIN
 70
     8
  9
$DIMBLK
  1

  9
$DIMASO
 70
     1
  9
$DIMSHO
 70
     1
  9
$DIMPOST
  1

  9
$DIMAPOST
  1

  9
$DIMALT
 70
     0
  9
$DIMALTD
 70
     3
  9
$DIMALTF
 40
0.03937007874016
  9
$DIMLFAC
 40
1.0
  9
$DIMTOFL
 70
     1
  9
$DIMTVP
 40
0.0
  9
$DIMTIX
 70
     0
  9
$DIMSOXD
 70
     0
  9
$DIMSAH
 70
     0
  9
$DIMBLK1
  1

  9
$DIMBLK2
  1

  9
$DIMSTYLE
  2
ISO-25
  9
$DIMCLRD
 70
     0
  9
$DIMCLRE
 70
     0
  9
$DIMCLRT
 70
     0
  9
$DIMTFAC
 40
1.0
  9
$DIMGAP
 40
0.625
  9
$DIMJUST
 70
     0
  9
$DIMSD1
 70
     0
  9
$DIMSD2
 70
     0
  9
$DIMTOLJ
 70
     0
  9
$DIMTZIN
 70
     8
  9
$DIMALTZ
 70
     0
  9
$DIMALTTZ
 70
     0
  9
$DIMFIT
 70
     3
  9
$DIMUPT
 70
     0
  9
$DIMUNIT
 70
     2
  9
$DIMDEC
 70
     2
  9
$DIMTDEC
 70
     2
  9
$DIMALTU
 70
     2
  9
$DIMALTTD
 70
     3
  9
$DIMTXSTY
  7
STANDARD
  9
$DIMAUNIT
 70
     0
  9
$LUNITS
 70
     2
  9
$LUPREC
 70
     4
  9
$SKETCHINC
 40
1.0
  9
$FILLETRAD
 40
10.0
  9
$AUNITS
 70
     0
  9
$AUPREC
 70
     0
  9
$MENU
  1
.
  9
$ELEVATION
 40
0.0
  9
$PELEVATION
 40
0.0
  9
$THICKNESS
 40
0.0
  9
$LIMCHECK
 70
     0
  9
$CHAMFERA
 40
0.0
  9
$CHAMFERB
 40
0.0
  9
$CHAMFERC
 40
0.0
  9
$CHAMFERD
 40
0.0
  9
$SKPOLY
 70
     0
  9
$TDCREATE
 40
2457980.600892373
  9
$TDUPDATE
 40
2457980.600895081
  9
$TDINDWG
 40
0.0000000116
  9
$TDUSRTIMER
 40
0.0000000116
  9
$USRTIMER
 70
     1
  9
$ANGBASE
 50
0.0
  9
$ANGDIR
 70
     0
  9
$PDMODE
 70
     0
  9
$PDSIZE
 40
0.0
  9
$PLINEWID
 40
0.0
  9
$COORDS
 70
     1
  9
$SPLFRAME
 70
     0
  9
$SPLINETYPE
 70
     6
  9
$SPLINESEGS
 70
     8
  9
$ATTDIA
 70
     0
  9
$ATTREQ
 70
     1
  9
$HANDLING
 70
     1
  9
$HANDSEED
  5
4B1
  9
$SURFTAB1
 70
     6
  9
$SURFTAB2
 70
     6
  9
$SURFTYPE
 70
     6
  9
$SURFU
 70
     6
  9
$SURFV
 70
     6
  9
$UCSNAME
  2

  9
$UCSORG
 10
0.0
 20
0.0
 30
0.0
  9
$UCSXDIR
 10
1.0
 20
0.0
 30
0.0
  9
$UCSYDIR
 10
0.0
 20
1.0
 30
0.0
  9
$PUCSNAME
  2

  9
$PUCSORG
 10
0.0
 20
0.0
 30
0.0
  9
$PUCSXDIR
 10
1.0
 20
0.0
 30
0.0
  9
$PUCSYDIR
 10
0.0
 20
1.0
 30
0.0
  9
$USERI1
 70
     0
  9
$USERI2
 70
     0
  9
$USERI3
 70
     0
  9
$USERI4
 70
     0
  9
$USERI5
 70
     0
  9
$USERR1
 40
0.0
  9
$USERR2
 40
0.0
  9
$USERR3
 40
0.0
  9
$USERR4
 40
0.0
  9
$USERR5
 40
0.0
  9
$WORLDVIEW
 70
     1
  9
$SHADEDGE
 70
     3
  9
$SHADEDIF
 70
    70
  9
$TILEMODE
 70
     1
  9
$MAXACTVP
 70
    64
  9
$PINSBASE
 10
0.0
 20
0.0
 30
0.0
  9
$PLIMCHECK
 70
     0
  9
$PEXTMIN
 10
1.000000000000000E+20
 20
1.000000000000000E+20
 30
1.000000000000000E+20
  9
$PEXTMAX
 10
-1.000000000000000E+20
 20
-1.000000000000000E+20
 30
-1.000000000000000E+20
  9
$PLIMMIN
 10
0.0
 20
0.0
  9
$PLIMMAX
 10
420.0
 20
297.0
  9
$UNITMODE
 70
     0
  9
$VISRETAIN
 70
     1
  9
$PLINEGEN
 70
     0
  9
$PSLTSCALE
 70
     1
  9
$TREEDEPTH
 70
  3020
  9
$PICKSTYLE
 70
     1
  9
$CMLSTYLE
  2
STANDARD
  9
$CMLJUST
 70
     0
  9
$CMLSCALE
 40
20.0
  9
$SAVEIMAGES
 70
     1
  0
ENDSEC
  0
SECTION
  2
CLASSES
  0
CLASS
  1
ACDBDICTIONARYWDFLT
  2
AcDbDictionaryWithDefault
  3
ObjectDBX Classes
 90
    32768
280
     0
281
     0
  0
CLASS
  1
VISUALSTYLE
  2
AcDbVisualStyle
  3
ObjectDBX Classes
 90
     4095
280
     0
281
     0
  0
CLASS
  1
MATERIAL
  2
AcDbMaterial
  3
ObjectDBX Classes
 90
     1153
280
     0
281
     0
  0
CLASS
  1
SCALE
  2
AcDbScale
  3
ObjectDBX Classes
 90
     1153
280
     0
281
     0
  0
CLASS
  1
TABLESTYLE
  2
AcDbTableStyle
  3
ObjectDBX Classes
 90
     4095
280
     0
281
     0
  0
CLASS
  1
MLEADERSTYLE
  2
AcDbMLeaderStyle
  3
ACDB_MLEADERSTYLE_CLASS
 90
     4095
280
     0
281
     0
  0
CLASS
  1
SUN
  2
AcDbSun
  3
SCENEOE
 90
     1153
280
     0
281
     0
  0
CLASS
  1
DICTIONARYVAR
  2
AcDbDictionaryVar
  3
ObjectDBX Classes
 90
        0
280
     0
281
     0
  0
CLASS
  1
XRECORD
  2
AcDbXrecord
  3
ObjectDBX Classes
 90
    32768
280
     0
281
     0
  0
CLASS
  1
LWPOLYLINE
  2
AcDbPolyline
  3
ObjectDBX Classes
 90
    32768
280
     0
281
     1
  0
CLASS
  1
HATCH
  2
AcDbHatch
  3
ObjectDBX Classes
 90
    32768
280
     0
281
     1
  0
CLASS
  1
ACDBPLACEHOLDER
  2
AcDbPlaceHolder
  3
ObjectDBX Classes
 90
        0
280
     0
281
     0
  0
CLASS
  1
LAYOUT
  2
AcDbLayout
  3
ObjectDBX Classes
 90
        0
280
     0
281
     0
  0
ENDSEC
  0
SECTION
  2
TABLES
  0
TABLE
  2
VPORT
  5
8
330
0
100
AcDbSymbolTable
 70
     1
  0
VPORT
  5
29
330
8
100
AcDbSymbolTableRecord
100
AcDbViewportTableRecord
  2
*ACTIVE
 70
     0
 10
0.0
 20
0.0
 11
1.0
 21
1.0
 12
0.0
 22
0.0
 13
0.0
 23
0.0
 14
10.0
 24
10.0
 15
10.0
 25
10.0
 16
0.0
 26
0.0
 36
1.0
 17
0.0
 27
0.0
 37
0.0
 40
434.52
 41
1.0
 42
50.0
 43
0.0
 44
0.0
 50
0.0
 51
0.0
 71
     0
 72
   100
 73
     1
 74
     3
 75
     0
 76
     0
 77
     0
 78
     0
  0
ENDTAB
  0
TABLE
  2
LTYPE
  5
5
330
0
100
AcDbSymbolTable
 70
     1
  0
LTYPE
  5
14
330
5
100
AcDbSymbolTableRecord
100
AcDbLinetypeTableRecord
  2
BYBLOCK
 70
     0
  3

 72
    65
 73
     0
 40
0.0
  0
LTYPE
  5
15
330
5
100
AcDbSymbolTableRecord
100
AcDbLinetypeTableRecord
  2
BYLAYER
 70
     0
  3

 72
    65
 73
     0
 40
0.0
  0
LTYPE
  5
16
330
5
100
AcDbSymbolTableRecord
100
AcDbLinetypeTableRecord
  2
CONTINUOUS
 70
     0
  3
Solid line
 72
    65
 73
     0
 40
0.0
  0
ENDTAB
  0
TABLE
  2
LAYER
  5
2
330
0
100
AcDbSymbolTable
 70
     4
  0
LAYER
  5
10
330
2
100
AcDbSymbolTableRecord
100
AcDbLayerTableRecord
  2
0
 70
     0
 62
     7
  6
CONTINUOUS
  0
LAYER
  5
6E
330
2
100
AcDbSymbolTableRecord
100
AcDbLayerTableRecord
  2
THICK
 70
     0
 62
     7
  6
CONTINUOUS
  0
LAYER
  5
6F
330
2
100
AcDbSymbolTableRecord
100
AcDbLayerTableRecord
  2
HIDDEN
 70
     0
 62
     7
  6
CONTINUOUS
  0
LAYER
  5
70
330
2
100
AcDbSymbolTableRecord
100
AcDbLayerTableRecord
  2
HASHLINES
 70
     0
 62
     7
  6
CONTINUOUS
  0
ENDTAB
  0
TABLE
  2
STYLE
  5
3
330
0
100
AcDbSymbolTable
 70
     1
  0
STYLE
  5
11
330
3
100
AcDbSymbolTableRecord
100
AcDbTextStyleTableRecord
  2
STANDARD
 70
     0
 40
0.0
 41
1.0
 50
0.0
 71
     0
 42
2.5
  3
txt
  4

  0
ENDTAB
  0
TABLE
  2
VIEW
  5
6
330
0
100
AcDbSymbolTable
 70
     0
  0
ENDTAB
  0
TABLE
  2
UCS
  5
7
330
0
100
AcDbSymbolTable
 70
     0
  0
ENDTAB
  0
TABLE
  2
APPID
  5
9
330
0
100
AcDbSymbolTable
 70
     3
  0
APPID
  5
12
330
9
100
AcDbSymbolTableRecord
100
AcDbRegAppTableRecord
  2
ACAD
 70
     0
  0
APPID
  5
71
330
9
100
AcDbSymbolTableRecord
100
AcDbRegAppTableRecord
  2
DBPROPERTIES
 70
     0
  0
APPID
  5
4B0
330
9
100
AcDbSymbolTableRecord
100
AcDbRegAppTableRecord
  2
ACAD_MLEADERVER
 70
     0
  0
ENDTAB
  0
TABLE
  2
DIMSTYLE
  5
A
330
0
100
AcDbSymbolTable
 70
     1
  0
DIMSTYLE
105
27
330
A
100
AcDbSymbolTableRecord
100
AcDbDimStyleTableRecord
  2
ISO-25
 70
     0
  3

  4

  5

  6

  7

 40
1.0
 41
2.5
 42
0.625
 43
3.75
 44
1.25
 45
0.0
 46
0.0
 47
0.0
 48
0.0
140
2.5
141
2.5
142
0.0
143
0.03937007874016
144
1.0
145
0.0
146
1.0
147
0.625
 71
     0
 72
     0
 73
     0
 74
     0
 75
     0
 76
     0
 77
     1
 78
     8
170
     0
171
     3
172
     1
173
     0
174
     0
175
     0
176
     0
177
     0
178
     0
270
     2
271
     2
272
     2
273
     2
274
     3
340
11
275
     0
280
     0
281
     0
282
     0
283
     0
284
     8
285
     0
286
     0
287
     3
288
     0
  0
ENDTAB
  0
TABLE
  2
BLOCK_RECORD
  5
1
330
0
100
AcDbSymbolTable
 70
     0
  0
BLOCK_RECORD
  5
1F
330
1
100
AcDbSymbolTableRecord
100
AcDbBlockTableRecord
  2
*MODEL_SPACE
  0
BLOCK_RECORD
  5
1B
330
1
100
AcDbSymbolTableRecord
100
AcDbBlockTableRecord
  2
*PAPER_SPACE
  0
ENDTAB
  0
ENDSEC
  0
SECTION
  2
BLOCKS
  0
BLOCK
  5
20
330
1F
100
AcDbEntity
  8
0
100
AcDbBlockBegin
  2
*MODEL_SPACE
 70
     0
 10
0.0
 20
0.0
 30
0.0
  3
*MODEL_SPACE
  1

  0
ENDBLK
  5
21
330
1F
100
AcDbEntity
  8
0
100
AcDbBlockEnd
  0
BLOCK
  5
1C
330
1B
100
AcDbEntity
 67
     1
  8
0
100
AcDbBlockBegin
  2
*PAPER_SPACE
 70
     0
 10
0.0
 20
0.0
 30
0.0
  3
*PAPER_SPACE
  1

  0
ENDBLK
  5
1D
330
1B
100
AcDbEntity
 67
     1
  8
0
100
AcDbBlockEnd
  0
ENDSEC
  0
SECTION
  2
ENTITIES
  0
ARC
  5
72
330
1F
100
AcDbEntity
  8
THICK
100
AcDbCircle
 10
0.0
 20
0.0
 30
0.0
 40
177.5
100
AcDbArc
 50
89.99998127603165
 51
270.0000187239684
1001
DBPROPERTIES
1002
{
1000
PbThick
1002
}
  0
ARC
  5
73
330
1F
100
AcDbEntity
  8
THICK
100
AcDbCircle
 10
0.0000000000000007
 20
0.0
 30
0.0
 40
59.16666666666666
100
AcDbArc
 50
0.0
 51
89.99998127603165
1001
DBPROPERTIES
1002
{
1000
PbThick
1002
}
  0
ARC
  5
74
330
1F
100
AcDbEntity
  8
THICK
100
AcDbCircle
 10
0.0000000000000007
 20
0.0
 30
0.0
 40
59.16666666666666
100
AcDbArc
 50
270.0000187239684
 51
0.0
1001
DBPROPERTIES
1002
{
1000
PbThick
1002
}
  0
ARC
  5
75
330
1F
100
AcDbEntity
  8
THICK
100
AcDbCircle
 10
0.0
 20
0.0
 30
0.0
 40
48.16666666666666
100
AcDbArc
 50
0.0
 51
89.99998127603165
1001
DBPROPERTIES
1002
{
1000
PbThick
1002
}
  0
ARC
  5
76
330
1F
100
AcDbEntity
  8
THICK
100
AcDbCircle
 10
0.0000000000000007
 20
0.0
 30
0.0
 40
59.16666666666666
100
AcDbArc
 50
89.99998127603165
 51
180.0000198478428
1001
DBPROPERTIES
1002
{
1000
PbThick
1002
}
  0
ARC
  5
77
330
1F
100
AcDbEntity
  8
THICK
100
AcDbCircle
 10
0.0
 20
0.0
 30
0.0
 40
48.16666666666666
100
AcDbArc
 50
89.99998127603165
 51
180.0000198478428
1001
DBPROPERTIES
1002
{
1000
PbThick
1002
}
  0
ARC
  5
78
330
1F
100
AcDbEntity
  8
HIDDEN
100
AcDbCircle
 10
0.0
 20
0.0
 30
0.0
 40
58.19672131147541
100
AcDbArc
 50
89.99998127603165
 51
270.0000187239684
1001
DBPROPERTIES
1002
{
1000
PbHidd
1002
}
  0
ARC
  5
79
330
1F
100
AcDbEntity
  8
HIDDEN
100
AcDbCircle
 10
0.0
 20
0.0000000000000187
 30
0.0
 40
60.0
100
AcDbArc
 50
180.0000198478428
 51
182.9999871674622
1001
DBPROPERTIES
1002
{
1000
PbHidd
1002
}
  0
ARC
  5
7A
330
1F
100
AcDbEntity
  8
HIDDEN
100
AcDbCircle
 10
0.0
 20
0.0000000000000187
 30
0.0
 40
60.0
100
AcDbArc
 50
356.999992984695
 51
0.0
1001
DBPROPERTIES
1002
{
1000
PbHidd
1002
}
  0
ARC
  5
7B
330
1F
100
AcDbEntity
  8
HIDDEN
100
AcDbCircle
 10
0.0
 20
0.0000000000000139
 30
0.0
 40
71.0
100
AcDbArc
 50
81.0000175258962
 51
89.99998127603165
1001
DBPROPERTIES
1002
{
1000
PbHidd
1002
}
  0
LINE
  5
7C
330
1F
100
AcDbEntity
  8
HIDDEN
100
AcDbLine
 10
11.10684701785646
 20
70.12587218225477
 30
0.0
 11
11.10684701785646
 21
70.12587218225477
 31
0.0
1001
DBPROPERTIES
1002
{
1000
PbHidd
1002
}
  0
ARC
  5
7D
330
1F
100
AcDbEntity
  8
HIDDEN
100
AcDbCircle
 10
0.0
 20
0.0000000000000104
 30
0.0
 40
72.44897959183673
100
AcDbArc
 50
270.0000187239684
 51
299.6394119449834
1001
DBPROPERTIES
1002
{
1000
PbHidd
1002
}
  0
ARC
  5
7E
330
1F
100
AcDbEntity
  8
THICK
100
AcDbCircle
 10
0.0
 20
0.0000000000000104
 30
0.0
 40
72.44897959183673
100
AcDbArc
 50
299.6394119449834
 51
316.3315632778682
1001
DBPROPERTIES
1002
{
1000
PbThick
1002
}
  0
ARC
  5
7F
330
1F
100
AcDbEntity
  8
HIDDEN
100
AcDbCircle
 10
0.0
 20
0.0000000000000104
 30
0.0
 40
72.44897959183673
100
AcDbArc
 50
316.3315632778682
 51
351.0679890443671
1001
DBPROPERTIES
1002
{
1000
PbHidd
1002
}
  0
ARC
  5
80
330
1F
100
AcDbEntity
  8
THICK
100
AcDbCircle
 10
0.0
 20
0.0000000000000104
 30
0.0
 40
72.44897959183673
100
AcDbArc
 50
351.0679890443671
 51
7.76014037725187
1001
DBPROPERTIES
1002
{
1000
PbThick
1002
}
  0
ARC
  5
81
330
1F
100
AcDbEntity
  8
HIDDEN
100
AcDbCircle
 10
0.0
 20
0.0000000000000104
 30
0.0
 40
72.44897959183673
100
AcDbArc
 50
7.76014037725187
 51
42.49656614375072
1001
DBPROPERTIES
1002
{
1000
PbHidd
1002
}
  0
ARC
  5
82
330
1F
100
AcDbEntity
  8
THICK
100
AcDbCircle
 10
0.0
 20
0.0000000000000104
 30
0.0
 40
72.44897959183673
100
AcDbArc
 50
42.49656614375072
 51
59.18871747663554
1001
DBPROPERTIES
1002
{
1000
PbThick
1002
}
  0
ARC
  5
83
330
1F
100
AcDbEntity
  8
HIDDEN
100
AcDbCircle
 10
0.0
 20
0.0000000000000104
 30
0.0
 40
72.44897959183673
100
AcDbArc
 50
59.18871747663554
 51
89.99998127603165
1001
DBPROPERTIES
1002
{
1000
PbHidd
1002
}
  0
LINE
  5
84
330
1F
100
AcDbEntity
  8
HIDDEN
100
AcDbLine
 10
5.581050586866039
 20
-72.2336937879077
 30
0.0
 11
5.581050586866039
 21
-72.2336937879077
 31
0.0
1001
DBPROPERTIES
1002
{
1000
PbHidd
1002
}
  0
LINE
  5
85
330
1F
100
AcDbEntity
  8
HIDDEN
100
AcDbLine
 10
9.559138168339135
 20
-71.81557993483709
 30
0.0
 11
9.559138168339135
 21
-71.81557993483709
 31
0.0
1001
DBPROPERTIES
1002
{
1000
PbHidd
1002
}
  0
LINE
  5
86
330
1F
100
AcDbEntity
  8
HIDDEN
100
AcDbLine
 10
72.23369378790773
 20
5.581050586866038
 30
0.0
 11
72.23369378790773
 21
5.581050586866037
 31
0.0
1001
DBPROPERTIES
1002
{
1000
PbHidd
1002
}
  0
LINE
  5
87
330
1F
100
AcDbEntity
  8
HIDDEN
100
AcDbLine
 10
71.8155799348371
 20
9.559138168339132
 30
0.0
 11
71.8155799348371
 21
9.559138168339132
 31
0.0
1001
DBPROPERTIES
1002
{
1000
PbHidd
1002
}
  0
LINE
  5
88
330
1F
100
AcDbEntity
  8
HIDDEN
100
AcDbLine
 10
71.8155799348371
 20
-9.559138168339155
 30
0.0
 11
71.8155799348371
 21
-9.559138168339155
 31
0.0
1001
DBPROPERTIES
1002
{
1000
PbHidd
1002
}
  0
LINE
  5
89
330
1F
100
AcDbEntity
  8
HIDDEN
100
AcDbLine
 10
72.23369378790771
 20
-5.581050586866064
 30
0.0
 11
72.23369378790771
 21
-5.581050586866063
 31
0.0
1001
DBPROPERTIES
1002
{
1000
PbHidd
1002
}
  0
LINE
  5
8A
330
1F
100
AcDbEntity
  8
HIDDEN
100
AcDbLine
 10
9.55913816833916
 20
71.8155799348371
 30
0.0
 11
9.55913816833916
 21
71.8155799348371
 31
0.0
1001
DBPROPERTIES
1002
{
1000
PbHidd
1002
}
  0
LINE
  5
8B
330
1F
100
AcDbEntity
  8
HIDDEN
100
AcDbLine
 10
5.58105058686607
 20
72.23369378790773
 30
0.0
 11
5.58105058686607
 21
72.23369378790773
 31
0.0
1001
DBPROPERTIES
1002
{
1000
PbHidd
1002
}
  0
ARC
  5
8C
330
1F
100
AcDbEntity
  8
HIDDEN
100
AcDbCircle
 10
0.0
 20
0.0000000000000139
 30
0.0
 40
50.71428571428572
100
AcDbArc
 50
270.0000187239684
 51
273.0000257392733
1001
DBPROPERTIES
1002
{
1000
PbHidd
1002
}
  0
LINE
  5
8D
330
1F
100
AcDbEntity
  8
HIDDEN
100
AcDbLine
 10
2.65418063803498
 20
-50.64478354826766
 30
0.0
 11
2.65418063803498
 21
-50.64478354826766
 31
0.0
1001
DBPROPERTIES
1002
{
1000
PbHidd
1002
}
  0
ARC
  5
8E
330
1F
100
AcDbEntity
  8
THICK
100
AcDbCircle
 10
0.0
 20
0.0000000000000018
 30
0.0
 40
98.04841369482492
100
AcDbArc
 50
346.6044186371799
 51
0.0
1001
DBPROPERTIES
1002
{
1000
PbThick
1002
}
  0
ARC
  5
8F
330
1F
100
AcDbEntity
  8
HIDDEN
100
AcDbCircle
 10
0.0
 20
0.0000000000000018
 30
0.0
 40
98.04841369482492
100
AcDbArc
 50
321.119714275997
 51
346.6044186371799
1001
DBPROPERTIES
1002
{
1000
PbHidd
1002
}
  0
ARC
  5
90
330
1F
100
AcDbEntity
  8
THICK
100
AcDbCircle
 10
0.0
 20
0.0000000000000018
 30
0.0
 40
98.04841369482492
100
AcDbArc
 50
295.1758415377963
 51
321.119714275997
1001
DBPROPERTIES
1002
{
1000
PbThick
1002
}
  0
ARC
  5
91
330
1F
100
AcDbEntity
  8
HIDDEN
100
AcDbCircle
 10
0.0
 20
0.0000000000000018
 30
0.0
 40
98.04841369482492
100
AcDbArc
 50
269.6911371766133
 51
295.1758415377963
1001
DBPROPERTIES
1002
{
1000
PbHidd
1002
}
  0
ARC
  5
92
330
1F
100
AcDbEntity
  8
THICK
100
AcDbCircle
 10
0.0
 20
0.0000000000000018
 30
0.0
 40
98.04841369482492
100
AcDbArc
 50
243.7472644384126
 51
269.6911371766133
1001
DBPROPERTIES
1002
{
1000
PbThick
1002
}
  0
ARC
  5
93
330
1F
100
AcDbEntity
  8
HIDDEN
100
AcDbCircle
 10
0.0
 20
0.0000000000000018
 30
0.0
 40
98.04841369482492
100
AcDbArc
 50
218.2625600772297
 51
243.7472644384126
1001
DBPROPERTIES
1002
{
1000
PbHidd
1002
}
  0
ARC
  5
94
330
1F
100
AcDbEntity
  8
THICK
100
AcDbCircle
 10
0.0
 20
0.0000000000000018
 30
0.0
 40
98.04841369482492
100
AcDbArc
 50
192.3186873390289
 51
218.2625600772297
1001
DBPROPERTIES
1002
{
1000
PbThick
1002
}
  0
ARC
  5
95
330
1F
100
AcDbEntity
  8
HIDDEN
100
AcDbCircle
 10
0.0
 20
0.0000000000000018
 30
0.0
 40
98.04841369482492
100
AcDbArc
 50
179.9999801521572
 51
192.3186873390289
1001
DBPROPERTIES
1002
{
1000
PbHidd
1002
}
  0
ARC
  5
96
330
1F
100
AcDbEntity
  8
HIDDEN
100
AcDbCircle
 10
0.0
 20
0.000000000000002
 30
0.0
 40
99.74841369482492
100
AcDbArc
 50
180.0000198478428
 51
184.8510992119708
1001
DBPROPERTIES
1002
{
1000
PbHidd
1002
}
  0
ARC
  5
97
330
1F
100
AcDbEntity
  8
HIDDEN
100
AcDbCircle
 10
0.0
 20
0.000000000000002
 30
0.0
 40
99.74841369482489
100
AcDbArc
 50
184.8510992119708
 51
187.1488891535635
1001
DBPROPERTIES
1002
{
1000
PbHidd
1002
}
  0
ARC
  5
98
330
1F
100
AcDbEntity
  8
THICK
100
AcDbCircle
 10
0.0
 20
0.000000000000002
 30
0.0
 40
99.74841369482492
100
AcDbArc
 50
243.534124138624
 51
262.8511097225621
1001
DBPROPERTIES
1002
{
1000
PbThick
1002
}
  0
ARC
  5
99
330
1F
100
AcDbEntity
  8
HIDDEN
100
AcDbCircle
 10
0.0
 20
0.000000000000002
 30
0.0
 40
99.74841369482492
100
AcDbArc
 50
218.4908837585893
 51
243.534124138624
1001
DBPROPERTIES
1002
{
1000
PbHidd
1002
}
  0
ARC
  5
9A
330
1F
100
AcDbEntity
  8
THICK
100
AcDbCircle
 10
0.0
 20
0.000000000000002
 30
0.0
 40
99.74841369482492
100
AcDbArc
 50
192.1055470392402
 51
218.4908837585893
1001
DBPROPERTIES
1002
{
1000
PbThick
1002
}
  0
ARC
  5
9B
330
1F
100
AcDbEntity
  8
HIDDEN
100
AcDbCircle
 10
0.0
 20
0.000000000000002
 30
0.0
 40
99.74841369482492
100
AcDbArc
 50
187.1488891535635
 51
192.1055470392402
1001
DBPROPERTIES
1002
{
1000
PbHidd
1002
}
  0
ARC
  5
9C
330
1F
100
AcDbEntity
  8
THICK
100
AcDbCircle
 10
0.0
 20
0.000000000000002
 30
0.0
 40
99.74841369482489
100
AcDbArc
 50
262.8511097225621
 51
265.1488996641547
1001
DBPROPERTIES
1002
{
1000
PbThick
1002
}
  0
ARC
  5
9D
330
1F
100
AcDbEntity
  8
HIDDEN
100
AcDbCircle
 10
0.0
 20
0.000000000000002
 30
0.0
 40
99.74841369482492
100
AcDbArc
 50
269.9194608579729
 51
274.851137783782
1001
DBPROPERTIES
1002
{
1000
PbHidd
1002
}
  0
ARC
  5
9E
330
1F
100
AcDbEntity
  8
THICK
100
AcDbCircle
 10
0.0
 20
0.000000000000002
 30
0.0
 40
99.74841369482492
100
AcDbArc
 50
265.1488996641547
 51
269.9194608579729
1001
DBPROPERTIES
1002
{
1000
PbThick
1002
}
  0
ARC
  5
9F
330
1F
100
AcDbEntity
  8
HIDDEN
100
AcDbCircle
 10
0.0
 20
0.000000000000002
 30
0.0
 40
99.74841369482489
100
AcDbArc
 50
274.851137783782
 51
277.1488704295951
1001
DBPROPERTIES
1002
{
1000
PbHidd
1002
}
  0
ARC
  5
A0
330
1F
100
AcDbEntity
  8
THICK
100
AcDbCircle
 10
0.0
 20
0.000000000000002
 30
0.0
 40
99.74841369482492
100
AcDbArc
 50
346.3912783373912
 51
352.8510909985937
1001
DBPROPERTIES
1002
{
1000
PbThick
1002
}
  0
ARC
  5
A1
330
1F
100
AcDbEntity
  8
HIDDEN
100
AcDbCircle
 10
0.0
 20
0.000000000000002
 30
0.0
 40
99.74841369482492
100
AcDbArc
 50
321.3480379573566
 51
346.3912783373912
1001
DBPROPERTIES
1002
{
1000
PbHidd
1002
}
  0
ARC
  5
A2
330
1F
100
AcDbEntity
  8
THICK
100
AcDbCircle
 10
0.0
 20
0.000000000000002
 30
0.0
 40
99.74841369482492
100
AcDbArc
 50
294.9627012380076
 51
321.3480379573566
1001
DBPROPERTIES
1002
{
1000
PbThick
1002
}
  0
ARC
  5
A3
330
1F
100
AcDbEntity
  8
HIDDEN
100
AcDbCircle
 10
0.0
 20
0.000000000000002
 30
0.0
 40
99.74841369482492
100
AcDbArc
 50
277.1488704295951
 51
294.9627012380076
1001
DBPROPERTIES
1002
{
1000
PbHidd
1002
}
  0
ARC
  5
A4
330
1F
100
AcDbEntity
  8
THICK
100
AcDbCircle
 10
0.0
 20
0.000000000000002
 30
0.0
 40
99.74841369482489
100
AcDbArc
 50
352.8510909985937
 51
355.1488809401864
1001
DBPROPERTIES
1002
{
1000
PbThick
1002
}
  0
ARC
  5
A5
330
1F
100
AcDbEntity
  8
THICK
100
AcDbCircle
 10
0.0
 20
0.000000000000002
 30
0.0
 40
99.74841369482492
100
AcDbArc
 50
355.1488809401864
 51
0.0
1001
DBPROPERTIES
1002
{
1000
PbThick
1002
}
  0
ARC
  5
A6
330
1F
100
AcDbEntity
  8
HIDDEN
100
AcDbCircle
 10
0.0
 20
0.000000000000002
 30
0.0
 40
96.08542277958023
100
AcDbArc
 50
0.0
 51
4.807287788486145
1001
DBPROPERTIES
1002
{
1000
PbHidd
1002
}
  0
ARC
  5
A7
330
1F
100
AcDbEntity
  8
THICK
100
AcDbCircle
 10
0.0
 20
0.0000000000000018
 30
0.0
 40
94.38542277958022
100
AcDbArc
 50
0.0
 51
4.78580187116874
1001
DBPROPERTIES
1002
{
1000
PbThick
1002
}
  0
ARC
  5
A8
330
1F
100
AcDbEntity
  8
HIDDEN
100
AcDbCircle
 10
0.0
 20
0.0000000000000018
 30
0.0
 40
94.38542277958022
100
AcDbArc
 50
175.2141606808946
 51
180.0000198478428
1001
DBPROPERTIES
1002
{
1000
PbHidd
1002
}
  0
ARC
  5
A9
330
1F
100
AcDbEntity
  8
HIDDEN
100
AcDbCircle
 10
0.0
 20
0.000000000000002
 30
0.0
 40
96.08542277958023
100
AcDbArc
 50
175.1926747635772
 51
180.0000198478428
1001
DBPROPERTIES
1002
{
1000
PbHidd
1002
}
  0
ARC
  5
AA
330
1F
100
AcDbEntity
  8
HIDDEN
100
AcDbCircle
 10
0.0
 20
0.0000000000000115
 30
0.0
 40
44.375
100
AcDbArc
 50
270.0000187239684
 51
273.0000257392733
1001
DBPROPERTIES
1002
{
1000
PbHidd
1002
}
  0
LINE
  5
AB
330
1F
100
AcDbEntity
  8
HIDDEN
100
AcDbLine
 10
2.322408058280608
 20
-44.31418560473419
 30
0.0
 11
2.322408058280608
 21
-44.3141856047342
 31
0.0
1001
DBPROPERTIES
1002
{
1000
PbHidd
1002
}
  0
LINE
  5
AC
330
1F
100
AcDbEntity
  8
HIDDEN
100
AcDbLine
 10
-1.543038443229475
 20
-29.44292744968067
 30
0.0
 11
-1.543038443229475
 21
-29.44292744968067
 31
0.0
1001
DBPROPERTIES
1002
{
1000
PbHidd
1002
}
  0
LINE
  5
AD
330
1F
100
AcDbEntity
  8
HIDDEN
100
AcDbLine
 10
-2.322408058280656
 20
-44.31418560473418
 30
0.0
 11
-1.543038443229477
 21
-29.44292744968067
 31
0.0
1001
DBPROPERTIES
1002
{
1000
PbHidd
1002
}
  0
LINE
  5
AE
330
1F
100
AcDbEntity
  8
HIDDEN
100
AcDbLine
 10
-2.322408058280657
 20
-44.3141856047342
 30
0.0
 11
-2.322408058280657
 21
-44.31418560473419
 31
0.0
1001
DBPROPERTIES
1002
{
1000
PbHidd
1002
}
  0
ARC
  5
AF
330
1F
100
AcDbEntity
  8
HIDDEN
100
AcDbCircle
 10
0.0
 20
0.0000000000000115
 30
0.0
 40
44.375
100
AcDbArc
 50
267.0000117086634
 51
270.0000187239684
1001
DBPROPERTIES
1002
{
1000
PbHidd
1002
}
  0
LINE
  5
B0
330
1F
100
AcDbEntity
  8
HIDDEN
100
AcDbLine
 10
4.612209477602798
 20
-29.1203445752133
 30
0.0
 11
4.612209477602798
 21
-29.1203445752133
 31
0.0
1001
DBPROPERTIES
1002
{
1000
PbHidd
1002
}
  0
LINE
  5
B1
330
1F
100
AcDbEntity
  8
HIDDEN
100
AcDbLine
 10
6.941779386160229
 20
-43.82867011390921
 30
0.0
 11
4.612209477602796
 21
-29.1203445752133
 31
0.0
1001
DBPROPERTIES
1002
{
1000
PbHidd
1002
}
  0
LINE
  5
B2
330
1F
100
AcDbEntity
  8
HIDDEN
100
AcDbLine
 10
6.941779386160232
 20
-43.82867011390923
 30
0.0
 11
6.941779386160232
 21
-43.82867011390922
 31
0.0
1001
DBPROPERTIES
1002
{
1000
PbHidd
1002
}
  0
ARC
  5
B3
330
1F
100
AcDbEntity
  8
HIDDEN
100
AcDbCircle
 10
0.0
 20
0.0000000000000115
 30
0.0
 40
44.375
100
AcDbArc
 50
278.9999824741038
 51
284.9999965047138
1001
DBPROPERTIES
1002
{
1000
PbHidd
1002
}
  0
LINE
  5
B4
330
1F
100
AcDbEntity
  8
HIDDEN
100
AcDbLine
 10
11.48509512642435
 20
-42.86295854157738
 30
0.0
 11
11.48509512642435
 21
-42.86295854157739
 31
0.0
1001
DBPROPERTIES
1002
{
1000
PbHidd
1002
}
  0
LINE
  5
B5
330
1F
100
AcDbEntity
  8
HIDDEN
100
AcDbLine
 10
-7.63084817977266
 20
-28.47871311175602
 30
0.0
 11
-7.63084817977266
 21
-28.47871311175602
 31
0.0
1001
DBPROPERTIES
1002
{
1000
PbHidd
1002
}
  0
LINE
  5
B6
330
1F
100
AcDbEntity
  8
HIDDEN
100
AcDbLine
 10
-11.48509512642437
 20
-42.86295854157738
 30
0.0
 11
-7.630848179772662
 21
-28.47871311175601
 31
0.0
1001
DBPROPERTIES
1002
{
1000
PbHidd
1002
}
  0
LINE
  5
B7
330
1F
100
AcDbEntity
  8
HIDDEN
100
AcDbLine
 10
-11.48509512642437
 20
-42.86295854157739
 30
0.0
 11
-11.48509512642437
 21
-42.86295854157738
 31
0.0
1001
DBPROPERTIES
1002
{
1000
PbHidd
1002
}
  0
ARC
  5
B8
330
1F
100
AcDbEntity
  8
HIDDEN
100
AcDbCircle
 10
0.0
 20
0.0000000000000115
 30
0.0
 40
44.375
100
AcDbArc
 50
254.9999836474434
 51
260.9999976780534
1001
DBPROPERTIES
1002
{
1000
PbHidd
1002
}
  0
LINE
  5
B9
330
1F
100
AcDbEntity
  8
HIDDEN
100
AcDbLine
 10
-6.941779386160259
 20
-43.82867011390921
 30
0.0
 11
-6.941779386160259
 21
-43.82867011390922
 31
0.0
1001
DBPROPERTIES
1002
{
1000
PbHidd
1002
}
  0
LINE
  5
BA
330
1F
100
AcDbEntity
  8
HIDDEN
100
AcDbLine
 10
10.56588171242726
 20
-27.52506290789249
 30
0.0
 11
10.56588171242726
 21
-27.52506290789249
 31
0.0
1001
DBPROPERTIES
1002
{
1000
PbHidd
1002
}
  0
LINE
  5
BB
330
1F
100
AcDbEntity
  8
HIDDEN
100
AcDbLine
 10
15.90257776107267
 20
-41.42763142581332
 30
0.0
 11
10.56588171242725
 21
-27.52506290789249
 31
0.0
1001
DBPROPERTIES
1002
{
1000
PbHidd
1002
}
  0
LINE
  5
BC
330
1F
100
AcDbEntity
  8
HIDDEN
100
AcDbLine
 10
15.90257776107268
 20
-41.42763142581332
 30
0.0
 11
15.90257776107268
 21
-41.42763142581332
 31
0.0
1001
DBPROPERTIES
1002
{
1000
PbHidd
1002
}
  0
ARC
  5
BD
330
1F
100
AcDbEntity
  8
HIDDEN
100
AcDbCircle
 10
0.0
 20
0.0000000000000115
 30
0.0
 40
44.375
100
AcDbArc
 50
291.0000105353237
 51
297.0000245659338
1001
DBPROPERTIES
1002
{
1000
PbHidd
1002
}
  0
LINE
  5
BE
330
1F
100
AcDbEntity
  8
HIDDEN
100
AcDbLine
 10
20.14582842594237
 20
-39.53841451085881
 30
0.0
 11
20.14582842594237
 21
-39.53841451085882
 31
0.0
1001
DBPROPERTIES
1002
{
1000
PbHidd
1002
}
  0
LINE
  5
BF
330
1F
100
AcDbEntity
  8
HIDDEN
100
AcDbLine
 10
-13.38515323398764
 20
-26.26984235482036
 30
0.0
 11
-13.38515323398764
 21
-26.26984235482036
 31
0.0
1001
DBPROPERTIES
1002
{
1000
PbHidd
1002
}
  0
LINE
  5
C0
330
1F
100
AcDbEntity
  8
HIDDEN
100
AcDbLine
 10
-20.14582842594239
 20
-39.53841451085879
 30
0.0
 11
-13.38515323398764
 21
-26.26984235482036
 31
0.0
1001
DBPROPERTIES
1002
{
1000
PbHidd
1002
}
  0
LINE
  5
C1
330
1F
100
AcDbEntity
  8
HIDDEN
100
AcDbLine
 10
-20.14582842594239
 20
-39.5384145108588
 30
0.0
 11
-20.14582842594239
 21
-39.53841451085879
 31
0.0
1001
DBPROPERTIES
1002
{
1000
PbHidd
1002
}
  0
ARC
  5
C2
330
1F
100
AcDbEntity
  8
HIDDEN
100
AcDbCircle
 10
0.0
 20
0.0000000000000115
 30
0.0
 40
44.375
100
AcDbArc
 50
243.0000128820029
 51
249.0000269126129
1001
DBPROPERTIES
1002
{
1000
PbHidd
1002
}
  0
LINE
  5
C3
330
1F
100
AcDbEntity
  8
HIDDEN
100
AcDbLine
 10
-15.90257776107271
 20
-41.4276314258133
 30
0.0
 11
-15.90257776107271
 21
-41.42763142581331
 31
0.0
1001
DBPROPERTIES
1002
{
1000
PbHidd
1002
}
  0
LINE
  5
C4
330
1F
100
AcDbEntity
  8
HIDDEN
100
AcDbLine
 10
16.05777421569303
 20
-24.72680391159091
 30
0.0
 11
16.05777421569303
 21
-24.72680391159091
 31
0.0
1001
DBPROPERTIES
1002
{
1000
PbHidd
1002
}
  0
LINE
  5
C5
330
1F
100
AcDbEntity
  8
HIDDEN
100
AcDbLine
 10
24.16835717879179
 20
-37.21600645257818
 30
0.0
 11
16.05777421569303
 21
-24.72680391159091
 31
0.0
1001
DBPROPERTIES
1002
{
1000
PbHidd
1002
}
  0
LINE
  5
C6
330
1F
100
AcDbEntity
  8
HIDDEN
100
AcDbLine
 10
24.1683571787918
 20
-37.21600645257819
 30
0.0
 11
24.1683571787918
 21
-37.21600645257818
 31
0.0
1001
DBPROPERTIES
1002
{
1000
PbHidd
1002
}
  0
ARC
  5
C7
330
1F
100
AcDbEntity
  8
HIDDEN
100
AcDbCircle
 10
0.0
 20
0.0000000000000115
 30
0.0
 40
44.375
100
AcDbArc
 50
302.9999813007643
 51
308.9999953313742
1001
DBPROPERTIES
1002
{
1000
PbHidd
1002
}
  0
LINE
  5
C8
330
1F
100
AcDbEntity
  8
HIDDEN
100
AcDbLine
 10
27.92609235283651
 20
-34.48585203965308
 30
0.0
 11
27.92609235283651
 21
-34.48585203965309
 31
0.0
1001
DBPROPERTIES
1002
{
1000
PbHidd
1002
}
  0
LINE
  5
C9
330
1F
100
AcDbEntity
  8
HIDDEN
100
AcDbLine
 10
-18.55446286278605
 20
-22.91285343028967
 30
0.0
 11
-18.55446286278605
 21
-22.91285343028967
 31
0.0
1001
DBPROPERTIES
1002
{
1000
PbHidd
1002
}
  0
LINE
  5
CA
330
1F
100
AcDbEntity
  8
HIDDEN
100
AcDbLine
 10
-27.92609235283654
 20
-34.48585203965305
 30
0.0
 11
-18.55446286278605
 21
-22.91285343028967
 31
0.0
1001
DBPROPERTIES
1002
{
1000
PbHidd
1002
}
  0
LINE
  5
CB
330
1F
100
AcDbEntity
  8
HIDDEN
100
AcDbLine
 10
-27.92609235283655
 20
-34.48585203965306
 30
0.0
 11
-27.92609235283655
 21
-34.48585203965305
 31
0.0
1001
DBPROPERTIES
1002
{
1000
PbHidd
1002
}
  0
ARC
  5
CC
330
1F
100
AcDbEntity
  8
HIDDEN
100
AcDbCircle
 10
0.0
 20
0.0000000000000115
 30
0.0
 40
44.375
100
AcDbArc
 50
230.999984820783
 51
236.999998851393
1001
DBPROPERTIES
1002
{
1000
PbHidd
1002
}
  0
LINE
  5
CD
330
1F
100
AcDbEntity
  8
HIDDEN
100
AcDbLine
 10
-24.16835717879185
 20
-37.21600645257816
 30
0.0
 11
-24.16835717879185
 21
-37.21600645257817
 31
0.0
1001
DBPROPERTIES
1002
{
1000
PbHidd
1002
}
  0
LINE
  5
CE
330
1F
100
AcDbEntity
  8
HIDDEN
100
AcDbLine
 10
20.84786493198336
 20
-20.84786493198337
 30
0.0
 11
20.84786493198336
 21
-20.84786493198337
 31
0.0
1001
DBPROPERTIES
1002
{
1000
PbHidd
1002
}
  0
LINE
  5
CF
330
1F
100
AcDbEntity
  8
HIDDEN
100
AcDbLine
 10
31.37786341515302
 20
-31.37786341515304
 30
0.0
 11
20.84786493198336
 21
-20.84786493198337
 31
0.0
1001
DBPROPERTIES
1002
{
1000
PbHidd
1002
}
  0
LINE
  5
D0
330
1F
100
AcDbEntity
  8
HIDDEN
100
AcDbLine
 10
31.37786341515303
 20
-31.37786341515305
 30
0.0
 11
31.37786341515303
 21
-31.37786341515305
 31
0.0
1001
DBPROPERTIES
1002
{
1000
PbHidd
1002
}
  0
ARC
  5
D1
330
1F
100
AcDbEntity
  8
HIDDEN
100
AcDbCircle
 10
0.0
 20
0.0000000000000115
 30
0.0
 40
44.375
100
AcDbArc
 50
315.0000093619842
 51
321.0000233925941
1001
DBPROPERTIES
1002
{
1000
PbHidd
1002
}
  0
LINE
  5
D2
330
1F
100
AcDbEntity
  8
HIDDEN
100
AcDbLine
 10
34.48585203965307
 20
-27.92609235283654
 30
0.0
 11
34.48585203965307
 21
-27.92609235283654
 31
0.0
1001
DBPROPERTIES
1002
{
1000
PbHidd
1002
}
  0
LINE
  5
D3
330
1F
100
AcDbEntity
  8
HIDDEN
100
AcDbLine
 10
-22.91285343028968
 20
-18.55446286278602
 30
0.0
 11
-22.91285343028968
 21
-18.55446286278602
 31
0.0
1001
DBPROPERTIES
1002
{
1000
PbHidd
1002
}
  0
LINE
  5
D4
330
1F
100
AcDbEntity
  8
HIDDEN
100
AcDbLine
 10
-34.48585203965307
 20
-27.92609235283651
 30
0.0
 11
-22.91285343028968
 21
-18.55446286278602
 31
0.0
1001
DBPROPERTIES
1002
{
1000
PbHidd
1002
}
  0
LINE
  5
D5
330
1F
100
AcDbEntity
  8
HIDDEN
100
AcDbLine
 10
-34.48585203965308
 20
-27.92609235283652
 30
0.0
 11
-34.48585203965308
 21
-27.92609235283652
 31
0.0
1001
DBPROPERTIES
1002
{
1000
PbHidd
1002
}
  0
ARC
  5
D6
330
1F
100
AcDbEntity
  8
HIDDEN
100
AcDbCircle
 10
0.0
 20
0.0000000000000115
 30
0.0
 40
44.375
100
AcDbArc
 50
219.0000140553425
 51
225.0000280859525
1001
DBPROPERTIES
1002
{
1000
PbHidd
1002
}
  0
LINE
  5
D7
330
1F
100
AcDbEntity
  8
HIDDEN
100
AcDbLine
 10
-31.37786341515305
 20
-31.37786341515302
 30
0.0
 11
-31.37786341515305
 21
-31.37786341515303
 31
0.0
1001
DBPROPERTIES
1002
{
1000
PbHidd
1002
}
  0
LINE
  5
D8
330
1F
100
AcDbEntity
  8
HIDDEN
100
AcDbLine
 10
24.7268039115909
 20
-16.05777421569305
 30
0.0
 11
24.7268039115909
 21
-16.05777421569305
 31
0.0
1001
DBPROPERTIES
1002
{
1000
PbHidd
1002
}
  0
LINE
  5
D9
330
1F
100
AcDbEntity
  8
HIDDEN
100
AcDbLine
 10
37.21600645257817
 20
-24.16835717879184
 30
0.0
 11
24.7268039115909
 21
-16.05777421569305
 31
0.0
1001
DBPROPERTIES
1002
{
1000
PbHidd
1002
}
  0
LINE
  5
DA
330
1F
100
AcDbEntity
  8
HIDDEN
100
AcDbLine
 10
37.21600645257817
 20
-24.16835717879184
 30
0.0
 11
37.21600645257817
 21
-24.16835717879184
 31
0.0
1001
DBPROPERTIES
1002
{
1000
PbHidd
1002
}
  0
ARC
  5
DB
330
1F
100
AcDbEntity
  8
HIDDEN
100
AcDbCircle
 10
0.0
 20
0.0000000000000115
 30
0.0
 40
44.375
100
AcDbArc
 50
326.9999801274246
 51
332.9999941580346
1001
DBPROPERTIES
1002
{
1000
PbHidd
1002
}
  0
LINE
  5
DC
330
1F
100
AcDbEntity
  8
HIDDEN
100
AcDbLine
 10
39.53841451085881
 20
-20.1458284259424
 30
0.0
 11
39.53841451085881
 21
-20.1458284259424
 31
0.0
1001
DBPROPERTIES
1002
{
1000
PbHidd
1002
}
  0
LINE
  5
DD
330
1F
100
AcDbEntity
  8
HIDDEN
100
AcDbLine
 10
-26.26984235482038
 20
-13.38515323398763
 30
0.0
 11
-26.26984235482038
 21
-13.38515323398763
 31
0.0
1001
DBPROPERTIES
1002
{
1000
PbHidd
1002
}
  0
LINE
  5
DE
330
1F
100
AcDbEntity
  8
HIDDEN
100
AcDbLine
 10
-39.53841451085881
 20
-20.14582842594238
 30
0.0
 11
-26.26984235482037
 21
-13.38515323398763
 31
0.0
1001
DBPROPERTIES
1002
{
1000
PbHidd
1002
}
  0
LINE
  5
DF
330
1F
100
AcDbEntity
  8
HIDDEN
100
AcDbLine
 10
-39.53841451085883
 20
-20.14582842594238
 30
0.0
 11
-39.53841451085883
 21
-20.14582842594237
 31
0.0
1001
DBPROPERTIES
1002
{
1000
PbHidd
1002
}
  0
ARC
  5
E0
330
1F
100
AcDbEntity
  8
HIDDEN
100
AcDbCircle
 10
0.0
 20
0.0000000000000115
 30
0.0
 40
44.375
100
AcDbArc
 50
206.9999859941226
 51
213.0000000247326
1001
DBPROPERTIES
1002
{
1000
PbHidd
1002
}
  0
LINE
  5
E1
330
1F
100
AcDbEntity
  8
HIDDEN
100
AcDbLine
 10
-37.21600645257818
 20
-24.16835717879181
 30
0.0
 11
-37.21600645257818
 21
-24.16835717879182
 31
0.0
1001
DBPROPERTIES
1002
{
1000
PbHidd
1002
}
  0
LINE
  5
E2
330
1F
100
AcDbEntity
  8
HIDDEN
100
AcDbLine
 10
27.52506290789248
 20
-10.56588171242728
 30
0.0
 11
27.52506290789248
 21
-10.56588171242728
 31
0.0
1001
DBPROPERTIES
1002
{
1000
PbHidd
1002
}
  0
LINE
  5
E3
330
1F
100
AcDbEntity
  8
HIDDEN
100
AcDbLine
 10
41.42763142581331
 20
-15.90257776107272
 30
0.0
 11
27.52506290789248
 21
-10.56588171242728
 31
0.0
1001
DBPROPERTIES
1002
{
1000
PbHidd
1002
}
  0
LINE
  5
E4
330
1F
100
AcDbEntity
  8
HIDDEN
100
AcDbLine
 10
41.42763142581332
 20
-15.90257776107273
 30
0.0
 11
41.42763142581332
 21
-15.90257776107272
 31
0.0
1001
DBPROPERTIES
1002
{
1000
PbHidd
1002
}
  0
ARC
  5
E5
330
1F
100
AcDbEntity
  8
HIDDEN
100
AcDbCircle
 10
0.0
 20
0.0000000000000115
 30
0.0
 40
44.375
100
AcDbArc
 50
339.0000081886445
 51
345.0000222192546
1001
DBPROPERTIES
1002
{
1000
PbHidd
1002
}
  0
LINE
  5
E6
330
1F
100
AcDbEntity
  8
HIDDEN
100
AcDbLine
 10
42.8629585415774
 20
-11.48509512642438
 30
0.0
 11
42.8629585415774
 21
-11.48509512642439
 31
0.0
1001
DBPROPERTIES
1002
{
1000
PbHidd
1002
}
  0
LINE
  5
E7
330
1F
100
AcDbEntity
  8
HIDDEN
100
AcDbLine
 10
-28.47871311175602
 20
-7.630848179772643
 30
0.0
 11
-28.47871311175602
 21
-7.630848179772643
 31
0.0
1001
DBPROPERTIES
1002
{
1000
PbHidd
1002
}
  0
LINE
  5
E8
330
1F
100
AcDbEntity
  8
HIDDEN
100
AcDbLine
 10
-42.86295854157739
 20
-11.48509512642434
 30
0.0
 11
-28.47871311175602
 21
-7.630848179772642
 31
0.0
1001
DBPROPERTIES
1002
{
1000
PbHidd
1002
}
  0
LINE
  5
E9
330
1F
100
AcDbEntity
  8
HIDDEN
100
AcDbLine
 10
-42.86295854157741
 20
-11.48509512642435
 30
0.0
 11
-42.86295854157741
 21
-11.48509512642434
 31
0.0
1001
DBPROPERTIES
1002
{
1000
PbHidd
1002
}
  0
ARC
  5
EA
330
1F
100
AcDbEntity
  8
HIDDEN
100
AcDbCircle
 10
0.0
 20
0.0000000000000115
 30
0.0
 40
44.375
100
AcDbArc
 50
195.0000152286821
 51
200.9999719635126
1001
DBPROPERTIES
1002
{
1000
PbHidd
1002
}
  0
LINE
  5
EB
330
1F
100
AcDbEntity
  8
HIDDEN
100
AcDbLine
 10
-41.42763142581333
 20
-15.90257776107269
 30
0.0
 11
-41.42763142581333
 21
-15.90257776107269
 31
0.0
1001
DBPROPERTIES
1002
{
1000
PbHidd
1002
}
  0
LINE
  5
EC
330
1F
100
AcDbEntity
  8
HIDDEN
100
AcDbLine
 10
29.1203445752133
 20
-4.612209477602814
 30
0.0
 11
29.1203445752133
 21
-4.612209477602814
 31
0.0
1001
DBPROPERTIES
1002
{
1000
PbHidd
1002
}
  0
LINE
  5
ED
330
1F
100
AcDbEntity
  8
HIDDEN
100
AcDbLine
 10
43.82867011390921
 20
-6.941779386160255
 30
0.0
 11
29.1203445752133
 21
-4.612209477602814
 31
0.0
1001
DBPROPERTIES
1002
{
1000
PbHidd
1002
}
  0
LINE
  5
EE
330
1F
100
AcDbEntity
  8
HIDDEN
100
AcDbLine
 10
43.82867011390923
 20
-6.941779386160262
 30
0.0
 11
43.82867011390923
 21
-6.941779386160255
 31
0.0
1001
DBPROPERTIES
1002
{
1000
PbHidd
1002
}
  0
ARC
  5
EF
330
1F
100
AcDbEntity
  8
HIDDEN
100
AcDbCircle
 10
0.0
 20
0.0000000000000115
 30
0.0
 40
44.375
100
AcDbArc
 50
350.9999789540851
 51
356.999992984695
1001
DBPROPERTIES
1002
{
1000
PbHidd
1002
}
  0
LINE
  5
F0
330
1F
100
AcDbEntity
  8
HIDDEN
100
AcDbLine
 10
44.31418560473421
 20
-2.322408058280641
 30
0.0
 11
44.31418560473421
 21
-2.322408058280648
 31
0.0
1001
DBPROPERTIES
1002
{
1000
PbHidd
1002
}
  0
LINE
  5
F1
330
1F
100
AcDbEntity
  8
HIDDEN
100
AcDbLine
 10
-29.44292744968068
 20
-1.543038443229451
 30
0.0
 11
-29.44292744968068
 21
-1.543038443229451
 31
0.0
1001
DBPROPERTIES
1002
{
1000
PbHidd
1002
}
  0
LINE
  5
F2
330
1F
100
AcDbEntity
  8
HIDDEN
100
AcDbLine
 10
-44.31418560473419
 20
-2.322408058280617
 30
0.0
 11
-29.44292744968067
 21
-1.54303844322945
 31
0.0
1001
DBPROPERTIES
1002
{
1000
PbHidd
1002
}
  0
LINE
  5
F3
330
1F
100
AcDbEntity
  8
HIDDEN
100
AcDbLine
 10
-44.31418560473421
 20
-2.322408058280621
 30
0.0
 11
-44.31418560473421
 21
-2.322408058280614
 31
0.0
1001
DBPROPERTIES
1002
{
1000
PbHidd
1002
}
  0
ARC
  5
F4
330
1F
100
AcDbEntity
  8
HIDDEN
100
AcDbCircle
 10
0.0
 20
0.0000000000000115
 30
0.0
 40
44.375
100
AcDbArc
 50
182.9999871674622
 51
189.0000011980722
1001
DBPROPERTIES
1002
{
1000
PbHidd
1002
}
  0
LINE
  5
F5
330
1F
100
AcDbEntity
  8
HIDDEN
100
AcDbLine
 10
-43.82867011390924
 20
-6.941779386160227
 30
0.0
 11
-43.82867011390924
 21
-6.941779386160234
 31
0.0
1001
DBPROPERTIES
1002
{
1000
PbHidd
1002
}
  0
LINE
  5
F6
330
1F
100
AcDbEntity
  8
HIDDEN
100
AcDbLine
 10
29.44292744968068
 20
1.543038443229435
 30
0.0
 11
29.44292744968068
 21
1.543038443229435
 31
0.0
1001
DBPROPERTIES
1002
{
1000
PbHidd
1002
}
  0
LINE
  5
F7
330
1F
100
AcDbEntity
  8
HIDDEN
100
AcDbLine
 10
44.31418560473421
 20
2.322408058280593
 30
0.0
 11
29.44292744968068
 21
1.543038443229434
 31
0.0
1001
DBPROPERTIES
1002
{
1000
PbHidd
1002
}
  0
LINE
  5
F8
330
1F
100
AcDbEntity
  8
HIDDEN
100
AcDbLine
 10
44.31418560473421
 20
2.32240805828059
 30
0.0
 11
44.31418560473421
 21
2.322408058280597
 31
0.0
1001
DBPROPERTIES
1002
{
1000
PbHidd
1002
}
  0
ARC
  5
F9
330
1F
100
AcDbEntity
  8
HIDDEN
100
AcDbCircle
 10
0.0
 20
0.0000000000000115
 30
0.0
 40
44.375
100
AcDbArc
 50
3.00000701530499
 51
9.000021045914972
1001
DBPROPERTIES
1002
{
1000
PbHidd
1002
}
  0
LINE
  5
FA
330
1F
100
AcDbEntity
  8
HIDDEN
100
AcDbLine
 10
43.82867011390925
 20
6.941779386160211
 30
0.0
 11
43.82867011390925
 21
6.941779386160204
 31
0.0
1001
DBPROPERTIES
1002
{
1000
PbHidd
1002
}
  0
LINE
  5
FB
330
1F
100
AcDbEntity
  8
HIDDEN
100
AcDbLine
 10
-29.1203445752133
 20
4.612209477602811
 30
0.0
 11
-29.1203445752133
 21
4.612209477602811
 31
0.0
1001
DBPROPERTIES
1002
{
1000
PbHidd
1002
}
  0
LINE
  5
FC
330
1F
100
AcDbEntity
  8
HIDDEN
100
AcDbLine
 10
-43.82867011390921
 20
6.941779386160252
 30
0.0
 11
-29.1203445752133
 21
4.612209477602812
 31
0.0
1001
DBPROPERTIES
1002
{
1000
PbHidd
1002
}
  0
LINE
  5
FD
330
1F
100
AcDbEntity
  8
HIDDEN
100
AcDbLine
 10
-43.82867011390924
 20
6.941779386160253
 30
0.0
 11
-43.82867011390924
 21
6.94177938616026
 31
0.0
1001
DBPROPERTIES
1002
{
1000
PbHidd
1002
}
  0
ARC
  5
FE
330
1F
100
AcDbEntity
  8
HIDDEN
100
AcDbCircle
 10
0.0
 20
0.0000000000000115
 30
0.0
 40
44.375
100
AcDbArc
 50
170.9999988019279
 51
177.0000128325378
1001
DBPROPERTIES
1002
{
1000
PbHidd
1002
}
  0
LINE
  5
FF
330
1F
100
AcDbEntity
  8
HIDDEN
100
AcDbLine
 10
-44.31418560473421
 20
2.322408058280645
 30
0.0
 11
-44.31418560473421
 21
2.322408058280637
 31
0.0
1001
DBPROPERTIES
1002
{
1000
PbHidd
1002
}
  0
LINE
  5
100
330
1F
100
AcDbEntity
  8
HIDDEN
100
AcDbLine
 10
28.47871311175602
 20
7.630848179772634
 30
0.0
 11
28.47871311175602
 21
7.630848179772634
 31
0.0
1001
DBPROPERTIES
1002
{
1000
PbHidd
1002
}
  0
LINE
  5
101
330
1F
100
AcDbEntity
  8
HIDDEN
100
AcDbLine
 10
42.8629585415774
 20
11.48509512642433
 30
0.0
 11
28.47871311175602
 21
7.630848179772631
 31
0.0
1001
DBPROPERTIES
1002
{
1000
PbHidd
1002
}
  0
LINE
  5
102
330
1F
100
AcDbEntity
  8
HIDDEN
100
AcDbLine
 10
42.86295854157741
 20
11.48509512642433
 30
0.0
 11
42.86295854157741
 21
11.48509512642434
 31
0.0
1001
DBPROPERTIES
1002
{
1000
PbHidd
1002
}
  0
ARC
  5
103
330
1F
100
AcDbEntity
  8
HIDDEN
100
AcDbCircle
 10
0.0
 20
0.0000000000000115
 30
0.0
 40
44.375
100
AcDbArc
 50
14.99997778074544
 51
20.99999181135542
1001
DBPROPERTIES
1002
{
1000
PbHidd
1002
}
  0
LINE
  5
104
330
1F
100
AcDbEntity
  8
HIDDEN
100
AcDbLine
 10
41.42763142581335
 20
15.90257776107268
 30
0.0
 11
41.42763142581335
 21
15.90257776107267
 31
0.0
1001
DBPROPERTIES
1002
{
1000
PbHidd
1002
}
  0
LINE
  5
105
330
1F
100
AcDbEntity
  8
HIDDEN
100
AcDbLine
 10
-27.52506290789249
 20
10.56588171242727
 30
0.0
 11
-27.52506290789249
 21
10.56588171242727
 31
0.0
1001
DBPROPERTIES
1002
{
1000
PbHidd
1002
}
  0
LINE
  5
106
330
1F
100
AcDbEntity
  8
HIDDEN
100
AcDbLine
 10
-41.42763142581332
 20
15.90257776107271
 30
0.0
 11
-27.52506290789248
 21
10.56588171242727
 31
0.0
1001
DBPROPERTIES
1002
{
1000
PbHidd
1002
}
  0
LINE
  5
107
330
1F
100
AcDbEntity
  8
HIDDEN
100
AcDbLine
 10
-41.42763142581333
 20
15.90257776107271
 30
0.0
 11
-41.42763142581333
 21
15.90257776107271
 31
0.0
1001
DBPROPERTIES
1002
{
1000
PbHidd
1002
}
  0
ARC
  5
108
330
1F
100
AcDbEntity
  8
HIDDEN
100
AcDbCircle
 10
0.0
 20
0.0000000000000115
 30
0.0
 40
44.375
100
AcDbArc
 50
159.0000280364874
 51
164.9999847713179
1001
DBPROPERTIES
1002
{
1000
PbHidd
1002
}
  0
LINE
  5
109
330
1F
100
AcDbEntity
  8
HIDDEN
100
AcDbLine
 10
-42.8629585415774
 20
11.48509512642437
 30
0.0
 11
-42.8629585415774
 21
11.48509512642436
 31
0.0
1001
DBPROPERTIES
1002
{
1000
PbHidd
1002
}
  0
LINE
  5
10A
330
1F
100
AcDbEntity
  8
HIDDEN
100
AcDbLine
 10
26.26984235482038
 20
13.38515323398762
 30
0.0
 11
26.26984235482038
 21
13.38515323398762
 31
0.0
1001
DBPROPERTIES
1002
{
1000
PbHidd
1002
}
  0
LINE
  5
10B
330
1F
100
AcDbEntity
  8
HIDDEN
100
AcDbLine
 10
39.53841451085883
 20
20.14582842594238
 30
0.0
 11
26.26984235482037
 21
13.38515323398762
 31
0.0
1001
DBPROPERTIES
1002
{
1000
PbHidd
1002
}
  0
LINE
  5
10C
330
1F
100
AcDbEntity
  8
HIDDEN
100
AcDbLine
 10
39.53841451085884
 20
20.14582842594238
 30
0.0
 11
39.53841451085884
 21
20.14582842594238
 31
0.0
1001
DBPROPERTIES
1002
{
1000
PbHidd
1002
}
  0
ARC
  5
10D
330
1F
100
AcDbEntity
  8
HIDDEN
100
AcDbCircle
 10
0.0
 20
0.0000000000000115
 30
0.0
 40
44.375
100
AcDbArc
 50
27.0000058419654
 51
33.00001987257539
1001
DBPROPERTIES
1002
{
1000
PbHidd
1002
}
  0
LINE
  5
10E
330
1F
100
AcDbEntity
  8
HIDDEN
100
AcDbLine
 10
37.2160064525782
 20
24.16835717879182
 30
0.0
 11
37.2160064525782
 21
24.16835717879182
 31
0.0
1001
DBPROPERTIES
1002
{
1000
PbHidd
1002
}
  0
LINE
  5
10F
330
1F
100
AcDbEntity
  8
HIDDEN
100
AcDbLine
 10
-24.7268039115909
 20
16.05777421569305
 30
0.0
 11
-24.7268039115909
 21
16.05777421569305
 31
0.0
1001
DBPROPERTIES
1002
{
1000
PbHidd
1002
}
  0
LINE
  5
110
330
1F
100
AcDbEntity
  8
HIDDEN
100
AcDbLine
 10
-37.21600645257818
 20
24.16835717879184
 30
0.0
 11
-24.7268039115909
 21
16.05777421569305
 31
0.0
1001
DBPROPERTIES
1002
{
1000
PbHidd
1002
}
  0
LINE
  5
111
330
1F
100
AcDbEntity
  8
HIDDEN
100
AcDbLine
 10
-37.21600645257819
 20
24.16835717879184
 30
0.0
 11
-37.21600645257819
 21
24.16835717879185
 31
0.0
1001
DBPROPERTIES
1002
{
1000
PbHidd
1002
}
  0
ARC
  5
112
330
1F
100
AcDbEntity
  8
HIDDEN
100
AcDbCircle
 10
0.0
 20
0.0000000000000115
 30
0.0
 40
44.375
100
AcDbArc
 50
146.9999999752674
 51
153.0000140058774
1001
DBPROPERTIES
1002
{
1000
PbHidd
1002
}
  0
LINE
  5
113
330
1F
100
AcDbEntity
  8
HIDDEN
100
AcDbLine
 10
-39.53841451085883
 20
20.1458284259424
 30
0.0
 11
-39.53841451085883
 21
20.1458284259424
 31
0.0
1001
DBPROPERTIES
1002
{
1000
PbHidd
1002
}
  0
LINE
  5
114
330
1F
100
AcDbEntity
  8
HIDDEN
100
AcDbLine
 10
22.9128534302897
 20
18.55446286278602
 30
0.0
 11
22.9128534302897
 21
18.55446286278602
 31
0.0
1001
DBPROPERTIES
1002
{
1000
PbHidd
1002
}
  0
LINE
  5
115
330
1F
100
AcDbEntity
  8
HIDDEN
100
AcDbLine
 10
34.4858520396531
 20
27.92609235283651
 30
0.0
 11
22.9128534302897
 21
18.55446286278601
 31
0.0
1001
DBPROPERTIES
1002
{
1000
PbHidd
1002
}
  0
LINE
  5
116
330
1F
100
AcDbEntity
  8
HIDDEN
100
AcDbLine
 10
34.48585203965311
 20
27.92609235283651
 30
0.0
 11
34.48585203965311
 21
27.92609235283652
 31
0.0
1001
DBPROPERTIES
1002
{
1000
PbHidd
1002
}
  0
ARC
  5
117
330
1F
100
AcDbEntity
  8
HIDDEN
100
AcDbCircle
 10
0.0
 20
0.0000000000000115
 30
0.0
 40
44.375
100
AcDbArc
 50
38.99997660740585
 51
44.99999063801582
1001
DBPROPERTIES
1002
{
1000
PbHidd
1002
}
  0
LINE
  5
118
330
1F
100
AcDbEntity
  8
HIDDEN
100
AcDbLine
 10
31.37786341515309
 20
31.37786341515303
 30
0.0
 11
31.37786341515309
 21
31.37786341515302
 31
0.0
1001
DBPROPERTIES
1002
{
1000
PbHidd
1002
}
  0
LINE
  5
119
330
1F
100
AcDbEntity
  8
HIDDEN
100
AcDbLine
 10
-20.84786493198337
 20
20.84786493198337
 30
0.0
 11
-20.84786493198337
 21
20.84786493198337
 31
0.0
1001
DBPROPERTIES
1002
{
1000
PbHidd
1002
}
  0
LINE
  5
11A
330
1F
100
AcDbEntity
  8
HIDDEN
100
AcDbLine
 10
-31.37786341515304
 20
31.37786341515305
 30
0.0
 11
-20.84786493198337
 21
20.84786493198337
 31
0.0
1001
DBPROPERTIES
1002
{
1000
PbHidd
1002
}
  0
LINE
  5
11B
330
1F
100
AcDbEntity
  8
HIDDEN
100
AcDbLine
 10
-31.37786341515304
 20
31.37786341515305
 30
0.0
 11
-31.37786341515304
 21
31.37786341515306
 31
0.0
1001
DBPROPERTIES
1002
{
1000
PbHidd
1002
}
  0
ARC
  5
11C
330
1F
100
AcDbEntity
  8
HIDDEN
100
AcDbCircle
 10
0.0
 20
0.0000000000000115
 30
0.0
 40
44.375
100
AcDbArc
 50
134.9999719140475
 51
140.9999859446575
1001
DBPROPERTIES
1002
{
1000
PbHidd
1002
}
  0
LINE
  5
11D
330
1F
100
AcDbEntity
  8
HIDDEN
100
AcDbLine
 10
-34.48585203965309
 20
27.92609235283655
 30
0.0
 11
-34.48585203965309
 21
27.92609235283654
 31
0.0
1001
DBPROPERTIES
1002
{
1000
PbHidd
1002
}
  0
LINE
  5
11E
330
1F
100
AcDbEntity
  8
HIDDEN
100
AcDbLine
 10
18.55446286278605
 20
22.91285343028967
 30
0.0
 11
18.55446286278605
 21
22.91285343028967
 31
0.0
1001
DBPROPERTIES
1002
{
1000
PbHidd
1002
}
  0
LINE
  5
11F
330
1F
100
AcDbEntity
  8
HIDDEN
100
AcDbLine
 10
27.92609235283656
 20
34.48585203965307
 30
0.0
 11
18.55446286278605
 21
22.91285343028967
 31
0.0
1001
DBPROPERTIES
1002
{
1000
PbHidd
1002
}
  0
LINE
  5
120
330
1F
100
AcDbEntity
  8
HIDDEN
100
AcDbLine
 10
27.92609235283657
 20
34.48585203965308
 30
0.0
 11
27.92609235283657
 21
34.48585203965309
 31
0.0
1001
DBPROPERTIES
1002
{
1000
PbHidd
1002
}
  0
ARC
  5
121
330
1F
100
AcDbEntity
  8
HIDDEN
100
AcDbCircle
 10
0.0
 20
0.0000000000000115
 30
0.0
 40
44.375
100
AcDbArc
 50
51.00000466862581
 51
57.0000186992358
1001
DBPROPERTIES
1002
{
1000
PbHidd
1002
}
  0
LINE
  5
122
330
1F
100
AcDbEntity
  8
HIDDEN
100
AcDbLine
 10
24.16835717879186
 20
37.2160064525782
 30
0.0
 11
24.16835717879186
 21
37.21600645257819
 31
0.0
1001
DBPROPERTIES
1002
{
1000
PbHidd
1002
}
  0
LINE
  5
123
330
1F
100
AcDbEntity
  8
HIDDEN
100
AcDbLine
 10
-16.05777421569304
 20
24.72680391159091
 30
0.0
 11
-16.05777421569304
 21
24.72680391159091
 31
0.0
1001
DBPROPERTIES
1002
{
1000
PbHidd
1002
}
  0
LINE
  5
124
330
1F
100
AcDbEntity
  8
HIDDEN
100
AcDbLine
 10
-24.16835717879182
 20
37.21600645257818
 30
0.0
 11
-16.05777421569303
 21
24.7268039115909
 31
0.0
1001
DBPROPERTIES
1002
{
1000
PbHidd
1002
}
  0
LINE
  5
125
330
1F
100
AcDbEntity
  8
HIDDEN
100
AcDbLine
 10
-24.16835717879183
 20
37.21600645257821
 30
0.0
 11
-24.16835717879183
 21
37.21600645257821
 31
0.0
1001
DBPROPERTIES
1002
{
1000
PbHidd
1002
}
  0
ARC
  5
126
330
1F
100
AcDbEntity
  8
HIDDEN
100
AcDbCircle
 10
0.0
 20
0.0000000000000115
 30
0.0
 40
44.375
100
AcDbArc
 50
123.000001148607
 51
129.000015179217
1001
DBPROPERTIES
1002
{
1000
PbHidd
1002
}
  0
LINE
  5
127
330
1F
100
AcDbEntity
  8
HIDDEN
100
AcDbLine
 10
-27.92609235283654
 20
34.4858520396531
 30
0.0
 11
-27.92609235283654
 21
34.4858520396531
 31
0.0
1001
DBPROPERTIES
1002
{
1000
PbHidd
1002
}
  0
LINE
  5
128
330
1F
100
AcDbEntity
  8
HIDDEN
100
AcDbLine
 10
13.38515323398765
 20
26.26984235482037
 30
0.0
 11
13.38515323398765
 21
26.26984235482037
 31
0.0
1001
DBPROPERTIES
1002
{
1000
PbHidd
1002
}
  0
LINE
  5
129
330
1F
100
AcDbEntity
  8
HIDDEN
100
AcDbLine
 10
20.14582842594241
 20
39.53841451085881
 30
0.0
 11
13.38515323398765
 21
26.26984235482036
 31
0.0
1001
DBPROPERTIES
1002
{
1000
PbHidd
1002
}
  0
LINE
  5
12A
330
1F
100
AcDbEntity
  8
HIDDEN
100
AcDbLine
 10
20.14582842594242
 20
39.53841451085882
 30
0.0
 11
20.14582842594242
 21
39.53841451085883
 31
0.0
1001
DBPROPERTIES
1002
{
1000
PbHidd
1002
}
  0
ARC
  5
12B
330
1F
100
AcDbEntity
  8
HIDDEN
100
AcDbCircle
 10
0.0
 20
0.0000000000000115
 30
0.0
 40
44.375
100
AcDbArc
 50
62.99997543406626
 51
68.99998946467625
1001
DBPROPERTIES
1002
{
1000
PbHidd
1002
}
  0
LINE
  5
12C
330
1F
100
AcDbEntity
  8
HIDDEN
100
AcDbLine
 10
15.90257776107272
 20
41.42763142581335
 30
0.0
 11
15.90257776107272
 21
41.42763142581334
 31
0.0
1001
DBPROPERTIES
1002
{
1000
PbHidd
1002
}
  0
LINE
  5
12D
330
1F
100
AcDbEntity
  8
HIDDEN
100
AcDbLine
 10
-10.56588171242726
 20
27.52506290789249
 30
0.0
 11
-10.56588171242726
 21
27.52506290789249
 31
0.0
1001
DBPROPERTIES
1002
{
1000
PbHidd
1002
}
  0
LINE
  5
12E
330
1F
100
AcDbEntity
  8
HIDDEN
100
AcDbLine
 10
-15.90257776107269
 20
41.42763142581334
 30
0.0
 11
-10.56588171242726
 21
27.52506290789249
 31
0.0
1001
DBPROPERTIES
1002
{
1000
PbHidd
1002
}
  0
LINE
  5
12F
330
1F
100
AcDbEntity
  8
HIDDEN
100
AcDbLine
 10
-15.9025777610727
 20
41.42763142581335
 30
0.0
 11
-15.9025777610727
 21
41.42763142581335
 31
0.0
1001
DBPROPERTIES
1002
{
1000
PbHidd
1002
}
  0
ARC
  5
130
330
1F
100
AcDbEntity
  8
HIDDEN
100
AcDbCircle
 10
0.0
 20
0.0000000000000115
 30
0.0
 40
44.375
100
AcDbArc
 50
110.9999730873871
 51
116.9999871179971
1001
DBPROPERTIES
1002
{
1000
PbHidd
1002
}
  0
LINE
  5
131
330
1F
100
AcDbEntity
  8
HIDDEN
100
AcDbLine
 10
-20.14582842594239
 20
39.53841451085885
 30
0.0
 11
-20.14582842594239
 21
39.53841451085884
 31
0.0
1001
DBPROPERTIES
1002
{
1000
PbHidd
1002
}
  0
LINE
  5
132
330
1F
100
AcDbEntity
  8
HIDDEN
100
AcDbLine
 10
7.630848179772679
 20
28.47871311175602
 30
0.0
 11
7.630848179772679
 21
28.47871311175602
 31
0.0
1001
DBPROPERTIES
1002
{
1000
PbHidd
1002
}
  0
LINE
  5
133
330
1F
100
AcDbEntity
  8
HIDDEN
100
AcDbLine
 10
11.4850951264244
 20
42.8629585415774
 30
0.0
 11
7.630848179772678
 21
28.47871311175601
 31
0.0
1001
DBPROPERTIES
1002
{
1000
PbHidd
1002
}
  0
LINE
  5
134
330
1F
100
AcDbEntity
  8
HIDDEN
100
AcDbLine
 10
11.4850951264244
 20
42.86295854157741
 30
0.0
 11
11.4850951264244
 21
42.86295854157742
 31
0.0
1001
DBPROPERTIES
1002
{
1000
PbHidd
1002
}
  0
ARC
  5
135
330
1F
100
AcDbEntity
  8
HIDDEN
100
AcDbCircle
 10
0.0
 20
0.0000000000000115
 30
0.0
 40
44.375
100
AcDbArc
 50
75.00000349528622
 51
81.0000175258962
1001
DBPROPERTIES
1002
{
1000
PbHidd
1002
}
  0
LINE
  5
136
330
1F
100
AcDbEntity
  8
HIDDEN
100
AcDbLine
 10
6.94177938616029
 20
43.82867011390925
 30
0.0
 11
6.94177938616029
 21
43.82867011390925
 31
0.0
1001
DBPROPERTIES
1002
{
1000
PbHidd
1002
}
  0
LINE
  5
137
330
1F
100
AcDbEntity
  8
HIDDEN
100
AcDbLine
 10
-4.612209477602802
 20
29.1203445752133
 30
0.0
 11
-4.612209477602802
 21
29.1203445752133
 31
0.0
1001
DBPROPERTIES
1002
{
1000
PbHidd
1002
}
  0
LINE
  5
138
330
1F
100
AcDbEntity
  8
HIDDEN
100
AcDbLine
 10
-6.94177938616024
 20
43.82867011390924
 30
0.0
 11
-4.612209477602801
 21
29.1203445752133
 31
0.0
1001
DBPROPERTIES
1002
{
1000
PbHidd
1002
}
  0
LINE
  5
139
330
1F
100
AcDbEntity
  8
HIDDEN
100
AcDbLine
 10
-6.941779386160241
 20
43.82867011390925
 30
0.0
 11
-6.941779386160241
 21
43.82867011390926
 31
0.0
1001
DBPROPERTIES
1002
{
1000
PbHidd
1002
}
  0
ARC
  5
13A
330
1F
100
AcDbEntity
  8
HIDDEN
100
AcDbCircle
 10
0.0
 20
0.0000000000000115
 30
0.0
 40
44.375
100
AcDbArc
 50
99.00000232194662
 51
105.0000163525566
1001
DBPROPERTIES
1002
{
1000
PbHidd
1002
}
  0
LINE
  5
13B
330
1F
100
AcDbEntity
  8
HIDDEN
100
AcDbLine
 10
-11.48509512642436
 20
42.86295854157743
 30
0.0
 11
-11.48509512642436
 21
42.86295854157742
 31
0.0
1001
DBPROPERTIES
1002
{
1000
PbHidd
1002
}
  0
ARC
  5
13C
330
1F
100
AcDbEntity
  8
HIDDEN
100
AcDbCircle
 10
0.0
 20
0.0000000000000104
 30
0.0
 40
72.44897959183673
100
AcDbArc
 50
89.99998127603165
 51
93.92508594735487
1001
DBPROPERTIES
1002
{
1000
PbHidd
1002
}
  0
ARC
  5
13D
330
1F
100
AcDbEntity
  8
THICK
100
AcDbCircle
 10
0.0
 20
0.0000000000000104
 30
0.0
 40
72.44897959183673
100
AcDbArc
 50
93.92508594735487
 51
110.6172945760192
1001
DBPROPERTIES
1002
{
1000
PbThick
1002
}
  0
ARC
  5
13E
330
1F
100
AcDbEntity
  8
HIDDEN
100
AcDbCircle
 10
0.0
 20
0.0000000000000104
 30
0.0
 40
72.44897959183673
100
AcDbArc
 50
110.6172945760192
 51
145.3536630467385
1001
DBPROPERTIES
1002
{
1000
PbHidd
1002
}
  0
ARC
  5
13F
330
1F
100
AcDbEntity
  8
THICK
100
AcDbCircle
 10
0.0
 20
0.0000000000000104
 30
0.0
 40
72.44897959183673
100
AcDbArc
 50
145.3536630467385
 51
162.0458716754029
1001
DBPROPERTIES
1002
{
1000
PbThick
1002
}
  0
ARC
  5
140
330
1F
100
AcDbEntity
  8
HIDDEN
100
AcDbCircle
 10
0.0
 20
0.0000000000000104
 30
0.0
 40
72.44897959183673
100
AcDbArc
 50
162.0458716754029
 51
196.782257746216
1001
DBPROPERTIES
1002
{
1000
PbHidd
1002
}
  0
ARC
  5
141
330
1F
100
AcDbEntity
  8
THICK
100
AcDbCircle
 10
0.0
 20
0.0000000000000104
 30
0.0
 40
72.44897959183673
100
AcDbArc
 50
196.782257746216
 51
213.4744663748804
1001
DBPROPERTIES
1002
{
1000
PbThick
1002
}
  0
ARC
  5
142
330
1F
100
AcDbEntity
  8
HIDDEN
100
AcDbCircle
 10
0.0
 20
0.0000000000000104
 30
0.0
 40
72.44897959183673
100
AcDbArc
 50
213.4744663748804
 51
248.2108348455997
1001
DBPROPERTIES
1002
{
1000
PbHidd
1002
}
  0
ARC
  5
143
330
1F
100
AcDbEntity
  8
THICK
100
AcDbCircle
 10
0.0
 20
0.0000000000000104
 30
0.0
 40
72.44897959183673
100
AcDbArc
 50
248.2108348455997
 51
264.9030434742641
1001
DBPROPERTIES
1002
{
1000
PbThick
1002
}
  0
ARC
  5
144
330
1F
100
AcDbEntity
  8
HIDDEN
100
AcDbCircle
 10
0.0
 20
0.0000000000000104
 30
0.0
 40
72.44897959183673
100
AcDbArc
 50
264.9030434742641
 51
270.0000187239684
1001
DBPROPERTIES
1002
{
1000
PbHidd
1002
}
  0
ARC
  5
145
330
1F
100
AcDbEntity
  8
HIDDEN
100
AcDbCircle
 10
0.0
 20
0.000000000000002
 30
0.0
 40
96.08542277958023
100
AcDbArc
 50
187.1926631291115
 51
262.807335747014
1001
DBPROPERTIES
1002
{
1000
PbHidd
1002
}
  0
LINE
  5
146
330
1F
100
AcDbEntity
  8
HIDDEN
100
AcDbLine
 10
-12.41349613484054
 20
-98.97298191094494
 30
0.0
 11
-12.18562956845399
 21
-96.80497635141097
 31
0.0
1001
DBPROPERTIES
1002
{
1000
PbHidd
1002
}
  0
LINE
  5
147
330
1F
100
AcDbEntity
  8
HIDDEN
100
AcDbLine
 10
-96.8049763514104
 20
-12.18562956845391
 30
0.0
 11
-98.97298191094495
 21
-12.41349613484052
 31
0.0
1001
DBPROPERTIES
1002
{
1000
PbHidd
1002
}
  0
LINE
  5
148
330
1F
100
AcDbEntity
  8
HIDDEN
100
AcDbLine
 10
-8.207541986980889
 20
-97.2230902044816
 30
0.0
 11
-8.43540855336744
 21
-99.39109576401555
 31
0.0
1001
DBPROPERTIES
1002
{
1000
PbHidd
1002
}
  0
ARC
  5
149
330
1F
100
AcDbEntity
  8
HIDDEN
100
AcDbCircle
 10
0.0
 20
0.000000000000002
 30
0.0
 40
96.08542277958023
100
AcDbArc
 50
265.1926736397027
 51
274.8073065124544
1001
DBPROPERTIES
1002
{
1000
PbHidd
1002
}
  0
LINE
  5
14A
330
1F
100
AcDbEntity
  8
HIDDEN
100
AcDbLine
 10
8.435408553367425
 20
-99.39109576401555
 30
0.0
 11
8.207541986980887
 21
-97.22309020448171
 31
0.0
1001
DBPROPERTIES
1002
{
1000
PbHidd
1002
}
  0
ARC
  5
14B
330
1F
100
AcDbEntity
  8
HIDDEN
100
AcDbCircle
 10
0.0
 20
0.000000000000002
 30
0.0
 40
99.74841369482492
100
AcDbArc
 50
175.1489007880292
 51
180.0000198478428
1001
DBPROPERTIES
1002
{
1000
PbHidd
1002
}
  0
LINE
  5
14C
330
1F
100
AcDbEntity
  8
HIDDEN
100
AcDbLine
 10
-97.22309020448101
 20
8.207541986980829
 30
0.0
 11
-99.39109576401556
 21
8.435408553367443
 31
0.0
1001
DBPROPERTIES
1002
{
1000
PbHidd
1002
}
  0
ARC
  5
14D
330
1F
100
AcDbEntity
  8
HIDDEN
100
AcDbCircle
 10
0.0
 20
0.000000000000002
 30
0.0
 40
96.08542277958023
100
AcDbArc
 50
180.0000198478428
 51
184.8073252364228
1001
DBPROPERTIES
1002
{
1000
PbHidd
1002
}
  0
LINE
  5
14E
330
1F
100
AcDbEntity
  8
HIDDEN
100
AcDbLine
 10
-99.39109576401556
 20
-8.435408553367427
 30
0.0
 11
-97.22309020448103
 21
-8.207541986980816
 31
0.0
1001
DBPROPERTIES
1002
{
1000
PbHidd
1002
}
  0
ARC
  5
14F
330
1F
100
AcDbEntity
  8
HIDDEN
100
AcDbCircle
 10
0.0
 20
0.000000000000002
 30
0.0
 40
96.08542277958023
100
AcDbArc
 50
277.1927017009227
 51
352.8073170230457
1001
DBPROPERTIES
1002
{
1000
PbHidd
1002
}
  0
LINE
  5
150
330
1F
100
AcDbEntity
  8
HIDDEN
100
AcDbLine
 10
98.97298191094491
 20
-12.41349613484054
 30
0.0
 11
96.80497635141168
 21
-12.18562956845406
 31
0.0
1001
DBPROPERTIES
1002
{
1000
PbHidd
1002
}
  0
LINE
  5
151
330
1F
100
AcDbEntity
  8
HIDDEN
100
AcDbLine
 10
12.18562956845399
 20
-96.80497635141113
 30
0.0
 11
12.41349613484052
 21
-98.97298191094492
 31
0.0
1001
DBPROPERTIES
1002
{
1000
PbHidd
1002
}
  0
ARC
  5
152
330
1F
100
AcDbEntity
  8
HIDDEN
100
AcDbCircle
 10
0.0
 20
0.000000000000002
 30
0.0
 40
99.74841369482492
100
AcDbArc
 50
167.0622890591117
 51
172.8511108464365
1001
DBPROPERTIES
1002
{
1000
PbHidd
1002
}
  0
ARC
  5
153
330
1F
100
AcDbEntity
  8
THICK
100
AcDbCircle
 10
0.0
 20
0.000000000000002
 30
0.0
 40
99.74841369482492
100
AcDbArc
 50
140.6770096355422
 51
167.0622890591117
1001
DBPROPERTIES
1002
{
1000
PbThick
1002
}
  0
ARC
  5
154
330
1F
100
AcDbEntity
  8
HIDDEN
100
AcDbCircle
 10
0.0
 20
0.000000000000002
 30
0.0
 40
99.74841369482492
100
AcDbArc
 50
115.6337692555076
 51
140.6770096355422
1001
DBPROPERTIES
1002
{
1000
PbHidd
1002
}
  0
ARC
  5
155
330
1F
100
AcDbEntity
  8
THICK
100
AcDbCircle
 10
0.0
 20
0.000000000000002
 30
0.0
 40
99.74841369482492
100
AcDbArc
 50
97.14889027743797
 51
115.6337692555076
1001
DBPROPERTIES
1002
{
1000
PbThick
1002
}
  0
LINE
  5
156
330
1F
100
AcDbEntity
  8
HIDDEN
100
AcDbLine
 10
-12.18562956845396
 20
96.80497635141096
 30
0.0
 11
-12.41349613484051
 21
98.97298191094492
 31
0.0
1001
DBPROPERTIES
1002
{
1000
PbHidd
1002
}
  0
ARC
  5
157
330
1F
100
AcDbEntity
  8
HIDDEN
100
AcDbCircle
 10
0.0
 20
0.000000000000002
 30
0.0
 40
96.08542277958023
100
AcDbArc
 50
97.19266425298596
 51
172.8073368708885
1001
DBPROPERTIES
1002
{
1000
PbHidd
1002
}
  0
LINE
  5
158
330
1F
100
AcDbEntity
  8
HIDDEN
100
AcDbLine
 10
-98.97298191094495
 20
12.41349613484054
 30
0.0
 11
-96.80497635141042
 21
12.18562956845392
 31
0.0
1001
DBPROPERTIES
1002
{
1000
PbHidd
1002
}
  0
LINE
  5
159
330
1F
100
AcDbEntity
  8
HIDDEN
100
AcDbLine
 10
97.22309020448228
 20
-8.207541986980972
 30
0.0
 11
99.39109576401552
 21
-8.435408553367449
 31
0.0
1001
DBPROPERTIES
1002
{
1000
PbHidd
1002
}
  0
ARC
  5
15A
330
1F
100
AcDbEntity
  8
HIDDEN
100
AcDbCircle
 10
0.0
 20
0.000000000000002
 30
0.0
 40
96.08542277958023
100
AcDbArc
 50
355.1927122115138
 51
0.0
1001
DBPROPERTIES
1002
{
1000
PbHidd
1002
}
  0
LINE
  5
15B
330
1F
100
AcDbEntity
  8
HIDDEN
100
AcDbLine
 10
99.3910957640155
 20
8.43540855336741
 30
0.0
 11
97.22309020448229
 21
8.207541986980935
 31
0.0
1001
DBPROPERTIES
1002
{
1000
PbHidd
1002
}
  0
ARC
  5
15C
330
1F
100
AcDbEntity
  8
THICK
100
AcDbCircle
 10
0.0
 20
0.000000000000002
 30
0.0
 40
99.74841369482492
100
AcDbArc
 50
0.0
 51
4.851119059813654
1001
DBPROPERTIES
1002
{
1000
PbThick
1002
}
  0
ARC
  5
15D
330
1F
100
AcDbEntity
  8
THICK
100
AcDbCircle
 10
0.0
 20
0.000000000000002
 30
0.0
 40
99.74841369482492
100
AcDbArc
 50
89.24843253615856
 51
94.8511003358453
1001
DBPROPERTIES
1002
{
1000
PbThick
1002
}
  0
ARC
  5
15E
330
1F
100
AcDbEntity
  8
HIDDEN
100
AcDbCircle
 10
0.0
 20
0.000000000000002
 30
0.0
 40
99.74841369482492
100
AcDbArc
 50
85.148862216218
 51
89.24843253615856
1001
DBPROPERTIES
1002
{
1000
PbHidd
1002
}
  0
LINE
  5
15F
330
1F
100
AcDbEntity
  8
HIDDEN
100
AcDbLine
 10
8.207541986980921
 20
97.2230902044817
 30
0.0
 11
8.435408553367463
 21
99.39109576401555
 31
0.0
1001
DBPROPERTIES
1002
{
1000
PbHidd
1002
}
  0
ARC
  5
160
330
1F
100
AcDbEntity
  8
HIDDEN
100
AcDbCircle
 10
0.0
 20
0.000000000000002
 30
0.0
 40
96.08542277958023
100
AcDbArc
 50
85.19269348754551
 51
94.80732636029731
1001
DBPROPERTIES
1002
{
1000
PbHidd
1002
}
  0
LINE
  5
161
330
1F
100
AcDbEntity
  8
HIDDEN
100
AcDbLine
 10
-8.435408553367408
 20
99.39109576401555
 30
0.0
 11
-8.207541986980859
 21
97.22309020448161
 31
0.0
1001
DBPROPERTIES
1002
{
1000
PbHidd
1002
}
  0
ARC
  5
162
330
1F
100
AcDbEntity
  8
THICK
100
AcDbCircle
 10
0.0
 20
0.0000000000000018
 30
0.0
 40
94.38542277958022
100
AcDbArc
 50
244.233304536022
 51
262.7858498296966
1001
DBPROPERTIES
1002
{
1000
PbThick
1002
}
  0
ARC
  5
163
330
1F
100
AcDbEntity
  8
HIDDEN
100
AcDbCircle
 10
0.0
 20
0.0000000000000018
 30
0.0
 40
94.38542277958022
100
AcDbArc
 50
217.7418560330148
 51
244.233304536022
1001
DBPROPERTIES
1002
{
1000
PbHidd
1002
}
  0
ARC
  5
164
330
1F
100
AcDbEntity
  8
THICK
100
AcDbCircle
 10
0.0
 20
0.0000000000000018
 30
0.0
 40
94.38542277958022
100
AcDbArc
 50
192.8047274366384
 51
217.7418560330148
1001
DBPROPERTIES
1002
{
1000
PbThick
1002
}
  0
ARC
  5
165
330
1F
100
AcDbEntity
  8
HIDDEN
100
AcDbCircle
 10
0.0
 20
0.0000000000000018
 30
0.0
 40
94.38542277958022
100
AcDbArc
 50
187.2141490464288
 51
192.8047274366384
1001
DBPROPERTIES
1002
{
1000
PbHidd
1002
}
  0
ARC
  5
166
330
1F
100
AcDbEntity
  8
HIDDEN
100
AcDbCircle
 10
0.0
 20
0.0000000000000018
 30
0.0
 40
94.38542277958022
100
AcDbArc
 50
269.1704331323984
 51
274.7858205951371
1001
DBPROPERTIES
1002
{
1000
PbHidd
1002
}
  0
ARC
  5
167
330
1F
100
AcDbEntity
  8
THICK
100
AcDbCircle
 10
0.0
 20
0.0000000000000018
 30
0.0
 40
94.38542277958022
100
AcDbArc
 50
265.2141595570201
 51
269.1704331323984
1001
DBPROPERTIES
1002
{
1000
PbThick
1002
}
  0
ARC
  5
168
330
1F
100
AcDbEntity
  8
HIDDEN
100
AcDbCircle
 10
0.0
 20
0.0000000000000018
 30
0.0
 40
94.38542277958022
100
AcDbArc
 50
180.0000198478428
 51
184.7858393191054
1001
DBPROPERTIES
1002
{
1000
PbHidd
1002
}
  0
ARC
  5
169
330
1F
100
AcDbEntity
  8
THICK
100
AcDbCircle
 10
0.0
 20
0.0000000000000018
 30
0.0
 40
94.38542277958022
100
AcDbArc
 50
347.0904587347894
 51
352.7858311057283
1001
DBPROPERTIES
1002
{
1000
PbThick
1002
}
  0
ARC
  5
16A
330
1F
100
AcDbEntity
  8
HIDDEN
100
AcDbCircle
 10
0.0
 20
0.0000000000000018
 30
0.0
 40
94.38542277958022
100
AcDbArc
 50
320.5990102317821
 51
347.0904587347894
1001
DBPROPERTIES
1002
{
1000
PbHidd
1002
}
  0
ARC
  5
16B
330
1F
100
AcDbEntity
  8
THICK
100
AcDbCircle
 10
0.0
 20
0.0000000000000018
 30
0.0
 40
94.38542277958022
100
AcDbArc
 50
295.6618816354057
 51
320.5990102317821
1001
DBPROPERTIES
1002
{
1000
PbThick
1002
}
  0
ARC
  5
16C
330
1F
100
AcDbEntity
  8
HIDDEN
100
AcDbCircle
 10
0.0
 20
0.0000000000000018
 30
0.0
 40
94.38542277958022
100
AcDbArc
 50
277.21418761824
 51
295.6618816354057
1001
DBPROPERTIES
1002
{
1000
PbHidd
1002
}
  0
ARC
  5
16D
330
1F
100
AcDbEntity
  8
HIDDEN
100
AcDbCircle
 10
0.0
 20
0.0000000000000018
 30
0.0
 40
94.38542277958022
100
AcDbArc
 50
166.3133186293167
 51
172.7858509535711
1001
DBPROPERTIES
1002
{
1000
PbHidd
1002
}
  0
ARC
  5
16E
330
1F
100
AcDbEntity
  8
THICK
100
AcDbCircle
 10
0.0
 20
0.0000000000000018
 30
0.0
 40
94.38542277958022
100
AcDbArc
 50
141.3761900329403
 51
166.3133186293167
1001
DBPROPERTIES
1002
{
1000
PbThick
1002
}
  0
ARC
  5
16F
330
1F
100
AcDbEntity
  8
HIDDEN
100
AcDbCircle
 10
0.0
 20
0.0000000000000018
 30
0.0
 40
94.38542277958022
100
AcDbArc
 50
114.8847415299331
 51
141.3761900329403
1001
DBPROPERTIES
1002
{
1000
PbHidd
1002
}
  0
ARC
  5
170
330
1F
100
AcDbEntity
  8
THICK
100
AcDbCircle
 10
0.0
 20
0.0000000000000018
 30
0.0
 40
94.38542277958022
100
AcDbArc
 50
97.21415017030337
 51
114.8847415299331
1001
DBPROPERTIES
1002
{
1000
PbThick
1002
}
  0
ARC
  5
171
330
1F
100
AcDbEntity
  8
THICK
100
AcDbCircle
 10
0.0
 20
0.0000000000000018
 30
0.0
 40
94.38542277958022
100
AcDbArc
 50
355.2141981288312
 51
0.0
1001
DBPROPERTIES
1002
{
1000
PbThick
1002
}
  0
ARC
  5
172
330
1F
100
AcDbEntity
  8
THICK
100
AcDbCircle
 10
0.0
 20
0.0000000000000018
 30
0.0
 40
94.38542277958022
100
AcDbArc
 50
89.9476129335567
 51
94.7858404429799
1001
DBPROPERTIES
1002
{
1000
PbThick
1002
}
  0
ARC
  5
173
330
1F
100
AcDbEntity
  8
HIDDEN
100
AcDbCircle
 10
0.0
 20
0.0000000000000018
 30
0.0
 40
94.38542277958022
100
AcDbArc
 50
85.21417940486293
 51
89.9476129335567
1001
DBPROPERTIES
1002
{
1000
PbHidd
1002
}
  0
ARC
  5
174
330
1F
100
AcDbEntity
  8
HIDDEN
100
AcDbCircle
 10
0.0
 20
0.0000000000000018
 30
0.0
 40
94.38542277958022
100
AcDbArc
 50
63.45616443054941
 51
82.78581238175995
1001
DBPROPERTIES
1002
{
1000
PbHidd
1002
}
  0
ARC
  5
175
330
1F
100
AcDbEntity
  8
THICK
100
AcDbCircle
 10
0.0
 20
0.0000000000000018
 30
0.0
 40
94.38542277958022
100
AcDbArc
 50
38.51903583417304
 51
63.45616443054941
1001
DBPROPERTIES
1002
{
1000
PbThick
1002
}
  0
ARC
  5
176
330
1F
100
AcDbEntity
  8
HIDDEN
100
AcDbCircle
 10
0.0
 20
0.0000000000000018
 30
0.0
 40
94.38542277958022
100
AcDbArc
 50
12.02758733116575
 51
38.51903583417304
1001
DBPROPERTIES
1002
{
1000
PbHidd
1002
}
  0
ARC
  5
177
330
1F
100
AcDbEntity
  8
THICK
100
AcDbCircle
 10
0.0
 20
0.0000000000000018
 30
0.0
 40
94.38542277958022
100
AcDbArc
 50
7.214168894271707
 51
12.02758733116575
1001
DBPROPERTIES
1002
{
1000
PbThick
1002
}
  0
ARC
  5
178
330
1F
100
AcDbEntity
  8
HIDDEN
100
AcDbCircle
 10
0.0
 20
0.000000000000002
 30
0.0
 40
96.08542277958023
100
AcDbArc
 50
7.192682976954302
 51
82.80729829907736
1001
DBPROPERTIES
1002
{
1000
PbHidd
1002
}
  0
ARC
  5
179
330
1F
100
AcDbEntity
  8
HIDDEN
100
AcDbCircle
 10
0.0
 20
0.0000000000000018
 30
0.0
 40
98.04841369482492
100
AcDbArc
 50
166.8340226735316
 51
180.0000198478428
1001
DBPROPERTIES
1002
{
1000
PbHidd
1002
}
  0
ARC
  5
17A
330
1F
100
AcDbEntity
  8
THICK
100
AcDbCircle
 10
0.0
 20
0.0000000000000018
 30
0.0
 40
98.04841369482492
100
AcDbArc
 50
140.8901499353309
 51
166.8340226735316
1001
DBPROPERTIES
1002
{
1000
PbThick
1002
}
  0
ARC
  5
17B
330
1F
100
AcDbEntity
  8
HIDDEN
100
AcDbCircle
 10
0.0
 20
0.0000000000000018
 30
0.0
 40
98.04841369482492
100
AcDbArc
 50
115.405445574148
 51
140.8901499353309
1001
DBPROPERTIES
1002
{
1000
PbHidd
1002
}
  0
ARC
  5
17C
330
1F
100
AcDbEntity
  8
THICK
100
AcDbCircle
 10
0.0
 20
0.0000000000000018
 30
0.0
 40
98.04841369482492
100
AcDbArc
 50
89.46157283594722
 51
115.405445574148
1001
DBPROPERTIES
1002
{
1000
PbThick
1002
}
  0
ARC
  5
17D
330
1F
100
AcDbEntity
  8
HIDDEN
100
AcDbCircle
 10
0.0
 20
0.0000000000000018
 30
0.0
 40
98.04841369482492
100
AcDbArc
 50
63.97686847476431
 51
89.46157283594722
1001
DBPROPERTIES
1002
{
1000
PbHidd
1002
}
  0
ARC
  5
17E
330
1F
100
AcDbEntity
  8
THICK
100
AcDbCircle
 10
0.0
 20
0.0000000000000018
 30
0.0
 40
98.04841369482492
100
AcDbArc
 50
38.03299573656356
 51
63.97686847476431
1001
DBPROPERTIES
1002
{
1000
PbThick
1002
}
  0
ARC
  5
17F
330
1F
100
AcDbEntity
  8
HIDDEN
100
AcDbCircle
 10
0.0
 20
0.0000000000000018
 30
0.0
 40
98.04841369482492
100
AcDbArc
 50
12.54829137538065
 51
38.03299573656356
1001
DBPROPERTIES
1002
{
1000
PbHidd
1002
}
  0
ARC
  5
180
330
1F
100
AcDbEntity
  8
THICK
100
AcDbCircle
 10
0.0
 20
0.0000000000000018
 30
0.0
 40
98.04841369482492
100
AcDbArc
 50
0.0
 51
12.54829137538065
1001
DBPROPERTIES
1002
{
1000
PbThick
1002
}
  0
LINE
  5
181
330
1F
100
AcDbEntity
  8
HIDDEN
100
AcDbLine
 10
12.18562956845399
 20
96.80497635141113
 30
0.0
 11
8.2075419869809
 21
97.22309020448172
 31
0.0
1001
DBPROPERTIES
1002
{
1000
PbHidd
1002
}
  0
LINE
  5
182
330
1F
100
AcDbEntity
  8
THICK
100
AcDbLine
 10
97.22309020448229
 20
8.207541986980939
 30
0.0
 11
96.80497635141168
 21
12.18562956845403
 31
0.0
1001
DBPROPERTIES
1002
{
1000
PbThick
1002
}
  0
LINE
  5
183
330
1F
100
AcDbEntity
  8
THICK
100
AcDbLine
 10
96.80497635141168
 20
-12.18562956845406
 30
0.0
 11
97.2230902044823
 21
-8.207541986980974
 31
0.0
1001
DBPROPERTIES
1002
{
1000
PbThick
1002
}
  0
LINE
  5
184
330
1F
100
AcDbEntity
  8
HIDDEN
100
AcDbLine
 10
8.207541986980864
 20
-97.22309020448171
 30
0.0
 11
12.18562956845395
 21
-96.80497635141113
 31
0.0
1001
DBPROPERTIES
1002
{
1000
PbHidd
1002
}
  0
LINE
  5
185
330
1F
100
AcDbEntity
  8
THICK
100
AcDbLine
 10
-12.18562956845401
 20
-96.80497635141099
 30
0.0
 11
-8.207541986980935
 21
-97.22309020448162
 31
0.0
1001
DBPROPERTIES
1002
{
1000
PbThick
1002
}
  0
LINE
  5
186
330
1F
100
AcDbEntity
  8
HIDDEN
100
AcDbLine
 10
-97.22309020448103
 20
-8.207541986980814
 30
0.0
 11
-96.8049763514104
 21
-12.18562956845391
 31
0.0
1001
DBPROPERTIES
1002
{
1000
PbHidd
1002
}
  0
LINE
  5
187
330
1F
100
AcDbEntity
  8
HIDDEN
100
AcDbLine
 10
-96.80497635141042
 20
12.18562956845392
 30
0.0
 11
-97.22309020448103
 21
8.207541986980834
 31
0.0
1001
DBPROPERTIES
1002
{
1000
PbHidd
1002
}
  0
LINE
  5
188
330
1F
100
AcDbEntity
  8
THICK
100
AcDbLine
 10
-8.20754198698085
 20
97.22309020448161
 30
0.0
 11
-12.18562956845394
 21
96.80497635141096
 31
0.0
1001
DBPROPERTIES
1002
{
1000
PbThick
1002
}
  0
ARC
  5
189
330
1F
100
AcDbEntity
  8
THICK
100
AcDbCircle
 10
0.0
 20
0.000000000000002
 30
0.0
 40
99.74841369482489
100
AcDbArc
 50
4.851119059813654
 51
7.148909001406307
1001
DBPROPERTIES
1002
{
1000
PbThick
1002
}
  0
ARC
  5
18A
330
1F
100
AcDbEntity
  8
HIDDEN
100
AcDbCircle
 10
0.0
 20
0.000000000000002
 30
0.0
 40
99.74841369482492
100
AcDbArc
 50
64.20519215612394
 51
82.85112957040486
1001
DBPROPERTIES
1002
{
1000
PbHidd
1002
}
  0
ARC
  5
18B
330
1F
100
AcDbEntity
  8
THICK
100
AcDbCircle
 10
0.0
 20
0.000000000000002
 30
0.0
 40
99.74841369482492
100
AcDbArc
 50
37.81985543677489
 51
64.20519215612394
1001
DBPROPERTIES
1002
{
1000
PbThick
1002
}
  0
ARC
  5
18C
330
1F
100
AcDbEntity
  8
HIDDEN
100
AcDbCircle
 10
0.0
 20
0.000000000000002
 30
0.0
 40
99.74841369482492
100
AcDbArc
 50
12.77661505674028
 51
37.81985543677489
1001
DBPROPERTIES
1002
{
1000
PbHidd
1002
}
  0
ARC
  5
18D
330
1F
100
AcDbEntity
  8
THICK
100
AcDbCircle
 10
0.0
 20
0.000000000000002
 30
0.0
 40
99.74841369482492
100
AcDbArc
 50
7.148909001406307
 51
12.77661505674028
1001
DBPROPERTIES
1002
{
1000
PbThick
1002
}
  0
ARC
  5
18E
330
1F
100
AcDbEntity
  8
HIDDEN
100
AcDbCircle
 10
0.0
 20
0.000000000000002
 30
0.0
 40
99.74841369482492
100
AcDbArc
 50
82.85112957040486
 51
85.148862216218
1001
DBPROPERTIES
1002
{
1000
PbHidd
1002
}
  0
ARC
  5
18F
330
1F
100
AcDbEntity
  8
THICK
100
AcDbCircle
 10
0.0
 20
0.000000000000002
 30
0.0
 40
99.74841369482492
100
AcDbArc
 50
94.8511003358453
 51
97.14889027743797
1001
DBPROPERTIES
1002
{
1000
PbThick
1002
}
  0
ARC
  5
190
330
1F
100
AcDbEntity
  8
HIDDEN
100
AcDbCircle
 10
0.0
 20
0.000000000000002
 30
0.0
 40
99.74841369482489
100
AcDbArc
 50
172.8511108464365
 51
175.1489007880292
1001
DBPROPERTIES
1002
{
1000
PbHidd
1002
}
  0
LINE
  5
191
330
1F
100
AcDbEntity
  8
HIDDEN
100
AcDbLine
 10
12.41349613484056
 20
98.97298191094495
 30
0.0
 11
12.18562956845402
 21
96.80497635141113
 31
0.0
1001
DBPROPERTIES
1002
{
1000
PbHidd
1002
}
  0
LINE
  5
192
330
1F
100
AcDbEntity
  8
HIDDEN
100
AcDbLine
 10
96.80497635141165
 20
12.18562956845403
 30
0.0
 11
98.97298191094491
 21
12.41349613484051
 31
0.0
1001
DBPROPERTIES
1002
{
1000
PbHidd
1002
}
  0
LINE
  5
193
330
1F
100
AcDbEntity
  8
HIDDEN
100
AcDbLine
 10
10.41403793010943
 20
79.94940784014754
 30
0.0
 11
12.18562956845402
 21
96.80497635141114
 31
0.0
1001
DBPROPERTIES
1002
{
1000
PbHidd
1002
}
  0
LINE
  5
194
330
1F
100
AcDbEntity
  8
HIDDEN
100
AcDbLine
 10
8.20754198698092
 20
97.22309020448171
 30
0.0
 11
6.435950348636339
 21
80.36752169321814
 31
0.0
1001
DBPROPERTIES
1002
{
1000
PbHidd
1002
}
  0
LINE
  5
195
330
1F
100
AcDbEntity
  8
HIDDEN
100
AcDbLine
 10
6.435950348636341
 20
80.36752169321815
 30
0.0
 11
10.41403793010943
 21
79.94940784014754
 31
0.0
1001
DBPROPERTIES
1002
{
1000
PbHidd
1002
}
  0
LINE
  5
196
330
1F
100
AcDbEntity
  8
THICK
100
AcDbLine
 10
16.15709743252813
 20
172.8580579624675
 30
0.0
 11
14.58650701963002
 21
157.914888365847
 31
0.0
1001
DBPROPERTIES
1002
{
1000
PbThick
1002
}
  0
LINE
  5
197
330
1F
100
AcDbEntity
  8
HIDDEN
100
AcDbLine
 10
14.58650701963002
 20
157.914888365847
 30
0.0
 11
8.43540855336746
 21
99.39109576401557
 31
0.0
1001
DBPROPERTIES
1002
{
1000
PbHidd
1002
}
  0
LINE
  5
198
330
1F
100
AcDbEntity
  8
HIDDEN
100
AcDbLine
 10
16.15709743252813
 20
172.8580579624675
 30
0.0
 11
16.15709743252813
 21
172.8580579624675
 31
0.0
1001
DBPROPERTIES
1002
{
1000
PbHidd
1002
}
  0
LINE
  5
199
330
1F
100
AcDbEntity
  8
THICK
100
AcDbLine
 10
16.51249420763816
 20
176.2394324067197
 30
0.0
 11
16.15709743252813
 21
172.8580579624675
 31
0.0
1001
DBPROPERTIES
1002
{
1000
PbThick
1002
}
  0
LINE
  5
19A
330
1F
100
AcDbEntity
  8
HIDDEN
100
AcDbLine
 10
16.51249420763816
 20
176.2394324067197
 30
0.0
 11
16.51249420763816
 21
176.2394324067197
 31
0.0
1001
DBPROPERTIES
1002
{
1000
PbHidd
1002
}
  0
LINE
  5
19B
330
1F
100
AcDbEntity
  8
HIDDEN
100
AcDbLine
 10
6.435950348636341
 20
80.36752169321815
 30
0.0
 11
5.581050586866068
 21
72.23369378790773
 31
0.0
1001
DBPROPERTIES
1002
{
1000
PbHidd
1002
}
  0
LINE
  5
19C
330
1F
100
AcDbEntity
  8
THICK
100
AcDbLine
 10
-6.435950348636306
 20
80.36752169321815
 30
0.0
 11
-8.207541986980862
 21
97.22309020448162
 31
0.0
1001
DBPROPERTIES
1002
{
1000
PbThick
1002
}
  0
LINE
  5
19D
330
1F
100
AcDbEntity
  8
THICK
100
AcDbLine
 10
-12.18562956845395
 20
96.80497635141097
 30
0.0
 11
-10.4140379301094
 21
79.94940784014753
 31
0.0
1001
DBPROPERTIES
1002
{
1000
PbThick
1002
}
  0
LINE
  5
19E
330
1F
100
AcDbEntity
  8
THICK
100
AcDbLine
 10
-10.41403793010939
 20
79.94940784014753
 30
0.0
 11
-6.435950348636304
 21
80.36752169321814
 31
0.0
1001
DBPROPERTIES
1002
{
1000
PbThick
1002
}
  0
LINE
  5
19F
330
1F
100
AcDbEntity
  8
THICK
100
AcDbLine
 10
-20.13518501400114
 20
172.4399441093969
 30
0.0
 11
-12.4134961348405
 21
98.97298191094494
 31
0.0
1001
DBPROPERTIES
1002
{
1000
PbThick
1002
}
  0
LINE
  5
1A0
330
1F
100
AcDbEntity
  8
HIDDEN
100
AcDbLine
 10
-20.13518501400114
 20
172.4399441093969
 30
0.0
 11
-20.13518501400114
 21
172.4399441093969
 31
0.0
1001
DBPROPERTIES
1002
{
1000
PbHidd
1002
}
  0
LINE
  5
1A1
330
1F
100
AcDbEntity
  8
THICK
100
AcDbLine
 10
-20.49058178911116
 20
175.8213185536491
 30
0.0
 11
-20.13518501400114
 21
172.4399441093969
 31
0.0
1001
DBPROPERTIES
1002
{
1000
PbThick
1002
}
  0
LINE
  5
1A2
330
1F
100
AcDbEntity
  8
HIDDEN
100
AcDbLine
 10
-20.49058178911116
 20
175.8213185536491
 30
0.0
 11
-20.49058178911116
 21
175.8213185536491
 31
0.0
1001
DBPROPERTIES
1002
{
1000
PbHidd
1002
}
  0
LINE
  5
1A3
330
1F
100
AcDbEntity
  8
HIDDEN
100
AcDbLine
 10
-9.55913816833913
 20
71.81557993483712
 30
0.0
 11
-9.55913816833913
 21
71.81557993483712
 31
0.0
1001
DBPROPERTIES
1002
{
1000
PbHidd
1002
}
  0
LINE
  5
1A4
330
1F
100
AcDbEntity
  8
THICK
100
AcDbLine
 10
-10.41403793010939
 20
79.94940784014753
 30
0.0
 11
-9.559138168339128
 21
71.81557993483713
 31
0.0
1001
DBPROPERTIES
1002
{
1000
PbThick
1002
}
  0
LINE
  5
1A5
330
1F
100
AcDbEntity
  8
THICK
100
AcDbLine
 10
79.94940784014754
 20
-10.41403793010943
 30
0.0
 11
96.80497635141171
 21
-12.18562956845407
 31
0.0
1001
DBPROPERTIES
1002
{
1000
PbThick
1002
}
  0
LINE
  5
1A6
330
1F
100
AcDbEntity
  8
THICK
100
AcDbLine
 10
97.2230902044823
 20
-8.207541986980976
 30
0.0
 11
80.36752169321814
 21
-6.435950348636335
 31
0.0
1001
DBPROPERTIES
1002
{
1000
PbThick
1002
}
  0
LINE
  5
1A7
330
1F
100
AcDbEntity
  8
THICK
100
AcDbLine
 10
80.36752169321815
 20
-6.435950348636336
 30
0.0
 11
79.94940784014754
 21
-10.41403793010943
 31
0.0
1001
DBPROPERTIES
1002
{
1000
PbThick
1002
}
  0
LINE
  5
1A8
330
1F
100
AcDbEntity
  8
THICK
100
AcDbLine
 10
172.8580579624675
 20
-16.15709743252812
 30
0.0
 11
99.39109576401556
 21
-8.43540855336745
 31
0.0
1001
DBPROPERTIES
1002
{
1000
PbThick
1002
}
  0
LINE
  5
1A9
330
1F
100
AcDbEntity
  8
HIDDEN
100
AcDbLine
 10
172.8580579624675
 20
-16.15709743252812
 30
0.0
 11
172.8580579624675
 21
-16.15709743252812
 31
0.0
1001
DBPROPERTIES
1002
{
1000
PbHidd
1002
}
  0
LINE
  5
1AA
330
1F
100
AcDbEntity
  8
THICK
100
AcDbLine
 10
176.2394324067197
 20
-16.51249420763815
 30
0.0
 11
172.8580579624675
 21
-16.15709743252812
 31
0.0
1001
DBPROPERTIES
1002
{
1000
PbThick
1002
}
  0
LINE
  5
1AB
330
1F
100
AcDbEntity
  8
HIDDEN
100
AcDbLine
 10
176.2394324067197
 20
-16.51249420763815
 30
0.0
 11
176.2394324067197
 21
-16.51249420763815
 31
0.0
1001
DBPROPERTIES
1002
{
1000
PbHidd
1002
}
  0
LINE
  5
1AC
330
1F
100
AcDbEntity
  8
THICK
100
AcDbLine
 10
80.36752169321815
 20
-6.435950348636336
 30
0.0
 11
72.23369378790771
 21
-5.581050586866062
 31
0.0
1001
DBPROPERTIES
1002
{
1000
PbThick
1002
}
  0
LINE
  5
1AD
330
1F
100
AcDbEntity
  8
THICK
100
AcDbLine
 10
80.36752169321815
 20
6.435950348636309
 30
0.0
 11
97.22309020448232
 21
8.207541986980942
 31
0.0
1001
DBPROPERTIES
1002
{
1000
PbThick
1002
}
  0
LINE
  5
1AE
330
1F
100
AcDbEntity
  8
THICK
100
AcDbLine
 10
96.8049763514117
 20
12.18562956845404
 30
0.0
 11
79.94940784014753
 21
10.4140379301094
 31
0.0
1001
DBPROPERTIES
1002
{
1000
PbThick
1002
}
  0
LINE
  5
1AF
330
1F
100
AcDbEntity
  8
THICK
100
AcDbLine
 10
79.94940784014753
 20
10.4140379301094
 30
0.0
 11
80.36752169321814
 21
6.435950348636309
 31
0.0
1001
DBPROPERTIES
1002
{
1000
PbThick
1002
}
  0
LINE
  5
1B0
330
1F
100
AcDbEntity
  8
THICK
100
AcDbLine
 10
172.4399441093969
 20
20.13518501400115
 30
0.0
 11
98.97298191094495
 21
12.41349613484051
 31
0.0
1001
DBPROPERTIES
1002
{
1000
PbThick
1002
}
  0
LINE
  5
1B1
330
1F
100
AcDbEntity
  8
HIDDEN
100
AcDbLine
 10
172.4399441093969
 20
20.13518501400115
 30
0.0
 11
172.4399441093969
 21
20.13518501400115
 31
0.0
1001
DBPROPERTIES
1002
{
1000
PbHidd
1002
}
  0
LINE
  5
1B2
330
1F
100
AcDbEntity
  8
THICK
100
AcDbLine
 10
175.8213185536491
 20
20.49058178911117
 30
0.0
 11
172.4399441093969
 21
20.13518501400115
 31
0.0
1001
DBPROPERTIES
1002
{
1000
PbThick
1002
}
  0
LINE
  5
1B3
330
1F
100
AcDbEntity
  8
HIDDEN
100
AcDbLine
 10
175.8213185536491
 20
20.49058178911117
 30
0.0
 11
175.8213185536491
 21
20.49058178911117
 31
0.0
1001
DBPROPERTIES
1002
{
1000
PbHidd
1002
}
  0
LINE
  5
1B4
330
1F
100
AcDbEntity
  8
THICK
100
AcDbLine
 10
79.94940784014753
 20
10.4140379301094
 30
0.0
 11
71.8155799348371
 21
9.55913816833913
 31
0.0
1001
DBPROPERTIES
1002
{
1000
PbThick
1002
}
  0
LINE
  5
1B5
330
1F
100
AcDbEntity
  8
THICK
100
AcDbLine
 10
-10.41403793010942
 20
-79.94940784014754
 30
0.0
 11
-12.18562956845399
 21
-96.80497635141099
 31
0.0
1001
DBPROPERTIES
1002
{
1000
PbThick
1002
}
  0
LINE
  5
1B6
330
1F
100
AcDbEntity
  8
THICK
100
AcDbLine
 10
-8.207541986980898
 20
-97.22309020448161
 30
0.0
 11
-6.435950348636331
 21
-80.36752169321814
 31
0.0
1001
DBPROPERTIES
1002
{
1000
PbThick
1002
}
  0
LINE
  5
1B7
330
1F
100
AcDbEntity
  8
THICK
100
AcDbLine
 10
-6.435950348636331
 20
-80.36752169321815
 30
0.0
 11
-10.41403793010942
 21
-79.94940784014754
 31
0.0
1001
DBPROPERTIES
1002
{
1000
PbThick
1002
}
  0
LINE
  5
1B8
330
1F
100
AcDbEntity
  8
THICK
100
AcDbLine
 10
-16.15709743252811
 20
-172.8580579624675
 30
0.0
 11
-8.435408553367443
 21
-99.39109576401556
 31
0.0
1001
DBPROPERTIES
1002
{
1000
PbThick
1002
}
  0
LINE
  5
1B9
330
1F
100
AcDbEntity
  8
HIDDEN
100
AcDbLine
 10
-16.15709743252811
 20
-172.8580579624675
 30
0.0
 11
-16.15709743252811
 21
-172.8580579624675
 31
0.0
1001
DBPROPERTIES
1002
{
1000
PbHidd
1002
}
  0
LINE
  5
1BA
330
1F
100
AcDbEntity
  8
THICK
100
AcDbLine
 10
-16.51249420763813
 20
-176.2394324067197
 30
0.0
 11
-16.15709743252811
 21
-172.8580579624675
 31
0.0
1001
DBPROPERTIES
1002
{
1000
PbThick
1002
}
  0
LINE
  5
1BB
330
1F
100
AcDbEntity
  8
HIDDEN
100
AcDbLine
 10
-16.51249420763813
 20
-176.2394324067197
 30
0.0
 11
-16.51249420763813
 21
-176.2394324067197
 31
0.0
1001
DBPROPERTIES
1002
{
1000
PbHidd
1002
}
  0
LINE
  5
1BC
330
1F
100
AcDbEntity
  8
HIDDEN
100
AcDbLine
 10
-5.581050586866056
 20
-72.2336937879077
 30
0.0
 11
-5.581050586866056
 21
-72.2336937879077
 31
0.0
1001
DBPROPERTIES
1002
{
1000
PbHidd
1002
}
  0
LINE
  5
1BD
330
1F
100
AcDbEntity
  8
THICK
100
AcDbLine
 10
-6.435950348636331
 20
-80.36752169321815
 30
0.0
 11
-5.845649166695766
 21
-74.75118111047726
 31
0.0
1001
DBPROPERTIES
1002
{
1000
PbThick
1002
}
  0
LINE
  5
1BE
330
1F
100
AcDbEntity
  8
HIDDEN
100
AcDbLine
 10
-5.845649166695766
 20
-74.75118111047726
 30
0.0
 11
-5.581050586866057
 21
-72.23369378790771
 31
0.0
1001
DBPROPERTIES
1002
{
1000
PbHidd
1002
}
  0
LINE
  5
1BF
330
1F
100
AcDbEntity
  8
HIDDEN
100
AcDbLine
 10
6.435950348636314
 20
-80.36752169321815
 30
0.0
 11
8.207541986980885
 21
-97.22309020448174
 31
0.0
1001
DBPROPERTIES
1002
{
1000
PbHidd
1002
}
  0
LINE
  5
1C0
330
1F
100
AcDbEntity
  8
HIDDEN
100
AcDbLine
 10
12.18562956845398
 20
-96.80497635141114
 30
0.0
 11
10.41403793010941
 21
-79.94940784014753
 31
0.0
1001
DBPROPERTIES
1002
{
1000
PbHidd
1002
}
  0
LINE
  5
1C1
330
1F
100
AcDbEntity
  8
HIDDEN
100
AcDbLine
 10
10.41403793010941
 20
-79.94940784014753
 30
0.0
 11
6.435950348636315
 21
-80.36752169321814
 31
0.0
1001
DBPROPERTIES
1002
{
1000
PbHidd
1002
}
  0
LINE
  5
1C2
330
1F
100
AcDbEntity
  8
THICK
100
AcDbLine
 10
20.13518501400116
 20
-172.4399441093969
 30
0.0
 11
19.10236863714924
 21
-162.613352685738
 31
0.0
1001
DBPROPERTIES
1002
{
1000
PbThick
1002
}
  0
LINE
  5
1C3
330
1F
100
AcDbEntity
  8
HIDDEN
100
AcDbLine
 10
19.10236863714924
 20
-162.613352685738
 30
0.0
 11
12.41349613484052
 21
-98.97298191094502
 31
0.0
1001
DBPROPERTIES
1002
{
1000
PbHidd
1002
}
  0
LINE
  5
1C4
330
1F
100
AcDbEntity
  8
HIDDEN
100
AcDbLine
 10
20.13518501400116
 20
-172.4399441093969
 30
0.0
 11
20.13518501400116
 21
-172.4399441093969
 31
0.0
1001
DBPROPERTIES
1002
{
1000
PbHidd
1002
}
  0
LINE
  5
1C5
330
1F
100
AcDbEntity
  8
THICK
100
AcDbLine
 10
20.49058178911118
 20
-175.8213185536491
 30
0.0
 11
20.13518501400116
 21
-172.4399441093969
 31
0.0
1001
DBPROPERTIES
1002
{
1000
PbThick
1002
}
  0
LINE
  5
1C6
330
1F
100
AcDbEntity
  8
HIDDEN
100
AcDbLine
 10
20.49058178911118
 20
-175.8213185536491
 30
0.0
 11
20.49058178911118
 21
-175.8213185536491
 31
0.0
1001
DBPROPERTIES
1002
{
1000
PbHidd
1002
}
  0
LINE
  5
1C7
330
1F
100
AcDbEntity
  8
HIDDEN
100
AcDbLine
 10
10.41403793010941
 20
-79.94940784014753
 30
0.0
 11
9.559138168339134
 21
-71.81557993483709
 31
0.0
1001
DBPROPERTIES
1002
{
1000
PbHidd
1002
}
  0
LINE
  5
1C8
330
1F
100
AcDbEntity
  8
HIDDEN
100
AcDbLine
 10
-79.94940784014754
 20
10.41403793010942
 30
0.0
 11
-96.80497635141042
 21
12.18562956845392
 31
0.0
1001
DBPROPERTIES
1002
{
1000
PbHidd
1002
}
  0
LINE
  5
1C9
330
1F
100
AcDbEntity
  8
HIDDEN
100
AcDbLine
 10
-97.22309020448101
 20
8.20754198698083
 30
0.0
 11
-80.36752169321814
 21
6.435950348636327
 31
0.0
1001
DBPROPERTIES
1002
{
1000
PbHidd
1002
}
  0
LINE
  5
1CA
330
1F
100
AcDbEntity
  8
HIDDEN
100
AcDbLine
 10
-80.36752169321815
 20
6.435950348636325
 30
0.0
 11
-79.94940784014754
 21
10.41403793010942
 31
0.0
1001
DBPROPERTIES
1002
{
1000
PbHidd
1002
}
  0
LINE
  5
1CB
330
1F
100
AcDbEntity
  8
THICK
100
AcDbLine
 10
-172.8580579624675
 20
16.1570974325281
 30
0.0
 11
-163.7283713067519
 21
15.19752869836385
 31
0.0
1001
DBPROPERTIES
1002
{
1000
PbThick
1002
}
  0
LINE
  5
1CC
330
1F
100
AcDbEntity
  8
HIDDEN
100
AcDbLine
 10
-163.7283713067519
 20
15.19752869836385
 30
0.0
 11
-99.39109576401563
 21
8.435408553367445
 31
0.0
1001
DBPROPERTIES
1002
{
1000
PbHidd
1002
}
  0
LINE
  5
1CD
330
1F
100
AcDbEntity
  8
HIDDEN
100
AcDbLine
 10
-172.8580579624675
 20
16.1570974325281
 30
0.0
 11
-172.8580579624675
 21
16.1570974325281
 31
0.0
1001
DBPROPERTIES
1002
{
1000
PbHidd
1002
}
  0
LINE
  5
1CE
330
1F
100
AcDbEntity
  8
THICK
100
AcDbLine
 10
-176.2394324067197
 20
16.51249420763812
 30
0.0
 11
-172.8580579624675
 21
16.1570974325281
 31
0.0
1001
DBPROPERTIES
1002
{
1000
PbThick
1002
}
  0
LINE
  5
1CF
330
1F
100
AcDbEntity
  8
HIDDEN
100
AcDbLine
 10
-176.2394324067197
 20
16.51249420763812
 30
0.0
 11
-176.2394324067197
 21
16.51249420763812
 31
0.0
1001
DBPROPERTIES
1002
{
1000
PbHidd
1002
}
  0
LINE
  5
1D0
330
1F
100
AcDbEntity
  8
HIDDEN
100
AcDbLine
 10
-72.23369378790771
 20
5.581050586866053
 30
0.0
 11
-72.23369378790771
 21
5.581050586866054
 31
0.0
1001
DBPROPERTIES
1002
{
1000
PbHidd
1002
}
  0
LINE
  5
1D1
330
1F
100
AcDbEntity
  8
HIDDEN
100
AcDbLine
 10
-80.36752169321815
 20
6.435950348636325
 30
0.0
 11
-72.23369378790773
 21
5.581050586866054
 31
0.0
1001
DBPROPERTIES
1002
{
1000
PbHidd
1002
}
  0
LINE
  5
1D2
330
1F
100
AcDbEntity
  8
HIDDEN
100
AcDbLine
 10
-80.36752169321815
 20
-6.435950348636318
 30
0.0
 11
-97.22309020448103
 21
-8.207541986980816
 31
0.0
1001
DBPROPERTIES
1002
{
1000
PbHidd
1002
}
  0
LINE
  5
1D3
330
1F
100
AcDbEntity
  8
HIDDEN
100
AcDbLine
 10
-96.8049763514104
 20
-12.18562956845391
 30
0.0
 11
-79.94940784014753
 21
-10.41403793010941
 31
0.0
1001
DBPROPERTIES
1002
{
1000
PbHidd
1002
}
  0
LINE
  5
1D4
330
1F
100
AcDbEntity
  8
HIDDEN
100
AcDbLine
 10
-79.94940784014753
 20
-10.41403793010941
 30
0.0
 11
-80.36752169321814
 21
-6.43595034863632
 31
0.0
1001
DBPROPERTIES
1002
{
1000
PbHidd
1002
}
  0
LINE
  5
1D5
330
1F
100
AcDbEntity
  8
THICK
100
AcDbLine
 10
-172.4399441093969
 20
-20.13518501400117
 30
0.0
 11
-161.4428857336011
 21
-18.97934760324116
 31
0.0
1001
DBPROPERTIES
1002
{
1000
PbThick
1002
}
  0
LINE
  5
1D6
330
1F
100
AcDbEntity
  8
HIDDEN
100
AcDbLine
 10
-161.4428857336011
 20
-18.97934760324116
 30
0.0
 11
-98.97298191094501
 21
-12.41349613484053
 31
0.0
1001
DBPROPERTIES
1002
{
1000
PbHidd
1002
}
  0
LINE
  5
1D7
330
1F
100
AcDbEntity
  8
HIDDEN
100
AcDbLine
 10
-172.4399441093969
 20
-20.13518501400117
 30
0.0
 11
-172.4399441093969
 21
-20.13518501400117
 31
0.0
1001
DBPROPERTIES
1002
{
1000
PbHidd
1002
}
  0
LINE
  5
1D8
330
1F
100
AcDbEntity
  8
THICK
100
AcDbLine
 10
-175.8213185536491
 20
-20.49058178911119
 30
0.0
 11
-172.4399441093969
 21
-20.13518501400117
 31
0.0
1001
DBPROPERTIES
1002
{
1000
PbThick
1002
}
  0
LINE
  5
1D9
330
1F
100
AcDbEntity
  8
HIDDEN
100
AcDbLine
 10
-175.8213185536491
 20
-20.49058178911119
 30
0.0
 11
-175.8213185536491
 21
-20.49058178911119
 31
0.0
1001
DBPROPERTIES
1002
{
1000
PbHidd
1002
}
  0
LINE
  5
1DA
330
1F
100
AcDbEntity
  8
HIDDEN
100
AcDbLine
 10
-71.8155799348371
 20
-9.559138168339143
 30
0.0
 11
-71.8155799348371
 21
-9.559138168339143
 31
0.0
1001
DBPROPERTIES
1002
{
1000
PbHidd
1002
}
  0
LINE
  5
1DB
330
1F
100
AcDbEntity
  8
HIDDEN
100
AcDbLine
 10
-79.94940784014753
 20
-10.41403793010941
 30
0.0
 11
-71.8155799348371
 21
-9.55913816833914
 31
0.0
1001
DBPROPERTIES
1002
{
1000
PbHidd
1002
}
  0
LINE
  5
1DC
330
1F
100
AcDbEntity
  8
HIDDEN
100
AcDbLine
 10
9.559138168339166
 20
71.81557993483712
 30
0.0
 11
10.41403793010944
 21
79.94940784014753
 31
0.0
1001
DBPROPERTIES
1002
{
1000
PbHidd
1002
}
  0
LINE
  5
1DD
330
1F
100
AcDbEntity
  8
HIDDEN
100
AcDbLine
 10
12.41349613484055
 20
98.97298191094497
 30
0.0
 11
19.03851385461709
 21
162.0058150125815
 31
0.0
1001
DBPROPERTIES
1002
{
1000
PbHidd
1002
}
  0
LINE
  5
1DE
330
1F
100
AcDbEntity
  8
THICK
100
AcDbLine
 10
19.03851385461709
 20
162.0058150125815
 30
0.0
 11
20.13518501400122
 21
172.4399441093969
 31
0.0
1001
DBPROPERTIES
1002
{
1000
PbThick
1002
}
  0
LINE
  5
1DF
330
1F
100
AcDbEntity
  8
HIDDEN
100
AcDbLine
 10
20.13518501400122
 20
172.4399441093969
 30
0.0
 11
20.13518501400122
 21
172.4399441093969
 31
0.0
1001
DBPROPERTIES
1002
{
1000
PbHidd
1002
}
  0
LINE
  5
1E0
330
1F
100
AcDbEntity
  8
THICK
100
AcDbLine
 10
16.15709743252813
 20
172.8580579624675
 30
0.0
 11
20.13518501400122
 21
172.4399441093969
 31
0.0
1001
DBPROPERTIES
1002
{
1000
PbThick
1002
}
  0
LINE
  5
1E1
330
1F
100
AcDbEntity
  8
THICK
100
AcDbLine
 10
20.13518501400123
 20
172.4399441093969
 30
0.0
 11
20.49058178911125
 21
175.8213185536491
 31
0.0
1001
DBPROPERTIES
1002
{
1000
PbThick
1002
}
  0
LINE
  5
1E2
330
1F
100
AcDbEntity
  8
THICK
100
AcDbLine
 10
16.51249420763816
 20
176.2394324067197
 30
0.0
 11
20.49058178911125
 21
175.8213185536491
 31
0.0
1001
DBPROPERTIES
1002
{
1000
PbThick
1002
}
  0
LINE
  5
1E3
330
1F
100
AcDbEntity
  8
HIDDEN
100
AcDbLine
 10
20.49058178911125
 20
175.8213185536491
 30
0.0
 11
20.49058178911125
 21
175.8213185536491
 31
0.0
1001
DBPROPERTIES
1002
{
1000
PbHidd
1002
}
  0
LINE
  5
1E4
330
1F
100
AcDbEntity
  8
HIDDEN
100
AcDbLine
 10
8.104947775091393
 20
96.24697148167107
 30
0.0
 11
12.08303535656448
 21
95.82885762860046
 31
0.0
1001
DBPROPERTIES
1002
{
1000
PbHidd
1002
}
  0
LINE
  5
1E5
330
1F
100
AcDbEntity
  8
HIDDEN
100
AcDbLine
 10
6.258251961081326
 20
78.67683447109206
 30
0.0
 11
10.23633954255442
 21
78.25872061802146
 31
0.0
1001
DBPROPERTIES
1002
{
1000
PbHidd
1002
}
  0
LINE
  5
1E6
330
1F
100
AcDbEntity
  8
THICK
100
AcDbLine
 10
-5.581050586866033
 20
72.23369378790774
 30
0.0
 11
-6.4359503486363
 21
80.36752169321815
 31
0.0
1001
DBPROPERTIES
1002
{
1000
PbThick
1002
}
  0
LINE
  5
1E7
330
1F
100
AcDbEntity
  8
THICK
100
AcDbLine
 10
-8.43540855336741
 20
99.39109576401556
 30
0.0
 11
-16.15709743252805
 21
172.8580579624675
 31
0.0
1001
DBPROPERTIES
1002
{
1000
PbThick
1002
}
  0
LINE
  5
1E8
330
1F
100
AcDbEntity
  8
HIDDEN
100
AcDbLine
 10
-16.15709743252805
 20
172.8580579624675
 30
0.0
 11
-16.15709743252805
 21
172.8580579624675
 31
0.0
1001
DBPROPERTIES
1002
{
1000
PbHidd
1002
}
  0
LINE
  5
1E9
330
1F
100
AcDbEntity
  8
THICK
100
AcDbLine
 10
-20.13518501400114
 20
172.4399441093969
 30
0.0
 11
-16.15709743252805
 21
172.8580579624675
 31
0.0
1001
DBPROPERTIES
1002
{
1000
PbThick
1002
}
  0
LINE
  5
1EA
330
1F
100
AcDbEntity
  8
THICK
100
AcDbLine
 10
-16.15709743252805
 20
172.8580579624675
 30
0.0
 11
-16.51249420763807
 21
176.2394324067197
 31
0.0
1001
DBPROPERTIES
1002
{
1000
PbThick
1002
}
  0
LINE
  5
1EB
330
1F
100
AcDbEntity
  8
THICK
100
AcDbLine
 10
-20.49058178911116
 20
175.8213185536491
 30
0.0
 11
-16.51249420763807
 21
176.2394324067197
 31
0.0
1001
DBPROPERTIES
1002
{
1000
PbThick
1002
}
  0
LINE
  5
1EC
330
1F
100
AcDbEntity
  8
HIDDEN
100
AcDbLine
 10
-16.51249420763807
 20
176.2394324067197
 30
0.0
 11
-16.51249420763807
 21
176.2394324067197
 31
0.0
1001
DBPROPERTIES
1002
{
1000
PbHidd
1002
}
  0
LINE
  5
1ED
330
1F
100
AcDbEntity
  8
HIDDEN
100
AcDbLine
 10
-12.08303535656444
 20
95.82885762860045
 30
0.0
 11
-8.104947775091354
 21
96.24697148167105
 31
0.0
1001
DBPROPERTIES
1002
{
1000
PbHidd
1002
}
  0
LINE
  5
1EE
330
1F
100
AcDbEntity
  8
HIDDEN
100
AcDbLine
 10
-10.23633954255438
 20
78.25872061802146
 30
0.0
 11
-6.258251961081292
 21
78.67683447109206
 31
0.0
1001
DBPROPERTIES
1002
{
1000
PbHidd
1002
}
  0
LINE
  5
1EF
330
1F
100
AcDbEntity
  8
HIDDEN
100
AcDbLine
 10
-5.581050586866034
 20
72.23369378790773
 30
0.0
 11
-5.581050586866034
 21
72.23369378790773
 31
0.0
1001
DBPROPERTIES
1002
{
1000
PbHidd
1002
}
  0
LINE
  5
1F0
330
1F
100
AcDbEntity
  8
THICK
100
AcDbLine
 10
71.8155799348371
 20
-9.559138168339159
 30
0.0
 11
79.94940784014753
 21
-10.41403793010943
 31
0.0
1001
DBPROPERTIES
1002
{
1000
PbThick
1002
}
  0
LINE
  5
1F1
330
1F
100
AcDbEntity
  8
THICK
100
AcDbLine
 10
98.97298191094495
 20
-12.41349613484054
 30
0.0
 11
172.4399441093969
 21
-20.13518501400121
 31
0.0
1001
DBPROPERTIES
1002
{
1000
PbThick
1002
}
  0
LINE
  5
1F2
330
1F
100
AcDbEntity
  8
HIDDEN
100
AcDbLine
 10
172.4399441093969
 20
-20.13518501400121
 30
0.0
 11
172.4399441093969
 21
-20.13518501400121
 31
0.0
1001
DBPROPERTIES
1002
{
1000
PbHidd
1002
}
  0
LINE
  5
1F3
330
1F
100
AcDbEntity
  8
THICK
100
AcDbLine
 10
172.8580579624675
 20
-16.15709743252812
 30
0.0
 11
172.4399441093969
 21
-20.13518501400121
 31
0.0
1001
DBPROPERTIES
1002
{
1000
PbThick
1002
}
  0
LINE
  5
1F4
330
1F
100
AcDbEntity
  8
THICK
100
AcDbLine
 10
172.4399441093969
 20
-20.13518501400122
 30
0.0
 11
175.8213185536491
 21
-20.49058178911124
 31
0.0
1001
DBPROPERTIES
1002
{
1000
PbThick
1002
}
  0
LINE
  5
1F5
330
1F
100
AcDbEntity
  8
THICK
100
AcDbLine
 10
176.2394324067197
 20
-16.51249420763815
 30
0.0
 11
175.8213185536491
 21
-20.49058178911124
 31
0.0
1001
DBPROPERTIES
1002
{
1000
PbThick
1002
}
  0
LINE
  5
1F6
330
1F
100
AcDbEntity
  8
HIDDEN
100
AcDbLine
 10
175.8213185536491
 20
-20.49058178911124
 30
0.0
 11
175.8213185536491
 21
-20.49058178911124
 31
0.0
1001
DBPROPERTIES
1002
{
1000
PbHidd
1002
}
  0
LINE
  5
1F7
330
1F
100
AcDbEntity
  8
HIDDEN
100
AcDbLine
 10
96.24697148167107
 20
-8.104947775091388
 30
0.0
 11
95.82885762860046
 21
-12.08303535656448
 31
0.0
1001
DBPROPERTIES
1002
{
1000
PbHidd
1002
}
  0
LINE
  5
1F8
330
1F
100
AcDbEntity
  8
HIDDEN
100
AcDbLine
 10
78.67683447109206
 20
-6.258251961081322
 30
0.0
 11
78.25872061802146
 21
-10.23633954255441
 31
0.0
1001
DBPROPERTIES
1002
{
1000
PbHidd
1002
}
  0
LINE
  5
1F9
330
1F
100
AcDbEntity
  8
THICK
100
AcDbLine
 10
72.23369378790773
 20
5.581050586866036
 30
0.0
 11
80.36752169321815
 21
6.435950348636306
 31
0.0
1001
DBPROPERTIES
1002
{
1000
PbThick
1002
}
  0
LINE
  5
1FA
330
1F
100
AcDbEntity
  8
THICK
100
AcDbLine
 10
99.39109576401555
 20
8.435408553367413
 30
0.0
 11
172.8580579624675
 21
16.15709743252806
 31
0.0
1001
DBPROPERTIES
1002
{
1000
PbThick
1002
}
  0
LINE
  5
1FB
330
1F
100
AcDbEntity
  8
HIDDEN
100
AcDbLine
 10
172.8580579624675
 20
16.15709743252806
 30
0.0
 11
172.8580579624675
 21
16.15709743252806
 31
0.0
1001
DBPROPERTIES
1002
{
1000
PbHidd
1002
}
  0
LINE
  5
1FC
330
1F
100
AcDbEntity
  8
THICK
100
AcDbLine
 10
172.4399441093969
 20
20.13518501400115
 30
0.0
 11
172.8580579624675
 21
16.15709743252806
 31
0.0
1001
DBPROPERTIES
1002
{
1000
PbThick
1002
}
  0
LINE
  5
1FD
330
1F
100
AcDbEntity
  8
THICK
100
AcDbLine
 10
172.8580579624675
 20
16.15709743252805
 30
0.0
 11
176.2394324067197
 21
16.51249420763808
 31
0.0
1001
DBPROPERTIES
1002
{
1000
PbThick
1002
}
  0
LINE
  5
1FE
330
1F
100
AcDbEntity
  8
THICK
100
AcDbLine
 10
175.8213185536491
 20
20.49058178911117
 30
0.0
 11
176.2394324067197
 21
16.51249420763808
 31
0.0
1001
DBPROPERTIES
1002
{
1000
PbThick
1002
}
  0
LINE
  5
1FF
330
1F
100
AcDbEntity
  8
HIDDEN
100
AcDbLine
 10
176.2394324067197
 20
16.51249420763808
 30
0.0
 11
176.2394324067197
 21
16.51249420763808
 31
0.0
1001
DBPROPERTIES
1002
{
1000
PbHidd
1002
}
  0
LINE
  5
200
330
1F
100
AcDbEntity
  8
HIDDEN
100
AcDbLine
 10
95.82885762860045
 20
12.08303535656445
 30
0.0
 11
96.24697148167105
 21
8.10494777509136
 31
0.0
1001
DBPROPERTIES
1002
{
1000
PbHidd
1002
}
  0
LINE
  5
201
330
1F
100
AcDbEntity
  8
HIDDEN
100
AcDbLine
 10
78.25872061802146
 20
10.23633954255439
 30
0.0
 11
78.67683447109206
 21
6.258251961081298
 31
0.0
1001
DBPROPERTIES
1002
{
1000
PbHidd
1002
}
  0
LINE
  5
202
330
1F
100
AcDbEntity
  8
THICK
100
AcDbLine
 10
-9.559138168339153
 20
-71.81557993483709
 30
0.0
 11
-10.41403793010943
 21
-79.94940784014753
 31
0.0
1001
DBPROPERTIES
1002
{
1000
PbThick
1002
}
  0
LINE
  5
203
330
1F
100
AcDbEntity
  8
THICK
100
AcDbLine
 10
-12.41349613484054
 20
-98.97298191094495
 30
0.0
 11
-20.1351850140012
 21
-172.4399441093969
 31
0.0
1001
DBPROPERTIES
1002
{
1000
PbThick
1002
}
  0
LINE
  5
204
330
1F
100
AcDbEntity
  8
HIDDEN
100
AcDbLine
 10
-20.1351850140012
 20
-172.4399441093969
 30
0.0
 11
-20.1351850140012
 21
-172.4399441093969
 31
0.0
1001
DBPROPERTIES
1002
{
1000
PbHidd
1002
}
  0
LINE
  5
205
330
1F
100
AcDbEntity
  8
THICK
100
AcDbLine
 10
-16.15709743252811
 20
-172.8580579624675
 30
0.0
 11
-20.1351850140012
 21
-172.4399441093969
 31
0.0
1001
DBPROPERTIES
1002
{
1000
PbThick
1002
}
  0
LINE
  5
206
330
1F
100
AcDbEntity
  8
THICK
100
AcDbLine
 10
-20.13518501400121
 20
-172.4399441093969
 30
0.0
 11
-20.49058178911123
 21
-175.8213185536491
 31
0.0
1001
DBPROPERTIES
1002
{
1000
PbThick
1002
}
  0
LINE
  5
207
330
1F
100
AcDbEntity
  8
THICK
100
AcDbLine
 10
-16.51249420763813
 20
-176.2394324067197
 30
0.0
 11
-20.49058178911122
 21
-175.8213185536491
 31
0.0
1001
DBPROPERTIES
1002
{
1000
PbThick
1002
}
  0
LINE
  5
208
330
1F
100
AcDbEntity
  8
HIDDEN
100
AcDbLine
 10
-20.49058178911123
 20
-175.8213185536491
 30
0.0
 11
-20.49058178911123
 21
-175.8213185536491
 31
0.0
1001
DBPROPERTIES
1002
{
1000
PbHidd
1002
}
  0
LINE
  5
209
330
1F
100
AcDbEntity
  8
HIDDEN
100
AcDbLine
 10
-8.104947775091382
 20
-96.24697148167107
 30
0.0
 11
-12.08303535656447
 21
-95.82885762860046
 31
0.0
1001
DBPROPERTIES
1002
{
1000
PbHidd
1002
}
  0
LINE
  5
20A
330
1F
100
AcDbEntity
  8
HIDDEN
100
AcDbLine
 10
-6.258251961081317
 20
-78.67683447109206
 30
0.0
 11
-10.23633954255441
 21
-78.25872061802146
 31
0.0
1001
DBPROPERTIES
1002
{
1000
PbHidd
1002
}
  0
LINE
  5
20B
330
1F
100
AcDbEntity
  8
HIDDEN
100
AcDbLine
 10
-9.559138168339148
 20
-71.81557993483709
 30
0.0
 11
-9.559138168339148
 21
-71.81557993483709
 31
0.0
1001
DBPROPERTIES
1002
{
1000
PbHidd
1002
}
  0
LINE
  5
20C
330
1F
100
AcDbEntity
  8
HIDDEN
100
AcDbLine
 10
5.58105058686604
 20
-72.23369378790771
 30
0.0
 11
6.435950348636311
 21
-80.36752169321815
 31
0.0
1001
DBPROPERTIES
1002
{
1000
PbHidd
1002
}
  0
LINE
  5
20D
330
1F
100
AcDbEntity
  8
HIDDEN
100
AcDbLine
 10
8.435408553367429
 20
-99.39109576401563
 30
0.0
 11
14.97849838888338
 21
-161.6444371158338
 31
0.0
1001
DBPROPERTIES
1002
{
1000
PbHidd
1002
}
  0
LINE
  5
20E
330
1F
100
AcDbEntity
  8
THICK
100
AcDbLine
 10
14.97849838888338
 20
-161.6444371158338
 30
0.0
 11
16.15709743252807
 21
-172.8580579624675
 31
0.0
1001
DBPROPERTIES
1002
{
1000
PbThick
1002
}
  0
LINE
  5
20F
330
1F
100
AcDbEntity
  8
HIDDEN
100
AcDbLine
 10
16.15709743252807
 20
-172.8580579624675
 30
0.0
 11
16.15709743252807
 21
-172.8580579624675
 31
0.0
1001
DBPROPERTIES
1002
{
1000
PbHidd
1002
}
  0
LINE
  5
210
330
1F
100
AcDbEntity
  8
THICK
100
AcDbLine
 10
20.13518501400116
 20
-172.4399441093969
 30
0.0
 11
16.15709743252807
 21
-172.8580579624675
 31
0.0
1001
DBPROPERTIES
1002
{
1000
PbThick
1002
}
  0
LINE
  5
211
330
1F
100
AcDbEntity
  8
THICK
100
AcDbLine
 10
16.15709743252807
 20
-172.8580579624675
 30
0.0
 11
16.51249420763809
 21
-176.2394324067197
 31
0.0
1001
DBPROPERTIES
1002
{
1000
PbThick
1002
}
  0
LINE
  5
212
330
1F
100
AcDbEntity
  8
THICK
100
AcDbLine
 10
20.49058178911118
 20
-175.8213185536491
 30
0.0
 11
16.51249420763809
 21
-176.2394324067197
 31
0.0
1001
DBPROPERTIES
1002
{
1000
PbThick
1002
}
  0
LINE
  5
213
330
1F
100
AcDbEntity
  8
HIDDEN
100
AcDbLine
 10
16.51249420763809
 20
-176.2394324067197
 30
0.0
 11
16.51249420763809
 21
-176.2394324067197
 31
0.0
1001
DBPROPERTIES
1002
{
1000
PbHidd
1002
}
  0
LINE
  5
214
330
1F
100
AcDbEntity
  8
HIDDEN
100
AcDbLine
 10
12.08303535656446
 20
-95.82885762860045
 30
0.0
 11
8.104947775091365
 21
-96.24697148167105
 31
0.0
1001
DBPROPERTIES
1002
{
1000
PbHidd
1002
}
  0
LINE
  5
215
330
1F
100
AcDbEntity
  8
HIDDEN
100
AcDbLine
 10
10.23633954255439
 20
-78.25872061802146
 30
0.0
 11
6.258251961081303
 21
-78.67683447109206
 31
0.0
1001
DBPROPERTIES
1002
{
1000
PbHidd
1002
}
  0
LINE
  5
216
330
1F
100
AcDbEntity
  8
HIDDEN
100
AcDbLine
 10
-71.8155799348371
 20
9.55913816833915
 30
0.0
 11
-79.94940784014753
 21
10.41403793010942
 31
0.0
1001
DBPROPERTIES
1002
{
1000
PbHidd
1002
}
  0
LINE
  5
217
330
1F
100
AcDbEntity
  8
HIDDEN
100
AcDbLine
 10
-98.97298191094502
 20
12.41349613484054
 30
0.0
 11
-162.1108100277607
 21
19.04954927539418
 31
0.0
1001
DBPROPERTIES
1002
{
1000
PbHidd
1002
}
  0
LINE
  5
218
330
1F
100
AcDbEntity
  8
THICK
100
AcDbLine
 10
-162.1108100277607
 20
19.04954927539418
 30
0.0
 11
-172.4399441093969
 21
20.13518501400119
 31
0.0
1001
DBPROPERTIES
1002
{
1000
PbThick
1002
}
  0
LINE
  5
219
330
1F
100
AcDbEntity
  8
HIDDEN
100
AcDbLine
 10
-172.4399441093969
 20
20.13518501400119
 30
0.0
 11
-172.4399441093969
 21
20.13518501400119
 31
0.0
1001
DBPROPERTIES
1002
{
1000
PbHidd
1002
}
  0
LINE
  5
21A
330
1F
100
AcDbEntity
  8
THICK
100
AcDbLine
 10
-172.8580579624675
 20
16.1570974325281
 30
0.0
 11
-172.4399441093969
 21
20.13518501400119
 31
0.0
1001
DBPROPERTIES
1002
{
1000
PbThick
1002
}
  0
LINE
  5
21B
330
1F
100
AcDbEntity
  8
THICK
100
AcDbLine
 10
-172.4399441093969
 20
20.13518501400119
 30
0.0
 11
-175.8213185536491
 21
20.49058178911122
 31
0.0
1001
DBPROPERTIES
1002
{
1000
PbThick
1002
}
  0
LINE
  5
21C
330
1F
100
AcDbEntity
  8
THICK
100
AcDbLine
 10
-176.2394324067197
 20
16.51249420763812
 30
0.0
 11
-175.8213185536491
 21
20.49058178911121
 31
0.0
1001
DBPROPERTIES
1002
{
1000
PbThick
1002
}
  0
LINE
  5
21D
330
1F
100
AcDbEntity
  8
HIDDEN
100
AcDbLine
 10
-175.8213185536491
 20
20.49058178911122
 30
0.0
 11
-175.8213185536491
 21
20.49058178911122
 31
0.0
1001
DBPROPERTIES
1002
{
1000
PbHidd
1002
}
  0
LINE
  5
21E
330
1F
100
AcDbEntity
  8
HIDDEN
100
AcDbLine
 10
-96.24697148167107
 20
8.104947775091377
 30
0.0
 11
-95.82885762860046
 21
12.08303535656447
 31
0.0
1001
DBPROPERTIES
1002
{
1000
PbHidd
1002
}
  0
LINE
  5
21F
330
1F
100
AcDbEntity
  8
HIDDEN
100
AcDbLine
 10
-78.67683447109206
 20
6.258251961081313
 30
0.0
 11
-78.25872061802146
 21
10.2363395425544
 31
0.0
1001
DBPROPERTIES
1002
{
1000
PbHidd
1002
}
  0
LINE
  5
220
330
1F
100
AcDbEntity
  8
HIDDEN
100
AcDbLine
 10
-71.8155799348371
 20
9.559138168339146
 30
0.0
 11
-71.8155799348371
 21
9.559138168339146
 31
0.0
1001
DBPROPERTIES
1002
{
1000
PbHidd
1002
}
  0
LINE
  5
221
330
1F
100
AcDbEntity
  8
HIDDEN
100
AcDbLine
 10
-72.23369378790771
 20
-5.581050586866045
 30
0.0
 11
-80.36752169321815
 21
-6.435950348636316
 31
0.0
1001
DBPROPERTIES
1002
{
1000
PbHidd
1002
}
  0
LINE
  5
222
330
1F
100
AcDbEntity
  8
HIDDEN
100
AcDbLine
 10
-99.39109576401562
 20
-8.435408553367434
 30
0.0
 11
-163.20664243448
 21
-15.14269278422767
 31
0.0
1001
DBPROPERTIES
1002
{
1000
PbHidd
1002
}
  0
LINE
  5
223
330
1F
100
AcDbEntity
  8
THICK
100
AcDbLine
 10
-163.20664243448
 20
-15.14269278422767
 30
0.0
 11
-172.8580579624675
 21
-16.15709743252808
 31
0.0
1001
DBPROPERTIES
1002
{
1000
PbThick
1002
}
  0
LINE
  5
224
330
1F
100
AcDbEntity
  8
HIDDEN
100
AcDbLine
 10
-172.8580579624675
 20
-16.15709743252808
 30
0.0
 11
-172.8580579624675
 21
-16.15709743252808
 31
0.0
1001
DBPROPERTIES
1002
{
1000
PbHidd
1002
}
  0
LINE
  5
225
330
1F
100
AcDbEntity
  8
THICK
100
AcDbLine
 10
-172.4399441093969
 20
-20.13518501400117
 30
0.0
 11
-172.8580579624675
 21
-16.15709743252808
 31
0.0
1001
DBPROPERTIES
1002
{
1000
PbThick
1002
}
  0
LINE
  5
226
330
1F
100
AcDbEntity
  8
THICK
100
AcDbLine
 10
-172.8580579624675
 20
-16.15709743252808
 30
0.0
 11
-176.2394324067197
 21
-16.5124942076381
 31
0.0
1001
DBPROPERTIES
1002
{
1000
PbThick
1002
}
  0
LINE
  5
227
330
1F
100
AcDbEntity
  8
THICK
100
AcDbLine
 10
-175.8213185536491
 20
-20.49058178911119
 30
0.0
 11
-176.2394324067197
 21
-16.5124942076381
 31
0.0
1001
DBPROPERTIES
1002
{
1000
PbThick
1002
}
  0
LINE
  5
228
330
1F
100
AcDbEntity
  8
HIDDEN
100
AcDbLine
 10
-176.2394324067197
 20
-16.5124942076381
 30
0.0
 11
-176.2394324067197
 21
-16.5124942076381
 31
0.0
1001
DBPROPERTIES
1002
{
1000
PbHidd
1002
}
  0
LINE
  5
229
330
1F
100
AcDbEntity
  8
HIDDEN
100
AcDbLine
 10
-95.82885762860045
 20
-12.08303535656446
 30
0.0
 11
-96.24697148167105
 21
-8.10494777509137
 31
0.0
1001
DBPROPERTIES
1002
{
1000
PbHidd
1002
}
  0
LINE
  5
22A
330
1F
100
AcDbEntity
  8
HIDDEN
100
AcDbLine
 10
-78.25872061802146
 20
-10.2363395425544
 30
0.0
 11
-78.67683447109206
 21
-6.258251961081308
 31
0.0
1001
DBPROPERTIES
1002
{
1000
PbHidd
1002
}
  0
LINE
  5
22B
330
1F
100
AcDbEntity
  8
HIDDEN
100
AcDbLine
 10
-72.23369378790771
 20
-5.581050586866045
 30
0.0
 11
-72.23369378790771
 21
-5.581050586866046
 31
0.0
1001
DBPROPERTIES
1002
{
1000
PbHidd
1002
}
  0
ARC
  5
22C
330
1F
100
AcDbEntity
  8
HIDDEN
100
AcDbCircle
 10
0.0
 20
0.0000000000000139
 30
0.0
 40
50.71428571428572
100
AcDbArc
 50
267.0000117086634
 51
270.0000187239684
1001
DBPROPERTIES
1002
{
1000
PbHidd
1002
}
  0
LINE
  5
22D
330
1F
100
AcDbEntity
  8
HIDDEN
100
AcDbLine
 10
-2.654180638035036
 20
-50.64478354826765
 30
0.0
 11
-2.654180638035036
 21
-50.64478354826765
 31
0.0
1001
DBPROPERTIES
1002
{
1000
PbHidd
1002
}
  0
LINE
  5
22E
330
1F
100
AcDbEntity
  8
HIDDEN
100
AcDbLine
 10
13.12582300162782
 20
-48.98623833323131
 30
0.0
 11
13.12582300162782
 21
-48.98623833323131
 31
0.0
1001
DBPROPERTIES
1002
{
1000
PbHidd
1002
}
  0
ARC
  5
22F
330
1F
100
AcDbEntity
  8
HIDDEN
100
AcDbCircle
 10
0.0
 20
0.0000000000000139
 30
0.0
 40
50.71428571428572
100
AcDbArc
 50
278.9999824741038
 51
284.9999965047138
1001
DBPROPERTIES
1002
{
1000
PbHidd
1002
}
  0
LINE
  5
230
330
1F
100
AcDbEntity
  8
HIDDEN
100
AcDbLine
 10
7.933462155611694
 20
-50.08990870161055
 30
0.0
 11
7.933462155611694
 21
-50.08990870161055
 31
0.0
1001
DBPROPERTIES
1002
{
1000
PbHidd
1002
}
  0
LINE
  5
231
330
1F
100
AcDbEntity
  8
HIDDEN
100
AcDbLine
 10
-7.933462155611723
 20
-50.08990870161054
 30
0.0
 11
-7.933462155611723
 21
-50.08990870161054
 31
0.0
1001
DBPROPERTIES
1002
{
1000
PbHidd
1002
}
  0
ARC
  5
232
330
1F
100
AcDbEntity
  8
HIDDEN
100
AcDbCircle
 10
0.0
 20
0.0000000000000139
 30
0.0
 40
50.71428571428572
100
AcDbArc
 50
254.9999836474434
 51
260.9999976780534
1001
DBPROPERTIES
1002
{
1000
PbHidd
1002
}
  0
LINE
  5
233
330
1F
100
AcDbEntity
  8
HIDDEN
100
AcDbLine
 10
-13.12582300162785
 20
-48.98623833323131
 30
0.0
 11
-13.12582300162785
 21
-48.98623833323131
 31
0.0
1001
DBPROPERTIES
1002
{
1000
PbHidd
1002
}
  0
LINE
  5
234
330
1F
100
AcDbEntity
  8
HIDDEN
100
AcDbLine
 10
23.02380391536271
 20
-45.18675944098151
 30
0.0
 11
23.02380391536271
 21
-45.18675944098151
 31
0.0
1001
DBPROPERTIES
1002
{
1000
PbHidd
1002
}
  0
ARC
  5
235
330
1F
100
AcDbEntity
  8
HIDDEN
100
AcDbCircle
 10
0.0
 20
0.0000000000000139
 30
0.0
 40
50.71428571428572
100
AcDbArc
 50
291.0000105353237
 51
297.0000245659338
1001
DBPROPERTIES
1002
{
1000
PbHidd
1002
}
  0
LINE
  5
236
330
1F
100
AcDbEntity
  8
HIDDEN
100
AcDbLine
 10
18.17437458408306
 20
-47.3458644866438
 30
0.0
 11
18.17437458408306
 21
-47.3458644866438
 31
0.0
1001
DBPROPERTIES
1002
{
1000
PbHidd
1002
}
  0
LINE
  5
237
330
1F
100
AcDbEntity
  8
HIDDEN
100
AcDbLine
 10
-18.17437458408309
 20
-47.34586448664378
 30
0.0
 11
-18.17437458408309
 21
-47.34586448664378
 31
0.0
1001
DBPROPERTIES
1002
{
1000
PbHidd
1002
}
  0
ARC
  5
238
330
1F
100
AcDbEntity
  8
HIDDEN
100
AcDbCircle
 10
0.0
 20
0.0000000000000139
 30
0.0
 40
50.71428571428572
100
AcDbArc
 50
243.0000128820029
 51
249.0000269126129
1001
DBPROPERTIES
1002
{
1000
PbHidd
1002
}
  0
LINE
  5
239
330
1F
100
AcDbEntity
  8
HIDDEN
100
AcDbLine
 10
-23.02380391536274
 20
-45.18675944098149
 30
0.0
 11
-23.02380391536274
 21
-45.18675944098149
 31
0.0
1001
DBPROPERTIES
1002
{
1000
PbHidd
1002
}
  0
LINE
  5
23A
330
1F
100
AcDbEntity
  8
HIDDEN
100
AcDbLine
 10
31.91553411752744
 20
-39.4124023310321
 30
0.0
 11
31.91553411752744
 21
-39.4124023310321
 31
0.0
1001
DBPROPERTIES
1002
{
1000
PbHidd
1002
}
  0
ARC
  5
23B
330
1F
100
AcDbEntity
  8
HIDDEN
100
AcDbCircle
 10
0.0
 20
0.0000000000000139
 30
0.0
 40
50.71428571428572
100
AcDbArc
 50
302.9999813007643
 51
308.9999953313742
1001
DBPROPERTIES
1002
{
1000
PbHidd
1002
}
  0
LINE
  5
23C
330
1F
100
AcDbEntity
  8
HIDDEN
100
AcDbLine
 10
27.62097963290491
 20
-42.5325788029465
 30
0.0
 11
27.62097963290491
 21
-42.5325788029465
 31
0.0
1001
DBPROPERTIES
1002
{
1000
PbHidd
1002
}
  0
LINE
  5
23D
330
1F
100
AcDbEntity
  8
HIDDEN
100
AcDbLine
 10
-27.62097963290497
 20
-42.53257880294648
 30
0.0
 11
-27.62097963290497
 21
-42.53257880294648
 31
0.0
1001
DBPROPERTIES
1002
{
1000
PbHidd
1002
}
  0
ARC
  5
23E
330
1F
100
AcDbEntity
  8
HIDDEN
100
AcDbCircle
 10
0.0
 20
0.0000000000000139
 30
0.0
 40
50.71428571428572
100
AcDbArc
 50
230.999984820783
 51
236.999998851393
1001
DBPROPERTIES
1002
{
1000
PbHidd
1002
}
  0
LINE
  5
23F
330
1F
100
AcDbEntity
  8
HIDDEN
100
AcDbLine
 10
-31.91553411752749
 20
-39.41240233103207
 30
0.0
 11
-31.91553411752749
 21
-39.41240233103207
 31
0.0
1001
DBPROPERTIES
1002
{
1000
PbHidd
1002
}
  0
LINE
  5
240
330
1F
100
AcDbEntity
  8
HIDDEN
100
AcDbLine
 10
39.41240233103208
 20
-31.91553411752748
 30
0.0
 11
39.41240233103208
 21
-31.91553411752747
 31
0.0
1001
DBPROPERTIES
1002
{
1000
PbHidd
1002
}
  0
ARC
  5
241
330
1F
100
AcDbEntity
  8
HIDDEN
100
AcDbCircle
 10
0.0
 20
0.0000000000000139
 30
0.0
 40
50.71428571428572
100
AcDbArc
 50
315.0000093619842
 51
321.0000233925941
1001
DBPROPERTIES
1002
{
1000
PbHidd
1002
}
  0
LINE
  5
242
330
1F
100
AcDbEntity
  8
HIDDEN
100
AcDbLine
 10
35.86041533160346
 20
-35.86041533160348
 30
0.0
 11
35.86041533160346
 21
-35.86041533160348
 31
0.0
1001
DBPROPERTIES
1002
{
1000
PbHidd
1002
}
  0
LINE
  5
243
330
1F
100
AcDbEntity
  8
HIDDEN
100
AcDbLine
 10
-35.86041533160348
 20
-35.86041533160347
 30
0.0
 11
-35.86041533160348
 21
-35.86041533160347
 31
0.0
1001
DBPROPERTIES
1002
{
1000
PbHidd
1002
}
  0
ARC
  5
244
330
1F
100
AcDbEntity
  8
HIDDEN
100
AcDbCircle
 10
0.0
 20
0.0000000000000139
 30
0.0
 40
50.71428571428572
100
AcDbArc
 50
219.0000140553425
 51
225.0000280859525
1001
DBPROPERTIES
1002
{
1000
PbHidd
1002
}
  0
LINE
  5
245
330
1F
100
AcDbEntity
  8
HIDDEN
100
AcDbLine
 10
-39.41240233103209
 20
-31.91553411752745
 30
0.0
 11
-39.41240233103209
 21
-31.91553411752745
 31
0.0
1001
DBPROPERTIES
1002
{
1000
PbHidd
1002
}
  0
LINE
  5
246
330
1F
100
AcDbEntity
  8
HIDDEN
100
AcDbLine
 10
45.1867594409815
 20
-23.02380391536275
 30
0.0
 11
45.1867594409815
 21
-23.02380391536274
 31
0.0
1001
DBPROPERTIES
1002
{
1000
PbHidd
1002
}
  0
ARC
  5
247
330
1F
100
AcDbEntity
  8
HIDDEN
100
AcDbCircle
 10
0.0
 20
0.0000000000000139
 30
0.0
 40
50.71428571428572
100
AcDbArc
 50
326.9999801274246
 51
332.9999941580346
1001
DBPROPERTIES
1002
{
1000
PbHidd
1002
}
  0
LINE
  5
248
330
1F
100
AcDbEntity
  8
HIDDEN
100
AcDbLine
 10
42.53257880294649
 20
-27.62097963290496
 30
0.0
 11
42.53257880294649
 21
-27.62097963290497
 31
0.0
1001
DBPROPERTIES
1002
{
1000
PbHidd
1002
}
  0
LINE
  5
249
330
1F
100
AcDbEntity
  8
HIDDEN
100
AcDbLine
 10
-42.5325788029465
 20
-27.62097963290494
 30
0.0
 11
-42.5325788029465
 21
-27.62097963290493
 31
0.0
1001
DBPROPERTIES
1002
{
1000
PbHidd
1002
}
  0
ARC
  5
24A
330
1F
100
AcDbEntity
  8
HIDDEN
100
AcDbCircle
 10
0.0
 20
0.0000000000000139
 30
0.0
 40
50.71428571428572
100
AcDbArc
 50
206.9999859941226
 51
213.0000000247326
1001
DBPROPERTIES
1002
{
1000
PbHidd
1002
}
  0
LINE
  5
24B
330
1F
100
AcDbEntity
  8
HIDDEN
100
AcDbLine
 10
-45.18675944098151
 20
-23.02380391536271
 30
0.0
 11
-45.18675944098151
 21
-23.02380391536272
 31
0.0
1001
DBPROPERTIES
1002
{
1000
PbHidd
1002
}
  0
LINE
  5
24C
330
1F
100
AcDbEntity
  8
HIDDEN
100
AcDbLine
 10
48.98623833323131
 20
-13.12582300162787
 30
0.0
 11
48.98623833323131
 21
-13.12582300162787
 31
0.0
1001
DBPROPERTIES
1002
{
1000
PbHidd
1002
}
  0
ARC
  5
24D
330
1F
100
AcDbEntity
  8
HIDDEN
100
AcDbCircle
 10
0.0
 20
0.0000000000000139
 30
0.0
 40
50.71428571428572
100
AcDbArc
 50
339.0000081886445
 51
345.0000222192546
1001
DBPROPERTIES
1002
{
1000
PbHidd
1002
}
  0
LINE
  5
24E
330
1F
100
AcDbEntity
  8
HIDDEN
100
AcDbLine
 10
47.34586448664379
 20
-18.17437458408311
 30
0.0
 11
47.34586448664379
 21
-18.17437458408312
 31
0.0
1001
DBPROPERTIES
1002
{
1000
PbHidd
1002
}
  0
LINE
  5
24F
330
1F
100
AcDbEntity
  8
HIDDEN
100
AcDbLine
 10
-47.3458644866438
 20
-18.17437458408308
 30
0.0
 11
-47.3458644866438
 21
-18.17437458408307
 31
0.0
1001
DBPROPERTIES
1002
{
1000
PbHidd
1002
}
  0
ARC
  5
250
330
1F
100
AcDbEntity
  8
HIDDEN
100
AcDbCircle
 10
0.0
 20
0.0000000000000139
 30
0.0
 40
50.71428571428572
100
AcDbArc
 50
195.0000152286821
 51
201.0000292592921
1001
DBPROPERTIES
1002
{
1000
PbHidd
1002
}
  0
LINE
  5
251
330
1F
100
AcDbEntity
  8
HIDDEN
100
AcDbLine
 10
-48.98623833323132
 20
-13.12582300162782
 30
0.0
 11
-48.98623833323132
 21
-13.12582300162783
 31
0.0
1001
DBPROPERTIES
1002
{
1000
PbHidd
1002
}
  0
LINE
  5
252
330
1F
100
AcDbEntity
  8
HIDDEN
100
AcDbLine
 10
50.64478354826767
 20
-2.654180638035025
 30
0.0
 11
50.64478354826767
 21
-2.654180638035021
 31
0.0
1001
DBPROPERTIES
1002
{
1000
PbHidd
1002
}
  0
ARC
  5
253
330
1F
100
AcDbEntity
  8
HIDDEN
100
AcDbCircle
 10
0.0
 20
0.0000000000000139
 30
0.0
 40
50.71428571428572
100
AcDbArc
 50
350.9999789540851
 51
356.999992984695
1001
DBPROPERTIES
1002
{
1000
PbHidd
1002
}
  0
LINE
  5
254
330
1F
100
AcDbEntity
  8
HIDDEN
100
AcDbLine
 10
50.08990870161055
 20
-7.933462155611721
 30
0.0
 11
50.08990870161055
 21
-7.933462155611727
 31
0.0
1001
DBPROPERTIES
1002
{
1000
PbHidd
1002
}
  0
LINE
  5
255
330
1F
100
AcDbEntity
  8
HIDDEN
100
AcDbLine
 10
-50.08990870161055
 20
-7.933462155611696
 30
0.0
 11
-50.08990870161055
 21
-7.93346215561169
 31
0.0
1001
DBPROPERTIES
1002
{
1000
PbHidd
1002
}
  0
ARC
  5
256
330
1F
100
AcDbEntity
  8
HIDDEN
100
AcDbCircle
 10
0.0
 20
0.0000000000000139
 30
0.0
 40
50.71428571428572
100
AcDbArc
 50
182.9999871674622
 51
189.0000011980722
1001
DBPROPERTIES
1002
{
1000
PbHidd
1002
}
  0
LINE
  5
257
330
1F
100
AcDbEntity
  8
HIDDEN
100
AcDbLine
 10
-50.64478354826767
 20
-2.654180638034989
 30
0.0
 11
-50.64478354826767
 21
-2.654180638034994
 31
0.0
1001
DBPROPERTIES
1002
{
1000
PbHidd
1002
}
  0
LINE
  5
258
330
1F
100
AcDbEntity
  8
HIDDEN
100
AcDbLine
 10
50.08990870161057
 20
7.933462155611664
 30
0.0
 11
50.08990870161057
 21
7.933462155611669
 31
0.0
1001
DBPROPERTIES
1002
{
1000
PbHidd
1002
}
  0
ARC
  5
259
330
1F
100
AcDbEntity
  8
HIDDEN
100
AcDbCircle
 10
0.0
 20
0.0000000000000139
 30
0.0
 40
50.71428571428572
100
AcDbArc
 50
3.00000701530499
 51
9.000021045914972
1001
DBPROPERTIES
1002
{
1000
PbHidd
1002
}
  0
LINE
  5
25A
330
1F
100
AcDbEntity
  8
HIDDEN
100
AcDbLine
 10
50.64478354826768
 20
2.654180638034967
 30
0.0
 11
50.64478354826768
 21
2.654180638034962
 31
0.0
1001
DBPROPERTIES
1002
{
1000
PbHidd
1002
}
  0
LINE
  5
25B
330
1F
100
AcDbEntity
  8
HIDDEN
100
AcDbLine
 10
-50.64478354826768
 20
2.654180638035016
 30
0.0
 11
-50.64478354826768
 21
2.654180638035021
 31
0.0
1001
DBPROPERTIES
1002
{
1000
PbHidd
1002
}
  0
ARC
  5
25C
330
1F
100
AcDbEntity
  8
HIDDEN
100
AcDbCircle
 10
0.0
 20
0.0000000000000139
 30
0.0
 40
50.71428571428572
100
AcDbArc
 50
170.9999988019279
 51
177.0000128325378
1001
DBPROPERTIES
1002
{
1000
PbHidd
1002
}
  0
LINE
  5
25D
330
1F
100
AcDbEntity
  8
HIDDEN
100
AcDbLine
 10
-50.08990870161056
 20
7.933462155611722
 30
0.0
 11
-50.08990870161056
 21
7.933462155611717
 31
0.0
1001
DBPROPERTIES
1002
{
1000
PbHidd
1002
}
  0
LINE
  5
25E
330
1F
100
AcDbEntity
  8
HIDDEN
100
AcDbLine
 10
47.34586448664382
 20
18.17437458408305
 30
0.0
 11
47.34586448664382
 21
18.17437458408306
 31
0.0
1001
DBPROPERTIES
1002
{
1000
PbHidd
1002
}
  0
ARC
  5
25F
330
1F
100
AcDbEntity
  8
HIDDEN
100
AcDbCircle
 10
0.0
 20
0.0000000000000139
 30
0.0
 40
50.71428571428572
100
AcDbArc
 50
14.99997778074544
 51
20.99999181135542
1001
DBPROPERTIES
1002
{
1000
PbHidd
1002
}
  0
LINE
  5
260
330
1F
100
AcDbEntity
  8
HIDDEN
100
AcDbLine
 10
48.98623833323133
 20
13.12582300162781
 30
0.0
 11
48.98623833323133
 21
13.12582300162781
 31
0.0
1001
DBPROPERTIES
1002
{
1000
PbHidd
1002
}
  0
LINE
  5
261
330
1F
100
AcDbEntity
  8
HIDDEN
100
AcDbLine
 10
-48.98623833323133
 20
13.12582300162785
 30
0.0
 11
-48.98623833323133
 21
13.12582300162785
 31
0.0
1001
DBPROPERTIES
1002
{
1000
PbHidd
1002
}
  0
ARC
  5
262
330
1F
100
AcDbEntity
  8
HIDDEN
100
AcDbCircle
 10
0.0
 20
0.0000000000000139
 30
0.0
 40
50.71428571428572
100
AcDbArc
 50
158.9999707407079
 51
164.9999847713179
1001
DBPROPERTIES
1002
{
1000
PbHidd
1002
}
  0
LINE
  5
263
330
1F
100
AcDbEntity
  8
HIDDEN
100
AcDbLine
 10
-47.3458644866438
 20
18.1743745840831
 30
0.0
 11
-47.3458644866438
 21
18.17437458408309
 31
0.0
1001
DBPROPERTIES
1002
{
1000
PbHidd
1002
}
  0
LINE
  5
264
330
1F
100
AcDbEntity
  8
HIDDEN
100
AcDbLine
 10
42.53257880294652
 20
27.62097963290493
 30
0.0
 11
42.53257880294652
 21
27.62097963290494
 31
0.0
1001
DBPROPERTIES
1002
{
1000
PbHidd
1002
}
  0
ARC
  5
265
330
1F
100
AcDbEntity
  8
HIDDEN
100
AcDbCircle
 10
0.0
 20
0.0000000000000139
 30
0.0
 40
50.71428571428572
100
AcDbArc
 50
27.0000058419654
 51
33.00001987257539
1001
DBPROPERTIES
1002
{
1000
PbHidd
1002
}
  0
LINE
  5
266
330
1F
100
AcDbEntity
  8
HIDDEN
100
AcDbLine
 10
45.18675944098153
 20
23.02380391536272
 30
0.0
 11
45.18675944098153
 21
23.02380391536272
 31
0.0
1001
DBPROPERTIES
1002
{
1000
PbHidd
1002
}
  0
LINE
  5
267
330
1F
100
AcDbEntity
  8
HIDDEN
100
AcDbLine
 10
-45.18675944098152
 20
23.02380391536274
 30
0.0
 11
-45.18675944098152
 21
23.02380391536275
 31
0.0
1001
DBPROPERTIES
1002
{
1000
PbHidd
1002
}
  0
ARC
  5
268
330
1F
100
AcDbEntity
  8
HIDDEN
100
AcDbCircle
 10
0.0
 20
0.0000000000000139
 30
0.0
 40
50.71428571428572
100
AcDbArc
 50
146.9999999752674
 51
153.0000140058774
1001
DBPROPERTIES
1002
{
1000
PbHidd
1002
}
  0
LINE
  5
269
330
1F
100
AcDbEntity
  8
HIDDEN
100
AcDbLine
 10
-42.5325788029465
 20
27.62097963290497
 30
0.0
 11
-42.5325788029465
 21
27.62097963290496
 31
0.0
1001
DBPROPERTIES
1002
{
1000
PbHidd
1002
}
  0
LINE
  5
26A
330
1F
100
AcDbEntity
  8
HIDDEN
100
AcDbLine
 10
35.86041533160352
 20
35.86041533160346
 30
0.0
 11
35.86041533160352
 21
35.86041533160346
 31
0.0
1001
DBPROPERTIES
1002
{
1000
PbHidd
1002
}
  0
ARC
  5
26B
330
1F
100
AcDbEntity
  8
HIDDEN
100
AcDbCircle
 10
0.0
 20
0.0000000000000139
 30
0.0
 40
50.71428571428572
100
AcDbArc
 50
38.99997660740585
 51
44.99999063801582
1001
DBPROPERTIES
1002
{
1000
PbHidd
1002
}
  0
LINE
  5
26C
330
1F
100
AcDbEntity
  8
HIDDEN
100
AcDbLine
 10
39.41240233103213
 20
31.91553411752745
 30
0.0
 11
39.41240233103213
 21
31.91553411752744
 31
0.0
1001
DBPROPERTIES
1002
{
1000
PbHidd
1002
}
  0
LINE
  5
26D
330
1F
100
AcDbEntity
  8
HIDDEN
100
AcDbLine
 10
-39.4124023310321
 20
31.91553411752748
 30
0.0
 11
-39.4124023310321
 21
31.91553411752749
 31
0.0
1001
DBPROPERTIES
1002
{
1000
PbHidd
1002
}
  0
ARC
  5
26E
330
1F
100
AcDbEntity
  8
HIDDEN
100
AcDbCircle
 10
0.0
 20
0.0000000000000139
 30
0.0
 40
50.71428571428572
100
AcDbArc
 50
134.9999719140475
 51
140.9999859446575
1001
DBPROPERTIES
1002
{
1000
PbHidd
1002
}
  0
LINE
  5
26F
330
1F
100
AcDbEntity
  8
HIDDEN
100
AcDbLine
 10
-35.86041533160348
 20
35.86041533160348
 30
0.0
 11
-35.86041533160348
 21
35.86041533160348
 31
0.0
1001
DBPROPERTIES
1002
{
1000
PbHidd
1002
}
  0
LINE
  5
270
330
1F
100
AcDbEntity
  8
HIDDEN
100
AcDbLine
 10
27.62097963290498
 20
42.5325788029465
 30
0.0
 11
27.62097963290498
 21
42.5325788029465
 31
0.0
1001
DBPROPERTIES
1002
{
1000
PbHidd
1002
}
  0
ARC
  5
271
330
1F
100
AcDbEntity
  8
HIDDEN
100
AcDbCircle
 10
0.0
 20
0.0000000000000139
 30
0.0
 40
50.71428571428572
100
AcDbArc
 50
51.00000466862581
 51
57.0000186992358
1001
DBPROPERTIES
1002
{
1000
PbHidd
1002
}
  0
LINE
  5
272
330
1F
100
AcDbEntity
  8
HIDDEN
100
AcDbLine
 10
31.9155341175275
 20
39.41240233103209
 30
0.0
 11
31.9155341175275
 21
39.41240233103209
 31
0.0
1001
DBPROPERTIES
1002
{
1000
PbHidd
1002
}
  0
LINE
  5
273
330
1F
100
AcDbEntity
  8
HIDDEN
100
AcDbLine
 10
-31.91553411752748
 20
39.4124023310321
 30
0.0
 11
-31.91553411752748
 21
39.4124023310321
 31
0.0
1001
DBPROPERTIES
1002
{
1000
PbHidd
1002
}
  0
ARC
  5
274
330
1F
100
AcDbEntity
  8
HIDDEN
100
AcDbCircle
 10
0.0
 20
0.0000000000000139
 30
0.0
 40
50.71428571428572
100
AcDbArc
 50
123.000001148607
 51
129.000015179217
1001
DBPROPERTIES
1002
{
1000
PbHidd
1002
}
  0
LINE
  5
275
330
1F
100
AcDbEntity
  8
HIDDEN
100
AcDbLine
 10
-27.62097963290495
 20
42.53257880294652
 30
0.0
 11
-27.62097963290495
 21
42.53257880294652
 31
0.0
1001
DBPROPERTIES
1002
{
1000
PbHidd
1002
}
  0
LINE
  5
276
330
1F
100
AcDbEntity
  8
HIDDEN
100
AcDbLine
 10
18.17437458408311
 20
47.34586448664381
 30
0.0
 11
18.17437458408311
 21
47.34586448664381
 31
0.0
1001
DBPROPERTIES
1002
{
1000
PbHidd
1002
}
  0
ARC
  5
277
330
1F
100
AcDbEntity
  8
HIDDEN
100
AcDbCircle
 10
0.0
 20
0.0000000000000139
 30
0.0
 40
50.71428571428572
100
AcDbArc
 50
62.99997543406626
 51
68.99998946467625
1001
DBPROPERTIES
1002
{
1000
PbHidd
1002
}
  0
LINE
  5
278
330
1F
100
AcDbEntity
  8
HIDDEN
100
AcDbLine
 10
23.02380391536276
 20
45.18675944098151
 30
0.0
 11
23.02380391536276
 21
45.18675944098151
 31
0.0
1001
DBPROPERTIES
1002
{
1000
PbHidd
1002
}
  0
LINE
  5
279
330
1F
100
AcDbEntity
  8
HIDDEN
100
AcDbLine
 10
-23.02380391536273
 20
45.18675944098153
 30
0.0
 11
-23.02380391536273
 21
45.18675944098153
 31
0.0
1001
DBPROPERTIES
1002
{
1000
PbHidd
1002
}
  0
ARC
  5
27A
330
1F
100
AcDbEntity
  8
HIDDEN
100
AcDbCircle
 10
0.0
 20
0.0000000000000139
 30
0.0
 40
50.71428571428572
100
AcDbArc
 50
110.9999730873871
 51
116.9999871179971
1001
DBPROPERTIES
1002
{
1000
PbHidd
1002
}
  0
LINE
  5
27B
330
1F
100
AcDbEntity
  8
HIDDEN
100
AcDbLine
 10
-18.17437458408308
 20
47.34586448664382
 30
0.0
 11
-18.17437458408308
 21
47.34586448664382
 31
0.0
1001
DBPROPERTIES
1002
{
1000
PbHidd
1002
}
  0
LINE
  5
27C
330
1F
100
AcDbEntity
  8
HIDDEN
100
AcDbLine
 10
7.933462155611759
 20
50.08990870161056
 30
0.0
 11
7.933462155611759
 21
50.08990870161056
 31
0.0
1001
DBPROPERTIES
1002
{
1000
PbHidd
1002
}
  0
ARC
  5
27D
330
1F
100
AcDbEntity
  8
HIDDEN
100
AcDbCircle
 10
0.0
 20
0.0000000000000139
 30
0.0
 40
50.71428571428572
100
AcDbArc
 50
75.00000349528622
 51
81.0000175258962
1001
DBPROPERTIES
1002
{
1000
PbHidd
1002
}
  0
LINE
  5
27E
330
1F
100
AcDbEntity
  8
HIDDEN
100
AcDbLine
 10
13.12582300162789
 20
48.98623833323132
 30
0.0
 11
13.12582300162789
 21
48.98623833323132
 31
0.0
1001
DBPROPERTIES
1002
{
1000
PbHidd
1002
}
  0
ARC
  5
27F
330
1F
100
AcDbEntity
  8
HIDDEN
100
AcDbCircle
 10
0.0
 20
0.0000000000000139
 30
0.0
 40
50.71428571428572
100
AcDbArc
 50
99.00000232194662
 51
105.0000163525566
1001
DBPROPERTIES
1002
{
1000
PbHidd
1002
}
  0
LINE
  5
280
330
1F
100
AcDbEntity
  8
HIDDEN
100
AcDbLine
 10
-7.933462155611705
 20
50.08990870161058
 30
0.0
 11
-7.933462155611705
 21
50.08990870161058
 31
0.0
1001
DBPROPERTIES
1002
{
1000
PbHidd
1002
}
  0
LINE
  5
281
330
1F
100
AcDbEntity
  8
HIDDEN
100
AcDbLine
 10
-13.12582300162784
 20
48.98623833323134
 30
0.0
 11
-13.12582300162784
 21
48.98623833323134
 31
0.0
1001
DBPROPERTIES
1002
{
1000
PbHidd
1002
}
  0
ARC
  5
282
330
1F
100
AcDbEntity
  8
HIDDEN
100
AcDbCircle
 10
0.0
 20
0.0000000000000139
 30
0.0
 40
71.0
100
AcDbArc
 50
89.99998127603165
 51
99.00000232194662
1001
DBPROPERTIES
1002
{
1000
PbHidd
1002
}
  0
LINE
  5
283
330
1F
100
AcDbEntity
  8
HIDDEN
100
AcDbLine
 10
-7.933462155611701
 20
50.08990870161055
 30
0.0
 11
-11.10684701785638
 21
70.12587218225475
 31
0.0
1001
DBPROPERTIES
1002
{
1000
PbHidd
1002
}
  0
LINE
  5
284
330
1F
100
AcDbEntity
  8
HIDDEN
100
AcDbLine
 10
-18.37615220227896
 20
68.58073366652384
 30
0.0
 11
-13.12582300162783
 21
48.98623833323132
 31
0.0
1001
DBPROPERTIES
1002
{
1000
PbHidd
1002
}
  0
ARC
  5
285
330
1F
100
AcDbEntity
  8
HIDDEN
100
AcDbCircle
 10
0.0
 20
0.0000000000000139
 30
0.0
 40
71.0
100
AcDbArc
 50
105.0000163525566
 51
110.9999730873871
1001
DBPROPERTIES
1002
{
1000
PbHidd
1002
}
  0
LINE
  5
286
330
1F
100
AcDbEntity
  8
HIDDEN
100
AcDbLine
 10
-18.17437458408308
 20
47.34586448664379
 30
0.0
 11
-25.4441244177163
 21
66.28421028130128
 31
0.0
1001
DBPROPERTIES
1002
{
1000
PbHidd
1002
}
  0
LINE
  5
287
330
1F
100
AcDbEntity
  8
HIDDEN
100
AcDbLine
 10
-32.23332548150781
 20
63.26146321737413
 30
0.0
 11
-23.02380391536273
 21
45.18675944098153
 31
0.0
1001
DBPROPERTIES
1002
{
1000
PbHidd
1002
}
  0
ARC
  5
288
330
1F
100
AcDbEntity
  8
HIDDEN
100
AcDbCircle
 10
0.0
 20
0.0000000000000139
 30
0.0
 40
71.0
100
AcDbArc
 50
116.9999871179971
 51
123.000001148607
1001
DBPROPERTIES
1002
{
1000
PbHidd
1002
}
  0
LINE
  5
289
330
1F
100
AcDbEntity
  8
HIDDEN
100
AcDbLine
 10
-27.62097963290493
 20
42.5325788029465
 30
0.0
 11
-38.66937148606689
 21
59.54561032412508
 31
0.0
1001
DBPROPERTIES
1002
{
1000
PbHidd
1002
}
  0
LINE
  5
28A
330
1F
100
AcDbEntity
  8
HIDDEN
100
AcDbLine
 10
-44.68174776453841
 20
55.17736326344489
 30
0.0
 11
-31.91553411752745
 21
39.41240233103208
 31
0.0
1001
DBPROPERTIES
1002
{
1000
PbHidd
1002
}
  0
ARC
  5
28B
330
1F
100
AcDbEntity
  8
HIDDEN
100
AcDbCircle
 10
0.0
 20
0.0000000000000139
 30
0.0
 40
71.0
100
AcDbArc
 50
129.000015179217
 51
134.9999719140475
1001
DBPROPERTIES
1002
{
1000
PbHidd
1002
}
  0
LINE
  5
28C
330
1F
100
AcDbEntity
  8
HIDDEN
100
AcDbLine
 10
-35.86041533160346
 20
35.86041533160348
 30
0.0
 11
-50.20458146424485
 21
50.20458146424485
 31
0.0
1001
DBPROPERTIES
1002
{
1000
PbHidd
1002
}
  0
LINE
  5
28D
330
1F
100
AcDbEntity
  8
HIDDEN
100
AcDbLine
 10
-55.17736326344492
 20
44.68174776453846
 30
0.0
 11
-39.41240233103209
 21
31.91553411752747
 31
0.0
1001
DBPROPERTIES
1002
{
1000
PbHidd
1002
}
  0
ARC
  5
28E
330
1F
100
AcDbEntity
  8
HIDDEN
100
AcDbCircle
 10
0.0
 20
0.0000000000000139
 30
0.0
 40
71.0
100
AcDbArc
 50
140.9999859446575
 51
146.9999999752674
1001
DBPROPERTIES
1002
{
1000
PbHidd
1002
}
  0
LINE
  5
28F
330
1F
100
AcDbEntity
  8
HIDDEN
100
AcDbLine
 10
-42.53257880294647
 20
27.62097963290494
 30
0.0
 11
-59.54561032412506
 21
38.66937148606691
 31
0.0
1001
DBPROPERTIES
1002
{
1000
PbHidd
1002
}
  0
LINE
  5
290
330
1F
100
AcDbEntity
  8
HIDDEN
100
AcDbLine
 10
-63.26146321737406
 20
32.23332548150782
 30
0.0
 11
-45.18675944098149
 21
23.02380391536273
 31
0.0
1001
DBPROPERTIES
1002
{
1000
PbHidd
1002
}
  0
ARC
  5
291
330
1F
100
AcDbEntity
  8
HIDDEN
100
AcDbCircle
 10
0.0
 20
0.0000000000000139
 30
0.0
 40
71.0
100
AcDbArc
 50
153.0000140058774
 51
159.0000280364874
1001
DBPROPERTIES
1002
{
1000
PbHidd
1002
}
  0
LINE
  5
292
330
1F
100
AcDbEntity
  8
HIDDEN
100
AcDbLine
 10
-47.34586448664378
 20
18.17437458408309
 30
0.0
 11
-66.28421028130127
 21
25.44412441771631
 31
0.0
1001
DBPROPERTIES
1002
{
1000
PbHidd
1002
}
  0
LINE
  5
293
330
1F
100
AcDbEntity
  8
HIDDEN
100
AcDbLine
 10
-68.58073366652383
 20
18.37615220227898
 30
0.0
 11
-48.98623833323131
 21
13.12582300162784
 31
0.0
1001
DBPROPERTIES
1002
{
1000
PbHidd
1002
}
  0
ARC
  5
294
330
1F
100
AcDbEntity
  8
HIDDEN
100
AcDbCircle
 10
0.0
 20
0.0000000000000139
 30
0.0
 40
71.0
100
AcDbArc
 50
164.9999847713179
 51
170.9999988019279
1001
DBPROPERTIES
1002
{
1000
PbHidd
1002
}
  0
LINE
  5
295
330
1F
100
AcDbEntity
  8
HIDDEN
100
AcDbLine
 10
-50.08990870161053
 20
7.933462155611715
 30
0.0
 11
-70.12587218225471
 21
11.1068470178564
 31
0.0
1001
DBPROPERTIES
1002
{
1000
PbHidd
1002
}
  0
LINE
  5
296
330
1F
100
AcDbEntity
  8
HIDDEN
100
AcDbLine
 10
-70.9026969675747
 20
3.715852893249023
 30
0.0
 11
-50.64478354826765
 21
2.654180638035017
 31
0.0
1001
DBPROPERTIES
1002
{
1000
PbHidd
1002
}
  0
ARC
  5
297
330
1F
100
AcDbEntity
  8
HIDDEN
100
AcDbCircle
 10
0.0
 20
0.0000000000000139
 30
0.0
 40
71.0
100
AcDbArc
 50
177.0000128325378
 51
182.9999871674622
1001
DBPROPERTIES
1002
{
1000
PbHidd
1002
}
  0
LINE
  5
298
330
1F
100
AcDbEntity
  8
HIDDEN
100
AcDbLine
 10
-50.64478354826764
 20
-2.65418063803499
 30
0.0
 11
-70.90269696757468
 21
-3.715852893248986
 31
0.0
1001
DBPROPERTIES
1002
{
1000
PbHidd
1002
}
  0
LINE
  5
299
330
1F
100
AcDbEntity
  8
HIDDEN
100
AcDbLine
 10
-70.12587218225475
 20
-11.10684701785636
 30
0.0
 11
-50.08990870161054
 21
-7.933462155611689
 31
0.0
1001
DBPROPERTIES
1002
{
1000
PbHidd
1002
}
  0
ARC
  5
29A
330
1F
100
AcDbEntity
  8
HIDDEN
100
AcDbCircle
 10
0.0
 20
0.0000000000000139
 30
0.0
 40
71.0
100
AcDbArc
 50
189.0000011980722
 51
195.0000152286821
1001
DBPROPERTIES
1002
{
1000
PbHidd
1002
}
  0
LINE
  5
29B
330
1F
100
AcDbEntity
  8
HIDDEN
100
AcDbLine
 10
-48.98623833323128
 20
-13.12582300162782
 30
0.0
 11
-68.5807336665238
 21
-18.37615220227894
 31
0.0
1001
DBPROPERTIES
1002
{
1000
PbHidd
1002
}
  0
LINE
  5
29C
330
1F
100
AcDbEntity
  8
HIDDEN
100
AcDbLine
 10
-66.28421028130127
 20
-25.44412441771628
 30
0.0
 11
-47.34586448664378
 21
-18.17437458408306
 31
0.0
1001
DBPROPERTIES
1002
{
1000
PbHidd
1002
}
  0
ARC
  5
29D
330
1F
100
AcDbEntity
  8
HIDDEN
100
AcDbCircle
 10
0.0
 20
0.0000000000000139
 30
0.0
 40
71.0
100
AcDbArc
 50
200.9999719635126
 51
206.9999859941226
1001
DBPROPERTIES
1002
{
1000
PbHidd
1002
}
  0
LINE
  5
29E
330
1F
100
AcDbEntity
  8
HIDDEN
100
AcDbLine
 10
-45.18675944098149
 20
-23.02380391536271
 30
0.0
 11
-63.26146321737407
 21
-32.23332548150778
 31
0.0
1001
DBPROPERTIES
1002
{
1000
PbHidd
1002
}
  0
LINE
  5
29F
330
1F
100
AcDbEntity
  8
HIDDEN
100
AcDbLine
 10
-59.5456103241251
 20
-38.66937148606691
 30
0.0
 11
-42.5325788029465
 21
-27.62097963290493
 31
0.0
1001
DBPROPERTIES
1002
{
1000
PbHidd
1002
}
  0
ARC
  5
2A0
330
1F
100
AcDbEntity
  8
HIDDEN
100
AcDbCircle
 10
0.0
 20
0.0000000000000139
 30
0.0
 40
71.0
100
AcDbArc
 50
213.0000000247326
 51
219.0000140553425
1001
DBPROPERTIES
1002
{
1000
PbHidd
1002
}
  0
LINE
  5
2A1
330
1F
100
AcDbEntity
  8
HIDDEN
100
AcDbLine
 10
-39.41240233103208
 20
-31.91553411752744
 30
0.0
 11
-55.1773632634449
 21
-44.68174776453841
 31
0.0
1001
DBPROPERTIES
1002
{
1000
PbHidd
1002
}
  0
LINE
  5
2A2
330
1F
100
AcDbEntity
  8
HIDDEN
100
AcDbLine
 10
-50.20458146424485
 20
-50.20458146424482
 30
0.0
 11
-35.86041533160348
 21
-35.86041533160346
 31
0.0
1001
DBPROPERTIES
1002
{
1000
PbHidd
1002
}
  0
ARC
  5
2A3
330
1F
100
AcDbEntity
  8
HIDDEN
100
AcDbCircle
 10
0.0
 20
0.0000000000000139
 30
0.0
 40
71.0
100
AcDbArc
 50
225.0000280859525
 51
230.999984820783
1001
DBPROPERTIES
1002
{
1000
PbHidd
1002
}
  0
LINE
  5
2A4
330
1F
100
AcDbEntity
  8
HIDDEN
100
AcDbLine
 10
-31.91553411752747
 20
-39.41240233103204
 30
0.0
 11
-44.68174776453844
 21
-55.17736326344485
 31
0.0
1001
DBPROPERTIES
1002
{
1000
PbHidd
1002
}
  0
LINE
  5
2A5
330
1F
100
AcDbEntity
  8
HIDDEN
100
AcDbLine
 10
-38.66937148606693
 20
-59.54561032412504
 30
0.0
 11
-27.62097963290495
 21
-42.53257880294646
 31
0.0
1001
DBPROPERTIES
1002
{
1000
PbHidd
1002
}
  0
ARC
  5
2A6
330
1F
100
AcDbEntity
  8
HIDDEN
100
AcDbCircle
 10
0.0
 20
0.0000000000000139
 30
0.0
 40
71.0
100
AcDbArc
 50
236.999998851393
 51
243.0000128820029
1001
DBPROPERTIES
1002
{
1000
PbHidd
1002
}
  0
LINE
  5
2A7
330
1F
100
AcDbEntity
  8
HIDDEN
100
AcDbLine
 10
-23.02380391536273
 20
-45.18675944098148
 30
0.0
 11
-32.2333254815078
 21
-63.26146321737404
 31
0.0
1001
DBPROPERTIES
1002
{
1000
PbHidd
1002
}
  0
LINE
  5
2A8
330
1F
100
AcDbEntity
  8
HIDDEN
100
AcDbLine
 10
-25.44412441771632
 20
-66.28421028130127
 30
0.0
 11
-18.17437458408308
 21
-47.34586448664377
 31
0.0
1001
DBPROPERTIES
1002
{
1000
PbHidd
1002
}
  0
ARC
  5
2A9
330
1F
100
AcDbEntity
  8
HIDDEN
100
AcDbCircle
 10
0.0
 20
0.0000000000000139
 30
0.0
 40
71.0
100
AcDbArc
 50
249.0000269126129
 51
254.9999836474434
1001
DBPROPERTIES
1002
{
1000
PbHidd
1002
}
  0
LINE
  5
2AA
330
1F
100
AcDbEntity
  8
HIDDEN
100
AcDbLine
 10
-13.12582300162785
 20
-48.98623833323128
 30
0.0
 11
-18.37615220227898
 21
-68.58073366652377
 31
0.0
1001
DBPROPERTIES
1002
{
1000
PbHidd
1002
}
  0
LINE
  5
2AB
330
1F
100
AcDbEntity
  8
HIDDEN
100
AcDbLine
 10
-11.10684701785641
 20
-70.12587218225474
 30
0.0
 11
-7.933462155611721
 21
-50.08990870161053
 31
0.0
1001
DBPROPERTIES
1002
{
1000
PbHidd
1002
}
  0
ARC
  5
2AC
330
1F
100
AcDbEntity
  8
HIDDEN
100
AcDbCircle
 10
0.0
 20
0.0000000000000139
 30
0.0
 40
71.0
100
AcDbArc
 50
260.9999976780534
 51
267.0000117086634
1001
DBPROPERTIES
1002
{
1000
PbHidd
1002
}
  0
LINE
  5
2AD
330
1F
100
AcDbEntity
  8
HIDDEN
100
AcDbLine
 10
-2.654180638035036
 20
-50.64478354826764
 30
0.0
 11
-3.715852893249048
 21
-70.90269696757468
 31
0.0
1001
DBPROPERTIES
1002
{
1000
PbHidd
1002
}
  0
LINE
  5
2AE
330
1F
100
AcDbEntity
  8
HIDDEN
100
AcDbLine
 10
3.715852893248971
 20
-70.90269696757468
 30
0.0
 11
2.654180638034979
 21
-50.64478354826764
 31
0.0
1001
DBPROPERTIES
1002
{
1000
PbHidd
1002
}
  0
ARC
  5
2AF
330
1F
100
AcDbEntity
  8
HIDDEN
100
AcDbCircle
 10
0.0
 20
0.0000000000000139
 30
0.0
 40
71.0
100
AcDbArc
 50
273.0000257392733
 51
278.9999824741038
1001
DBPROPERTIES
1002
{
1000
PbHidd
1002
}
  0
LINE
  5
2B0
330
1F
100
AcDbEntity
  8
HIDDEN
100
AcDbLine
 10
7.93346215561169
 20
-50.08990870161052
 30
0.0
 11
11.10684701785637
 21
-70.12587218225472
 31
0.0
1001
DBPROPERTIES
1002
{
1000
PbHidd
1002
}
  0
LINE
  5
2B1
330
1F
100
AcDbEntity
  8
HIDDEN
100
AcDbLine
 10
18.37615220227894
 20
-68.5807336665238
 30
0.0
 11
13.12582300162782
 21
-48.9862383332313
 31
0.0
1001
DBPROPERTIES
1002
{
1000
PbHidd
1002
}
  0
ARC
  5
2B2
330
1F
100
AcDbEntity
  8
HIDDEN
100
AcDbCircle
 10
0.0
 20
0.0000000000000139
 30
0.0
 40
71.0
100
AcDbArc
 50
284.9999965047138
 51
291.0000105353237
1001
DBPROPERTIES
1002
{
1000
PbHidd
1002
}
  0
LINE
  5
2B3
330
1F
100
AcDbEntity
  8
HIDDEN
100
AcDbLine
 10
18.17437458408305
 20
-47.34586448664377
 30
0.0
 11
25.44412441771627
 21
-66.28421028130126
 31
0.0
1001
DBPROPERTIES
1002
{
1000
PbHidd
1002
}
  0
LINE
  5
2B4
330
1F
100
AcDbEntity
  8
HIDDEN
100
AcDbLine
 10
32.23332548150778
 20
-63.26146321737409
 30
0.0
 11
23.0238039153627
 21
-45.1867594409815
 31
0.0
1001
DBPROPERTIES
1002
{
1000
PbHidd
1002
}
  0
ARC
  5
2B5
330
1F
100
AcDbEntity
  8
HIDDEN
100
AcDbCircle
 10
0.0
 20
0.0000000000000139
 30
0.0
 40
71.0
100
AcDbArc
 50
297.0000245659338
 51
302.9999813007643
1001
DBPROPERTIES
1002
{
1000
PbHidd
1002
}
  0
LINE
  5
2B6
330
1F
100
AcDbEntity
  8
HIDDEN
100
AcDbLine
 10
27.62097963290491
 20
-42.53257880294649
 30
0.0
 11
38.66937148606686
 21
-59.54561032412507
 31
0.0
1001
DBPROPERTIES
1002
{
1000
PbHidd
1002
}
  0
LINE
  5
2B7
330
1F
100
AcDbEntity
  8
HIDDEN
100
AcDbLine
 10
44.68174776453839
 20
-55.1773632634449
 30
0.0
 11
31.91553411752743
 21
-39.41240233103208
 31
0.0
1001
DBPROPERTIES
1002
{
1000
PbHidd
1002
}
  0
ARC
  5
2B8
330
1F
100
AcDbEntity
  8
HIDDEN
100
AcDbCircle
 10
0.0
 20
0.0000000000000139
 30
0.0
 40
71.0
100
AcDbArc
 50
308.9999953313742
 51
315.0000093619842
1001
DBPROPERTIES
1002
{
1000
PbHidd
1002
}
  0
LINE
  5
2B9
330
1F
100
AcDbEntity
  8
HIDDEN
100
AcDbLine
 10
35.86041533160345
 20
-35.86041533160347
 30
0.0
 11
50.20458146424482
 21
-50.20458146424485
 31
0.0
1001
DBPROPERTIES
1002
{
1000
PbHidd
1002
}
  0
LINE
  5
2BA
330
1F
100
AcDbEntity
  8
HIDDEN
100
AcDbLine
 10
55.17736326344487
 20
-44.68174776453844
 30
0.0
 11
39.41240233103206
 21
-31.91553411752746
 31
0.0
1001
DBPROPERTIES
1002
{
1000
PbHidd
1002
}
  0
ARC
  5
2BB
330
1F
100
AcDbEntity
  8
HIDDEN
100
AcDbCircle
 10
0.0
 20
0.0000000000000139
 30
0.0
 40
71.0
100
AcDbArc
 50
321.0000233925941
 51
326.9999801274246
1001
DBPROPERTIES
1002
{
1000
PbHidd
1002
}
  0
LINE
  5
2BC
330
1F
100
AcDbEntity
  8
HIDDEN
100
AcDbLine
 10
42.53257880294647
 20
-27.62097963290495
 30
0.0
 11
59.54561032412507
 21
-38.66937148606694
 31
0.0
1001
DBPROPERTIES
1002
{
1000
PbHidd
1002
}
  0
LINE
  5
2BD
330
1F
100
AcDbEntity
  8
HIDDEN
100
AcDbLine
 10
63.26146321737408
 20
-32.23332548150783
 30
0.0
 11
45.18675944098149
 21
-23.02380391536274
 31
0.0
1001
DBPROPERTIES
1002
{
1000
PbHidd
1002
}
  0
ARC
  5
2BE
330
1F
100
AcDbEntity
  8
HIDDEN
100
AcDbCircle
 10
0.0
 20
0.0000000000000139
 30
0.0
 40
71.0
100
AcDbArc
 50
332.9999941580346
 51
339.0000081886445
1001
DBPROPERTIES
1002
{
1000
PbHidd
1002
}
  0
LINE
  5
2BF
330
1F
100
AcDbEntity
  8
HIDDEN
100
AcDbLine
 10
47.34586448664377
 20
-18.17437458408311
 30
0.0
 11
66.28421028130127
 21
-25.44412441771635
 31
0.0
1001
DBPROPERTIES
1002
{
1000
PbHidd
1002
}
  0
LINE
  5
2C0
330
1F
100
AcDbEntity
  8
HIDDEN
100
AcDbLine
 10
68.58073366652383
 20
-18.37615220227902
 30
0.0
 11
48.9862383332313
 21
-13.12582300162787
 31
0.0
1001
DBPROPERTIES
1002
{
1000
PbHidd
1002
}
  0
ARC
  5
2C1
330
1F
100
AcDbEntity
  8
HIDDEN
100
AcDbCircle
 10
0.0
 20
0.0000000000000139
 30
0.0
 40
71.0
100
AcDbArc
 50
345.0000222192546
 51
350.9999789540851
1001
DBPROPERTIES
1002
{
1000
PbHidd
1002
}
  0
LINE
  5
2C2
330
1F
100
AcDbEntity
  8
HIDDEN
100
AcDbLine
 10
50.08990870161053
 20
-7.93346215561172
 30
0.0
 11
70.12587218225472
 21
-11.1068470178564
 31
0.0
1001
DBPROPERTIES
1002
{
1000
PbHidd
1002
}
  0
LINE
  5
2C3
330
1F
100
AcDbEntity
  8
HIDDEN
100
AcDbLine
 10
70.9026969675747
 20
-3.71585289324903
 30
0.0
 11
50.64478354826765
 21
-2.654180638035021
 31
0.0
1001
DBPROPERTIES
1002
{
1000
PbHidd
1002
}
  0
ARC
  5
2C4
330
1F
100
AcDbEntity
  8
HIDDEN
100
AcDbCircle
 10
0.0
 20
0.0000000000000139
 30
0.0
 40
71.0
100
AcDbArc
 50
356.999992984695
 51
3.00000701530499
1001
DBPROPERTIES
1002
{
1000
PbHidd
1002
}
  0
LINE
  5
2C5
330
1F
100
AcDbEntity
  8
HIDDEN
100
AcDbLine
 10
50.64478354826765
 20
2.654180638034963
 30
0.0
 11
70.90269696757468
 21
3.715852893248947
 31
0.0
1001
DBPROPERTIES
1002
{
1000
PbHidd
1002
}
  0
LINE
  5
2C6
330
1F
100
AcDbEntity
  8
HIDDEN
100
AcDbLine
 10
70.12587218225477
 20
11.10684701785633
 30
0.0
 11
50.08990870161055
 21
7.933462155611663
 31
0.0
1001
DBPROPERTIES
1002
{
1000
PbHidd
1002
}
  0
ARC
  5
2C7
330
1F
100
AcDbEntity
  8
HIDDEN
100
AcDbCircle
 10
0.0
 20
0.0000000000000139
 30
0.0
 40
71.0
100
AcDbArc
 50
9.000021045914972
 51
14.99997778074544
1001
DBPROPERTIES
1002
{
1000
PbHidd
1002
}
  0
LINE
  5
2C8
330
1F
100
AcDbEntity
  8
HIDDEN
100
AcDbLine
 10
48.98623833323131
 20
13.1258230016278
 30
0.0
 11
68.58073366652381
 21
18.37615220227892
 31
0.0
1001
DBPROPERTIES
1002
{
1000
PbHidd
1002
}
  0
LINE
  5
2C9
330
1F
100
AcDbEntity
  8
HIDDEN
100
AcDbLine
 10
66.2842102813013
 20
25.44412441771626
 30
0.0
 11
47.34586448664379
 21
18.17437458408305
 31
0.0
1001
DBPROPERTIES
1002
{
1000
PbHidd
1002
}
  0
ARC
  5
2CA
330
1F
100
AcDbEntity
  8
HIDDEN
100
AcDbCircle
 10
0.0
 20
0.0000000000000139
 30
0.0
 40
71.0
100
AcDbArc
 50
20.99999181135542
 51
27.0000058419654
1001
DBPROPERTIES
1002
{
1000
PbHidd
1002
}
  0
LINE
  5
2CB
330
1F
100
AcDbEntity
  8
HIDDEN
100
AcDbLine
 10
45.1867594409815
 20
23.02380391536271
 30
0.0
 11
63.26146321737407
 21
32.23332548150778
 31
0.0
1001
DBPROPERTIES
1002
{
1000
PbHidd
1002
}
  0
LINE
  5
2CC
330
1F
100
AcDbEntity
  8
HIDDEN
100
AcDbLine
 10
59.54561032412509
 20
38.66937148606689
 30
0.0
 11
42.5325788029465
 21
27.62097963290493
 31
0.0
1001
DBPROPERTIES
1002
{
1000
PbHidd
1002
}
  0
ARC
  5
2CD
330
1F
100
AcDbEntity
  8
HIDDEN
100
AcDbCircle
 10
0.0
 20
0.0000000000000139
 30
0.0
 40
71.0
100
AcDbArc
 50
33.00001987257539
 51
38.99997660740585
1001
DBPROPERTIES
1002
{
1000
PbHidd
1002
}
  0
LINE
  5
2CE
330
1F
100
AcDbEntity
  8
HIDDEN
100
AcDbLine
 10
39.41240233103211
 20
31.91553411752743
 30
0.0
 11
55.17736326344496
 21
44.6817477645384
 31
0.0
1001
DBPROPERTIES
1002
{
1000
PbHidd
1002
}
  0
LINE
  5
2CF
330
1F
100
AcDbEntity
  8
HIDDEN
100
AcDbLine
 10
50.2045814642449
 20
50.2045814642448
 30
0.0
 11
35.86041533160351
 21
35.86041533160344
 31
0.0
1001
DBPROPERTIES
1002
{
1000
PbHidd
1002
}
  0
ARC
  5
2D0
330
1F
100
AcDbEntity
  8
HIDDEN
100
AcDbCircle
 10
0.0
 20
0.0000000000000139
 30
0.0
 40
71.0
100
AcDbArc
 50
44.99999063801582
 51
51.00000466862581
1001
DBPROPERTIES
1002
{
1000
PbHidd
1002
}
  0
LINE
  5
2D1
330
1F
100
AcDbEntity
  8
HIDDEN
100
AcDbLine
 10
31.91553411752748
 20
39.41240233103206
 30
0.0
 11
44.68174776453846
 21
55.17736326344486
 31
0.0
1001
DBPROPERTIES
1002
{
1000
PbHidd
1002
}
  0
LINE
  5
2D2
330
1F
100
AcDbEntity
  8
HIDDEN
100
AcDbLine
 10
38.66937148606694
 20
59.54561032412505
 30
0.0
 11
27.62097963290497
 21
42.53257880294647
 31
0.0
1001
DBPROPERTIES
1002
{
1000
PbHidd
1002
}
  0
ARC
  5
2D3
330
1F
100
AcDbEntity
  8
HIDDEN
100
AcDbCircle
 10
0.0
 20
0.0000000000000139
 30
0.0
 40
71.0
100
AcDbArc
 50
57.0000186992358
 51
62.99997543406626
1001
DBPROPERTIES
1002
{
1000
PbHidd
1002
}
  0
LINE
  5
2D4
330
1F
100
AcDbEntity
  8
HIDDEN
100
AcDbLine
 10
23.02380391536275
 20
45.1867594409815
 30
0.0
 11
32.23332548150785
 21
63.2614632173741
 31
0.0
1001
DBPROPERTIES
1002
{
1000
PbHidd
1002
}
  0
LINE
  5
2D5
330
1F
100
AcDbEntity
  8
HIDDEN
100
AcDbLine
 10
25.44412441771633
 20
66.2842102813013
 30
0.0
 11
18.1743745840831
 21
47.3458644866438
 31
0.0
1001
DBPROPERTIES
1002
{
1000
PbHidd
1002
}
  0
ARC
  5
2D6
330
1F
100
AcDbEntity
  8
HIDDEN
100
AcDbCircle
 10
0.0
 20
0.0000000000000139
 30
0.0
 40
71.0
100
AcDbArc
 50
68.99998946467625
 51
75.00000349528622
1001
DBPROPERTIES
1002
{
1000
PbHidd
1002
}
  0
LINE
  5
2D7
330
1F
100
AcDbEntity
  8
HIDDEN
100
AcDbLine
 10
13.12582300162788
 20
48.9862383332313
 30
0.0
 11
18.37615220227902
 21
68.58073366652378
 31
0.0
1001
DBPROPERTIES
1002
{
1000
PbHidd
1002
}
  0
LINE
  5
2D8
330
1F
100
AcDbEntity
  8
HIDDEN
100
AcDbLine
 10
11.10684701785645
 20
70.12587218225475
 30
0.0
 11
7.933462155611755
 21
50.08990870161054
 31
0.0
1001
DBPROPERTIES
1002
{
1000
PbHidd
1002
}
  0
LINE
  5
2D9
330
1F
100
AcDbEntity
  8
HIDDEN
100
AcDbLine
 10
-11.10684701785638
 20
70.1258721822548
 30
0.0
 11
-11.10684701785638
 21
70.1258721822548
 31
0.0
1001
DBPROPERTIES
1002
{
1000
PbHidd
1002
}
  0
LINE
  5
2DA
330
1F
100
AcDbEntity
  8
HIDDEN
100
AcDbLine
 10
4.612209477602835
 20
29.1203445752133
 30
0.0
 11
6.941779386160288
 21
43.82867011390924
 31
0.0
1001
DBPROPERTIES
1002
{
1000
PbHidd
1002
}
  0
LINE
  5
2DB
330
1F
100
AcDbEntity
  8
HIDDEN
100
AcDbLine
 10
4.612209477602833
 20
29.1203445752133
 30
0.0
 11
4.612209477602833
 21
29.1203445752133
 31
0.0
1001
DBPROPERTIES
1002
{
1000
PbHidd
1002
}
  0
LINE
  5
2DC
330
1F
100
AcDbEntity
  8
HIDDEN
100
AcDbLine
 10
10.56588171242728
 20
27.52506290789249
 30
0.0
 11
15.90257776107272
 21
41.42763142581333
 31
0.0
1001
DBPROPERTIES
1002
{
1000
PbHidd
1002
}
  0
LINE
  5
2DD
330
1F
100
AcDbEntity
  8
HIDDEN
100
AcDbLine
 10
10.56588171242728
 20
27.52506290789249
 30
0.0
 11
10.56588171242728
 21
27.52506290789249
 31
0.0
1001
DBPROPERTIES
1002
{
1000
PbHidd
1002
}
  0
LINE
  5
2DE
330
1F
100
AcDbEntity
  8
HIDDEN
100
AcDbLine
 10
25.44412441771634
 20
66.28421028130133
 30
0.0
 11
25.44412441771634
 21
66.28421028130133
 31
0.0
1001
DBPROPERTIES
1002
{
1000
PbHidd
1002
}
  0
LINE
  5
2DF
330
1F
100
AcDbEntity
  8
HIDDEN
100
AcDbLine
 10
32.23332548150785
 20
63.26146321737411
 30
0.0
 11
32.23332548150785
 21
63.26146321737411
 31
0.0
1001
DBPROPERTIES
1002
{
1000
PbHidd
1002
}
  0
LINE
  5
2E0
330
1F
100
AcDbEntity
  8
HIDDEN
100
AcDbLine
 10
38.66937148606697
 20
59.54561032412509
 30
0.0
 11
38.66937148606697
 21
59.54561032412509
 31
0.0
1001
DBPROPERTIES
1002
{
1000
PbHidd
1002
}
  0
LINE
  5
2E1
330
1F
100
AcDbEntity
  8
HIDDEN
100
AcDbLine
 10
16.05777421569306
 20
24.7268039115909
 30
0.0
 11
24.16835717879185
 21
37.21600645257818
 31
0.0
1001
DBPROPERTIES
1002
{
1000
PbHidd
1002
}
  0
LINE
  5
2E2
330
1F
100
AcDbEntity
  8
HIDDEN
100
AcDbLine
 10
16.05777421569306
 20
24.72680391159091
 30
0.0
 11
16.05777421569306
 21
24.72680391159091
 31
0.0
1001
DBPROPERTIES
1002
{
1000
PbHidd
1002
}
  0
LINE
  5
2E3
330
1F
100
AcDbEntity
  8
HIDDEN
100
AcDbLine
 10
44.68174776453849
 20
55.17736326344491
 30
0.0
 11
44.68174776453849
 21
55.17736326344491
 31
0.0
1001
DBPROPERTIES
1002
{
1000
PbHidd
1002
}
  0
LINE
  5
2E4
330
1F
100
AcDbEntity
  8
HIDDEN
100
AcDbLine
 10
50.20458146424492
 20
50.20458146424483
 30
0.0
 11
50.20458146424492
 21
50.20458146424483
 31
0.0
1001
DBPROPERTIES
1002
{
1000
PbHidd
1002
}
  0
LINE
  5
2E5
330
1F
100
AcDbEntity
  8
HIDDEN
100
AcDbLine
 10
20.84786493198339
 20
20.84786493198335
 30
0.0
 11
31.37786341515308
 21
31.37786341515302
 31
0.0
1001
DBPROPERTIES
1002
{
1000
PbHidd
1002
}
  0
LINE
  5
2E6
330
1F
100
AcDbEntity
  8
HIDDEN
100
AcDbLine
 10
20.84786493198339
 20
20.84786493198336
 30
0.0
 11
20.84786493198339
 21
20.84786493198336
 31
0.0
1001
DBPROPERTIES
1002
{
1000
PbHidd
1002
}
  0
LINE
  5
2E7
330
1F
100
AcDbEntity
  8
HIDDEN
100
AcDbLine
 10
55.17736326344497
 20
44.68174776453841
 30
0.0
 11
55.17736326344497
 21
44.68174776453841
 31
0.0
1001
DBPROPERTIES
1002
{
1000
PbHidd
1002
}
  0
LINE
  5
2E8
330
1F
100
AcDbEntity
  8
HIDDEN
100
AcDbLine
 10
59.54561032412512
 20
38.6693714860669
 30
0.0
 11
59.54561032412512
 21
38.6693714860669
 31
0.0
1001
DBPROPERTIES
1002
{
1000
PbHidd
1002
}
  0
LINE
  5
2E9
330
1F
100
AcDbEntity
  8
HIDDEN
100
AcDbLine
 10
24.72680391159092
 20
16.05777421569304
 30
0.0
 11
37.21600645257818
 21
24.16835717879181
 31
0.0
1001
DBPROPERTIES
1002
{
1000
PbHidd
1002
}
  0
LINE
  5
2EA
330
1F
100
AcDbEntity
  8
HIDDEN
100
AcDbLine
 10
24.72680391159092
 20
16.05777421569304
 30
0.0
 11
24.72680391159092
 21
16.05777421569304
 31
0.0
1001
DBPROPERTIES
1002
{
1000
PbHidd
1002
}
  0
LINE
  5
2EB
330
1F
100
AcDbEntity
  8
HIDDEN
100
AcDbLine
 10
63.26146321737413
 20
32.2333254815078
 30
0.0
 11
63.26146321737413
 21
32.2333254815078
 31
0.0
1001
DBPROPERTIES
1002
{
1000
PbHidd
1002
}
  0
LINE
  5
2EC
330
1F
100
AcDbEntity
  8
HIDDEN
100
AcDbLine
 10
66.28421028130134
 20
25.44412441771627
 30
0.0
 11
66.28421028130134
 21
25.44412441771628
 31
0.0
1001
DBPROPERTIES
1002
{
1000
PbHidd
1002
}
  0
LINE
  5
2ED
330
1F
100
AcDbEntity
  8
HIDDEN
100
AcDbLine
 10
27.5250629078925
 20
10.56588171242725
 30
0.0
 11
41.42763142581333
 21
15.90257776107267
 31
0.0
1001
DBPROPERTIES
1002
{
1000
PbHidd
1002
}
  0
LINE
  5
2EE
330
1F
100
AcDbEntity
  8
HIDDEN
100
AcDbLine
 10
27.5250629078925
 20
10.56588171242725
 30
0.0
 11
27.5250629078925
 21
10.56588171242725
 31
0.0
1001
DBPROPERTIES
1002
{
1000
PbHidd
1002
}
  0
LINE
  5
2EF
330
1F
100
AcDbEntity
  8
HIDDEN
100
AcDbLine
 10
68.58073366652386
 20
18.37615220227894
 30
0.0
 11
68.58073366652386
 21
18.37615220227893
 31
0.0
1001
DBPROPERTIES
1002
{
1000
PbHidd
1002
}
  0
LINE
  5
2F0
330
1F
100
AcDbEntity
  8
HIDDEN
100
AcDbLine
 10
70.1258721822548
 20
11.10684701785633
 30
0.0
 11
70.1258721822548
 21
11.10684701785634
 31
0.0
1001
DBPROPERTIES
1002
{
1000
PbHidd
1002
}
  0
LINE
  5
2F1
330
1F
100
AcDbEntity
  8
HIDDEN
100
AcDbLine
 10
29.12034457521331
 20
4.61220947760278
 30
0.0
 11
43.82867011390924
 21
6.941779386160206
 31
0.0
1001
DBPROPERTIES
1002
{
1000
PbHidd
1002
}
  0
LINE
  5
2F2
330
1F
100
AcDbEntity
  8
HIDDEN
100
AcDbLine
 10
29.12034457521331
 20
4.61220947760278
 30
0.0
 11
29.12034457521331
 21
4.61220947760278
 31
0.0
1001
DBPROPERTIES
1002
{
1000
PbHidd
1002
}
  0
LINE
  5
2F3
330
1F
100
AcDbEntity
  8
HIDDEN
100
AcDbLine
 10
70.90269696757474
 20
3.715852893248953
 30
0.0
 11
70.90269696757474
 21
3.71585289324895
 31
0.0
1001
DBPROPERTIES
1002
{
1000
PbHidd
1002
}
  0
LINE
  5
2F4
330
1F
100
AcDbEntity
  8
HIDDEN
100
AcDbLine
 10
70.90269696757474
 20
-3.715852893249032
 30
0.0
 11
70.90269696757474
 21
-3.715852893249029
 31
0.0
1001
DBPROPERTIES
1002
{
1000
PbHidd
1002
}
  0
LINE
  5
2F5
330
1F
100
AcDbEntity
  8
HIDDEN
100
AcDbLine
 10
29.44292744968067
 20
-1.543038443229468
 30
0.0
 11
44.31418560473419
 21
-2.322408058280645
 31
0.0
1001
DBPROPERTIES
1002
{
1000
PbHidd
1002
}
  0
LINE
  5
2F6
330
1F
100
AcDbEntity
  8
HIDDEN
100
AcDbLine
 10
29.44292744968068
 20
-1.543038443229468
 30
0.0
 11
29.44292744968068
 21
-1.543038443229468
 31
0.0
1001
DBPROPERTIES
1002
{
1000
PbHidd
1002
}
  0
LINE
  5
2F7
330
1F
100
AcDbEntity
  8
HIDDEN
100
AcDbLine
 10
70.12587218225477
 20
-11.10684701785641
 30
0.0
 11
70.12587218225477
 21
-11.10684701785641
 31
0.0
1001
DBPROPERTIES
1002
{
1000
PbHidd
1002
}
  0
LINE
  5
2F8
330
1F
100
AcDbEntity
  8
HIDDEN
100
AcDbLine
 10
68.58073366652384
 20
-18.37615220227902
 30
0.0
 11
68.58073366652384
 21
-18.37615220227902
 31
0.0
1001
DBPROPERTIES
1002
{
1000
PbHidd
1002
}
  0
LINE
  5
2F9
330
1F
100
AcDbEntity
  8
HIDDEN
100
AcDbLine
 10
28.47871311175602
 20
-7.630848179772672
 30
0.0
 11
42.8629585415774
 21
-11.48509512642439
 31
0.0
1001
DBPROPERTIES
1002
{
1000
PbHidd
1002
}
  0
LINE
  5
2FA
330
1F
100
AcDbEntity
  8
HIDDEN
100
AcDbLine
 10
28.47871311175602
 20
-7.63084817977267
 30
0.0
 11
28.47871311175602
 21
-7.63084817977267
 31
0.0
1001
DBPROPERTIES
1002
{
1000
PbHidd
1002
}
  0
LINE
  5
2FB
330
1F
100
AcDbEntity
  8
HIDDEN
100
AcDbLine
 10
66.2842102813013
 20
-25.44412441771636
 30
0.0
 11
66.2842102813013
 21
-25.44412441771636
 31
0.0
1001
DBPROPERTIES
1002
{
1000
PbHidd
1002
}
  0
LINE
  5
2FC
330
1F
100
AcDbEntity
  8
HIDDEN
100
AcDbLine
 10
63.2614632173741
 20
-32.23332548150785
 30
0.0
 11
63.2614632173741
 21
-32.23332548150785
 31
0.0
1001
DBPROPERTIES
1002
{
1000
PbHidd
1002
}
  0
LINE
  5
2FD
330
1F
100
AcDbEntity
  8
HIDDEN
100
AcDbLine
 10
26.26984235482037
 20
-13.38515323398764
 30
0.0
 11
39.53841451085881
 21
-20.1458284259424
 31
0.0
1001
DBPROPERTIES
1002
{
1000
PbHidd
1002
}
  0
LINE
  5
2FE
330
1F
100
AcDbEntity
  8
HIDDEN
100
AcDbLine
 10
26.26984235482037
 20
-13.38515323398765
 30
0.0
 11
26.26984235482037
 21
-13.38515323398765
 31
0.0
1001
DBPROPERTIES
1002
{
1000
PbHidd
1002
}
  0
LINE
  5
2FF
330
1F
100
AcDbEntity
  8
HIDDEN
100
AcDbLine
 10
59.54561032412509
 20
-38.66937148606696
 30
0.0
 11
59.54561032412509
 21
-38.66937148606696
 31
0.0
1001
DBPROPERTIES
1002
{
1000
PbHidd
1002
}
  0
LINE
  5
300
330
1F
100
AcDbEntity
  8
HIDDEN
100
AcDbLine
 10
55.17736326344491
 20
-44.68174776453847
 30
0.0
 11
55.17736326344491
 21
-44.68174776453847
 31
0.0
1001
DBPROPERTIES
1002
{
1000
PbHidd
1002
}
  0
LINE
  5
301
330
1F
100
AcDbEntity
  8
HIDDEN
100
AcDbLine
 10
22.91285343028968
 20
-18.55446286278604
 30
0.0
 11
34.48585203965306
 21
-27.92609235283653
 31
0.0
1001
DBPROPERTIES
1002
{
1000
PbHidd
1002
}
  0
LINE
  5
302
330
1F
100
AcDbEntity
  8
HIDDEN
100
AcDbLine
 10
22.91285343028968
 20
-18.55446286278604
 30
0.0
 11
22.91285343028968
 21
-18.55446286278604
 31
0.0
1001
DBPROPERTIES
1002
{
1000
PbHidd
1002
}
  0
LINE
  5
303
330
1F
100
AcDbEntity
  8
HIDDEN
100
AcDbLine
 10
50.20458146424485
 20
-50.20458146424487
 30
0.0
 11
50.20458146424485
 21
-50.20458146424487
 31
0.0
1001
DBPROPERTIES
1002
{
1000
PbHidd
1002
}
  0
LINE
  5
304
330
1F
100
AcDbEntity
  8
HIDDEN
100
AcDbLine
 10
44.68174776453841
 20
-55.17736326344495
 30
0.0
 11
44.68174776453841
 21
-55.17736326344495
 31
0.0
1001
DBPROPERTIES
1002
{
1000
PbHidd
1002
}
  0
LINE
  5
305
330
1F
100
AcDbEntity
  8
HIDDEN
100
AcDbLine
 10
18.55446286278602
 20
-22.91285343028969
 30
0.0
 11
27.9260923528365
 21
-34.48585203965308
 31
0.0
1001
DBPROPERTIES
1002
{
1000
PbHidd
1002
}
  0
LINE
  5
306
330
1F
100
AcDbEntity
  8
HIDDEN
100
AcDbLine
 10
18.55446286278602
 20
-22.91285343028969
 30
0.0
 11
18.55446286278602
 21
-22.91285343028969
 31
0.0
1001
DBPROPERTIES
1002
{
1000
PbHidd
1002
}
  0
LINE
  5
307
330
1F
100
AcDbEntity
  8
HIDDEN
100
AcDbLine
 10
38.66937148606688
 20
-59.54561032412511
 30
0.0
 11
38.66937148606688
 21
-59.54561032412511
 31
0.0
1001
DBPROPERTIES
1002
{
1000
PbHidd
1002
}
  0
LINE
  5
308
330
1F
100
AcDbEntity
  8
HIDDEN
100
AcDbLine
 10
32.23332548150778
 20
-63.26146321737411
 30
0.0
 11
32.23332548150778
 21
-63.26146321737411
 31
0.0
1001
DBPROPERTIES
1002
{
1000
PbHidd
1002
}
  0
LINE
  5
309
330
1F
100
AcDbEntity
  8
HIDDEN
100
AcDbLine
 10
13.38515323398762
 20
-26.26984235482038
 30
0.0
 11
20.14582842594236
 21
-39.53841451085881
 31
0.0
1001
DBPROPERTIES
1002
{
1000
PbHidd
1002
}
  0
LINE
  5
30A
330
1F
100
AcDbEntity
  8
HIDDEN
100
AcDbLine
 10
13.38515323398762
 20
-26.26984235482038
 30
0.0
 11
13.38515323398762
 21
-26.26984235482038
 31
0.0
1001
DBPROPERTIES
1002
{
1000
PbHidd
1002
}
  0
LINE
  5
30B
330
1F
100
AcDbEntity
  8
HIDDEN
100
AcDbLine
 10
25.44412441771629
 20
-66.28421028130131
 30
0.0
 11
25.44412441771629
 21
-66.28421028130131
 31
0.0
1001
DBPROPERTIES
1002
{
1000
PbHidd
1002
}
  0
LINE
  5
30C
330
1F
100
AcDbEntity
  8
HIDDEN
100
AcDbLine
 10
18.37615220227895
 20
-68.58073366652384
 30
0.0
 11
18.37615220227895
 21
-68.58073366652384
 31
0.0
1001
DBPROPERTIES
1002
{
1000
PbHidd
1002
}
  0
LINE
  5
30D
330
1F
100
AcDbEntity
  8
HIDDEN
100
AcDbLine
 10
7.630848179772645
 20
-28.47871311175602
 30
0.0
 11
11.48509512642434
 21
-42.86295854157738
 31
0.0
1001
DBPROPERTIES
1002
{
1000
PbHidd
1002
}
  0
LINE
  5
30E
330
1F
100
AcDbEntity
  8
HIDDEN
100
AcDbLine
 10
7.630848179772646
 20
-28.47871311175603
 30
0.0
 11
7.630848179772646
 21
-28.47871311175603
 31
0.0
1001
DBPROPERTIES
1002
{
1000
PbHidd
1002
}
  0
LINE
  5
30F
330
1F
100
AcDbEntity
  8
HIDDEN
100
AcDbLine
 10
11.10684701785637
 20
-70.12587218225477
 30
0.0
 11
11.10684701785637
 21
-70.12587218225477
 31
0.0
1001
DBPROPERTIES
1002
{
1000
PbHidd
1002
}
  0
LINE
  5
310
330
1F
100
AcDbEntity
  8
HIDDEN
100
AcDbLine
 10
3.715852893248972
 20
-70.90269696757474
 30
0.0
 11
3.715852893248972
 21
-70.90269696757474
 31
0.0
1001
DBPROPERTIES
1002
{
1000
PbHidd
1002
}
  0
LINE
  5
311
330
1F
100
AcDbEntity
  8
HIDDEN
100
AcDbLine
 10
1.543038443229444
 20
-29.44292744968068
 30
0.0
 11
2.322408058280607
 21
-44.31418560473419
 31
0.0
1001
DBPROPERTIES
1002
{
1000
PbHidd
1002
}
  0
LINE
  5
312
330
1F
100
AcDbEntity
  8
HIDDEN
100
AcDbLine
 10
1.543038443229445
 20
-29.44292744968068
 30
0.0
 11
1.543038443229445
 21
-29.44292744968068
 31
0.0
1001
DBPROPERTIES
1002
{
1000
PbHidd
1002
}
  0
LINE
  5
313
330
1F
100
AcDbEntity
  8
HIDDEN
100
AcDbLine
 10
-3.715852893249051
 20
-70.90269696757473
 30
0.0
 11
-3.715852893249051
 21
-70.90269696757473
 31
0.0
1001
DBPROPERTIES
1002
{
1000
PbHidd
1002
}
  0
LINE
  5
314
330
1F
100
AcDbEntity
  8
HIDDEN
100
AcDbLine
 10
-11.10684701785641
 20
-70.12587218225477
 30
0.0
 11
-11.10684701785641
 21
-70.12587218225477
 31
0.0
1001
DBPROPERTIES
1002
{
1000
PbHidd
1002
}
  0
LINE
  5
315
330
1F
100
AcDbEntity
  8
HIDDEN
100
AcDbLine
 10
-4.612209477602816
 20
-29.1203445752133
 30
0.0
 11
-6.941779386160256
 21
-43.82867011390921
 31
0.0
1001
DBPROPERTIES
1002
{
1000
PbHidd
1002
}
  0
LINE
  5
316
330
1F
100
AcDbEntity
  8
HIDDEN
100
AcDbLine
 10
-4.612209477602815
 20
-29.12034457521331
 30
0.0
 11
-4.612209477602815
 21
-29.12034457521331
 31
0.0
1001
DBPROPERTIES
1002
{
1000
PbHidd
1002
}
  0
LINE
  5
317
330
1F
100
AcDbEntity
  8
HIDDEN
100
AcDbLine
 10
-18.37615220227899
 20
-68.58073366652383
 30
0.0
 11
-18.37615220227899
 21
-68.58073366652383
 31
0.0
1001
DBPROPERTIES
1002
{
1000
PbHidd
1002
}
  0
LINE
  5
318
330
1F
100
AcDbEntity
  8
HIDDEN
100
AcDbLine
 10
-25.44412441771633
 20
-66.2842102813013
 30
0.0
 11
-25.44412441771633
 21
-66.2842102813013
 31
0.0
1001
DBPROPERTIES
1002
{
1000
PbHidd
1002
}
  0
LINE
  5
319
330
1F
100
AcDbEntity
  8
HIDDEN
100
AcDbLine
 10
-10.56588171242727
 20
-27.52506290789248
 30
0.0
 11
-15.9025777610727
 21
-41.4276314258133
 31
0.0
1001
DBPROPERTIES
1002
{
1000
PbHidd
1002
}
  0
LINE
  5
31A
330
1F
100
AcDbEntity
  8
HIDDEN
100
AcDbLine
 10
-10.56588171242727
 20
-27.52506290789249
 30
0.0
 11
-10.56588171242727
 21
-27.52506290789249
 31
0.0
1001
DBPROPERTIES
1002
{
1000
PbHidd
1002
}
  0
LINE
  5
31B
330
1F
100
AcDbEntity
  8
HIDDEN
100
AcDbLine
 10
-32.23332548150783
 20
-63.2614632173741
 30
0.0
 11
-32.23332548150783
 21
-63.2614632173741
 31
0.0
1001
DBPROPERTIES
1002
{
1000
PbHidd
1002
}
  0
LINE
  5
31C
330
1F
100
AcDbEntity
  8
HIDDEN
100
AcDbLine
 10
-38.66937148606696
 20
-59.54561032412508
 30
0.0
 11
-38.66937148606696
 21
-59.54561032412508
 31
0.0
1001
DBPROPERTIES
1002
{
1000
PbHidd
1002
}
  0
LINE
  5
31D
330
1F
100
AcDbEntity
  8
HIDDEN
100
AcDbLine
 10
-16.05777421569306
 20
-24.7268039115909
 30
0.0
 11
-24.16835717879184
 21
-37.21600645257816
 31
0.0
1001
DBPROPERTIES
1002
{
1000
PbHidd
1002
}
  0
LINE
  5
31E
330
1F
100
AcDbEntity
  8
HIDDEN
100
AcDbLine
 10
-16.05777421569306
 20
-24.72680391159091
 30
0.0
 11
-16.05777421569306
 21
-24.72680391159091
 31
0.0
1001
DBPROPERTIES
1002
{
1000
PbHidd
1002
}
  0
LINE
  5
31F
330
1F
100
AcDbEntity
  8
HIDDEN
100
AcDbLine
 10
-44.68174776453848
 20
-55.1773632634449
 30
0.0
 11
-44.68174776453848
 21
-55.1773632634449
 31
0.0
1001
DBPROPERTIES
1002
{
1000
PbHidd
1002
}
  0
LINE
  5
320
330
1F
100
AcDbEntity
  8
HIDDEN
100
AcDbLine
 10
-50.20458146424488
 20
-50.20458146424485
 30
0.0
 11
-50.20458146424488
 21
-50.20458146424485
 31
0.0
1001
DBPROPERTIES
1002
{
1000
PbHidd
1002
}
  0
LINE
  5
321
330
1F
100
AcDbEntity
  8
HIDDEN
100
AcDbLine
 10
-20.84786493198337
 20
-20.84786493198336
 30
0.0
 11
-31.37786341515304
 21
-31.37786341515303
 31
0.0
1001
DBPROPERTIES
1002
{
1000
PbHidd
1002
}
  0
LINE
  5
322
330
1F
100
AcDbEntity
  8
HIDDEN
100
AcDbLine
 10
-20.84786493198337
 20
-20.84786493198337
 30
0.0
 11
-20.84786493198337
 21
-20.84786493198337
 31
0.0
1001
DBPROPERTIES
1002
{
1000
PbHidd
1002
}
  0
LINE
  5
323
330
1F
100
AcDbEntity
  8
HIDDEN
100
AcDbLine
 10
-55.17736326344492
 20
-44.68174776453844
 30
0.0
 11
-55.17736326344492
 21
-44.68174776453844
 31
0.0
1001
DBPROPERTIES
1002
{
1000
PbHidd
1002
}
  0
LINE
  5
324
330
1F
100
AcDbEntity
  8
HIDDEN
100
AcDbLine
 10
-59.54561032412511
 20
-38.6693714860669
 30
0.0
 11
-59.54561032412511
 21
-38.6693714860669
 31
0.0
1001
DBPROPERTIES
1002
{
1000
PbHidd
1002
}
  0
LINE
  5
325
330
1F
100
AcDbEntity
  8
HIDDEN
100
AcDbLine
 10
-24.72680391159092
 20
-16.05777421569304
 30
0.0
 11
-37.21600645257818
 21
-24.16835717879182
 31
0.0
1001
DBPROPERTIES
1002
{
1000
PbHidd
1002
}
  0
LINE
  5
326
330
1F
100
AcDbEntity
  8
HIDDEN
100
AcDbLine
 10
-24.72680391159092
 20
-16.05777421569304
 30
0.0
 11
-24.72680391159092
 21
-16.05777421569304
 31
0.0
1001
DBPROPERTIES
1002
{
1000
PbHidd
1002
}
  0
LINE
  5
327
330
1F
100
AcDbEntity
  8
HIDDEN
100
AcDbLine
 10
-63.26146321737411
 20
-32.2333254815078
 30
0.0
 11
-63.26146321737411
 21
-32.2333254815078
 31
0.0
1001
DBPROPERTIES
1002
{
1000
PbHidd
1002
}
  0
LINE
  5
328
330
1F
100
AcDbEntity
  8
HIDDEN
100
AcDbLine
 10
-66.28421028130131
 20
-25.4441244177163
 30
0.0
 11
-66.28421028130131
 21
-25.4441244177163
 31
0.0
1001
DBPROPERTIES
1002
{
1000
PbHidd
1002
}
  0
LINE
  5
329
330
1F
100
AcDbEntity
  8
HIDDEN
100
AcDbLine
 10
-27.52506290789249
 20
-10.56588171242726
 30
0.0
 11
-41.42763142581332
 21
-15.90257776107268
 31
0.0
1001
DBPROPERTIES
1002
{
1000
PbHidd
1002
}
  0
LINE
  5
32A
330
1F
100
AcDbEntity
  8
HIDDEN
100
AcDbLine
 10
-27.52506290789249
 20
-10.56588171242726
 30
0.0
 11
-27.52506290789249
 21
-10.56588171242726
 31
0.0
1001
DBPROPERTIES
1002
{
1000
PbHidd
1002
}
  0
LINE
  5
32B
330
1F
100
AcDbEntity
  8
HIDDEN
100
AcDbLine
 10
-68.58073366652386
 20
-18.37615220227895
 30
0.0
 11
-68.58073366652386
 21
-18.37615220227896
 31
0.0
1001
DBPROPERTIES
1002
{
1000
PbHidd
1002
}
  0
LINE
  5
32C
330
1F
100
AcDbEntity
  8
HIDDEN
100
AcDbLine
 10
-70.12587218225477
 20
-11.10684701785637
 30
0.0
 11
-70.12587218225477
 21
-11.10684701785637
 31
0.0
1001
DBPROPERTIES
1002
{
1000
PbHidd
1002
}
  0
LINE
  5
32D
330
1F
100
AcDbEntity
  8
HIDDEN
100
AcDbLine
 10
-29.1203445752133
 20
-4.612209477602796
 30
0.0
 11
-43.82867011390923
 21
-6.941779386160229
 31
0.0
1001
DBPROPERTIES
1002
{
1000
PbHidd
1002
}
  0
LINE
  5
32E
330
1F
100
AcDbEntity
  8
HIDDEN
100
AcDbLine
 10
-29.12034457521331
 20
-4.612209477602796
 30
0.0
 11
-29.12034457521331
 21
-4.612209477602796
 31
0.0
1001
DBPROPERTIES
1002
{
1000
PbHidd
1002
}
  0
LINE
  5
32F
330
1F
100
AcDbEntity
  8
HIDDEN
100
AcDbLine
 10
-70.90269696757474
 20
-3.715852893248985
 30
0.0
 11
-70.90269696757474
 21
-3.715852893248989
 31
0.0
1001
DBPROPERTIES
1002
{
1000
PbHidd
1002
}
  0
LINE
  5
330
330
1F
100
AcDbEntity
  8
HIDDEN
100
AcDbLine
 10
-70.90269696757474
 20
3.715852893249025
 30
0.0
 11
-70.90269696757474
 21
3.715852893249029
 31
0.0
1001
DBPROPERTIES
1002
{
1000
PbHidd
1002
}
  0
LINE
  5
331
330
1F
100
AcDbEntity
  8
HIDDEN
100
AcDbLine
 10
-29.44292744968067
 20
1.543038443229465
 30
0.0
 11
-44.31418560473421
 21
2.32240805828064
 31
0.0
1001
DBPROPERTIES
1002
{
1000
PbHidd
1002
}
  0
LINE
  5
332
330
1F
100
AcDbEntity
  8
HIDDEN
100
AcDbLine
 10
-29.44292744968068
 20
1.543038443229465
 30
0.0
 11
-29.44292744968068
 21
1.543038443229465
 31
0.0
1001
DBPROPERTIES
1002
{
1000
PbHidd
1002
}
  0
LINE
  5
333
330
1F
100
AcDbEntity
  8
HIDDEN
100
AcDbLine
 10
-70.12587218225477
 20
11.10684701785641
 30
0.0
 11
-70.12587218225477
 21
11.1068470178564
 31
0.0
1001
DBPROPERTIES
1002
{
1000
PbHidd
1002
}
  0
LINE
  5
334
330
1F
100
AcDbEntity
  8
HIDDEN
100
AcDbLine
 10
-68.58073366652384
 20
18.37615220227898
 30
0.0
 11
-68.58073366652384
 21
18.37615220227899
 31
0.0
1001
DBPROPERTIES
1002
{
1000
PbHidd
1002
}
  0
LINE
  5
335
330
1F
100
AcDbEntity
  8
HIDDEN
100
AcDbLine
 10
-28.47871311175602
 20
7.630848179772656
 30
0.0
 11
-42.86295854157738
 21
11.48509512642436
 31
0.0
1001
DBPROPERTIES
1002
{
1000
PbHidd
1002
}
  0
LINE
  5
336
330
1F
100
AcDbEntity
  8
HIDDEN
100
AcDbLine
 10
-28.47871311175602
 20
7.630848179772656
 30
0.0
 11
-28.47871311175602
 21
7.630848179772656
 31
0.0
1001
DBPROPERTIES
1002
{
1000
PbHidd
1002
}
  0
LINE
  5
337
330
1F
100
AcDbEntity
  8
HIDDEN
100
AcDbLine
 10
-66.28421028130133
 20
25.44412441771633
 30
0.0
 11
-66.28421028130133
 21
25.44412441771633
 31
0.0
1001
DBPROPERTIES
1002
{
1000
PbHidd
1002
}
  0
LINE
  5
338
330
1F
100
AcDbEntity
  8
HIDDEN
100
AcDbLine
 10
-63.26146321737411
 20
32.23332548150784
 30
0.0
 11
-63.26146321737411
 21
32.23332548150784
 31
0.0
1001
DBPROPERTIES
1002
{
1000
PbHidd
1002
}
  0
LINE
  5
339
330
1F
100
AcDbEntity
  8
HIDDEN
100
AcDbLine
 10
-26.26984235482036
 20
13.38515323398764
 30
0.0
 11
-39.53841451085881
 21
20.1458284259424
 31
0.0
1001
DBPROPERTIES
1002
{
1000
PbHidd
1002
}
  0
LINE
  5
33A
330
1F
100
AcDbEntity
  8
HIDDEN
100
AcDbLine
 10
-26.26984235482037
 20
13.38515323398764
 30
0.0
 11
-26.26984235482037
 21
13.38515323398764
 31
0.0
1001
DBPROPERTIES
1002
{
1000
PbHidd
1002
}
  0
LINE
  5
33B
330
1F
100
AcDbEntity
  8
HIDDEN
100
AcDbLine
 10
-59.5456103241251
 20
38.66937148606694
 30
0.0
 11
-59.5456103241251
 21
38.66937148606694
 31
0.0
1001
DBPROPERTIES
1002
{
1000
PbHidd
1002
}
  0
LINE
  5
33C
330
1F
100
AcDbEntity
  8
HIDDEN
100
AcDbLine
 10
-55.17736326344493
 20
44.68174776453846
 30
0.0
 11
-55.17736326344493
 21
44.68174776453846
 31
0.0
1001
DBPROPERTIES
1002
{
1000
PbHidd
1002
}
  0
LINE
  5
33D
330
1F
100
AcDbEntity
  8
HIDDEN
100
AcDbLine
 10
-22.91285343028969
 20
18.55446286278604
 30
0.0
 11
-34.48585203965308
 21
27.92609235283654
 31
0.0
1001
DBPROPERTIES
1002
{
1000
PbHidd
1002
}
  0
LINE
  5
33E
330
1F
100
AcDbEntity
  8
HIDDEN
100
AcDbLine
 10
-22.91285343028969
 20
18.55446286278604
 30
0.0
 11
-22.91285343028969
 21
18.55446286278604
 31
0.0
1001
DBPROPERTIES
1002
{
1000
PbHidd
1002
}
  0
LINE
  5
33F
330
1F
100
AcDbEntity
  8
HIDDEN
100
AcDbLine
 10
-50.20458146424487
 20
50.20458146424487
 30
0.0
 11
-50.20458146424487
 21
50.20458146424487
 31
0.0
1001
DBPROPERTIES
1002
{
1000
PbHidd
1002
}
  0
LINE
  5
340
330
1F
100
AcDbEntity
  8
HIDDEN
100
AcDbLine
 10
-44.68174776453846
 20
55.17736326344493
 30
0.0
 11
-44.68174776453846
 21
55.17736326344493
 31
0.0
1001
DBPROPERTIES
1002
{
1000
PbHidd
1002
}
  0
LINE
  5
341
330
1F
100
AcDbEntity
  8
HIDDEN
100
AcDbLine
 10
-18.55446286278603
 20
22.91285343028969
 30
0.0
 11
-27.92609235283653
 21
34.48585203965308
 31
0.0
1001
DBPROPERTIES
1002
{
1000
PbHidd
1002
}
  0
LINE
  5
342
330
1F
100
AcDbEntity
  8
HIDDEN
100
AcDbLine
 10
-18.55446286278604
 20
22.91285343028969
 30
0.0
 11
-18.55446286278604
 21
22.91285343028969
 31
0.0
1001
DBPROPERTIES
1002
{
1000
PbHidd
1002
}
  0
LINE
  5
343
330
1F
100
AcDbEntity
  8
HIDDEN
100
AcDbLine
 10
-38.66937148606691
 20
59.54561032412511
 30
0.0
 11
-38.66937148606691
 21
59.54561032412511
 31
0.0
1001
DBPROPERTIES
1002
{
1000
PbHidd
1002
}
  0
LINE
  5
344
330
1F
100
AcDbEntity
  8
HIDDEN
100
AcDbLine
 10
-32.23332548150781
 20
63.26146321737414
 30
0.0
 11
-32.23332548150781
 21
63.26146321737414
 31
0.0
1001
DBPROPERTIES
1002
{
1000
PbHidd
1002
}
  0
LINE
  5
345
330
1F
100
AcDbEntity
  8
HIDDEN
100
AcDbLine
 10
-13.38515323398763
 20
26.26984235482038
 30
0.0
 11
-20.14582842594239
 21
39.53841451085884
 31
0.0
1001
DBPROPERTIES
1002
{
1000
PbHidd
1002
}
  0
LINE
  5
346
330
1F
100
AcDbEntity
  8
HIDDEN
100
AcDbLine
 10
-13.38515323398763
 20
26.26984235482038
 30
0.0
 11
-13.38515323398763
 21
26.26984235482038
 31
0.0
1001
DBPROPERTIES
1002
{
1000
PbHidd
1002
}
  0
LINE
  5
347
330
1F
100
AcDbEntity
  8
HIDDEN
100
AcDbLine
 10
-25.44412441771631
 20
66.28421028130133
 30
0.0
 11
-25.44412441771631
 21
66.28421028130133
 31
0.0
1001
DBPROPERTIES
1002
{
1000
PbHidd
1002
}
  0
LINE
  5
348
330
1F
100
AcDbEntity
  8
HIDDEN
100
AcDbLine
 10
-18.37615220227897
 20
68.58073366652386
 30
0.0
 11
-18.37615220227897
 21
68.58073366652386
 31
0.0
1001
DBPROPERTIES
1002
{
1000
PbHidd
1002
}
  0
LINE
  5
349
330
1F
100
AcDbEntity
  8
HIDDEN
100
AcDbLine
 10
-7.630848179772648
 20
28.47871311175603
 30
0.0
 11
-11.48509512642435
 21
42.86295854157741
 31
0.0
1001
DBPROPERTIES
1002
{
1000
PbHidd
1002
}
  0
LINE
  5
34A
330
1F
100
AcDbEntity
  8
HIDDEN
100
AcDbLine
 10
-7.63084817977265
 20
28.47871311175603
 30
0.0
 11
-7.63084817977265
 21
28.47871311175603
 31
0.0
1001
DBPROPERTIES
1002
{
1000
PbHidd
1002
}
  0
LINE
  5
34B
330
1F
100
AcDbEntity
  8
HIDDEN
100
AcDbLine
 10
18.37615220227904
 20
68.58073366652384
 30
0.0
 11
18.37615220227904
 21
68.58073366652384
 31
0.0
1001
DBPROPERTIES
1002
{
1000
PbHidd
1002
}
  0
ARC
  5
34C
330
1F
100
AcDbEntity
  8
HIDDEN
100
AcDbCircle
 10
0.0
 20
0.0
 30
0.0
 40
29.48333333333333
100
AcDbArc
 50
75.00000349528622
 51
81.0000175258962
1001
DBPROPERTIES
1002
{
1000
PbHidd
1002
}
  0
ARC
  5
34D
330
1F
100
AcDbEntity
  8
HIDDEN
100
AcDbCircle
 10
0.0
 20
0.0000000000000187
 30
0.0
 40
60.0
100
AcDbArc
 50
81.0000175258962
 51
99.00000232194662
1001
DBPROPERTIES
1002
{
1000
PbHidd
1002
}
  0
ARC
  5
34E
330
1F
100
AcDbEntity
  8
HIDDEN
100
AcDbCircle
 10
0.0
 20
0.0000000000000187
 30
0.0
 40
60.0
100
AcDbArc
 50
68.99998946467625
 51
75.00000349528622
1001
DBPROPERTIES
1002
{
1000
PbHidd
1002
}
  0
ARC
  5
34F
330
1F
100
AcDbEntity
  8
HIDDEN
100
AcDbCircle
 10
0.0
 20
0.0000000000000187
 30
0.0
 40
60.0
100
AcDbArc
 50
57.0000186992358
 51
62.99997543406626
1001
DBPROPERTIES
1002
{
1000
PbHidd
1002
}
  0
ARC
  5
350
330
1F
100
AcDbEntity
  8
HIDDEN
100
AcDbCircle
 10
0.0
 20
0.0000000000000187
 30
0.0
 40
60.0
100
AcDbArc
 50
44.99999063801582
 51
51.00000466862581
1001
DBPROPERTIES
1002
{
1000
PbHidd
1002
}
  0
ARC
  5
351
330
1F
100
AcDbEntity
  8
HIDDEN
100
AcDbCircle
 10
0.0
 20
0.0000000000000187
 30
0.0
 40
60.0
100
AcDbArc
 50
33.00001987257539
 51
38.99997660740585
1001
DBPROPERTIES
1002
{
1000
PbHidd
1002
}
  0
ARC
  5
352
330
1F
100
AcDbEntity
  8
HIDDEN
100
AcDbCircle
 10
0.0
 20
0.0000000000000187
 30
0.0
 40
60.0
100
AcDbArc
 50
20.99999181135542
 51
27.0000058419654
1001
DBPROPERTIES
1002
{
1000
PbHidd
1002
}
  0
ARC
  5
353
330
1F
100
AcDbEntity
  8
HIDDEN
100
AcDbCircle
 10
0.0
 20
0.0000000000000187
 30
0.0
 40
60.0
100
AcDbArc
 50
9.000021045914972
 51
14.99997778074544
1001
DBPROPERTIES
1002
{
1000
PbHidd
1002
}
  0
ARC
  5
354
330
1F
100
AcDbEntity
  8
HIDDEN
100
AcDbCircle
 10
0.0
 20
0.0000000000000187
 30
0.0
 40
60.0
100
AcDbArc
 50
0.0
 51
3.00000701530499
1001
DBPROPERTIES
1002
{
1000
PbHidd
1002
}
  0
ARC
  5
355
330
1F
100
AcDbEntity
  8
HIDDEN
100
AcDbCircle
 10
0.0
 20
0.0000000000000187
 30
0.0
 40
60.0
100
AcDbArc
 50
345.0000222192546
 51
350.9999789540851
1001
DBPROPERTIES
1002
{
1000
PbHidd
1002
}
  0
ARC
  5
356
330
1F
100
AcDbEntity
  8
HIDDEN
100
AcDbCircle
 10
0.0
 20
0.0000000000000187
 30
0.0
 40
60.0
100
AcDbArc
 50
332.9999941580346
 51
339.0000081886445
1001
DBPROPERTIES
1002
{
1000
PbHidd
1002
}
  0
ARC
  5
357
330
1F
100
AcDbEntity
  8
HIDDEN
100
AcDbCircle
 10
0.0
 20
0.0000000000000187
 30
0.0
 40
60.0
100
AcDbArc
 50
321.0000233925941
 51
326.9999801274246
1001
DBPROPERTIES
1002
{
1000
PbHidd
1002
}
  0
ARC
  5
358
330
1F
100
AcDbEntity
  8
HIDDEN
100
AcDbCircle
 10
0.0
 20
0.0000000000000187
 30
0.0
 40
60.0
100
AcDbArc
 50
308.9999953313742
 51
315.0000093619842
1001
DBPROPERTIES
1002
{
1000
PbHidd
1002
}
  0
ARC
  5
359
330
1F
100
AcDbEntity
  8
HIDDEN
100
AcDbCircle
 10
0.0
 20
0.0000000000000187
 30
0.0
 40
60.0
100
AcDbArc
 50
297.0000245659338
 51
302.9999813007643
1001
DBPROPERTIES
1002
{
1000
PbHidd
1002
}
  0
ARC
  5
35A
330
1F
100
AcDbEntity
  8
HIDDEN
100
AcDbCircle
 10
0.0
 20
0.0000000000000187
 30
0.0
 40
60.0
100
AcDbArc
 50
284.9999965047138
 51
291.0000105353237
1001
DBPROPERTIES
1002
{
1000
PbHidd
1002
}
  0
ARC
  5
35B
330
1F
100
AcDbEntity
  8
HIDDEN
100
AcDbCircle
 10
0.0
 20
0.0000000000000187
 30
0.0
 40
60.0
100
AcDbArc
 50
273.0000257392733
 51
278.9999824741038
1001
DBPROPERTIES
1002
{
1000
PbHidd
1002
}
  0
ARC
  5
35C
330
1F
100
AcDbEntity
  8
HIDDEN
100
AcDbCircle
 10
0.0
 20
0.0000000000000187
 30
0.0
 40
60.0
100
AcDbArc
 50
260.9999976780534
 51
267.0000117086634
1001
DBPROPERTIES
1002
{
1000
PbHidd
1002
}
  0
ARC
  5
35D
330
1F
100
AcDbEntity
  8
HIDDEN
100
AcDbCircle
 10
0.0
 20
0.0000000000000187
 30
0.0
 40
60.0
100
AcDbArc
 50
249.0000269126129
 51
254.9999836474434
1001
DBPROPERTIES
1002
{
1000
PbHidd
1002
}
  0
ARC
  5
35E
330
1F
100
AcDbEntity
  8
HIDDEN
100
AcDbCircle
 10
0.0
 20
0.0000000000000187
 30
0.0
 40
60.0
100
AcDbArc
 50
236.999998851393
 51
243.0000128820029
1001
DBPROPERTIES
1002
{
1000
PbHidd
1002
}
  0
ARC
  5
35F
330
1F
100
AcDbEntity
  8
HIDDEN
100
AcDbCircle
 10
0.0
 20
0.0000000000000187
 30
0.0
 40
60.0
100
AcDbArc
 50
225.0000280859525
 51
230.999984820783
1001
DBPROPERTIES
1002
{
1000
PbHidd
1002
}
  0
ARC
  5
360
330
1F
100
AcDbEntity
  8
HIDDEN
100
AcDbCircle
 10
0.0
 20
0.0000000000000187
 30
0.0
 40
60.0
100
AcDbArc
 50
213.0000000247326
 51
219.0000140553425
1001
DBPROPERTIES
1002
{
1000
PbHidd
1002
}
  0
ARC
  5
361
330
1F
100
AcDbEntity
  8
HIDDEN
100
AcDbCircle
 10
0.0
 20
0.0000000000000187
 30
0.0
 40
60.0
100
AcDbArc
 50
200.9999719635126
 51
206.9999859941226
1001
DBPROPERTIES
1002
{
1000
PbHidd
1002
}
  0
ARC
  5
362
330
1F
100
AcDbEntity
  8
HIDDEN
100
AcDbCircle
 10
0.0
 20
0.0000000000000187
 30
0.0
 40
60.0
100
AcDbArc
 50
189.0000011980722
 51
195.0000152286821
1001
DBPROPERTIES
1002
{
1000
PbHidd
1002
}
  0
ARC
  5
363
330
1F
100
AcDbEntity
  8
HIDDEN
100
AcDbCircle
 10
0.0
 20
0.0000000000000187
 30
0.0
 40
60.0
100
AcDbArc
 50
177.0000128325378
 51
180.0000198478428
1001
DBPROPERTIES
1002
{
1000
PbHidd
1002
}
  0
ARC
  5
364
330
1F
100
AcDbEntity
  8
HIDDEN
100
AcDbCircle
 10
0.0
 20
0.0000000000000187
 30
0.0
 40
60.0
100
AcDbArc
 50
164.9999847713179
 51
170.9999988019279
1001
DBPROPERTIES
1002
{
1000
PbHidd
1002
}
  0
ARC
  5
365
330
1F
100
AcDbEntity
  8
HIDDEN
100
AcDbCircle
 10
0.0
 20
0.0000000000000187
 30
0.0
 40
60.0
100
AcDbArc
 50
153.0000140058774
 51
159.0000280364874
1001
DBPROPERTIES
1002
{
1000
PbHidd
1002
}
  0
ARC
  5
366
330
1F
100
AcDbEntity
  8
HIDDEN
100
AcDbCircle
 10
0.0
 20
0.0000000000000187
 30
0.0
 40
60.0
100
AcDbArc
 50
140.9999859446575
 51
146.9999999752674
1001
DBPROPERTIES
1002
{
1000
PbHidd
1002
}
  0
ARC
  5
367
330
1F
100
AcDbEntity
  8
HIDDEN
100
AcDbCircle
 10
0.0
 20
0.0000000000000187
 30
0.0
 40
60.0
100
AcDbArc
 50
129.000015179217
 51
134.9999719140475
1001
DBPROPERTIES
1002
{
1000
PbHidd
1002
}
  0
ARC
  5
368
330
1F
100
AcDbEntity
  8
HIDDEN
100
AcDbCircle
 10
0.0
 20
0.0000000000000187
 30
0.0
 40
60.0
100
AcDbArc
 50
116.9999871179971
 51
123.000001148607
1001
DBPROPERTIES
1002
{
1000
PbHidd
1002
}
  0
ARC
  5
369
330
1F
100
AcDbEntity
  8
HIDDEN
100
AcDbCircle
 10
0.0
 20
0.0000000000000187
 30
0.0
 40
60.0
100
AcDbArc
 50
105.0000163525566
 51
110.9999730873871
1001
DBPROPERTIES
1002
{
1000
PbHidd
1002
}
  0
ARC
  5
36A
330
1F
100
AcDbEntity
  8
HIDDEN
100
AcDbCircle
 10
0.0
 20
0.0
 30
0.0
 40
29.48333333333332
100
AcDbArc
 50
62.99997543406626
 51
68.99998946467625
1001
DBPROPERTIES
1002
{
1000
PbHidd
1002
}
  0
ARC
  5
36B
330
1F
100
AcDbEntity
  8
HIDDEN
100
AcDbCircle
 10
0.0
 20
0.0
 30
0.0
 40
29.48333333333332
100
AcDbArc
 50
51.00000466862581
 51
57.0000186992358
1001
DBPROPERTIES
1002
{
1000
PbHidd
1002
}
  0
ARC
  5
36C
330
1F
100
AcDbEntity
  8
HIDDEN
100
AcDbCircle
 10
0.0
 20
0.0
 30
0.0
 40
29.48333333333333
100
AcDbArc
 50
38.99997660740585
 51
44.99999063801582
1001
DBPROPERTIES
1002
{
1000
PbHidd
1002
}
  0
ARC
  5
36D
330
1F
100
AcDbEntity
  8
HIDDEN
100
AcDbCircle
 10
0.0
 20
0.0
 30
0.0
 40
29.48333333333332
100
AcDbArc
 50
27.0000058419654
 51
33.00001987257539
1001
DBPROPERTIES
1002
{
1000
PbHidd
1002
}
  0
ARC
  5
36E
330
1F
100
AcDbEntity
  8
HIDDEN
100
AcDbCircle
 10
0.0
 20
0.0
 30
0.0
 40
29.48333333333332
100
AcDbArc
 50
14.99997778074544
 51
20.99999181135542
1001
DBPROPERTIES
1002
{
1000
PbHidd
1002
}
  0
ARC
  5
36F
330
1F
100
AcDbEntity
  8
HIDDEN
100
AcDbCircle
 10
0.0
 20
0.0
 30
0.0
 40
29.48333333333333
100
AcDbArc
 50
3.00000701530499
 51
9.000021045914972
1001
DBPROPERTIES
1002
{
1000
PbHidd
1002
}
  0
ARC
  5
370
330
1F
100
AcDbEntity
  8
HIDDEN
100
AcDbCircle
 10
0.0
 20
0.0
 30
0.0
 40
29.48333333333332
100
AcDbArc
 50
350.9999789540851
 51
356.999992984695
1001
DBPROPERTIES
1002
{
1000
PbHidd
1002
}
  0
ARC
  5
371
330
1F
100
AcDbEntity
  8
HIDDEN
100
AcDbCircle
 10
0.0
 20
0.0
 30
0.0
 40
29.48333333333332
100
AcDbArc
 50
339.0000081886445
 51
345.0000222192546
1001
DBPROPERTIES
1002
{
1000
PbHidd
1002
}
  0
ARC
  5
372
330
1F
100
AcDbEntity
  8
HIDDEN
100
AcDbCircle
 10
0.0
 20
0.0
 30
0.0
 40
29.48333333333332
100
AcDbArc
 50
326.9999801274246
 51
332.9999941580346
1001
DBPROPERTIES
1002
{
1000
PbHidd
1002
}
  0
ARC
  5
373
330
1F
100
AcDbEntity
  8
HIDDEN
100
AcDbCircle
 10
0.0
 20
0.0
 30
0.0
 40
29.48333333333332
100
AcDbArc
 50
315.0000093619842
 51
321.0000233925941
1001
DBPROPERTIES
1002
{
1000
PbHidd
1002
}
  0
ARC
  5
374
330
1F
100
AcDbEntity
  8
HIDDEN
100
AcDbCircle
 10
0.0
 20
0.0
 30
0.0
 40
29.48333333333332
100
AcDbArc
 50
302.9999813007643
 51
308.9999953313742
1001
DBPROPERTIES
1002
{
1000
PbHidd
1002
}
  0
ARC
  5
375
330
1F
100
AcDbEntity
  8
HIDDEN
100
AcDbCircle
 10
0.0
 20
0.0
 30
0.0
 40
29.48333333333333
100
AcDbArc
 50
291.0000105353237
 51
297.0000245659338
1001
DBPROPERTIES
1002
{
1000
PbHidd
1002
}
  0
ARC
  5
376
330
1F
100
AcDbEntity
  8
HIDDEN
100
AcDbCircle
 10
0.0
 20
0.0
 30
0.0
 40
29.48333333333332
100
AcDbArc
 50
278.9999824741038
 51
284.9999965047138
1001
DBPROPERTIES
1002
{
1000
PbHidd
1002
}
  0
ARC
  5
377
330
1F
100
AcDbEntity
  8
HIDDEN
100
AcDbCircle
 10
0.0
 20
0.0
 30
0.0
 40
29.48333333333332
100
AcDbArc
 50
267.0000117086634
 51
273.0000257392733
1001
DBPROPERTIES
1002
{
1000
PbHidd
1002
}
  0
ARC
  5
378
330
1F
100
AcDbEntity
  8
HIDDEN
100
AcDbCircle
 10
0.0
 20
0.0
 30
0.0
 40
29.48333333333332
100
AcDbArc
 50
254.9999836474434
 51
260.9999976780534
1001
DBPROPERTIES
1002
{
1000
PbHidd
1002
}
  0
ARC
  5
379
330
1F
100
AcDbEntity
  8
HIDDEN
100
AcDbCircle
 10
0.0
 20
0.0
 30
0.0
 40
29.48333333333332
100
AcDbArc
 50
243.0000128820029
 51
249.0000269126129
1001
DBPROPERTIES
1002
{
1000
PbHidd
1002
}
  0
ARC
  5
37A
330
1F
100
AcDbEntity
  8
HIDDEN
100
AcDbCircle
 10
0.0
 20
0.0
 30
0.0
 40
29.48333333333332
100
AcDbArc
 50
230.999984820783
 51
236.999998851393
1001
DBPROPERTIES
1002
{
1000
PbHidd
1002
}
  0
ARC
  5
37B
330
1F
100
AcDbEntity
  8
HIDDEN
100
AcDbCircle
 10
0.0
 20
0.0
 30
0.0
 40
29.48333333333332
100
AcDbArc
 50
219.0000140553425
 51
225.0000280859525
1001
DBPROPERTIES
1002
{
1000
PbHidd
1002
}
  0
ARC
  5
37C
330
1F
100
AcDbEntity
  8
HIDDEN
100
AcDbCircle
 10
0.0
 20
0.0
 30
0.0
 40
29.48333333333333
100
AcDbArc
 50
206.9999859941226
 51
213.0000000247326
1001
DBPROPERTIES
1002
{
1000
PbHidd
1002
}
  0
ARC
  5
37D
330
1F
100
AcDbEntity
  8
HIDDEN
100
AcDbCircle
 10
0.0
 20
0.0
 30
0.0
 40
29.48333333333332
100
AcDbArc
 50
195.0000152286821
 51
200.9999719635126
1001
DBPROPERTIES
1002
{
1000
PbHidd
1002
}
  0
ARC
  5
37E
330
1F
100
AcDbEntity
  8
HIDDEN
100
AcDbCircle
 10
0.0
 20
0.0
 30
0.0
 40
29.48333333333333
100
AcDbArc
 50
182.9999871674622
 51
189.0000011980722
1001
DBPROPERTIES
1002
{
1000
PbHidd
1002
}
  0
ARC
  5
37F
330
1F
100
AcDbEntity
  8
HIDDEN
100
AcDbCircle
 10
0.0
 20
0.0
 30
0.0
 40
29.48333333333332
100
AcDbArc
 50
170.9999988019279
 51
177.0000128325378
1001
DBPROPERTIES
1002
{
1000
PbHidd
1002
}
  0
ARC
  5
380
330
1F
100
AcDbEntity
  8
HIDDEN
100
AcDbCircle
 10
0.0
 20
0.0
 30
0.0
 40
29.48333333333332
100
AcDbArc
 50
159.0000280364874
 51
164.9999847713179
1001
DBPROPERTIES
1002
{
1000
PbHidd
1002
}
  0
ARC
  5
381
330
1F
100
AcDbEntity
  8
HIDDEN
100
AcDbCircle
 10
0.0
 20
0.0
 30
0.0
 40
29.48333333333332
100
AcDbArc
 50
146.9999999752674
 51
153.0000140058774
1001
DBPROPERTIES
1002
{
1000
PbHidd
1002
}
  0
ARC
  5
382
330
1F
100
AcDbEntity
  8
HIDDEN
100
AcDbCircle
 10
0.0
 20
0.0
 30
0.0
 40
29.48333333333332
100
AcDbArc
 50
134.9999719140475
 51
140.9999859446575
1001
DBPROPERTIES
1002
{
1000
PbHidd
1002
}
  0
ARC
  5
383
330
1F
100
AcDbEntity
  8
HIDDEN
100
AcDbCircle
 10
0.0
 20
0.0
 30
0.0
 40
29.48333333333332
100
AcDbArc
 50
123.000001148607
 51
129.000015179217
1001
DBPROPERTIES
1002
{
1000
PbHidd
1002
}
  0
ARC
  5
384
330
1F
100
AcDbEntity
  8
HIDDEN
100
AcDbCircle
 10
0.0
 20
0.0
 30
0.0
 40
29.48333333333333
100
AcDbArc
 50
110.9999730873871
 51
116.9999871179971
1001
DBPROPERTIES
1002
{
1000
PbHidd
1002
}
  0
ARC
  5
385
330
1F
100
AcDbEntity
  8
HIDDEN
100
AcDbCircle
 10
0.0
 20
0.0
 30
0.0
 40
29.48333333333332
100
AcDbArc
 50
99.00000232194662
 51
105.0000163525566
1001
DBPROPERTIES
1002
{
1000
PbHidd
1002
}
  0
ARC
  5
386
330
1F
100
AcDbEntity
  8
HIDDEN
100
AcDbCircle
 10
0.0
 20
0.0
 30
0.0
 40
58.19672131147541
100
AcDbArc
 50
270.0000187239684
 51
89.99998127603165
1001
DBPROPERTIES
1002
{
1000
PbHidd
1002
}
  0
LINE
  5
387
330
1F
100
AcDbEntity
  8
THICK
100
AcDbLine
 10
-50.07690022740451
 20
31.51187884051059
 30
0.0
 11
-115.2445825629154
 21
113.2295677866437
 31
0.0
1001
DBPROPERTIES
1002
{
1000
PbThick
1002
}
  0
LINE
  5
388
330
1F
100
AcDbEntity
  8
THICK
100
AcDbLine
 10
-82.53498060218409
 20
139.3146049112625
 30
0.0
 11
-16.70051078099984
 21
56.76079090444523
 31
0.0
1001
DBPROPERTIES
1002
{
1000
PbThick
1002
}
  0
ELLIPSE
  5
389
330
1F
100
AcDbEntity
  8
THICK
100
AcDbEllipse
 10
-53.82377485775784
 20
69.76110133922337
 30
0.0
 11
-48.69455352516708
 21
61.06103878075315
 31
0.0
210
0.0
220
0.0
230
1.0
 40
0.7071067811865475
 41
0.0
 42
0.3884862281828484
1001
DBPROPERTIES
1002
{
1000
PbThick
1002
}
  0
ELLIPSE
  5
38A
330
1F
100
AcDbEntity
  8
THICK
100
AcDbEllipse
 10
-53.82377485775784
 20
69.76110133922337
 30
0.0
 11
-48.69455352516708
 21
61.06103878075315
 31
0.0
210
0.0
220
0.0
230
1.0
 40
0.7071067811865475
 41
-0.3884862281828486
 42
0.0
1001
DBPROPERTIES
1002
{
1000
PbThick
1002
}
  0
LINE
  5
38B
330
1F
100
AcDbEntity
  8
HIDDEN
100
AcDbLine
 10
-18.15245960544883
 20
56.3132546983123
 30
0.0
 11
-83.64065728818065
 21
138.4328571774726
 31
0.0
1001
DBPROPERTIES
1002
{
1000
PbHidd
1002
}
  0
LINE
  5
38C
330
1F
100
AcDbEntity
  8
HIDDEN
100
AcDbLine
 10
-83.64065728818062
 20
138.4328571774726
 30
0.0
 11
-82.53498060218406
 21
139.3146049112625
 31
0.0
1001
DBPROPERTIES
1002
{
1000
PbHidd
1002
}
  0
LINE
  5
38D
330
1F
100
AcDbEntity
  8
THICK
100
AcDbLine
 10
-50.86206156618012
 20
30.22821757369341
 30
0.0
 11
-116.3502592489119
 21
112.3478200528537
 31
0.0
1001
DBPROPERTIES
1002
{
1000
PbThick
1002
}
  0
LINE
  5
38E
330
1F
100
AcDbEntity
  8
THICK
100
AcDbLine
 10
-116.3502592489119
 20
112.3478200528537
 30
0.0
 11
-115.2445825629154
 21
113.2295677866437
 31
0.0
1001
DBPROPERTIES
1002
{
1000
PbThick
1002
}
  0
ELLIPSE
  5
38F
330
1F
100
AcDbEntity
  8
HIDDEN
100
AcDbEllipse
 10
-54.9294515437544
 20
68.87935360543344
 30
0.0
 11
48.69455352516708
 21
-61.06103878075315
 31
0.0
210
0.0
220
0.0
230
1.0
 40
0.7071067811865475
 41
2.753106425406944
 42
3.141592653589793
1001
DBPROPERTIES
1002
{
1000
PbHidd
1002
}
  0
ELLIPSE
  5
390
330
1F
100
AcDbEntity
  8
THICK
100
AcDbEllipse
 10
-54.9294515437544
 20
68.87935360543344
 30
0.0
 11
48.69455352516708
 21
-61.06103878075315
 31
0.0
210
0.0
220
0.0
230
1.0
 40
0.7071067811865475
 41
3.141592653589793
 42
3.530078881772642
1001
DBPROPERTIES
1002
{
1000
PbThick
1002
}
  0
LINE
  5
391
330
1F
100
AcDbEntity
  8
THICK
100
AcDbLine
 10
57.46082538515007
 20
151.3896816518264
 30
0.0
 11
33.96477514109503
 21
48.44675937623994
 31
0.0
1001
DBPROPERTIES
1002
{
1000
PbThick
1002
}
  0
ELLIPSE
  5
392
330
1F
100
AcDbEntity
  8
THICK
100
AcDbEllipse
 10
20.98285055729494
 20
85.5764569405057
 30
0.0
 11
17.37888494198817
 21
76.1418699414004
 31
0.0
210
0.0
220
0.0
230
1.0
 40
0.7071067811865476
 41
0.0
 42
0.3884862281828484
1001
DBPROPERTIES
1002
{
1000
PbThick
1002
}
  0
ELLIPSE
  5
393
330
1F
100
AcDbEntity
  8
THICK
100
AcDbEllipse
 10
20.98285055729494
 20
85.5764569405057
 30
0.0
 11
17.37888494198817
 21
76.1418699414004
 31
0.0
210
0.0
220
0.0
230
1.0
 40
0.7071067811865476
 41
-0.3884862281828487
 42
0.0
1001
DBPROPERTIES
1002
{
1000
PbThick
1002
}
  0
LINE
  5
394
330
1F
100
AcDbEntity
  8
THICK
100
AcDbLine
 10
-6.58545765125468
 20
58.79903223666161
 30
0.0
 11
16.67261889440129
 21
160.6993236154178
 31
0.0
1001
DBPROPERTIES
1002
{
1000
PbThick
1002
}
  0
LINE
  5
395
330
1F
100
AcDbEntity
  8
HIDDEN
100
AcDbLine
 10
32.70960196073128
 20
49.30290441764018
 30
0.0
 11
56.08206910940645
 21
151.7043737745393
 31
0.0
1001
DBPROPERTIES
1002
{
1000
PbHidd
1002
}
  0
LINE
  5
396
330
1F
100
AcDbEntity
  8
HIDDEN
100
AcDbLine
 10
56.08206910940647
 20
151.7043737745394
 30
0.0
 11
57.46082538515009
 21
151.3896816518265
 31
0.0
1001
DBPROPERTIES
1002
{
1000
PbHidd
1002
}
  0
LINE
  5
397
330
1F
100
AcDbEntity
  8
THICK
100
AcDbLine
 10
-8.078604530017488
 20
58.61254638123157
 30
0.0
 11
15.29386261865766
 21
161.0140157381307
 31
0.0
1001
DBPROPERTIES
1002
{
1000
PbThick
1002
}
  0
LINE
  5
398
330
1F
100
AcDbEntity
  8
THICK
100
AcDbLine
 10
15.29386261865769
 20
161.0140157381308
 30
0.0
 11
16.67261889440131
 21
160.6993236154179
 31
0.0
1001
DBPROPERTIES
1002
{
1000
PbThick
1002
}
  0
ELLIPSE
  5
399
330
1F
100
AcDbEntity
  8
HIDDEN
100
AcDbEllipse
 10
19.60409428155132
 20
85.89114906321865
 30
0.0
 11
-17.37888494198817
 21
-76.1418699414004
 31
0.0
210
0.0
220
0.0
230
1.0
 40
0.7071067811865476
 41
2.753106425406945
 42
3.141592653589793
1001
DBPROPERTIES
1002
{
1000
PbHidd
1002
}
  0
ELLIPSE
  5
39A
330
1F
100
AcDbEntity
  8
THICK
100
AcDbEllipse
 10
19.60409428155132
 20
85.89114906321865
 30
0.0
 11
-17.37888494198817
 21
-76.1418699414004
 31
0.0
210
0.0
220
0.0
230
1.0
 40
0.7071067811865476
 41
-3.141592653589793
 42
-2.753106425406945
1001
DBPROPERTIES
1002
{
1000
PbThick
1002
}
  0
LINE
  5
39B
330
1F
100
AcDbEntity
  8
THICK
100
AcDbLine
 10
41.86496885514477
 20
41.80931507693231
 30
0.0
 11
136.0349982647882
 21
87.15921109297508
 31
0.0
1001
DBPROPERTIES
1002
{
1000
PbThick
1002
}
  0
LINE
  5
39C
330
1F
100
AcDbEntity
  8
THICK
100
AcDbLine
 10
154.187457870237
 20
49.46524032184552
 30
0.0
 11
59.05389262679537
 21
3.651329903933975
 31
0.0
1001
DBPROPERTIES
1002
{
1000
PbThick
1002
}
  0
ELLIPSE
  5
39D
330
1F
100
AcDbEntity
  8
THICK
100
AcDbEllipse
 10
79.98896153055631
 20
36.95099502399331
 30
0.0
 11
70.36566858317893
 21
33.88632002508127
 31
0.0
210
0.0
220
0.0
230
1.0
 40
0.7071067811865476
 41
0.0
 42
0.3884862281828484
1001
DBPROPERTIES
1002
{
1000
PbThick
1002
}
  0
ELLIPSE
  5
39E
330
1F
100
AcDbEntity
  8
THICK
100
AcDbEllipse
 10
79.98896153055631
 20
36.95099502399331
 30
0.0
 11
70.36566858317893
 21
33.88632002508127
 31
0.0
210
0.0
220
0.0
230
1.0
 40
0.7071067811865476
 41
-0.3884862281828486
 42
0.0
1001
DBPROPERTIES
1002
{
1000
PbThick
1002
}
  0
LINE
  5
39F
330
1F
100
AcDbEntity
  8
HIDDEN
100
AcDbLine
 10
58.94066609619759
 20
5.166461514516849
 30
0.0
 11
153.5738536018838
 21
50.73940271410905
 31
0.0
1001
DBPROPERTIES
1002
{
1000
PbHidd
1002
}
  0
LINE
  5
3A0
330
1F
100
AcDbEntity
  8
HIDDEN
100
AcDbLine
 10
153.5738536018839
 20
50.73940271410909
 30
0.0
 11
154.1874578702371
 21
49.46524032184556
 31
0.0
1001
DBPROPERTIES
1002
{
1000
PbHidd
1002
}
  0
LINE
  5
3A1
330
1F
100
AcDbEntity
  8
THICK
100
AcDbLine
 10
40.78820649074876
 20
42.86043228564642
 30
0.0
 11
135.421393996435
 21
88.43337348523863
 31
0.0
1001
DBPROPERTIES
1002
{
1000
PbThick
1002
}
  0
LINE
  5
3A2
330
1F
100
AcDbEntity
  8
THICK
100
AcDbLine
 10
135.4213939964351
 20
88.43337348523865
 30
0.0
 11
136.0349982647882
 21
87.15921109297511
 31
0.0
1001
DBPROPERTIES
1002
{
1000
PbThick
1002
}
  0
ELLIPSE
  5
3A3
330
1F
100
AcDbEntity
  8
HIDDEN
100
AcDbEllipse
 10
79.37535726220311
 20
38.22515741625685
 30
0.0
 11
-70.36566858317893
 21
-33.88632002508127
 31
0.0
210
0.0
220
0.0
230
1.0
 40
0.7071067811865476
 41
2.753106425406945
 42
3.141592653589793
1001
DBPROPERTIES
1002
{
1000
PbHidd
1002
}
  0
ELLIPSE
  5
3A4
330
1F
100
AcDbEntity
  8
THICK
100
AcDbEllipse
 10
79.37535726220311
 20
38.22515741625685
 30
0.0
 11
-70.36566858317893
 21
-33.88632002508127
 31
0.0
210
0.0
220
0.0
230
1.0
 40
0.7071067811865476
 41
-3.141592653589793
 42
-2.753106425406945
1001
DBPROPERTIES
1002
{
1000
PbThick
1002
}
  0
LINE
  5
3A5
330
1F
100
AcDbEntity
  8
THICK
100
AcDbLine
 10
58.79021992388719
 20
-6.663669090329829
 30
0.0
 11
152.9602493335306
 21
-52.01356510637262
 31
0.0
1001
DBPROPERTIES
1002
{
1000
PbThick
1002
}
  0
LINE
  5
3A6
330
1F
100
AcDbEntity
  8
THICK
100
AcDbLine
 10
134.8077897280817
 20
-89.70753587750218
 30
0.0
 11
39.67422448464012
 21
-43.89362545959062
 31
0.0
1001
DBPROPERTIES
1002
{
1000
PbThick
1002
}
  0
ELLIPSE
  5
3A7
330
1F
100
AcDbEntity
  8
THICK
100
AcDbEllipse
 10
78.76175299384991
 20
-39.49931980852041
 30
0.0
 11
70.36566858317893
 21
-33.8863200250813
 31
0.0
210
0.0
220
0.0
230
1.0
 40
0.7071067811865476
 41
0.0
 42
0.3884862281828486
1001
DBPROPERTIES
1002
{
1000
PbThick
1002
}
  0
ELLIPSE
  5
3A8
330
1F
100
AcDbEntity
  8
THICK
100
AcDbEllipse
 10
78.76175299384991
 20
-39.49931980852041
 30
0.0
 11
70.36566858317893
 21
-33.8863200250813
 31
0.0
210
0.0
220
0.0
230
1.0
 40
0.7071067811865476
 41
-0.3884862281828487
 42
0.0
1001
DBPROPERTIES
1002
{
1000
PbThick
1002
}
  0
LINE
  5
3A9
330
1F
100
AcDbEntity
  8
HIDDEN
100
AcDbLine
 10
40.78820649074875
 20
-42.86043228564643
 30
0.0
 11
135.4213939964349
 21
-88.43337348523866
 31
0.0
1001
DBPROPERTIES
1002
{
1000
PbHidd
1002
}
  0
LINE
  5
3AA
330
1F
100
AcDbEntity
  8
HIDDEN
100
AcDbLine
 10
135.421393996435
 20
-88.4333734852387
 30
0.0
 11
134.8077897280818
 21
-89.70753587750224
 31
0.0
1001
DBPROPERTIES
1002
{
1000
PbHidd
1002
}
  0
LINE
  5
3AB
330
1F
100
AcDbEntity
  8
THICK
100
AcDbLine
 10
58.9406660961976
 20
-5.166461514516868
 30
0.0
 11
153.5738536018838
 21
-50.73940271410909
 31
0.0
1001
DBPROPERTIES
1002
{
1000
PbThick
1002
}
  0
LINE
  5
3AC
330
1F
100
AcDbEntity
  8
THICK
100
AcDbLine
 10
153.5738536018839
 20
-50.73940271410914
 30
0.0
 11
152.9602493335307
 21
-52.01356510637267
 31
0.0
1001
DBPROPERTIES
1002
{
1000
PbThick
1002
}
  0
ELLIPSE
  5
3AD
330
1F
100
AcDbEntity
  8
HIDDEN
100
AcDbEllipse
 10
79.37535726220311
 20
-38.22515741625688
 30
0.0
 11
-70.36566858317893
 21
33.8863200250813
 31
0.0
210
0.0
220
0.0
230
1.0
 40
0.7071067811865476
 41
2.753106425406945
 42
3.141592653589793
1001
DBPROPERTIES
1002
{
1000
PbHidd
1002
}
  0
ELLIPSE
  5
3AE
330
1F
100
AcDbEntity
  8
THICK
100
AcDbEllipse
 10
79.37535726220311
 20
-38.22515741625688
 30
0.0
 11
-70.36566858317893
 21
33.8863200250813
 31
0.0
210
0.0
220
0.0
230
1.0
 40
0.7071067811865476
 41
3.141592653589793
 42
3.530078881772642
1001
DBPROPERTIES
1002
{
1000
PbThick
1002
}
  0
LINE
  5
3AF
330
1F
100
AcDbEntity
  8
THICK
100
AcDbLine
 10
13.91510634291399
 20
-161.3287078608437
 30
0.0
 11
-9.580943901141007
 21
-58.3857855852572
 31
0.0
1001
DBPROPERTIES
1002
{
1000
PbThick
1002
}
  0
ELLIPSE
  5
3B0
330
1F
100
AcDbEntity
  8
THICK
100
AcDbEllipse
 10
18.22533800580766
 20
-86.2058411859316
 30
0.0
 11
17.37888494198814
 21
-76.1418699414004
 31
0.0
210
0.0
220
0.0
230
1.0
 40
0.7071067811865477
 41
0.0
 42
0.3884862281828487
1001
DBPROPERTIES
1002
{
1000
PbThick
1002
}
  0
ELLIPSE
  5
3B1
330
1F
100
AcDbEntity
  8
THICK
100
AcDbEllipse
 10
18.22533800580766
 20
-86.2058411859316
 30
0.0
 11
17.37888494198814
 21
-76.1418699414004
 31
0.0
210
0.0
220
0.0
230
1.0
 40
0.7071067811865477
 41
-0.3884862281828487
 42
0.0
1001
DBPROPERTIES
1002
{
1000
PbThick
1002
}
  0
LINE
  5
3B2
330
1F
100
AcDbEntity
  8
THICK
100
AcDbLine
 10
31.44523628800683
 20
-50.11877451849614
 30
0.0
 11
54.70331283366277
 21
-152.0190658972523
 31
0.0
1001
DBPROPERTIES
1002
{
1000
PbThick
1002
}
  0
LINE
  5
3B3
330
1F
100
AcDbEntity
  8
HIDDEN
100
AcDbLine
 10
-8.078604530017508
 20
-58.61254638123155
 30
0.0
 11
15.29386261865761
 21
-161.0140157381307
 31
0.0
1001
DBPROPERTIES
1002
{
1000
PbHidd
1002
}
  0
LINE
  5
3B4
330
1F
100
AcDbEntity
  8
HIDDEN
100
AcDbLine
 10
15.29386261865763
 20
-161.0140157381308
 30
0.0
 11
13.91510634291402
 21
-161.3287078608438
 31
0.0
1001
DBPROPERTIES
1002
{
1000
PbHidd
1002
}
  0
LINE
  5
3B5
330
1F
100
AcDbEntity
  8
THICK
100
AcDbLine
 10
32.70960196073127
 20
-49.3029044176402
 30
0.0
 11
56.08206910940639
 21
-151.7043737745394
 31
0.0
1001
DBPROPERTIES
1002
{
1000
PbThick
1002
}
  0
LINE
  5
3B6
330
1F
100
AcDbEntity
  8
THICK
100
AcDbLine
 10
56.08206910940642
 20
-151.7043737745394
 30
0.0
 11
54.7033128336628
 21
-152.0190658972524
 31
0.0
1001
DBPROPERTIES
1002
{
1000
PbThick
1002
}
  0
ELLIPSE
  5
3B7
330
1F
100
AcDbEntity
  8
HIDDEN
100
AcDbEllipse
 10
19.60409428155128
 20
-85.89114906321865
 30
0.0
 11
-17.37888494198814
 21
76.1418699414004
 31
0.0
210
0.0
220
0.0
230
1.0
 40
0.7071067811865477
 41
2.753106425406945
 42
3.141592653589793
1001
DBPROPERTIES
1002
{
1000
PbHidd
1002
}
  0
ELLIPSE
  5
3B8
330
1F
100
AcDbEntity
  8
THICK
100
AcDbEllipse
 10
19.60409428155128
 20
-85.89114906321865
 30
0.0
 11
-17.37888494198814
 21
76.1418699414004
 31
0.0
210
0.0
220
0.0
230
1.0
 40
0.7071067811865477
 41
3.141592653589793
 42
3.530078881772641
1001
DBPROPERTIES
1002
{
1000
PbThick
1002
}
  0
LINE
  5
3B9
330
1F
100
AcDbEntity
  8
THICK
100
AcDbLine
 10
-19.57865163866634
 20
-55.8334204975496
 30
0.0
 11
-84.74633397417723
 21
-137.5511094436826
 31
0.0
1001
DBPROPERTIES
1002
{
1000
PbThick
1002
}
  0
LINE
  5
3BA
330
1F
100
AcDbEntity
  8
THICK
100
AcDbLine
 10
-117.4559359349085
 20
-111.4660723190637
 30
0.0
 11
-51.62146611372424
 21
-28.91225831224644
 31
0.0
1001
DBPROPERTIES
1002
{
1000
PbThick
1002
}
  0
ELLIPSE
  5
3BB
330
1F
100
AcDbEntity
  8
THICK
100
AcDbEllipse
 10
-56.03512822975099
 20
-67.99760587164347
 30
0.0
 11
-48.6945535251671
 21
-61.06103878075312
 31
0.0
210
0.0
220
0.0
230
1.0
 40
0.7071067811865476
 41
0.0
 42
0.3884862281828486
1001
DBPROPERTIES
1002
{
1000
PbThick
1002
}
  0
ELLIPSE
  5
3BC
330
1F
100
AcDbEntity
  8
THICK
100
AcDbEllipse
 10
-56.03512822975099
 20
-67.99760587164347
 30
0.0
 11
-48.6945535251671
 21
-61.06103878075312
 31
0.0
210
0.0
220
0.0
230
1.0
 40
0.7071067811865476
 41
-0.3884862281828486
 42
0.0
1001
DBPROPERTIES
1002
{
1000
PbThick
1002
}
  0
LINE
  5
3BD
330
1F
100
AcDbEntity
  8
HIDDEN
100
AcDbLine
 10
-50.86206156618012
 20
-30.22821757369338
 30
0.0
 11
-116.350259248912
 21
-112.3478200528537
 31
0.0
1001
DBPROPERTIES
1002
{
1000
PbHidd
1002
}
  0
LINE
  5
3BE
330
1F
100
AcDbEntity
  8
HIDDEN
100
AcDbLine
 10
-116.350259248912
 20
-112.3478200528537
 30
0.0
 11
-117.4559359349085
 21
-111.4660723190637
 31
0.0
1001
DBPROPERTIES
1002
{
1000
PbHidd
1002
}
  0
LINE
  5
3BF
330
1F
100
AcDbEntity
  8
THICK
100
AcDbLine
 10
-18.15245960544885
 20
-56.31325469831229
 30
0.0
 11
-83.64065728818069
 21
-138.4328571774726
 31
0.0
1001
DBPROPERTIES
1002
{
1000
PbThick
1002
}
  0
LINE
  5
3C0
330
1F
100
AcDbEntity
  8
THICK
100
AcDbLine
 10
-83.64065728818069
 20
-138.4328571774726
 30
0.0
 11
-84.74633397417725
 21
-137.5511094436827
 31
0.0
1001
DBPROPERTIES
1002
{
1000
PbThick
1002
}
  0
ELLIPSE
  5
3C1
330
1F
100
AcDbEntity
  8
HIDDEN
100
AcDbEllipse
 10
-54.92945154375443
 20
-68.87935360543341
 30
0.0
 11
48.6945535251671
 21
61.06103878075312
 31
0.0
210
0.0
220
0.0
230
1.0
 40
0.7071067811865476
 41
2.753106425406945
 42
3.141592653589793
1001
DBPROPERTIES
1002
{
1000
PbHidd
1002
}
  0
ELLIPSE
  5
3C2
330
1F
100
AcDbEntity
  8
THICK
100
AcDbEllipse
 10
-54.92945154375443
 20
-68.87935360543341
 30
0.0
 11
48.6945535251671
 21
61.06103878075312
 31
0.0
210
0.0
220
0.0
230
1.0
 40
0.7071067811865476
 41
3.141592653589793
 42
3.530078881772642
1001
DBPROPERTIES
1002
{
1000
PbThick
1002
}
  0
LINE
  5
3C3
330
1F
100
AcDbEntity
  8
THICK
100
AcDbLine
 10
-55.85941554971333
 20
-19.50436204772893
 30
0.0
 11
-160.3802627892904
 21
-19.50436204772893
 31
0.0
1001
DBPROPERTIES
1002
{
1000
PbThick
1002
}
  0
LINE
  5
3C4
330
1F
100
AcDbEntity
  8
THICK
100
AcDbLine
 10
-160.3802627892904
 20
22.33278917247514
 30
0.0
 11
-54.78997145666552
 21
22.33278917247513
 31
0.0
1001
DBPROPERTIES
1002
{
1000
PbThick
1002
}
  0
ELLIPSE
  5
3C5
330
1F
100
AcDbEntity
  8
THICK
100
AcDbEllipse
 10
-88.1
 20
1.414213562373104
 30
0.0
 11
-78.09999999999999
 21
4.782087811676383E-15
 31
0.0
210
0.0
220
0.0
230
1.0
 40
0.7071067811865476
 41
0.0
 42
0.3884862281828486
1001
DBPROPERTIES
1002
{
1000
PbThick
1002
}
  0
ELLIPSE
  5
3C6
330
1F
100
AcDbEntity
  8
THICK
100
AcDbEllipse
 10
-88.1
 20
1.414213562373104
 30
0.0
 11
-78.09999999999999
 21
4.782087811676383E-15
 31
0.0
210
0.0
220
0.0
230
1.0
 40
0.7071067811865476
 41
-0.3884862281828486
 42
0.0
1001
DBPROPERTIES
1002
{
1000
PbThick
1002
}
  0
LINE
  5
3C7
330
1F
100
AcDbEntity
  8
HIDDEN
100
AcDbLine
 10
-55.34534884603121
 20
20.91857561010203
 30
0.0
 11
-160.3802627892904
 21
20.91857561010205
 31
0.0
1001
DBPROPERTIES
1002
{
1000
PbHidd
1002
}
  0
LINE
  5
3C8
330
1F
100
AcDbEntity
  8
HIDDEN
100
AcDbLine
 10
-160.3802627892904
 20
20.91857561010205
 30
0.0
 11
-160.3802627892904
 21
22.33278917247514
 31
0.0
1001
DBPROPERTIES
1002
{
1000
PbHidd
1002
}
  0
LINE
  5
3C9
330
1F
100
AcDbEntity
  8
THICK
100
AcDbLine
 10
-55.34534884603121
 20
-20.91857561010203
 30
0.0
 11
-160.3802627892904
 21
-20.91857561010203
 31
0.0
1001
DBPROPERTIES
1002
{
1000
PbThick
1002
}
  0
LINE
  5
3CA
330
1F
100
AcDbEntity
  8
THICK
100
AcDbLine
 10
-160.3802627892904
 20
-20.91857561010202
 30
0.0
 11
-160.3802627892904
 21
-19.50436204772893
 31
0.0
1001
DBPROPERTIES
1002
{
1000
PbThick
1002
}
  0
ELLIPSE
  5
3CB
330
1F
100
AcDbEntity
  8
HIDDEN
100
AcDbEllipse
 10
-88.1
 20
0.0000000000000088
 30
0.0
 11
78.09999999999999
 21
-4.782087811676383E-15
 31
0.0
210
0.0
220
0.0
230
1.0
 40
0.7071067811865476
 41
2.753106425406945
 42
3.141592653589793
1001
DBPROPERTIES
1002
{
1000
PbHidd
1002
}
  0
ELLIPSE
  5
3CC
330
1F
100
AcDbEntity
  8
THICK
100
AcDbEllipse
 10
-88.1
 20
0.0000000000000088
 30
0.0
 11
78.09999999999999
 21
-4.782087811676383E-15
 31
0.0
210
0.0
220
0.0
230
1.0
 40
0.7071067811865476
 41
3.141592653589793
 42
3.530078881772642
1001
DBPROPERTIES
1002
{
1000
PbThick
1002
}
  0
ARC
  5
3CD
330
1F
100
AcDbEntity
  8
THICK
100
AcDbCircle
 10
0.0
 20
0.0
 30
0.0
 40
48.16666666666666
100
AcDbArc
 50
180.0000198478428
 51
0.0
1001
DBPROPERTIES
1002
{
1000
PbThick
1002
}
  0
ARC
  5
3CE
330
1F
100
AcDbEntity
  8
THICK
100
AcDbCircle
 10
0.0000000000000007
 20
0.0
 30
0.0
 40
59.16666666666666
100
AcDbArc
 50
180.0000198478428
 51
270.0000187239684
1001
DBPROPERTIES
1002
{
1000
PbThick
1002
}
  0
ARC
  5
3CF
330
1F
100
AcDbEntity
  8
THICK
100
AcDbCircle
 10
0.0
 20
0.0
 30
0.0
 40
177.5
100
AcDbArc
 50
270.0000187239684
 51
89.99998127603165
1001
DBPROPERTIES
1002
{
1000
PbThick
1002
}
  0
ARC
  5
3D0
330
1F
100
AcDbEntity
  8
THICK
100
AcDbCircle
 10
0.0000000000000007
 20
0.0000000000000013
 30
0.0
 40
213.0
100
AcDbArc
 50
0.0
 51
89.99998127603165
1001
DBPROPERTIES
1002
{
1000
PbThick
1002
}
  0
ARC
  5
3D1
330
1F
100
AcDbEntity
  8
THICK
100
AcDbCircle
 10
0.0000000000000007
 20
0.0000000000000013
 30
0.0
 40
213.0
100
AcDbArc
 50
270.0000187239684
 51
0.0
1001
DBPROPERTIES
1002
{
1000
PbThick
1002
}
  0
ARC
  5
3D2
330
1F
100
AcDbEntity
  8
HIDDEN
100
AcDbCircle
 10
0.0
 20
0.0
 30
0.0
 40
179.5
100
AcDbArc
 50
270.0000187239684
 51
89.99998127603165
1001
DBPROPERTIES
1002
{
1000
PbHidd
1002
}
  0
LINE
  5
3D3
330
1F
100
AcDbEntity
  8
THICK
100
AcDbLine
 10
0.0000000000000133
 20
202.5
 30
0.0
 11
0.2285008281469345
 21
202.4947814941406
 31
0.0
1001
DBPROPERTIES
1002
{
1000
PbThick
1002
}
  0
LINE
  5
3D4
330
1F
100
AcDbEntity
  8
THICK
100
AcDbLine
 10
0.2285008281469345
 20
202.4947814941406
 30
0.0
 11
0.4564418196678162
 21
202.4791259765625
 31
0.0
1001
DBPROPERTIES
1002
{
1000
PbThick
1002
}
  0
LINE
  5
3D5
330
1F
100
AcDbEntity
  8
THICK
100
AcDbLine
 10
0.4564418196678162
 20
202.4791259765625
 30
0.0
 11
0.6834666132926941
 21
202.4530639648438
 31
0.0
1001
DBPROPERTIES
1002
{
1000
PbThick
1002
}
  0
LINE
  5
3D6
330
1F
100
AcDbEntity
  8
THICK
100
AcDbLine
 10
0.6834666132926941
 20
202.4530639648438
 30
0.0
 11
0.9092188477516174
 21
202.4166412353516
 31
0.0
1001
DBPROPERTIES
1002
{
1000
PbThick
1002
}
  0
LINE
  5
3D7
330
1F
100
AcDbEntity
  8
THICK
100
AcDbLine
 10
0.9092188477516174
 20
202.4166412353516
 30
0.0
 11
1.133229613304138
 21
202.3698883056641
 31
0.0
1001
DBPROPERTIES
1002
{
1000
PbThick
1002
}
  0
LINE
  5
3D8
330
1F
100
AcDbEntity
  8
THICK
100
AcDbLine
 10
1.133229613304138
 20
202.3698883056641
 30
0.0
 11
1.354470014572144
 21
202.3130493164062
 31
0.0
1001
DBPROPERTIES
1002
{
1000
PbThick
1002
}
  0
LINE
  5
3D9
330
1F
100
AcDbEntity
  8
THICK
100
AcDbLine
 10
1.354470014572144
 20
202.3130493164062
 30
0.0
 11
1.572500348091125
 21
202.2462921142578
 31
0.0
1001
DBPROPERTIES
1002
{
1000
PbThick
1002
}
  0
LINE
  5
3DA
330
1F
100
AcDbEntity
  8
THICK
100
AcDbLine
 10
1.572500348091125
 20
202.2462921142578
 30
0.0
 11
1.786998271942139
 21
202.1697540283203
 31
0.0
1001
DBPROPERTIES
1002
{
1000
PbThick
1002
}
  0
LINE
  5
3DB
330
1F
100
AcDbEntity
  8
THICK
100
AcDbLine
 10
1.786998271942139
 20
202.1697540283203
 30
0.0
 11
1.997641086578369
 21
202.0836029052734
 31
0.0
1001
DBPROPERTIES
1002
{
1000
PbThick
1002
}
  0
LINE
  5
3DC
330
1F
100
AcDbEntity
  8
THICK
100
AcDbLine
 10
1.997641086578369
 20
202.0836029052734
 30
0.0
 11
2.204106092453003
 21
201.9879760742188
 31
0.0
1001
DBPROPERTIES
1002
{
1000
PbThick
1002
}
  0
ARC
  5
3DD
330
1F
100
AcDbEntity
  8
THICK
100
AcDbCircle
 10
0.0000000000000121
 20
197.5
 30
0.0
 40
5.0
100
AcDbArc
 50
270.0000187239684
 51
63.8437130831759
1001
DBPROPERTIES
1002
{
1000
PbThick
1002
}
  0
LINE
  5
3DE
330
1F
100
AcDbEntity
  8
THICK
100
AcDbLine
 10
-143.1891174316406
 20
143.1891174316406
 30
0.0
 11
-143.0237121582031
 21
143.3471374511719
 31
0.0
1001
DBPROPERTIES
1002
{
1000
PbThick
1002
}
  0
LINE
  5
3DF
330
1F
100
AcDbEntity
  8
THICK
100
AcDbLine
 10
-143.0237121582031
 20
143.3471374511719
 30
0.0
 11
-142.8515777587891
 21
143.4971466064453
 31
0.0
1001
DBPROPERTIES
1002
{
1000
PbThick
1002
}
  0
LINE
  5
3E0
330
1F
100
AcDbEntity
  8
THICK
100
AcDbLine
 10
-142.8515777587891
 20
143.4971466064453
 30
0.0
 11
-142.6729736328125
 21
143.6389923095703
 31
0.0
1001
DBPROPERTIES
1002
{
1000
PbThick
1002
}
  0
LINE
  5
3E1
330
1F
100
AcDbEntity
  8
THICK
100
AcDbLine
 10
-142.6729736328125
 20
143.6389923095703
 30
0.0
 11
-142.4882354736328
 21
143.7724456787109
 31
0.0
1001
DBPROPERTIES
1002
{
1000
PbThick
1002
}
  0
LINE
  5
3E2
330
1F
100
AcDbEntity
  8
THICK
100
AcDbLine
 10
-142.4882354736328
 20
143.7724456787109
 30
0.0
 11
-142.297607421875
 21
143.8973083496094
 31
0.0
1001
DBPROPERTIES
1002
{
1000
PbThick
1002
}
  0
LINE
  5
3E3
330
1F
100
AcDbEntity
  8
THICK
100
AcDbLine
 10
-142.297607421875
 20
143.8973083496094
 30
0.0
 11
-142.1014251708984
 21
144.013427734375
 31
0.0
1001
DBPROPERTIES
1002
{
1000
PbThick
1002
}
  0
LINE
  5
3E4
330
1F
100
AcDbEntity
  8
THICK
100
AcDbLine
 10
-142.1014251708984
 20
144.013427734375
 30
0.0
 11
-141.8999633789062
 21
144.1205596923828
 31
0.0
1001
DBPROPERTIES
1002
{
1000
PbThick
1002
}
  0
LINE
  5
3E5
330
1F
100
AcDbEntity
  8
THICK
100
AcDbLine
 10
-141.8999633789062
 20
144.1205596923828
 30
0.0
 11
-141.6935119628906
 21
144.2185363769531
 31
0.0
1001
DBPROPERTIES
1002
{
1000
PbThick
1002
}
  0
LINE
  5
3E6
330
1F
100
AcDbEntity
  8
THICK
100
AcDbLine
 10
-141.6935119628906
 20
144.2185363769531
 30
0.0
 11
-141.4827270507812
 21
144.3070068359375
 31
0.0
1001
DBPROPERTIES
1002
{
1000
PbThick
1002
}
  0
LINE
  5
3E7
330
1F
100
AcDbEntity
  8
THICK
100
AcDbLine
 10
-141.4827270507812
 20
144.3070068359375
 30
0.0
 11
-141.2685241699219
 21
144.3856048583984
 31
0.0
1001
DBPROPERTIES
1002
{
1000
PbThick
1002
}
  0
ARC
  5
3E8
330
1F
100
AcDbEntity
  8
THICK
100
AcDbCircle
 10
-139.6535892843431
 20
139.6535892843431
 30
0.0
 40
5.0
100
AcDbArc
 50
315.0000093619842
 51
108.8437037211917
1001
DBPROPERTIES
1002
{
1000
PbThick
1002
}
  0
LINE
  5
3E9
330
1F
100
AcDbEntity
  8
THICK
100
AcDbLine
 10
-202.5
 20
0.0000000000000234
 30
0.0
 11
-202.4947662353516
 21
0.2285449802875519
 31
0.0
1001
DBPROPERTIES
1002
{
1000
PbThick
1002
}
  0
LINE
  5
3EA
330
1F
100
AcDbEntity
  8
THICK
100
AcDbLine
 10
-202.4947662353516
 20
0.2285449802875519
 30
0.0
 11
-202.4791259765625
 21
0.4563215374946594
 31
0.0
1001
DBPROPERTIES
1002
{
1000
PbThick
1002
}
  0
LINE
  5
3EB
330
1F
100
AcDbEntity
  8
THICK
100
AcDbLine
 10
-202.4791259765625
 20
0.4563215374946594
 30
0.0
 11
-202.453125
 21
0.6829743385314941
 31
0.0
1001
DBPROPERTIES
1002
{
1000
PbThick
1002
}
  0
LINE
  5
3EC
330
1F
100
AcDbEntity
  8
THICK
100
AcDbLine
 10
-202.453125
 20
0.6829743385314941
 30
0.0
 11
-202.4168395996094
 21
0.9081481099128723
 31
0.0
1001
DBPROPERTIES
1002
{
1000
PbThick
1002
}
  0
LINE
  5
3ED
330
1F
100
AcDbEntity
  8
THICK
100
AcDbLine
 10
-202.4168395996094
 20
0.9081481099128723
 30
0.0
 11
-202.3702850341797
 21
1.131488561630249
 31
0.0
1001
DBPROPERTIES
1002
{
1000
PbThick
1002
}
  0
LINE
  5
3EE
330
1F
100
AcDbEntity
  8
THICK
100
AcDbLine
 10
-202.3702850341797
 20
1.131488561630249
 30
0.0
 11
-202.3135681152344
 21
1.352637410163879
 31
0.0
1001
DBPROPERTIES
1002
{
1000
PbThick
1002
}
  0
LINE
  5
3EF
330
1F
100
AcDbEntity
  8
THICK
100
AcDbLine
 10
-202.3135681152344
 20
1.352637410163879
 30
0.0
 11
-202.2467193603516
 21
1.571215033531189
 31
0.0
1001
DBPROPERTIES
1002
{
1000
PbThick
1002
}
  0
LINE
  5
3F0
330
1F
100
AcDbEntity
  8
THICK
100
AcDbLine
 10
-202.2467193603516
 20
1.571215033531189
 30
0.0
 11
-202.1700134277344
 21
1.786310076713562
 31
0.0
1001
DBPROPERTIES
1002
{
1000
PbThick
1002
}
  0
LINE
  5
3F1
330
1F
100
AcDbEntity
  8
THICK
100
AcDbLine
 10
-202.1700134277344
 20
1.786310076713562
 30
0.0
 11
-202.0837097167969
 21
1.997378349304199
 31
0.0
1001
DBPROPERTIES
1002
{
1000
PbThick
1002
}
  0
LINE
  5
3F2
330
1F
100
AcDbEntity
  8
THICK
100
AcDbLine
 10
-202.0837097167969
 20
1.997378349304199
 30
0.0
 11
-201.9879760742188
 21
2.204106092453003
 31
0.0
1001
DBPROPERTIES
1002
{
1000
PbThick
1002
}
  0
ARC
  5
3F3
330
1F
100
AcDbEntity
  8
THICK
100
AcDbCircle
 10
-197.5
 20
0.0000000000000242
 30
0.0
 40
5.0
100
AcDbArc
 50
0.0
 51
153.8436943592076
1001
DBPROPERTIES
1002
{
1000
PbThick
1002
}
  0
LINE
  5
3F4
330
1F
100
AcDbEntity
  8
THICK
100
AcDbLine
 10
-143.1891174316406
 20
-143.1891174316406
 30
0.0
 11
-143.3471374511719
 21
-143.0237121582031
 31
0.0
1001
DBPROPERTIES
1002
{
1000
PbThick
1002
}
  0
LINE
  5
3F5
330
1F
100
AcDbEntity
  8
THICK
100
AcDbLine
 10
-143.3471374511719
 20
-143.0237121582031
 30
0.0
 11
-143.4971466064453
 21
-142.8515777587891
 31
0.0
1001
DBPROPERTIES
1002
{
1000
PbThick
1002
}
  0
LINE
  5
3F6
330
1F
100
AcDbEntity
  8
THICK
100
AcDbLine
 10
-143.4971466064453
 20
-142.8515777587891
 30
0.0
 11
-143.6389923095703
 21
-142.6729736328125
 31
0.0
1001
DBPROPERTIES
1002
{
1000
PbThick
1002
}
  0
LINE
  5
3F7
330
1F
100
AcDbEntity
  8
THICK
100
AcDbLine
 10
-143.6389923095703
 20
-142.6729736328125
 30
0.0
 11
-143.7724456787109
 21
-142.4882354736328
 31
0.0
1001
DBPROPERTIES
1002
{
1000
PbThick
1002
}
  0
LINE
  5
3F8
330
1F
100
AcDbEntity
  8
THICK
100
AcDbLine
 10
-143.7724456787109
 20
-142.4882354736328
 30
0.0
 11
-143.8973083496094
 21
-142.297607421875
 31
0.0
1001
DBPROPERTIES
1002
{
1000
PbThick
1002
}
  0
LINE
  5
3F9
330
1F
100
AcDbEntity
  8
THICK
100
AcDbLine
 10
-143.8973083496094
 20
-142.297607421875
 30
0.0
 11
-144.013427734375
 21
-142.1014251708984
 31
0.0
1001
DBPROPERTIES
1002
{
1000
PbThick
1002
}
  0
LINE
  5
3FA
330
1F
100
AcDbEntity
  8
THICK
100
AcDbLine
 10
-144.013427734375
 20
-142.1014251708984
 30
0.0
 11
-144.1205596923828
 21
-141.8999633789062
 31
0.0
1001
DBPROPERTIES
1002
{
1000
PbThick
1002
}
  0
LINE
  5
3FB
330
1F
100
AcDbEntity
  8
THICK
100
AcDbLine
 10
-144.1205596923828
 20
-141.8999633789062
 30
0.0
 11
-144.2185363769531
 21
-141.6935119628906
 31
0.0
1001
DBPROPERTIES
1002
{
1000
PbThick
1002
}
  0
LINE
  5
3FC
330
1F
100
AcDbEntity
  8
THICK
100
AcDbLine
 10
-144.2185363769531
 20
-141.6935119628906
 30
0.0
 11
-144.3070068359375
 21
-141.4827270507812
 31
0.0
1001
DBPROPERTIES
1002
{
1000
PbThick
1002
}
  0
LINE
  5
3FD
330
1F
100
AcDbEntity
  8
THICK
100
AcDbLine
 10
-144.3070068359375
 20
-141.4827270507812
 30
0.0
 11
-144.3856048583984
 21
-141.2685241699219
 31
0.0
1001
DBPROPERTIES
1002
{
1000
PbThick
1002
}
  0
ARC
  5
3FE
330
1F
100
AcDbEntity
  8
THICK
100
AcDbCircle
 10
-139.6535892843431
 20
-139.6535892843431
 30
0.0
 40
5.0
100
AcDbArc
 50
44.99999063801582
 51
198.8437025973173
1001
DBPROPERTIES
1002
{
1000
PbThick
1002
}
  0
LINE
  5
3FF
330
1F
100
AcDbEntity
  8
THICK
100
AcDbLine
 10
-0.0000000000000248
 20
-202.5
 30
0.0
 11
-0.2285449802875519
 21
-202.4947662353516
 31
0.0
1001
DBPROPERTIES
1002
{
1000
PbThick
1002
}
  0
LINE
  5
400
330
1F
100
AcDbEntity
  8
THICK
100
AcDbLine
 10
-0.2285449802875519
 20
-202.4947662353516
 30
0.0
 11
-0.4563215374946594
 21
-202.4791259765625
 31
0.0
1001
DBPROPERTIES
1002
{
1000
PbThick
1002
}
  0
LINE
  5
401
330
1F
100
AcDbEntity
  8
THICK
100
AcDbLine
 10
-0.4563215374946594
 20
-202.4791259765625
 30
0.0
 11
-0.6829743385314941
 21
-202.453125
 31
0.0
1001
DBPROPERTIES
1002
{
1000
PbThick
1002
}
  0
LINE
  5
402
330
1F
100
AcDbEntity
  8
THICK
100
AcDbLine
 10
-0.6829743385314941
 20
-202.453125
 30
0.0
 11
-0.9081481099128723
 21
-202.4168395996094
 31
0.0
1001
DBPROPERTIES
1002
{
1000
PbThick
1002
}
  0
LINE
  5
403
330
1F
100
AcDbEntity
  8
THICK
100
AcDbLine
 10
-0.9081481099128723
 20
-202.4168395996094
 30
0.0
 11
-1.131488561630249
 21
-202.3702850341797
 31
0.0
1001
DBPROPERTIES
1002
{
1000
PbThick
1002
}
  0
LINE
  5
404
330
1F
100
AcDbEntity
  8
THICK
100
AcDbLine
 10
-1.131488561630249
 20
-202.3702850341797
 30
0.0
 11
-1.352637410163879
 21
-202.3135681152344
 31
0.0
1001
DBPROPERTIES
1002
{
1000
PbThick
1002
}
  0
LINE
  5
405
330
1F
100
AcDbEntity
  8
THICK
100
AcDbLine
 10
-1.352637410163879
 20
-202.3135681152344
 30
0.0
 11
-1.571215033531189
 21
-202.2467193603516
 31
0.0
1001
DBPROPERTIES
1002
{
1000
PbThick
1002
}
  0
LINE
  5
406
330
1F
100
AcDbEntity
  8
THICK
100
AcDbLine
 10
-1.571215033531189
 20
-202.2467193603516
 30
0.0
 11
-1.786310076713562
 21
-202.1700134277344
 31
0.0
1001
DBPROPERTIES
1002
{
1000
PbThick
1002
}
  0
LINE
  5
407
330
1F
100
AcDbEntity
  8
THICK
100
AcDbLine
 10
-1.786310076713562
 20
-202.1700134277344
 30
0.0
 11
-1.997378349304199
 21
-202.0837097167969
 31
0.0
1001
DBPROPERTIES
1002
{
1000
PbThick
1002
}
  0
LINE
  5
408
330
1F
100
AcDbEntity
  8
THICK
100
AcDbLine
 10
-1.997378349304199
 20
-202.0837097167969
 30
0.0
 11
-2.204106092453003
 21
-201.9879760742188
 31
0.0
1001
DBPROPERTIES
1002
{
1000
PbThick
1002
}
  0
ARC
  5
409
330
1F
100
AcDbEntity
  8
THICK
100
AcDbCircle
 10
-0.0000000000000363
 20
-197.5
 30
0.0
 40
5.0
100
AcDbArc
 50
89.99998127603165
 51
243.8436932353331
1001
DBPROPERTIES
1002
{
1000
PbThick
1002
}
  0
LINE
  5
40A
330
1F
100
AcDbEntity
  8
THICK
100
AcDbLine
 10
143.1891174316406
 20
-143.1891174316406
 30
0.0
 11
143.0237121582031
 21
-143.3471374511719
 31
0.0
1001
DBPROPERTIES
1002
{
1000
PbThick
1002
}
  0
LINE
  5
40B
330
1F
100
AcDbEntity
  8
THICK
100
AcDbLine
 10
143.0237121582031
 20
-143.3471374511719
 30
0.0
 11
142.8515777587891
 21
-143.4971466064453
 31
0.0
1001
DBPROPERTIES
1002
{
1000
PbThick
1002
}
  0
LINE
  5
40C
330
1F
100
AcDbEntity
  8
THICK
100
AcDbLine
 10
142.8515777587891
 20
-143.4971466064453
 30
0.0
 11
142.6729736328125
 21
-143.6389923095703
 31
0.0
1001
DBPROPERTIES
1002
{
1000
PbThick
1002
}
  0
LINE
  5
40D
330
1F
100
AcDbEntity
  8
THICK
100
AcDbLine
 10
142.6729736328125
 20
-143.6389923095703
 30
0.0
 11
142.4882354736328
 21
-143.7724456787109
 31
0.0
1001
DBPROPERTIES
1002
{
1000
PbThick
1002
}
  0
LINE
  5
40E
330
1F
100
AcDbEntity
  8
THICK
100
AcDbLine
 10
142.4882354736328
 20
-143.7724456787109
 30
0.0
 11
142.297607421875
 21
-143.8973083496094
 31
0.0
1001
DBPROPERTIES
1002
{
1000
PbThick
1002
}
  0
LINE
  5
40F
330
1F
100
AcDbEntity
  8
THICK
100
AcDbLine
 10
142.297607421875
 20
-143.8973083496094
 30
0.0
 11
142.1014251708984
 21
-144.013427734375
 31
0.0
1001
DBPROPERTIES
1002
{
1000
PbThick
1002
}
  0
LINE
  5
410
330
1F
100
AcDbEntity
  8
THICK
100
AcDbLine
 10
142.1014251708984
 20
-144.013427734375
 30
0.0
 11
141.8999633789062
 21
-144.1205596923828
 31
0.0
1001
DBPROPERTIES
1002
{
1000
PbThick
1002
}
  0
LINE
  5
411
330
1F
100
AcDbEntity
  8
THICK
100
AcDbLine
 10
141.8999633789062
 20
-144.1205596923828
 30
0.0
 11
141.6935119628906
 21
-144.2185363769531
 31
0.0
1001
DBPROPERTIES
1002
{
1000
PbThick
1002
}
  0
LINE
  5
412
330
1F
100
AcDbEntity
  8
THICK
100
AcDbLine
 10
141.6935119628906
 20
-144.2185363769531
 30
0.0
 11
141.4827270507812
 21
-144.3070068359375
 31
0.0
1001
DBPROPERTIES
1002
{
1000
PbThick
1002
}
  0
LINE
  5
413
330
1F
100
AcDbEntity
  8
THICK
100
AcDbLine
 10
141.4827270507812
 20
-144.3070068359375
 30
0.0
 11
141.2685241699219
 21
-144.3856048583984
 31
0.0
1001
DBPROPERTIES
1002
{
1000
PbThick
1002
}
  0
ARC
  5
414
330
1F
100
AcDbEntity
  8
THICK
100
AcDbCircle
 10
139.6535892843431
 20
-139.6535892843432
 30
0.0
 40
5.000000000000001
100
AcDbArc
 50
134.9999719140475
 51
288.8436838733489
1001
DBPROPERTIES
1002
{
1000
PbThick
1002
}
  0
LINE
  5
415
330
1F
100
AcDbEntity
  8
THICK
100
AcDbLine
 10
202.5
 20
0.0000000000000124
 30
0.0
 11
202.4947662353516
 21
-0.2285449802875519
 31
0.0
1001
DBPROPERTIES
1002
{
1000
PbThick
1002
}
  0
LINE
  5
416
330
1F
100
AcDbEntity
  8
THICK
100
AcDbLine
 10
202.4947662353516
 20
-0.2285449802875519
 30
0.0
 11
202.4791259765625
 21
-0.4563215374946594
 31
0.0
1001
DBPROPERTIES
1002
{
1000
PbThick
1002
}
  0
LINE
  5
417
330
1F
100
AcDbEntity
  8
THICK
100
AcDbLine
 10
202.4791259765625
 20
-0.4563215374946594
 30
0.0
 11
202.453125
 21
-0.6829743385314941
 31
0.0
1001
DBPROPERTIES
1002
{
1000
PbThick
1002
}
  0
LINE
  5
418
330
1F
100
AcDbEntity
  8
THICK
100
AcDbLine
 10
202.453125
 20
-0.6829743385314941
 30
0.0
 11
202.4168395996094
 21
-0.9081481099128723
 31
0.0
1001
DBPROPERTIES
1002
{
1000
PbThick
1002
}
  0
LINE
  5
419
330
1F
100
AcDbEntity
  8
THICK
100
AcDbLine
 10
202.4168395996094
 20
-0.9081481099128723
 30
0.0
 11
202.3702850341797
 21
-1.131488561630249
 31
0.0
1001
DBPROPERTIES
1002
{
1000
PbThick
1002
}
  0
LINE
  5
41A
330
1F
100
AcDbEntity
  8
THICK
100
AcDbLine
 10
202.3702850341797
 20
-1.131488561630249
 30
0.0
 11
202.3135681152344
 21
-1.352637410163879
 31
0.0
1001
DBPROPERTIES
1002
{
1000
PbThick
1002
}
  0
LINE
  5
41B
330
1F
100
AcDbEntity
  8
THICK
100
AcDbLine
 10
202.3135681152344
 20
-1.352637410163879
 30
0.0
 11
202.2467193603516
 21
-1.571215033531189
 31
0.0
1001
DBPROPERTIES
1002
{
1000
PbThick
1002
}
  0
LINE
  5
41C
330
1F
100
AcDbEntity
  8
THICK
100
AcDbLine
 10
202.2467193603516
 20
-1.571215033531189
 30
0.0
 11
202.1700134277344
 21
-1.786310076713562
 31
0.0
1001
DBPROPERTIES
1002
{
1000
PbThick
1002
}
  0
LINE
  5
41D
330
1F
100
AcDbEntity
  8
THICK
100
AcDbLine
 10
202.1700134277344
 20
-1.786310076713562
 30
0.0
 11
202.0837097167969
 21
-1.997378349304199
 31
0.0
1001
DBPROPERTIES
1002
{
1000
PbThick
1002
}
  0
LINE
  5
41E
330
1F
100
AcDbEntity
  8
THICK
100
AcDbLine
 10
202.0837097167969
 20
-1.997378349304199
 30
0.0
 11
201.9879760742188
 21
-2.204106092453003
 31
0.0
1001
DBPROPERTIES
1002
{
1000
PbThick
1002
}
  0
ARC
  5
41F
330
1F
100
AcDbEntity
  8
THICK
100
AcDbCircle
 10
197.5
 20
-0.0000000000000484
 30
0.0
 40
5.0
100
AcDbArc
 50
180.0000198478428
 51
333.8437318071443
1001
DBPROPERTIES
1002
{
1000
PbThick
1002
}
  0
ARC
  5
420
330
1F
100
AcDbEntity
  8
HIDDEN
100
AcDbCircle
 10
0.0
 20
0.0
 30
0.0
 40
202.0
100
AcDbArc
 50
0.6252115460467543
 51
44.37483638774859
1001
DBPROPERTIES
1002
{
1000
PbHidd
1002
}
  0
ARC
  5
421
330
1F
100
AcDbEntity
  8
HIDDEN
100
AcDbCircle
 10
0.0
 20
0.0
 30
0.0
 40
202.0
100
AcDbArc
 50
45.62520218406258
 51
89.37482702576442
1001
DBPROPERTIES
1002
{
1000
PbHidd
1002
}
  0
ARC
  5
422
330
1F
100
AcDbEntity
  8
HIDDEN
100
AcDbCircle
 10
0.0
 20
0.0
 30
0.0
 40
202.0
100
AcDbArc
 50
90.6251928220784
 51
134.3748176637802
1001
DBPROPERTIES
1002
{
1000
PbHidd
1002
}
  0
ARC
  5
423
330
1F
100
AcDbEntity
  8
HIDDEN
100
AcDbCircle
 10
0.0
 20
0.0
 30
0.0
 40
202.0
100
AcDbArc
 50
135.6251834600942
 51
179.3748083017961
1001
DBPROPERTIES
1002
{
1000
PbHidd
1002
}
  0
LINE
  5
424
330
1F
100
AcDbEntity
  8
THICK
100
AcDbLine
 10
-201.9879760742188
 20
-2.204106092453003
 30
0.0
 11
-202.083984375
 21
-1.99676525592804
 31
0.0
1001
DBPROPERTIES
1002
{
1000
PbThick
1002
}
  0
LINE
  5
425
330
1F
100
AcDbEntity
  8
THICK
100
AcDbLine
 10
-202.083984375
 20
-1.99676525592804
 30
0.0
 11
-202.1705169677734
 21
-1.78503143787384
 31
0.0
1001
DBPROPERTIES
1002
{
1000
PbThick
1002
}
  0
LINE
  5
426
330
1F
100
AcDbEntity
  8
THICK
100
AcDbLine
 10
-202.1705169677734
 20
-1.78503143787384
 30
0.0
 11
-202.2471466064453
 21
-1.569932699203491
 31
0.0
1001
DBPROPERTIES
1002
{
1000
PbThick
1002
}
  0
LINE
  5
427
330
1F
100
AcDbEntity
  8
THICK
100
AcDbLine
 10
-202.2471466064453
 20
-1.569932699203491
 30
0.0
 11
-202.3137969970703
 21
-1.35185182094574
 31
0.0
1001
DBPROPERTIES
1002
{
1000
PbThick
1002
}
  0
LINE
  5
428
330
1F
100
AcDbEntity
  8
THICK
100
AcDbLine
 10
-202.3137969970703
 20
-1.35185182094574
 30
0.0
 11
-202.3703765869141
 21
-1.131132364273071
 31
0.0
1001
DBPROPERTIES
1002
{
1000
PbThick
1002
}
  0
LINE
  5
429
330
1F
100
AcDbEntity
  8
THICK
100
AcDbLine
 10
-202.3703765869141
 20
-1.131132364273071
 30
0.0
 11
-202.4168548583984
 21
-0.9081194400787354
 31
0.0
1001
DBPROPERTIES
1002
{
1000
PbThick
1002
}
  0
LINE
  5
42A
330
1F
100
AcDbEntity
  8
THICK
100
AcDbLine
 10
-202.4168548583984
 20
-0.9081194400787354
 30
0.0
 11
-202.453125
 21
-0.6831556558609009
 31
0.0
1001
DBPROPERTIES
1002
{
1000
PbThick
1002
}
  0
LINE
  5
42B
330
1F
100
AcDbEntity
  8
THICK
100
AcDbLine
 10
-202.453125
 20
-0.6831556558609009
 30
0.0
 11
-202.4791107177734
 21
-0.4565852284431458
 31
0.0
1001
DBPROPERTIES
1002
{
1000
PbThick
1002
}
  0
LINE
  5
42C
330
1F
100
AcDbEntity
  8
THICK
100
AcDbLine
 10
-202.4791107177734
 20
-0.4565852284431458
 30
0.0
 11
-202.4947662353516
 21
-0.2287520468235016
 31
0.0
1001
DBPROPERTIES
1002
{
1000
PbThick
1002
}
  0
LINE
  5
42D
330
1F
100
AcDbEntity
  8
THICK
100
AcDbLine
 10
-202.4947662353516
 20
-0.2287520468235016
 30
0.0
 11
-202.5
 21
0.0000000000000234
 31
0.0
1001
DBPROPERTIES
1002
{
1000
PbThick
1002
}
  0
ARC
  5
42E
330
1F
100
AcDbEntity
  8
THICK
100
AcDbCircle
 10
0.0000000000000007
 20
0.0000000000000013
 30
0.0
 40
213.0
100
AcDbArc
 50
180.0000198478428
 51
270.0000187239684
1001
DBPROPERTIES
1002
{
1000
PbThick
1002
}
  0
ARC
  5
42F
330
1F
100
AcDbEntity
  8
THICK
100
AcDbCircle
 10
0.0
 20
0.0
 30
0.0
 40
202.0
100
AcDbArc
 50
315.6251636122515
 51
359.3747884539532
1001
DBPROPERTIES
1002
{
1000
PbThick
1002
}
  0
LINE
  5
430
330
1F
100
AcDbEntity
  8
THICK
100
AcDbLine
 10
144.3856048583984
 20
-141.2685241699219
 30
0.0
 11
144.3068389892578
 21
-141.4831390380859
 31
0.0
1001
DBPROPERTIES
1002
{
1000
PbThick
1002
}
  0
LINE
  5
431
330
1F
100
AcDbEntity
  8
THICK
100
AcDbLine
 10
144.3068389892578
 20
-141.4831390380859
 30
0.0
 11
144.21826171875
 21
-141.6941223144531
 31
0.0
1001
DBPROPERTIES
1002
{
1000
PbThick
1002
}
  0
LINE
  5
432
330
1F
100
AcDbEntity
  8
THICK
100
AcDbLine
 10
144.21826171875
 20
-141.6941223144531
 30
0.0
 11
144.1203155517578
 21
-141.9004669189453
 31
0.0
1001
DBPROPERTIES
1002
{
1000
PbThick
1002
}
  0
LINE
  5
433
330
1F
100
AcDbEntity
  8
THICK
100
AcDbLine
 10
144.1203155517578
 20
-141.9004669189453
 30
0.0
 11
144.0131988525391
 21
-142.1018218994141
 31
0.0
1001
DBPROPERTIES
1002
{
1000
PbThick
1002
}
  0
LINE
  5
434
330
1F
100
AcDbEntity
  8
THICK
100
AcDbLine
 10
144.0131988525391
 20
-142.1018218994141
 30
0.0
 11
143.8971252441406
 21
-142.2979125976562
 31
0.0
1001
DBPROPERTIES
1002
{
1000
PbThick
1002
}
  0
LINE
  5
435
330
1F
100
AcDbEntity
  8
THICK
100
AcDbLine
 10
143.8971252441406
 20
-142.2979125976562
 30
0.0
 11
143.7722930908203
 21
-142.4884643554688
 31
0.0
1001
DBPROPERTIES
1002
{
1000
PbThick
1002
}
  0
LINE
  5
436
330
1F
100
AcDbEntity
  8
THICK
100
AcDbLine
 10
143.7722930908203
 20
-142.4884643554688
 30
0.0
 11
143.6388702392578
 21
-142.6731414794922
 31
0.0
1001
DBPROPERTIES
1002
{
1000
PbThick
1002
}
  0
LINE
  5
437
330
1F
100
AcDbEntity
  8
THICK
100
AcDbLine
 10
143.6388702392578
 20
-142.6731414794922
 30
0.0
 11
143.4970703125
 21
-142.8516693115234
 31
0.0
1001
DBPROPERTIES
1002
{
1000
PbThick
1002
}
  0
LINE
  5
438
330
1F
100
AcDbEntity
  8
THICK
100
AcDbLine
 10
143.4970703125
 20
-142.8516693115234
 30
0.0
 11
143.3470916748047
 21
-143.0237579345703
 31
0.0
1001
DBPROPERTIES
1002
{
1000
PbThick
1002
}
  0
LINE
  5
439
330
1F
100
AcDbEntity
  8
THICK
100
AcDbLine
 10
143.3470916748047
 20
-143.0237579345703
 30
0.0
 11
143.1891174316406
 21
-143.1891174316406
 31
0.0
1001
DBPROPERTIES
1002
{
1000
PbThick
1002
}
  0
ARC
  5
43A
330
1F
100
AcDbEntity
  8
THICK
100
AcDbCircle
 10
0.0
 20
0.0
 30
0.0
 40
202.0
100
AcDbArc
 50
270.6251729742356
 51
314.3747978159374
1001
DBPROPERTIES
1002
{
1000
PbThick
1002
}
  0
LINE
  5
43B
330
1F
100
AcDbEntity
  8
THICK
100
AcDbLine
 10
2.204106092453003
 20
-201.9879760742188
 30
0.0
 11
1.99676525592804
 21
-202.083984375
 31
0.0
1001
DBPROPERTIES
1002
{
1000
PbThick
1002
}
  0
LINE
  5
43C
330
1F
100
AcDbEntity
  8
THICK
100
AcDbLine
 10
1.99676525592804
 20
-202.083984375
 30
0.0
 11
1.78503143787384
 21
-202.1705169677734
 31
0.0
1001
DBPROPERTIES
1002
{
1000
PbThick
1002
}
  0
LINE
  5
43D
330
1F
100
AcDbEntity
  8
THICK
100
AcDbLine
 10
1.78503143787384
 20
-202.1705169677734
 30
0.0
 11
1.569932699203491
 21
-202.2471466064453
 31
0.0
1001
DBPROPERTIES
1002
{
1000
PbThick
1002
}
  0
LINE
  5
43E
330
1F
100
AcDbEntity
  8
THICK
100
AcDbLine
 10
1.569932699203491
 20
-202.2471466064453
 30
0.0
 11
1.35185182094574
 21
-202.3137969970703
 31
0.0
1001
DBPROPERTIES
1002
{
1000
PbThick
1002
}
  0
LINE
  5
43F
330
1F
100
AcDbEntity
  8
THICK
100
AcDbLine
 10
1.35185182094574
 20
-202.3137969970703
 30
0.0
 11
1.131132364273071
 21
-202.3703765869141
 31
0.0
1001
DBPROPERTIES
1002
{
1000
PbThick
1002
}
  0
LINE
  5
440
330
1F
100
AcDbEntity
  8
THICK
100
AcDbLine
 10
1.131132364273071
 20
-202.3703765869141
 30
0.0
 11
0.9081194400787354
 21
-202.4168548583984
 31
0.0
1001
DBPROPERTIES
1002
{
1000
PbThick
1002
}
  0
LINE
  5
441
330
1F
100
AcDbEntity
  8
THICK
100
AcDbLine
 10
0.9081194400787354
 20
-202.4168548583984
 30
0.0
 11
0.6831556558609009
 21
-202.453125
 31
0.0
1001
DBPROPERTIES
1002
{
1000
PbThick
1002
}
  0
LINE
  5
442
330
1F
100
AcDbEntity
  8
THICK
100
AcDbLine
 10
0.6831556558609009
 20
-202.453125
 30
0.0
 11
0.4565852284431458
 21
-202.4791107177734
 31
0.0
1001
DBPROPERTIES
1002
{
1000
PbThick
1002
}
  0
LINE
  5
443
330
1F
100
AcDbEntity
  8
THICK
100
AcDbLine
 10
0.4565852284431458
 20
-202.4791107177734
 30
0.0
 11
0.2287520468235016
 21
-202.4947662353516
 31
0.0
1001
DBPROPERTIES
1002
{
1000
PbThick
1002
}
  0
LINE
  5
444
330
1F
100
AcDbEntity
  8
THICK
100
AcDbLine
 10
0.2287520468235016
 20
-202.4947662353516
 30
0.0
 11
-0.0000000000000248
 21
-202.5
 31
0.0
1001
DBPROPERTIES
1002
{
1000
PbThick
1002
}
  0
ARC
  5
445
330
1F
100
AcDbEntity
  8
THICK
100
AcDbCircle
 10
0.0
 20
0.0
 30
0.0
 40
202.0
100
AcDbArc
 50
225.6251823362198
 51
269.3748071779216
1001
DBPROPERTIES
1002
{
1000
PbThick
1002
}
  0
LINE
  5
446
330
1F
100
AcDbEntity
  8
THICK
100
AcDbLine
 10
-141.2685241699219
 20
-144.3856048583984
 30
0.0
 11
-141.4831390380859
 21
-144.3068389892578
 31
0.0
1001
DBPROPERTIES
1002
{
1000
PbThick
1002
}
  0
LINE
  5
447
330
1F
100
AcDbEntity
  8
THICK
100
AcDbLine
 10
-141.4831390380859
 20
-144.3068389892578
 30
0.0
 11
-141.6941223144531
 21
-144.21826171875
 31
0.0
1001
DBPROPERTIES
1002
{
1000
PbThick
1002
}
  0
LINE
  5
448
330
1F
100
AcDbEntity
  8
THICK
100
AcDbLine
 10
-141.6941223144531
 20
-144.21826171875
 30
0.0
 11
-141.9004669189453
 21
-144.1203155517578
 31
0.0
1001
DBPROPERTIES
1002
{
1000
PbThick
1002
}
  0
LINE
  5
449
330
1F
100
AcDbEntity
  8
THICK
100
AcDbLine
 10
-141.9004669189453
 20
-144.1203155517578
 30
0.0
 11
-142.1018218994141
 21
-144.0131988525391
 31
0.0
1001
DBPROPERTIES
1002
{
1000
PbThick
1002
}
  0
LINE
  5
44A
330
1F
100
AcDbEntity
  8
THICK
100
AcDbLine
 10
-142.1018218994141
 20
-144.0131988525391
 30
0.0
 11
-142.2979125976562
 21
-143.8971252441406
 31
0.0
1001
DBPROPERTIES
1002
{
1000
PbThick
1002
}
  0
LINE
  5
44B
330
1F
100
AcDbEntity
  8
THICK
100
AcDbLine
 10
-142.2979125976562
 20
-143.8971252441406
 30
0.0
 11
-142.4884643554688
 21
-143.7722930908203
 31
0.0
1001
DBPROPERTIES
1002
{
1000
PbThick
1002
}
  0
LINE
  5
44C
330
1F
100
AcDbEntity
  8
THICK
100
AcDbLine
 10
-142.4884643554688
 20
-143.7722930908203
 30
0.0
 11
-142.6731414794922
 21
-143.6388702392578
 31
0.0
1001
DBPROPERTIES
1002
{
1000
PbThick
1002
}
  0
LINE
  5
44D
330
1F
100
AcDbEntity
  8
THICK
100
AcDbLine
 10
-142.6731414794922
 20
-143.6388702392578
 30
0.0
 11
-142.8516693115234
 21
-143.4970703125
 31
0.0
1001
DBPROPERTIES
1002
{
1000
PbThick
1002
}
  0
LINE
  5
44E
330
1F
100
AcDbEntity
  8
THICK
100
AcDbLine
 10
-142.8516693115234
 20
-143.4970703125
 30
0.0
 11
-143.0237579345703
 21
-143.3470916748047
 31
0.0
1001
DBPROPERTIES
1002
{
1000
PbThick
1002
}
  0
LINE
  5
44F
330
1F
100
AcDbEntity
  8
THICK
100
AcDbLine
 10
-143.0237579345703
 20
-143.3470916748047
 30
0.0
 11
-143.1891174316406
 21
-143.1891174316406
 31
0.0
1001
DBPROPERTIES
1002
{
1000
PbThick
1002
}
  0
ARC
  5
450
330
1F
100
AcDbEntity
  8
THICK
100
AcDbCircle
 10
0.0
 20
0.0
 30
0.0
 40
202.0
100
AcDbArc
 50
180.6251916982039
 51
224.3748165399058
1001
DBPROPERTIES
1002
{
1000
PbThick
1002
}
  0
LINE
  5
451
330
1F
100
AcDbEntity
  8
THICK
100
AcDbLine
 10
143.1891174316406
 20
143.1891174316406
 30
0.0
 11
143.3471374511719
 21
143.0237121582031
 31
0.0
1001
DBPROPERTIES
1002
{
1000
PbThick
1002
}
  0
LINE
  5
452
330
1F
100
AcDbEntity
  8
THICK
100
AcDbLine
 10
143.3471374511719
 20
143.0237121582031
 30
0.0
 11
143.4971466064453
 21
142.8515777587891
 31
0.0
1001
DBPROPERTIES
1002
{
1000
PbThick
1002
}
  0
LINE
  5
453
330
1F
100
AcDbEntity
  8
THICK
100
AcDbLine
 10
143.4971466064453
 20
142.8515777587891
 30
0.0
 11
143.6389923095703
 21
142.6729736328125
 31
0.0
1001
DBPROPERTIES
1002
{
1000
PbThick
1002
}
  0
LINE
  5
454
330
1F
100
AcDbEntity
  8
THICK
100
AcDbLine
 10
143.6389923095703
 20
142.6729736328125
 30
0.0
 11
143.7724456787109
 21
142.4882354736328
 31
0.0
1001
DBPROPERTIES
1002
{
1000
PbThick
1002
}
  0
LINE
  5
455
330
1F
100
AcDbEntity
  8
THICK
100
AcDbLine
 10
143.7724456787109
 20
142.4882354736328
 30
0.0
 11
143.8973083496094
 21
142.297607421875
 31
0.0
1001
DBPROPERTIES
1002
{
1000
PbThick
1002
}
  0
LINE
  5
456
330
1F
100
AcDbEntity
  8
THICK
100
AcDbLine
 10
143.8973083496094
 20
142.297607421875
 30
0.0
 11
144.013427734375
 21
142.1014251708984
 31
0.0
1001
DBPROPERTIES
1002
{
1000
PbThick
1002
}
  0
LINE
  5
457
330
1F
100
AcDbEntity
  8
THICK
100
AcDbLine
 10
144.013427734375
 20
142.1014251708984
 30
0.0
 11
144.1205596923828
 21
141.8999633789062
 31
0.0
1001
DBPROPERTIES
1002
{
1000
PbThick
1002
}
  0
LINE
  5
458
330
1F
100
AcDbEntity
  8
THICK
100
AcDbLine
 10
144.1205596923828
 20
141.8999633789062
 30
0.0
 11
144.2185363769531
 21
141.6935119628906
 31
0.0
1001
DBPROPERTIES
1002
{
1000
PbThick
1002
}
  0
LINE
  5
459
330
1F
100
AcDbEntity
  8
THICK
100
AcDbLine
 10
144.2185363769531
 20
141.6935119628906
 30
0.0
 11
144.3070068359375
 21
141.4827270507812
 31
0.0
1001
DBPROPERTIES
1002
{
1000
PbThick
1002
}
  0
LINE
  5
45A
330
1F
100
AcDbEntity
  8
THICK
100
AcDbLine
 10
144.3070068359375
 20
141.4827270507812
 30
0.0
 11
144.3856048583984
 21
141.2685241699219
 31
0.0
1001
DBPROPERTIES
1002
{
1000
PbThick
1002
}
  0
ARC
  5
45B
330
1F
100
AcDbEntity
  8
THICK
100
AcDbCircle
 10
139.6535892843432
 20
139.6535892843431
 30
0.0
 40
4.999999999999999
100
AcDbArc
 50
225.0000280859525
 51
18.84372244516008
1001
DBPROPERTIES
1002
{
1000
PbThick
1002
}
  0
LINE
  5
45C
330
1F
100
AcDbEntity
  8
THICK
100
AcDbLine
 10
141.2685241699219
 20
144.3856048583984
 30
0.0
 11
141.4831390380859
 21
144.3068389892578
 31
0.0
1001
DBPROPERTIES
1002
{
1000
PbThick
1002
}
  0
LINE
  5
45D
330
1F
100
AcDbEntity
  8
THICK
100
AcDbLine
 10
141.4831390380859
 20
144.3068389892578
 30
0.0
 11
141.6941223144531
 21
144.21826171875
 31
0.0
1001
DBPROPERTIES
1002
{
1000
PbThick
1002
}
  0
LINE
  5
45E
330
1F
100
AcDbEntity
  8
THICK
100
AcDbLine
 10
141.6941223144531
 20
144.21826171875
 30
0.0
 11
141.9004669189453
 21
144.1203155517578
 31
0.0
1001
DBPROPERTIES
1002
{
1000
PbThick
1002
}
  0
LINE
  5
45F
330
1F
100
AcDbEntity
  8
THICK
100
AcDbLine
 10
141.9004669189453
 20
144.1203155517578
 30
0.0
 11
142.1018218994141
 21
144.0131988525391
 31
0.0
1001
DBPROPERTIES
1002
{
1000
PbThick
1002
}
  0
LINE
  5
460
330
1F
100
AcDbEntity
  8
THICK
100
AcDbLine
 10
142.1018218994141
 20
144.0131988525391
 30
0.0
 11
142.2979125976562
 21
143.8971252441406
 31
0.0
1001
DBPROPERTIES
1002
{
1000
PbThick
1002
}
  0
LINE
  5
461
330
1F
100
AcDbEntity
  8
THICK
100
AcDbLine
 10
142.2979125976562
 20
143.8971252441406
 30
0.0
 11
142.4884643554688
 21
143.7722930908203
 31
0.0
1001
DBPROPERTIES
1002
{
1000
PbThick
1002
}
  0
LINE
  5
462
330
1F
100
AcDbEntity
  8
THICK
100
AcDbLine
 10
142.4884643554688
 20
143.7722930908203
 30
0.0
 11
142.6731414794922
 21
143.6388702392578
 31
0.0
1001
DBPROPERTIES
1002
{
1000
PbThick
1002
}
  0
LINE
  5
463
330
1F
100
AcDbEntity
  8
THICK
100
AcDbLine
 10
142.6731414794922
 20
143.6388702392578
 30
0.0
 11
142.8516693115234
 21
143.4970703125
 31
0.0
1001
DBPROPERTIES
1002
{
1000
PbThick
1002
}
  0
LINE
  5
464
330
1F
100
AcDbEntity
  8
THICK
100
AcDbLine
 10
142.8516693115234
 20
143.4970703125
 30
0.0
 11
143.0237579345703
 21
143.3470916748047
 31
0.0
1001
DBPROPERTIES
1002
{
1000
PbThick
1002
}
  0
LINE
  5
465
330
1F
100
AcDbEntity
  8
THICK
100
AcDbLine
 10
143.0237579345703
 20
143.3470916748047
 30
0.0
 11
143.1891174316406
 21
143.1891174316406
 31
0.0
1001
DBPROPERTIES
1002
{
1000
PbThick
1002
}
  0
ARC
  5
466
330
1F
100
AcDbEntity
  8
THICK
100
AcDbCircle
 10
139.6535892843432
 20
139.6535892843431
 30
0.0
 40
4.999999999999999
100
AcDbArc
 50
71.15631612665109
 51
225.0000280859525
1001
DBPROPERTIES
1002
{
1000
PbThick
1002
}
  0
ARC
  5
467
330
1F
100
AcDbEntity
  8
THICK
100
AcDbCircle
 10
0.0000000000000007
 20
0.0000000000000013
 30
0.0
 40
213.0
100
AcDbArc
 50
89.99998127603165
 51
180.0000198478428
1001
DBPROPERTIES
1002
{
1000
PbThick
1002
}
  0
ARC
  5
468
330
1F
100
AcDbEntity
  8
THICK
100
AcDbCircle
 10
0.0
 20
0.0
 30
0.0
 40
202.0
100
AcDbArc
 50
135.6251834600942
 51
179.3748083017961
1001
DBPROPERTIES
1002
{
1000
PbThick
1002
}
  0
LINE
  5
469
330
1F
100
AcDbEntity
  8
THICK
100
AcDbLine
 10
-144.3856048583984
 20
141.2685241699219
 30
0.0
 11
-144.3068389892578
 21
141.4831390380859
 31
0.0
1001
DBPROPERTIES
1002
{
1000
PbThick
1002
}
  0
LINE
  5
46A
330
1F
100
AcDbEntity
  8
THICK
100
AcDbLine
 10
-144.3068389892578
 20
141.4831390380859
 30
0.0
 11
-144.21826171875
 21
141.6941223144531
 31
0.0
1001
DBPROPERTIES
1002
{
1000
PbThick
1002
}
  0
LINE
  5
46B
330
1F
100
AcDbEntity
  8
THICK
100
AcDbLine
 10
-144.21826171875
 20
141.6941223144531
 30
0.0
 11
-144.1203155517578
 21
141.9004669189453
 31
0.0
1001
DBPROPERTIES
1002
{
1000
PbThick
1002
}
  0
LINE
  5
46C
330
1F
100
AcDbEntity
  8
THICK
100
AcDbLine
 10
-144.1203155517578
 20
141.9004669189453
 30
0.0
 11
-144.0131988525391
 21
142.1018218994141
 31
0.0
1001
DBPROPERTIES
1002
{
1000
PbThick
1002
}
  0
LINE
  5
46D
330
1F
100
AcDbEntity
  8
THICK
100
AcDbLine
 10
-144.0131988525391
 20
142.1018218994141
 30
0.0
 11
-143.8971252441406
 21
142.2979125976562
 31
0.0
1001
DBPROPERTIES
1002
{
1000
PbThick
1002
}
  0
LINE
  5
46E
330
1F
100
AcDbEntity
  8
THICK
100
AcDbLine
 10
-143.8971252441406
 20
142.2979125976562
 30
0.0
 11
-143.7722930908203
 21
142.4884643554688
 31
0.0
1001
DBPROPERTIES
1002
{
1000
PbThick
1002
}
  0
LINE
  5
46F
330
1F
100
AcDbEntity
  8
THICK
100
AcDbLine
 10
-143.7722930908203
 20
142.4884643554688
 30
0.0
 11
-143.6388702392578
 21
142.6731414794922
 31
0.0
1001
DBPROPERTIES
1002
{
1000
PbThick
1002
}
  0
LINE
  5
470
330
1F
100
AcDbEntity
  8
THICK
100
AcDbLine
 10
-143.6388702392578
 20
142.6731414794922
 30
0.0
 11
-143.4970703125
 21
142.8516693115234
 31
0.0
1001
DBPROPERTIES
1002
{
1000
PbThick
1002
}
  0
LINE
  5
471
330
1F
100
AcDbEntity
  8
THICK
100
AcDbLine
 10
-143.4970703125
 20
142.8516693115234
 30
0.0
 11
-143.3470916748047
 21
143.0237579345703
 31
0.0
1001
DBPROPERTIES
1002
{
1000
PbThick
1002
}
  0
LINE
  5
472
330
1F
100
AcDbEntity
  8
THICK
100
AcDbLine
 10
-143.3470916748047
 20
143.0237579345703
 30
0.0
 11
-143.1891174316406
 21
143.1891174316406
 31
0.0
1001
DBPROPERTIES
1002
{
1000
PbThick
1002
}
  0
ARC
  5
473
330
1F
100
AcDbEntity
  8
THICK
100
AcDbCircle
 10
0.0
 20
0.0
 30
0.0
 40
202.0
100
AcDbArc
 50
90.6251928220784
 51
134.3748176637802
1001
DBPROPERTIES
1002
{
1000
PbThick
1002
}
  0
LINE
  5
474
330
1F
100
AcDbEntity
  8
THICK
100
AcDbLine
 10
-2.204106092453003
 20
201.9879760742188
 30
0.0
 11
-1.996784925460815
 21
202.083984375
 31
0.0
1001
DBPROPERTIES
1002
{
1000
PbThick
1002
}
  0
LINE
  5
475
330
1F
100
AcDbEntity
  8
THICK
100
AcDbLine
 10
-1.996784925460815
 20
202.083984375
 30
0.0
 11
-1.78557813167572
 21
202.1703033447266
 31
0.0
1001
DBPROPERTIES
1002
{
1000
PbThick
1002
}
  0
LINE
  5
476
330
1F
100
AcDbEntity
  8
THICK
100
AcDbLine
 10
-1.78557813167572
 20
202.1703033447266
 30
0.0
 11
-1.570822715759277
 21
202.2468414306641
 31
0.0
1001
DBPROPERTIES
1002
{
1000
PbThick
1002
}
  0
LINE
  5
477
330
1F
100
AcDbEntity
  8
THICK
100
AcDbLine
 10
-1.570822715759277
 20
202.2468414306641
 30
0.0
 11
-1.352856159210205
 21
202.3135070800781
 31
0.0
1001
DBPROPERTIES
1002
{
1000
PbThick
1002
}
  0
LINE
  5
478
330
1F
100
AcDbEntity
  8
THICK
100
AcDbLine
 10
-1.352856159210205
 20
202.3135070800781
 30
0.0
 11
-1.132015705108643
 21
202.3701629638672
 31
0.0
1001
DBPROPERTIES
1002
{
1000
PbThick
1002
}
  0
LINE
  5
479
330
1F
100
AcDbEntity
  8
THICK
100
AcDbLine
 10
-1.132015705108643
 20
202.3701629638672
 30
0.0
 11
-0.9086385369300842
 21
202.416748046875
 31
0.0
1001
DBPROPERTIES
1002
{
1000
PbThick
1002
}
  0
LINE
  5
47A
330
1F
100
AcDbEntity
  8
THICK
100
AcDbLine
 10
-0.9086385369300842
 20
202.416748046875
 30
0.0
 11
-0.6830621361732483
 21
202.453125
 31
0.0
1001
DBPROPERTIES
1002
{
1000
PbThick
1002
}
  0
LINE
  5
47B
330
1F
100
AcDbEntity
  8
THICK
100
AcDbLine
 10
-0.6830621361732483
 20
202.453125
 30
0.0
 11
-0.4558121562004089
 21
202.4791870117188
 31
0.0
1001
DBPROPERTIES
1002
{
1000
PbThick
1002
}
  0
LINE
  5
47C
330
1F
100
AcDbEntity
  8
THICK
100
AcDbLine
 10
-0.4558121562004089
 20
202.4791870117188
 30
0.0
 11
-0.2279814481735229
 21
202.4947967529297
 31
0.0
1001
DBPROPERTIES
1002
{
1000
PbThick
1002
}
  0
LINE
  5
47D
330
1F
100
AcDbEntity
  8
THICK
100
AcDbLine
 10
-0.2279814481735229
 20
202.4947967529297
 30
0.0
 11
0.0000000000000133
 21
202.5
 31
0.0
1001
DBPROPERTIES
1002
{
1000
PbThick
1002
}
  0
ARC
  5
47E
330
1F
100
AcDbEntity
  8
THICK
100
AcDbCircle
 10
0.0
 20
0.0
 30
0.0
 40
202.0
100
AcDbArc
 50
45.62520218406258
 51
89.37482702576442
1001
DBPROPERTIES
1002
{
1000
PbThick
1002
}
  0
ARC
  5
47F
330
1F
100
AcDbEntity
  8
THICK
100
AcDbCircle
 10
0.0
 20
0.0
 30
0.0
 40
202.0
100
AcDbArc
 50
0.6252115460467543
 51
44.37483638774859
1001
DBPROPERTIES
1002
{
1000
PbThick
1002
}
  0
LINE
  5
480
330
1F
100
AcDbEntity
  8
THICK
100
AcDbLine
 10
201.9879760742188
 20
2.204106092453003
 30
0.0
 11
202.083984375
 21
1.99676525592804
 31
0.0
1001
DBPROPERTIES
1002
{
1000
PbThick
1002
}
  0
LINE
  5
481
330
1F
100
AcDbEntity
  8
THICK
100
AcDbLine
 10
202.083984375
 20
1.99676525592804
 30
0.0
 11
202.1705169677734
 21
1.78503143787384
 31
0.0
1001
DBPROPERTIES
1002
{
1000
PbThick
1002
}
  0
LINE
  5
482
330
1F
100
AcDbEntity
  8
THICK
100
AcDbLine
 10
202.1705169677734
 20
1.78503143787384
 30
0.0
 11
202.2471466064453
 21
1.569932699203491
 31
0.0
1001
DBPROPERTIES
1002
{
1000
PbThick
1002
}
  0
LINE
  5
483
330
1F
100
AcDbEntity
  8
THICK
100
AcDbLine
 10
202.2471466064453
 20
1.569932699203491
 30
0.0
 11
202.3137969970703
 21
1.35185182094574
 31
0.0
1001
DBPROPERTIES
1002
{
1000
PbThick
1002
}
  0
LINE
  5
484
330
1F
100
AcDbEntity
  8
THICK
100
AcDbLine
 10
202.3137969970703
 20
1.35185182094574
 30
0.0
 11
202.3703765869141
 21
1.131132364273071
 31
0.0
1001
DBPROPERTIES
1002
{
1000
PbThick
1002
}
  0
LINE
  5
485
330
1F
100
AcDbEntity
  8
THICK
100
AcDbLine
 10
202.3703765869141
 20
1.131132364273071
 30
0.0
 11
202.4168548583984
 21
0.9081194400787354
 31
0.0
1001
DBPROPERTIES
1002
{
1000
PbThick
1002
}
  0
LINE
  5
486
330
1F
100
AcDbEntity
  8
THICK
100
AcDbLine
 10
202.4168548583984
 20
0.9081194400787354
 30
0.0
 11
202.453125
 21
0.6831556558609009
 31
0.0
1001
DBPROPERTIES
1002
{
1000
PbThick
1002
}
  0
LINE
  5
487
330
1F
100
AcDbEntity
  8
THICK
100
AcDbLine
 10
202.453125
 20
0.6831556558609009
 30
0.0
 11
202.4791107177734
 21
0.4565852284431458
 31
0.0
1001
DBPROPERTIES
1002
{
1000
PbThick
1002
}
  0
LINE
  5
488
330
1F
100
AcDbEntity
  8
THICK
100
AcDbLine
 10
202.4791107177734
 20
0.4565852284431458
 30
0.0
 11
202.4947662353516
 21
0.2287520468235016
 31
0.0
1001
DBPROPERTIES
1002
{
1000
PbThick
1002
}
  0
LINE
  5
489
330
1F
100
AcDbEntity
  8
THICK
100
AcDbLine
 10
202.4947662353516
 20
0.2287520468235016
 30
0.0
 11
202.5
 21
0.0000000000000124
 31
0.0
1001
DBPROPERTIES
1002
{
1000
PbThick
1002
}
  0
ARC
  5
48A
330
1F
100
AcDbEntity
  8
HIDDEN
100
AcDbCircle
 10
0.0
 20
0.0
 30
0.0
 40
202.0
100
AcDbArc
 50
180.6251916982039
 51
224.3748165399058
1001
DBPROPERTIES
1002
{
1000
PbHidd
1002
}
  0
ARC
  5
48B
330
1F
100
AcDbEntity
  8
HIDDEN
100
AcDbCircle
 10
0.0
 20
0.0
 30
0.0
 40
202.0
100
AcDbArc
 50
225.6251823362198
 51
269.3748071779216
1001
DBPROPERTIES
1002
{
1000
PbHidd
1002
}
  0
ARC
  5
48C
330
1F
100
AcDbEntity
  8
HIDDEN
100
AcDbCircle
 10
0.0
 20
0.0
 30
0.0
 40
202.0
100
AcDbArc
 50
270.6251729742356
 51
314.3747978159374
1001
DBPROPERTIES
1002
{
1000
PbHidd
1002
}
  0
ARC
  5
48D
330
1F
100
AcDbEntity
  8
HIDDEN
100
AcDbCircle
 10
0.0
 20
0.0
 30
0.0
 40
202.0
100
AcDbArc
 50
315.6251636122515
 51
359.3747884539532
1001
DBPROPERTIES
1002
{
1000
PbHidd
1002
}
  0
ARC
  5
48E
330
1F
100
AcDbEntity
  8
THICK
100
AcDbCircle
 10
197.5
 20
-0.0000000000000484
 30
0.0
 40
5.0
100
AcDbArc
 50
26.15626819285575
 51
180.0000198478428
1001
DBPROPERTIES
1002
{
1000
PbThick
1002
}
  0
ARC
  5
48F
330
1F
100
AcDbEntity
  8
THICK
100
AcDbCircle
 10
0.0000000000000121
 20
197.5
 30
0.0
 40
5.0
100
AcDbArc
 50
116.1563067646669
 51
270.0000187239684
1001
DBPROPERTIES
1002
{
1000
PbThick
1002
}
  0
ARC
  5
490
330
1F
100
AcDbEntity
  8
THICK
100
AcDbCircle
 10
-139.6535892843431
 20
139.6535892843431
 30
0.0
 40
5.0
100
AcDbArc
 50
161.1562974026828
 51
315.0000093619842
1001
DBPROPERTIES
1002
{
1000
PbThick
1002
}
  0
ARC
  5
491
330
1F
100
AcDbEntity
  8
THICK
100
AcDbCircle
 10
-197.5
 20
0.0000000000000242
 30
0.0
 40
5.0
100
AcDbArc
 50
206.1563056407925
 51
0.0
1001
DBPROPERTIES
1002
{
1000
PbThick
1002
}
  0
ARC
  5
492
330
1F
100
AcDbEntity
  8
THICK
100
AcDbCircle
 10
-139.6535892843431
 20
-139.6535892843431
 30
0.0
 40
5.0
100
AcDbArc
 50
251.1562962788083
 51
44.99999063801582
1001
DBPROPERTIES
1002
{
1000
PbThick
1002
}
  0
ARC
  5
493
330
1F
100
AcDbEntity
  8
THICK
100
AcDbCircle
 10
-0.0000000000000363
 20
-197.5
 30
0.0
 40
5.0
100
AcDbArc
 50
296.1562869168241
 51
89.99998127603165
1001
DBPROPERTIES
1002
{
1000
PbThick
1002
}
  0
ARC
  5
494
330
1F
100
AcDbEntity
  8
THICK
100
AcDbCircle
 10
139.6535892843431
 20
-139.6535892843432
 30
0.0
 40
5.000000000000001
100
AcDbArc
 50
341.1562775548399
 51
134.9999719140475
1001
DBPROPERTIES
1002
{
1000
PbThick
1002
}
  0
ARC
  5
495
330
1F
100
AcDbEntity
  8
HIDDEN
100
AcDbCircle
 10
0.0
 20
0.0
 30
0.0
 40
179.5
100
AcDbArc
 50
89.99998127603165
 51
270.0000187239684
1001
DBPROPERTIES
1002
{
1000
PbHidd
1002
}
  0
LINE
  5
496
330
1F
100
AcDbEntity
  8
THICK
100
AcDbLine
 10
-102.5183261617383
 20
130.8221418913137
 30
0.0
 11
-103.6240043659539
 21
129.9403929467845
 31
0.0
1001
DBPROPERTIES
1002
{
1000
PbThick
1002
}
  0
LINE
  5
497
330
1F
100
AcDbEntity
  8
THICK
100
AcDbLine
 10
38.36173707008334
 20
161.7183265233812
 30
0.0
 11
36.98297892205258
 21
162.0330190734315
 31
0.0
1001
DBPROPERTIES
1002
{
1000
PbThick
1002
}
  0
LINE
  5
498
330
1F
100
AcDbEntity
  8
THICK
100
AcDbLine
 10
150.354629729523
 20
70.83731584689937
 30
0.0
 11
149.7410253929297
 21
72.11147838086491
 31
0.0
1001
DBPROPERTIES
1002
{
1000
PbThick
1002
}
  0
LINE
  5
499
330
1F
100
AcDbEntity
  8
THICK
100
AcDbLine
 10
149.1274210563365
 20
-73.38564091483049
 30
0.0
 11
149.7410253929297
 21
-72.11147838086495
 31
0.0
1001
DBPROPERTIES
1002
{
1000
PbThick
1002
}
  0
LINE
  5
49A
330
1F
100
AcDbEntity
  8
THICK
100
AcDbLine
 10
35.60422077402178
 20
-162.3477116234818
 30
0.0
 11
36.98297892205254
 21
-162.0330190734315
 31
0.0
1001
DBPROPERTIES
1002
{
1000
PbThick
1002
}
  0
LINE
  5
49B
330
1F
100
AcDbEntity
  8
THICK
100
AcDbLine
 10
-104.7296839574507
 20
-129.0586428959354
 30
0.0
 11
-103.624004365954
 21
-129.9403929467844
 31
0.0
1001
DBPROPERTIES
1002
{
1000
PbThick
1002
}
  0
LINE
  5
49C
330
1F
100
AcDbEntity
  8
THICK
100
AcDbLine
 10
-166.2
 20
1.414214313030256
 30
0.0
 11
-166.2
 21
0.0000000000000136
 31
0.0
1001
DBPROPERTIES
1002
{
1000
PbThick
1002
}
  0
ENDSEC
  0
SECTION
  2
OBJECTS
  0
DICTIONARY
  5
C
330
0
100
AcDbDictionary
  3
ACAD_GROUP
350
D
  3
ACAD_LAYOUT
350
1A
  3
ACAD_MATERIAL
350
43
  3
ACAD_MLEADERSTYLE
350
6B
  3
ACAD_MLINESTYLE
350
17
  3
ACAD_PLOTSETTINGS
350
19
  3
ACAD_SCALELIST
350
47
  3
ACAD_VISUALSTYLE
350
2A
  3
ACDBVARIABLEDICTIONARY
350
49D
1001
ACAD
1000
TREAT_AS_HARD
1070
     0
  0
DICTIONARY
  5
D
102
{ACAD_REACTORS
330
C
102
}
330
C
100
AcDbDictionary
1001
ACAD
1000
TREAT_AS_HARD
1070
     0
  0
DICTIONARY
  5
1A
102
{ACAD_REACTORS
330
C
102
}
330
C
100
AcDbDictionary
1001
ACAD
1000
TREAT_AS_HARD
1070
     0
  0
DICTIONARY
  5
43
102
{ACAD_REACTORS
330
C
102
}
330
C
100
AcDbDictionary
  3
BYBLOCK
350
45
  3
BYLAYER
350
44
  3
GLOBAL
350
46
1001
ACAD
1000
TREAT_AS_HARD
1070
     0
  0
DICTIONARY
  5
6B
102
{ACAD_REACTORS
330
C
102
}
330
C
100
AcDbDictionary
  3
STANDARD
350
6C
1001
ACAD
1000
TREAT_AS_HARD
1070
     0
  0
DICTIONARY
  5
17
102
{ACAD_REACTORS
330
C
102
}
330
C
100
AcDbDictionary
  3
STANDARD
350
18
1001
ACAD
1000
TREAT_AS_HARD
1070
     0
  0
DICTIONARY
  5
19
102
{ACAD_REACTORS
330
C
102
}
330
C
100
AcDbDictionary
1001
ACAD
1000
TREAT_AS_HARD
1070
     0
  0
DICTIONARY
  5
47
102
{ACAD_REACTORS
330
C
102
}
330
C
100
AcDbDictionary
  3
A0
350
48
  3
A1
350
49
  3
A2
350
4A
  3
A3
350
4B
  3
A4
350
4C
  3
A5
350
4D
  3
A6
350
4E
  3
A7
350
4F
  3
A8
350
50
  3
A9
350
51
  3
B0
350
52
  3
B1
350
53
  3
B2
350
54
  3
B3
350
55
  3
B4
350
56
  3
B5
350
57
  3
B6
350
58
  3
B7
350
59
  3
B8
350
5A
  3
B9
350
5B
  3
C0
350
5C
  3
C1
350
5D
  3
C2
350
5E
  3
C3
350
5F
  3
C4
350
60
  3
C5
350
61
  3
C6
350
62
  3
C7
350
63
  3
C8
350
64
  3
C9
350
65
  3
D0
350
66
  3
D1
350
67
  3
D2
350
68
1001
ACAD
1000
TREAT_AS_HARD
1070
     0
  0
DICTIONARY
  5
2A
102
{ACAD_REACTORS
330
C
102
}
330
C
100
AcDbDictionary
  3
2DWIREFRAME
350
2F
  3
BASIC
350
32
  3
BRIGHTEN
350
36
  3
COLORCHANGE
350
3A
  3
CONCEPTUAL
350
34
  3
DIM
350
35
  3
EDGECOLOROFF
350
3D
  3
FACEPATTERN
350
39
  3
FLAT
350
2B
  3
FLATWITHEDGES
350
2C
  3
GOURAUD
350
2D
  3
GOURAUDWITHEDGES
350
2E
  3
HIDDEN
350
31
  3
JITTEROFF
350
3B
  3
LINEPATTERN
350
38
  3
OVERHANGOFF
350
3C
  3
REALISTIC
350
33
  3
SHADED
350
42
  3
SHADED_WITH_EDGES
350
41
  3
SHADES_OF_GRAY
350
3E
  3
SKETCHY
350
3F
  3
THICKEN
350
37
  3
WIREFRAME
350
30
  3
X-RAY
350
40
1001
ACAD
1000
TREAT_AS_HARD
1070
     0
  0
DICTIONARY
  5
49D
102
{ACAD_REACTORS
330
C
102
}
330
C
100
AcDbDictionary
  3
CANNOSCALE
350
4A8
  3
CENTEREXE
350
4A4
  3
CENTERLTYPEFILE
350
4A5
  3
CMLEADERSTYLE
350
49F
  3
CTABLESTYLE
350
49E
  3
DIMASSOC
350
4A6
  3
HIDETEXT
350
4A7
  3
MSLTSCALE
350
4A9
  3
PSOLHEIGHT
350
4A1
  3
PSOLWIDTH
350
4A0
1001
ACAD
1000
TREAT_AS_HARD
1070
     0
  0
MATERIAL
  5
45
102
{ACAD_REACTORS
330
43
102
}
102
{ACAD_XDICTIONARY
360
4AC
102
}
330
43
100
AcDbMaterial
  1
BYBLOCK
  0
MATERIAL
  5
44
102
{ACAD_REACTORS
330
43
102
}
102
{ACAD_XDICTIONARY
360
4AA
102
}
330
43
100
AcDbMaterial
  1
BYLAYER
  0
MATERIAL
  5
46
102
{ACAD_REACTORS
330
43
102
}
102
{ACAD_XDICTIONARY
360
4AE
102
}
330
43
100
AcDbMaterial
  1
GLOBAL
  0
ACAD_PROXY_OBJECT
  5
6C
102
{ACAD_REACTORS
330
6B
102
}
330
6B
100
AcDbZombieObject
 90
      499
 91
      505
 93
      610
310
40901902A4063FBFFFFFE0000000000000020400000000000020404214DD185B99185C990000000000000104090141901A00000000000004100000000000000041025764000000000000039000
340
14
340
0
340
11
340
0
 94
        0
1001
ACAD_MLEADERVER
1070
     2
  0
MLINESTYLE
  5
18
102
{ACAD_REACTORS
330
17
102
}
330
17
100
AcDbMlineStyle
  2
Standard
 70
     0
  3

 62
   256
 51
90.0
 52
90.0
 71
     2
 49
0.5
 62
   256
  6
BYLAYER
 49
-0.5
 62
   256
  6
BYLAYER
  0
ACAD_PROXY_OBJECT
  5
48
102
{ACAD_REACTORS
330
47
102
}
330
47
100
AcDbZombieObject
 90
      499
 91
      503
 93
       41
310
903313A31580
  0
ACAD_PROXY_OBJECT
  5
49
102
{ACAD_REACTORS
330
47
102
}
330
47
100
AcDbZombieObject
 90
      499
 91
      503
 93
      105
310
903313A324000000000000004000
  0
ACAD_PROXY_OBJECT
  5
4A
102
{ACAD_REACTORS
330
47
102
}
330
47
100
AcDbZombieObject
 90
      499
 91
      503
 93
      105
310
903313A344000000000000104000
  0
ACAD_PROXY_OBJECT
  5
4B
102
{ACAD_REACTORS
330
47
102
}
330
47
100
AcDbZombieObject
 90
      499
 91
      503
 93
      105
310
903313A354000000000000144000
  0
ACAD_PROXY_OBJECT
  5
4C
102
{ACAD_REACTORS
330
47
102
}
330
47
100
AcDbZombieObject
 90
      499
 91
      503
 93
      105
310
903313A384000000000000204000
  0
ACAD_PROXY_OBJECT
  5
4D
102
{ACAD_REACTORS
330
47
102
}
330
47
100
AcDbZombieObject
 90
      499
 91
      503
 93
      113
310
904313A31304000000000000244000
  0
ACAD_PROXY_OBJECT
  5
4E
102
{ACAD_REACTORS
330
47
102
}
330
47
100
AcDbZombieObject
 90
      499
 91
      503
 93
      113
310
904313A31364000000000000304000
  0
ACAD_PROXY_OBJECT
  5
4F
102
{ACAD_REACTORS
330
47
102
}
330
47
100
AcDbZombieObject
 90
      499
 91
      503
 93
      113
310
904313A32304000000000000344000
  0
ACAD_PROXY_OBJECT
  5
50
102
{ACAD_REACTORS
330
47
102
}
330
47
100
AcDbZombieObject
 90
      499
 91
      503
 93
      113
310
904313A333040000000000003E4000
  0
ACAD_PROXY_OBJECT
  5
51
102
{ACAD_REACTORS
330
47
102
}
330
47
100
AcDbZombieObject
 90
      499
 91
      503
 93
      113
310
904313A34304000000000000444000
  0
ACAD_PROXY_OBJECT
  5
52
102
{ACAD_REACTORS
330
47
102
}
330
47
100
AcDbZombieObject
 90
      499
 91
      503
 93
      113
310
904313A35304000000000000494000
  0
ACAD_PROXY_OBJECT
  5
53
102
{ACAD_REACTORS
330
47
102
}
330
47
100
AcDbZombieObject
 90
      499
 91
      503
 93
      121
310
905313A3130304000000000000594000
  0
ACAD_PROXY_OBJECT
  5
54
102
{ACAD_REACTORS
330
47
102
}
330
47
100
AcDbZombieObject
 90
      499
 91
      503
 93
      105
310
903323A310000000000000010100
  0
ACAD_PROXY_OBJECT
  5
55
102
{ACAD_REACTORS
330
47
102
}
330
47
100
AcDbZombieObject
 90
      499
 91
      503
 93
      105
310
903343A310000000000000410100
  0
ACAD_PROXY_OBJECT
  5
56
102
{ACAD_REACTORS
330
47
102
}
330
47
100
AcDbZombieObject
 90
      499
 91
      503
 93
      105
310
903383A310000000000000810100
  0
ACAD_PROXY_OBJECT
  5
57
102
{ACAD_REACTORS
330
47
102
}
330
47
100
AcDbZombieObject
 90
      499
 91
      503
 93
      113
310
90431303A310000000000000910100
  0
ACAD_PROXY_OBJECT
  5
58
102
{ACAD_REACTORS
330
47
102
}
330
47
100
AcDbZombieObject
 90
      499
 91
      503
 93
      121
310
9053130303A310000000000001650100
  0
ACAD_PROXY_OBJECT
  5
59
102
{ACAD_REACTORS
330
47
102
}
330
47
100
AcDbZombieObject
 90
      499
 91
      503
 93
      257
310
90E312F31323822203D2031272D3022000000000000200FC000000000000284000
  0
ACAD_PROXY_OBJECT
  5
5A
102
{ACAD_REACTORS
330
47
102
}
330
47
100
AcDbZombieObject
 90
      499
 91
      503
 93
      249
310
90D312F363422203D2031272D3022000000000000240FC000000000000284000
  0
ACAD_PROXY_OBJECT
  5
5B
102
{ACAD_REACTORS
330
47
102
}
330
47
100
AcDbZombieObject
 90
      499
 91
      503
 93
      249
310
90D312F333222203D2031272D3022000000000000280FC000000000000284000
  0
ACAD_PROXY_OBJECT
  5
5C
102
{ACAD_REACTORS
330
47
102
}
330
47
100
AcDbZombieObject
 90
      499
 91
      503
 93
      249
310
90D312F313622203D2031272D30220000000000002C0FC000000000000284000
  0
ACAD_PROXY_OBJECT
  5
5D
102
{ACAD_REACTORS
330
47
102
}
330
47
100
AcDbZombieObject
 90
      499
 91
      503
 93
      249
310
90D332F333222203D2031272D30220000000000002E0FC000000000000284000
  0
ACAD_PROXY_OBJECT
  5
5E
102
{ACAD_REACTORS
330
47
102
}
330
47
100
AcDbZombieObject
 90
      499
 91
      503
 93
      241
310
90C312F3822203D2031272D3022000000000000300FC000000000000284000
  0
ACAD_PROXY_OBJECT
  5
5F
102
{ACAD_REACTORS
330
47
102
}
330
47
100
AcDbZombieObject
 90
      499
 91
      503
 93
      249
310
90D332F313622203D2031272D3022000000000000320FC000000000000284000
  0
ACAD_PROXY_OBJECT
  5
60
102
{ACAD_REACTORS
330
47
102
}
330
47
100
AcDbZombieObject
 90
      499
 91
      503
 93
      241
310
90C312F3422203D2031272D3022000000000000340FC000000000000284000
  0
ACAD_PROXY_OBJECT
  5
61
102
{ACAD_REACTORS
330
47
102
}
330
47
100
AcDbZombieObject
 90
      499
 91
      503
 93
      241
310
90C332F3822203D2031272D3022000000000000360FC000000000000284000
  0
ACAD_PROXY_OBJECT
  5
62
102
{ACAD_REACTORS
330
47
102
}
330
47
100
AcDbZombieObject
 90
      499
 91
      503
 93
      241
310
90C312F3222203D2031272D3022000000000000380FC000000000000284000
  0
ACAD_PROXY_OBJECT
  5
63
102
{ACAD_REACTORS
330
47
102
}
330
47
100
AcDbZombieObject
 90
      499
 91
      503
 93
      241
310
90C332F3422203D2031272D30220000000000003A0FC000000000000284000
  0
ACAD_PROXY_OBJECT
  5
64
102
{ACAD_REACTORS
330
47
102
}
330
47
100
AcDbZombieObject
 90
      499
 91
      503
 93
      161
310
90A3122203D2031272D30224000000000000284000
  0
ACAD_PROXY_OBJECT
  5
65
102
{ACAD_REACTORS
330
47
102
}
330
47
100
AcDbZombieObject
 90
      499
 91
      503
 93
      257
310
90E312D312F3222203D2031272D30220000000000003E0FC000000000000284000
  0
ACAD_PROXY_OBJECT
  5
66
102
{ACAD_REACTORS
330
47
102
}
330
47
100
AcDbZombieObject
 90
      499
 91
      503
 93
      225
310
90A3322203D2031272D302200000000000002100000000000000284000
  0
ACAD_PROXY_OBJECT
  5
67
102
{ACAD_REACTORS
330
47
102
}
330
47
100
AcDbZombieObject
 90
      499
 91
      503
 93
      225
310
90A3622203D2031272D302200000000000006100000000000000284000
  0
ACAD_PROXY_OBJECT
  5
68
102
{ACAD_REACTORS
330
47
102
}
330
47
100
AcDbZombieObject
 90
      499
 91
      503
 93
      249
310
90D31272D3022203D2031272D30220000000000000A100000000000000284000
  0
ACAD_PROXY_OBJECT
  5
2F
102
{ACAD_REACTORS
330
2A
102
}
330
2A
100
AcDbZombieObject
 90
      499
 91
      501
 93
      436
310
42CC9915DA5C99599C985B595049028333333333333E33F0000000000000F90107901411070040501600405405064090741402480A0340
1001
ACAD
1000
AcDbSavedByObjectVersion
1070
     0
  0
ACAD_PROXY_OBJECT
  5
32
102
{ACAD_REACTORS
330
2A
102
}
330
2A
100
AcDbZombieObject
 90
      499
 91
      501
 93
      388
310
4150985CDA58D07406404333333333333E33F0000000000000F90107A41107004050150841D405064090741402480A0350
1001
ACAD
1000
AcDbSavedByObjectVersion
1070
     0
  0
ACAD_PROXY_OBJECT
  5
36
102
{ACAD_REACTORS
330
2A
102
}
330
2A
100
AcDbZombieObject
 90
      499
 91
      501
 93
      428
310
42109C9A59DA1D195B90C409028333333333333E33F0000000000000F9010790141107004050150841D405064090741402480A029950
1001
ACAD
1000
AcDbSavedByObjectVersion
1070
     0
  0
ACAD_PROXY_OBJECT
  5
3A
102
{ACAD_REACTORS
330
2A
102
}
330
2A
100
AcDbZombieObject
 90
      499
 91
      501
 93
      452
310
42D0DBDB1BDC90DA185B99D95104090240C333333333333E33F0000000000000F90108901411070040501508421405064090741402480A0350
1001
ACAD
1000
AcDbSavedByObjectVersion
1070
     0
  0
ACAD_PROXY_OBJECT
  5
34
102
{ACAD_REACTORS
330
2A
102
}
330
2A
100
AcDbZombieObject
 90
      499
 91
      501
 93
      500
310
4290DBDB98D95C1D1D585B10940D028333333333333E33F0000000000000F90107902409070040501000000000018199010841D405064090740C02480A0340
1001
ACAD
1000
AcDbSavedByObjectVersion
1070
     0
  0
ACAD_PROXY_OBJECT
  5
35
102
{ACAD_REACTORS
330
2A
102
}
330
2A
100
AcDbZombieObject
 90
      499
 91
      501
 93
      412
310
40D11A5B50B409028333333333333E33F0000000000000F9010790141107004050150841D405064090741402480A02677FFFFFD0
1001
ACAD
1000
AcDbSavedByObjectVersion
1070
     0
  0
ACAD_PROXY_OBJECT
  5
3D
102
{ACAD_REACTORS
330
2A
102
}
330
2A
100
AcDbZombieObject
 90
      499
 91
      501
 93
      452
310
43115919D950DBDB1BDC93D999916409028333333333333E33F0000000000000F9010790141107004050150841D405064090741402480A0350
1001
ACAD
1000
AcDbSavedByObjectVersion
1070
     0
  0
ACAD_PROXY_OBJECT
  5
39
102
{ACAD_REACTORS
330
2A
102
}
330
2A
100
AcDbZombieObject
 90
      499
 91
      501
 93
      444
310
42D19858D95C185D1D195C9B90F409028333333333333E33F0000000000000F9010790141107004050150841D405064090741402480A0350
1001
ACAD
1000
AcDbSavedByObjectVersion
1070
     0
  0
ACAD_PROXY_OBJECT
  5
2B
102
{ACAD_REACTORS
330
2A
102
}
330
2A
100
AcDbZombieObject
 90
      499
 91
      501
 93
      380
310
41119B185D240901404333333333333E33F0000000000000F9010740A907004050150841D405064090741402480A1B50
1001
ACAD
1000
AcDbSavedByObjectVersion
1070
     0
  0
ACAD_PROXY_OBJECT
  5
2C
102
{ACAD_REACTORS
330
2A
102
}
330
2A
100
AcDbZombieObject
 90
      499
 91
      501
 93
      468
310
43519B185D15DA5D1A115919D95CD0140901404333333333333E33F0000000000000F90107409019070040501600405405064090741402480A1B50
1001
ACAD
1000
AcDbSavedByObjectVersion
1070
     0
  0
ACAD_PROXY_OBJECT
  5
2D
102
{ACAD_REACTORS
330
2A
102
}
330
2A
100
AcDbZombieObject
 90
      499
 91
      501
 93
      404
310
41D1DBDD5C985D5910240902404333333333333E33F0000000000000F9010740A9070040501641D405064090741402480A1B50
1001
ACAD
1000
AcDbSavedByObjectVersion
1070
     0
  0
ACAD_PROXY_OBJECT
  5
2E
102
{ACAD_REACTORS
330
2A
102
}
330
2A
100
AcDbZombieObject
 90
      499
 91
      501
 93
      492
310
4411DBDD5C985D5915DA5D1A115919D95CD0340902404333333333333E33F0000000000000F90107409019070040501600405405064090741402480A1B50
1001
ACAD
1000
AcDbSavedByObjectVersion
1070
     0
  0
ACAD_PROXY_OBJECT
  5
31
102
{ACAD_REACTORS
330
2A
102
}
330
2A
100
AcDbZombieObject
 90
      499
 91
      501
 93
      476
310
41921A5919195B90640502408333333333333E33F0000000000000F901079024090700405020000000000001110200405405064090740C02480A0340
1001
ACAD
1000
AcDbSavedByObjectVersion
1070
     0
  0
ACAD_PROXY_OBJECT
  5
3B
102
{ACAD_REACTORS
330
2A
102
}
330
2A
100
AcDbZombieObject
 90
      499
 91
      501
 93
      428
310
42529A5D1D195C93D999914409028333333333333E33F0000000000000F9010790141107004050150A41D405064090741402480A0350
1001
ACAD
1000
AcDbSavedByObjectVersion
1070
     0
  0
ACAD_PROXY_OBJECT
  5
38
102
{ACAD_REACTORS
330
2A
102
}
330
2A
100
AcDbZombieObject
 90
      499
 91
      501
 93
      444
310
42D31A5B995C185D1D195C9B90E409028333333333333E33F0000000000000F9010790141107004050750841D405064090741402483A0350
1001
ACAD
1000
AcDbSavedByObjectVersion
1070
     0
  0
ACAD_PROXY_OBJECT
  5
3C
102
{ACAD_REACTORS
330
2A
102
}
330
2A
100
AcDbZombieObject
 90
      499
 91
      501
 93
      444
310
42D3DD995C9A185B99D3D999915409028333333333333E33F0000000000000F9010790141107004050150941D405064090741402480A0350
1001
ACAD
1000
AcDbSavedByObjectVersion
1070
     0
  0
ACAD_PROXY_OBJECT
  5
33
102
{ACAD_REACTORS
330
2A
102
}
330
2A
100
AcDbZombieObject
 90
      499
 91
      501
 93
      428
310
425499585B1A5CDD1A58D08409038333333333333E33F0000000000000F9010740A907004050150800405405064090740C02480A1B40
1001
ACAD
1000
AcDbSavedByObjectVersion
1070
     0
  0
ACAD_PROXY_OBJECT
  5
42
102
{ACAD_REACTORS
330
2A
102
}
330
2A
100
AcDbZombieObject
 90
      499
 91
      501
 93
      420
310
4194DA1859195911B40902404333333333333E33F0000000000000F9010740A41107004050150800405405064090840C02480A0B40
1001
ACAD
1000
AcDbSavedByObjectVersion
1070
     0
  0
ACAD_PROXY_OBJECT
  5
41
102
{ACAD_REACTORS
330
2A
102
}
330
2A
100
AcDbZombieObject
 90
      499
 91
      501
 93
      516
310
4454DA18591959081DDA5D1A08195919D95CD1A40902404333333333333E33F0000000000000F901074090142907004050250800405405064090740C02480A0B40
1001
ACAD
1000
AcDbSavedByObjectVersion
1070
     0
  0
ACAD_PROXY_OBJECT
  5
3E
102
{ACAD_REACTORS
330
2A
102
}
330
2A
100
AcDbZombieObject
 90
      499
 91
      501
 93
      532
310
4394DA1859195CC81BD98811DC985E5174090240C333333333333E33F0000000000000F901079024090741D01000000000000111010841D405064090740C02480A0340
1001
ACAD
1000
AcDbSavedByObjectVersion
1070
     0
  0
ACAD_PROXY_OBJECT
  5
3F
102
{ACAD_REACTORS
330
2A
102
}
330
2A
100
AcDbZombieObject
 90
      499
 91
      501
 93
      476
310
41D4DAD95D18DA1E51840502408333333333333E33F0000000000000F901079024090741D01000000000000111010B41D405064090741802480A0340
1001
ACAD
1000
AcDbSavedByObjectVersion
1070
     0
  0
ACAD_PROXY_OBJECT
  5
37
102
{ACAD_REACTORS
330
2A
102
}
330
2A
100
AcDbZombieObject
 90
      499
 91
      501
 93
      412
310
41D51A1A58DAD95B90D409028333333333333E33F0000000000000F9010790141107004050150C41D405064090741402480A0350
1001
ACAD
1000
AcDbSavedByObjectVersion
1070
     0
  0
ACAD_PROXY_OBJECT
  5
30
102
{ACAD_REACTORS
330
2A
102
}
330
2A
100
AcDbZombieObject
 90
      499
 91
      501
 93
      420
310
4255DA5C99599C985B595059028333333333333E33F0000000000000F90107901411070040501600405405064090740C02480A0340
1001
ACAD
1000
AcDbSavedByObjectVersion
1070
     0
  0
ACAD_PROXY_OBJECT
  5
40
102
{ACAD_REACTORS
330
2A
102
}
330
2A
100
AcDbZombieObject
 90
      499
 91
      501
 93
      404
310
41560B54985E51940902404000000000000E03F0000000000000F9010740501907004050150841D405064090740C02480A1B40
1001
ACAD
1000
AcDbSavedByObjectVersion
1070
     0
  0
DICTIONARYVAR
  5
4A8
102
{ACAD_REACTORS
330
49D
102
}
330
49D
100
DictionaryVariables
280
     0
  1
1:1
  0
DICTIONARYVAR
  5
4A4
102
{ACAD_REACTORS
330
49D
102
}
330
49D
100
DictionaryVariables
280
     0
  1
3.500000
  0
DICTIONARYVAR
  5
4A5
102
{ACAD_REACTORS
330
49D
102
}
330
49D
100
DictionaryVariables
280
     0
  1
acadiso.lin
  0
DICTIONARYVAR
  5
49F
102
{ACAD_REACTORS
330
49D
102
}
330
49D
100
DictionaryVariables
280
     0
  1
Standard
  0
DICTIONARYVAR
  5
49E
102
{ACAD_REACTORS
330
49D
102
}
330
49D
100
DictionaryVariables
280
     0
  1
Standard
  0
DICTIONARYVAR
  5
4A6
102
{ACAD_REACTORS
330
49D
102
}
330
49D
100
DictionaryVariables
280
     0
  1
2
  0
DICTIONARYVAR
  5
4A7
102
{ACAD_REACTORS
330
49D
102
}
330
49D
100
DictionaryVariables
280
     0
  1
1
  0
DICTIONARYVAR
  5
4A9
102
{ACAD_REACTORS
330
49D
102
}
330
49D
100
DictionaryVariables
280
     0
  1
1
  0
DICTIONARYVAR
  5
4A1
102
{ACAD_REACTORS
330
49D
102
}
330
49D
100
DictionaryVariables
280
     0
  1
80.000000
  0
DICTIONARYVAR
  5
4A0
102
{ACAD_REACTORS
330
49D
102
}
330
49D
100
DictionaryVariables
280
     0
  1
5.000000
  0
DICTIONARY
  5
4AC
330
45
100
AcDbDictionary
  3
ACAD_XREC_ROUNDTRIP
360
4AD
1001
ACAD
1000
TREAT_AS_HARD
1070
     1
  0
DICTIONARY
  5
4AA
330
44
100
AcDbDictionary
  3
ACAD_XREC_ROUNDTRIP
360
4AB
1001
ACAD
1000
TREAT_AS_HARD
1070
     1
  0
DICTIONARY
  5
4AE
330
46
100
AcDbDictionary
  3
ACAD_XREC_ROUNDTRIP
360
4AF
1001
ACAD
1000
TREAT_AS_HARD
1070
     1
  0
XRECORD
  5
4AD
102
{ACAD_REACTORS
330
4AC
102
}
330
4AC
100
AcDbXrecord
102
MATERIAL
148
0.0
149
0.0
149
0.0
 93
        0
 94
      127
282
     0
 72
     1
 77
     1
171
     1
175
     1
179
     1
273
     0
  0
XRECORD
  5
4AB
102
{ACAD_REACTORS
330
4AA
102
}
330
4AA
100
AcDbXrecord
102
MATERIAL
148
0.0
149
0.0
149
0.0
 93
        0
 94
      127
282
     0
 72
     1
 77
     1
171
     1
175
     1
179
     1
273
     0
  0
XRECORD
  5
4AF
102
{ACAD_REACTORS
330
4AE
102
}
330
4AE
100
AcDbXrecord
102
MATERIAL
148
0.0
149
0.0
149
0.0
 93
        0
 94
      127
282
     0
 72
     1
 77
     1
171
     1
175
     1
179
     1
273
     0
  0
ENDSEC
  0
EOF
