  0
SECTION
  2
HEADER
  9
$ACADVER
  1
AC1015
  9
$ACADMAINTVER
 70
    20
  9
$DWGCODEPAGE
  3
ANSI_1250
  9
$INSBASE
 10
0.0
 20
0.0
 30
0.0
  9
$EXTMIN
 10
0.0
 20
-655.7121790265993
 30
53.16396843913347
  9
$EXTMAX
 10
159.0
 20
-266.2253371435903
 30
442.6508103221425
  9
$LIMMIN
 10
0.0
 20
0.0
  9
$LIMMAX
 10
420.0
 20
297.0
  9
$ORTHOMODE
 70
     0
  9
$REGENMODE
 70
     1
  9
$FILLMODE
 70
     1
  9
$QTEXTMODE
 70
     0
  9
$MIRRTEXT
 70
     0
  9
$LTSCALE
 40
1.0
  9
$ATTMODE
 70
     1
  9
$TEXTSIZE
 40
2.5
  9
$TRACEWID
 40
1.0
  9
$TEXTSTYLE
  7
Standard
  9
$CLAYER
  8
V0-OBRYS
  9
$CELTYPE
  6
ByLayer
  9
$CECOLOR
 62
   256
  9
$CELTSCALE
 40
1.0
  9
$DISPSILH
 70
     0
  9
$DIMSCALE
 40
1.0
  9
$DIMASZ
 40
2.5
  9
$DIMEXO
 40
0.625
  9
$DIMDLI
 40
3.75
  9
$DIMRND
 40
0.0
  9
$DIMDLE
 40
0.0
  9
$DIMEXE
 40
1.25
  9
$DIMTP
 40
0.0
  9
$DIMTM
 40
0.0
  9
$DIMTXT
 40
2.5
  9
$DIMCEN
 40
2.5
  9
$DIMTSZ
 40
0.0
  9
$DIMTOL
 70
     0
  9
$DIMLIM
 70
     0
  9
$DIMTIH
 70
     0
  9
$DIMTOH
 70
     0
  9
$DIMSE1
 70
     0
  9
$DIMSE2
 70
     0
  9
$DIMTAD
 70
     1
  9
$DIMZIN
 70
     8
  9
$DIMBLK
  1

  9
$DIMASO
 70
     1
  9
$DIMSHO
 70
     1
  9
$DIMPOST
  1

  9
$DIMAPOST
  1

  9
$DIMALT
 70
     0
  9
$DIMALTD
 70
     3
  9
$DIMALTF
 40
0.03937007874016
  9
$DIMLFAC
 40
1.0
  9
$DIMTOFL
 70
     1
  9
$DIMTVP
 40
0.0
  9
$DIMTIX
 70
     0
  9
$DIMSOXD
 70
     0
  9
$DIMSAH
 70
     0
  9
$DIMBLK1
  1

  9
$DIMBLK2
  1

  9
$DIMSTYLE
  2
ISO-25
  9
$DIMCLRD
 70
     0
  9
$DIMCLRE
 70
     0
  9
$DIMCLRT
 70
     0
  9
$DIMTFAC
 40
1.0
  9
$DIMGAP
 40
0.625
  9
$DIMJUST
 70
     0
  9
$DIMSD1
 70
     0
  9
$DIMSD2
 70
     0
  9
$DIMTOLJ
 70
     0
  9
$DIMTZIN
 70
     8
  9
$DIMALTZ
 70
     0
  9
$DIMALTTZ
 70
     0
  9
$DIMUPT
 70
     0
  9
$DIMDEC
 70
     2
  9
$DIMTDEC
 70
     2
  9
$DIMALTU
 70
     2
  9
$DIMALTTD
 70
     3
  9
$DIMTXSTY
  7
Standard
  9
$DIMAUNIT
 70
     0
  9
$DIMADEC
 70
     0
  9
$DIMALTRND
 40
0.0
  9
$DIMAZIN
 70
     0
  9
$DIMDSEP
 70
    44
  9
$DIMATFIT
 70
     3
  9
$DIMFRAC
 70
     0
  9
$DIMLDRBLK
  1

  9
$DIMLUNIT
 70
     2
  9
$DIMLWD
 70
    -2
  9
$DIMLWE
 70
    -2
  9
$DIMTMOVE
 70
     0
  9
$LUNITS
 70
     2
  9
$LUPREC
 70
     4
  9
$SKETCHINC
 40
1.0
  9
$FILLETRAD
 40
0.0
  9
$AUNITS
 70
     0
  9
$AUPREC
 70
     0
  9
$MENU
  1
.
  9
$ELEVATION
 40
0.0
  9
$PELEVATION
 40
0.0
  9
$THICKNESS
 40
0.0
  9
$LIMCHECK
 70
     0
  9
$CHAMFERA
 40
0.0
  9
$CHAMFERB
 40
0.0
  9
$CHAMFERC
 40
0.0
  9
$CHAMFERD
 40
0.0
  9
$SKPOLY
 70
     0
  9
$TDCREATE
 40
2454034.845179572
  9
$TDUCREATE
 40
2454034.803512906
  9
$TDUPDATE
 40
2454042.004554931
  9
$TDUUPDATE
 40
2454041.962888264
  9
$TDINDWG
 40
0.0620330671
  9
$TDUSRTIMER
 40
0.0620327083
  9
$USRTIMER
 70
     1
  9
$ANGBASE
 50
0.0
  9
$ANGDIR
 70
     0
  9
$PDMODE
 70
     0
  9
$PDSIZE
 40
0.0
  9
$PLINEWID
 40
0.0
  9
$SPLFRAME
 70
     0
  9
$SPLINETYPE
 70
     6
  9
$SPLINESEGS
 70
     8
  9
$HANDSEED
  5
CAE
  9
$SURFTAB1
 70
     6
  9
$SURFTAB2
 70
     6
  9
$SURFTYPE
 70
     6
  9
$SURFU
 70
     6
  9
$SURFV
 70
     6
  9
$UCSBASE
  2

  9
$UCSNAME
  2

  9
$UCSORG
 10
0.0
 20
0.0
 30
0.0
  9
$UCSXDIR
 10
0.0
 20
1.0
 30
0.0
  9
$UCSYDIR
 10
0.0
 20
0.0
 30
1.0
  9
$UCSORTHOREF
  2

  9
$UCSORTHOVIEW
 70
     6
  9
$UCSORGTOP
 10
0.0
 20
0.0
 30
0.0
  9
$UCSORGBOTTOM
 10
0.0
 20
0.0
 30
0.0
  9
$UCSORGLEFT
 10
0.0
 20
0.0
 30
0.0
  9
$UCSORGRIGHT
 10
0.0
 20
0.0
 30
0.0
  9
$UCSORGFRONT
 10
0.0
 20
0.0
 30
0.0
  9
$UCSORGBACK
 10
0.0
 20
0.0
 30
0.0
  9
$PUCSBASE
  2

  9
$PUCSNAME
  2

  9
$PUCSORG
 10
0.0
 20
0.0
 30
0.0
  9
$PUCSXDIR
 10
1.0
 20
0.0
 30
0.0
  9
$PUCSYDIR
 10
0.0
 20
1.0
 30
0.0
  9
$PUCSORTHOREF
  2

  9
$PUCSORTHOVIEW
 70
     0
  9
$PUCSORGTOP
 10
0.0
 20
0.0
 30
0.0
  9
$PUCSORGBOTTOM
 10
0.0
 20
0.0
 30
0.0
  9
$PUCSORGLEFT
 10
0.0
 20
0.0
 30
0.0
  9
$PUCSORGRIGHT
 10
0.0
 20
0.0
 30
0.0
  9
$PUCSORGFRONT
 10
0.0
 20
0.0
 30
0.0
  9
$PUCSORGBACK
 10
0.0
 20
0.0
 30
0.0
  9
$USERI1
 70
     0
  9
$USERI2
 70
     0
  9
$USERI3
 70
     0
  9
$USERI4
 70
     0
  9
$USERI5
 70
     0
  9
$USERR1
 40
0.0
  9
$USERR2
 40
0.0
  9
$USERR3
 40
0.0
  9
$USERR4
 40
0.0
  9
$USERR5
 40
0.0
  9
$WORLDVIEW
 70
     1
  9
$SHADEDGE
 70
     3
  9
$SHADEDIF
 70
    70
  9
$TILEMODE
 70
     1
  9
$MAXACTVP
 70
    64
  9
$PINSBASE
 10
0.0
 20
0.0
 30
0.0
  9
$PLIMCHECK
 70
     0
  9
$PEXTMIN
 10
0.0
 20
0.0
 30
0.0
  9
$PEXTMAX
 10
0.0
 20
0.0
 30
0.0
  9
$PLIMMIN
 10
0.0
 20
0.0
  9
$PLIMMAX
 10
12.0
 20
9.0
  9
$UNITMODE
 70
     0
  9
$VISRETAIN
 70
     1
  9
$PLINEGEN
 70
     0
  9
$PSLTSCALE
 70
     1
  9
$TREEDEPTH
 70
  3020
  9
$CMLSTYLE
  2
Standard
  9
$CMLJUST
 70
     0
  9
$CMLSCALE
 40
20.0
  9
$PROXYGRAPHICS
 70
     1
  9
$MEASUREMENT
 70
     1
  9
$CELWEIGHT
370
    -1
  9
$ENDCAPS
280
     0
  9
$JOINSTYLE
280
     0
  9
$LWDISPLAY
290
     0
  9
$INSUNITS
 70
     4
  9
$HYPERLINKBASE
  1

  9
$STYLESHEET
  1

  9
$XEDIT
290
     1
  9
$CEPSNTYPE
380
     0
  9
$PSTYLEMODE
290
     1
  9
$FINGERPRINTGUID
  2
{06CDF6CD-0D1F-48AF-9B0D-014D43B35004}
  9
$VERSIONGUID
  2
{97778051-6CE1-4E7B-BED1-80E5BCB3159D}
  9
$EXTNAMES
290
     1
  9
$PSVPSCALE
 40
0.0
  9
$OLESTARTUP
290
     0
  0
ENDSEC
  0
SECTION
  2
CLASSES
  0
CLASS
  1
ACDBDICTIONARYWDFLT
  2
AcDbDictionaryWithDefault
  3
ObjectDBX Classes
 90
        0
280
     0
281
     0
  0
CLASS
  1
ACDBPLACEHOLDER
  2
AcDbPlaceHolder
  3
ObjectDBX Classes
 90
        0
280
     0
281
     0
  0
CLASS
  1
LAYOUT
  2
AcDbLayout
  3
ObjectDBX Classes
 90
        0
280
     0
281
     0
  0
CLASS
  1
DICTIONARYVAR
  2
AcDbDictionaryVar
  3
ObjectDBX Classes
 90
        0
280
     0
281
     0
  0
CLASS
  1
TABLESTYLE
  2
AcDbTableStyle
  3
ObjectDBX Classes
 90
     2047
280
     0
281
     0
  0
CLASS
  1
DIMASSOC
  2
AcDbDimAssoc
  3
"AcDbDimAssoc|Product Desc:     AcDim ARX App For Dimension|Company:          Autodesk, Inc.|WEB Address:      www.autodesk.com"
 90
    32768
280
     0
281
     0
  0
CLASS
  1
SORTENTSTABLE
  2
AcDbSortentsTable
  3
ObjectDBX Classes
 90
        0
280
     0
281
     0
  0
ENDSEC
  0
SECTION
  2
TABLES
  0
TABLE
  2
VPORT
  5
8
330
0
100
AcDbSymbolTable
 70
     3
  0
VPORT
  5
CA5
330
8
100
AcDbSymbolTableRecord
100
AcDbViewportTableRecord
  2
*Active
 70
     0
 10
0.0
 20
0.0
 11
1.0
 21
1.0
 12
-23.78339266837122
 22
-56.66849732250302
 13
0.0
 23
0.0
 14
10.0
 24
10.0
 15
10.0
 25
10.0
 16
1.0
 26
-1.0
 36
1.0
 17
0.0
 27
0.0
 37
0.0
 40
529.6006988666617
 41
2.429672447013487
 42
50.0
 43
0.0
 44
0.0
 50
0.0
 51
0.0
 71
     0
 72
  1000
 73
     1
 74
     3
 75
     0
 76
     0
 77
     0
 78
     0
281
     0
 65
     1
110
0.0
120
0.0
130
0.0
111
0.0
121
1.0
131
0.0
112
0.0
122
0.0
132
1.0
 79
     6
146
0.0
  0
ENDTAB
  0
TABLE
  2
LTYPE
  5
5
330
0
100
AcDbSymbolTable
 70
     2
  0
LTYPE
  5
14
330
5
100
AcDbSymbolTableRecord
100
AcDbLinetypeTableRecord
  2
ByBlock
 70
     0
  3

 72
    65
 73
     0
 40
0.0
  0
LTYPE
  5
15
330
5
100
AcDbSymbolTableRecord
100
AcDbLinetypeTableRecord
  2
ByLayer
 70
     0
  3

 72
    65
 73
     0
 40
0.0
  0
LTYPE
  5
16
330
5
100
AcDbSymbolTableRecord
100
AcDbLinetypeTableRecord
  2
Continuous
 70
     0
  3
Solid line
 72
    65
 73
     0
 40
0.0
  0
ENDTAB
  0
TABLE
  2
LAYER
  5
2
330
0
100
AcDbSymbolTable
 70
     4
  0
LAYER
  5
10
330
2
100
AcDbSymbolTableRecord
100
AcDbLayerTableRecord
  2
0
 70
     0
 62
     7
  6
Continuous
370
    -3
390
F
  0
LAYER
  5
E7
330
2
100
AcDbSymbolTableRecord
100
AcDbLayerTableRecord
  2
Defpoints
 70
     0
 62
     7
  6
Continuous
290
     0
370
    -3
390
F
  0
LAYER
  5
32A
330
2
100
AcDbSymbolTableRecord
100
AcDbLayerTableRecord
  2
V0-OBRYS
 70
     0
 62
    90
  6
Continuous
370
    -3
390
F
  0
LAYER
  5
90E
330
2
100
AcDbSymbolTableRecord
100
AcDbLayerTableRecord
  2
popis
 70
     0
 62
   210
  6
Continuous
370
    -3
390
F
  0
ENDTAB
  0
TABLE
  2
STYLE
  5
3
330
0
100
AcDbSymbolTable
 70
     2
  0
STYLE
  5
11
330
3
100
AcDbSymbolTableRecord
100
AcDbTextStyleTableRecord
  2
Standard
 70
     0
 40
0.0
 41
1.0
 50
0.0
 71
     0
 42
2.5
  3
txt
  4

  0
STYLE
  5
32B
330
3
100
AcDbSymbolTableRecord
100
AcDbTextStyleTableRecord
  2
ED20
 70
     0
 40
20.0
 41
1.0
 50
0.0
 71
     0
 42
20.0
  3
isocp.shx
  4

  0
ENDTAB
  0
TABLE
  2
VIEW
  5
6
330
0
100
AcDbSymbolTable
 70
     0
  0
ENDTAB
  0
TABLE
  2
UCS
  5
7
330
0
100
AcDbSymbolTable
 70
     0
  0
ENDTAB
  0
TABLE
  2
APPID
  5
9
330
0
100
AcDbSymbolTable
 70
     9
  0
APPID
  5
12
330
9
100
AcDbSymbolTableRecord
100
AcDbRegAppTableRecord
  2
ACAD
 70
     0
  0
APPID
  5
9E
330
9
100
AcDbSymbolTableRecord
100
AcDbRegAppTableRecord
  2
ACAD_PSEXT
 70
     0
  0
APPID
  5
11B
330
9
100
AcDbSymbolTableRecord
100
AcDbRegAppTableRecord
  2
ACAD_EXEMPT_FROM_CAD_STANDARDS
 70
     0
  0
APPID
  5
123
330
9
100
AcDbSymbolTableRecord
100
AcDbRegAppTableRecord
  2
ACAD_DSTYLE_DIMTEXT_FILL
 70
     0
  0
APPID
  5
124
330
9
100
AcDbSymbolTableRecord
100
AcDbRegAppTableRecord
  2
ACAD_DSTYLE_DIMEXT_LENGTH
 70
     0
  0
APPID
  5
125
330
9
100
AcDbSymbolTableRecord
100
AcDbRegAppTableRecord
  2
ACAD_DSTYLE_DIMEXT_ENABLED
 70
     0
  0
APPID
  5
126
330
9
100
AcDbSymbolTableRecord
100
AcDbRegAppTableRecord
  2
ACAD_DSTYLE_DIM_LINETYPE
 70
     0
  0
APPID
  5
127
330
9
100
AcDbSymbolTableRecord
100
AcDbRegAppTableRecord
  2
ACAD_DSTYLE_DIM_EXT1_LINETYPE
 70
     0
  0
APPID
  5
128
330
9
100
AcDbSymbolTableRecord
100
AcDbRegAppTableRecord
  2
ACAD_DSTYLE_DIM_EXT2_LINETYPE
 70
     0
  0
ENDTAB
  0
TABLE
  2
DIMSTYLE
  5
A
330
0
100
AcDbSymbolTable
 70
     3
100
AcDbDimStyleTable
 71
     1
340
27
  0
DIMSTYLE
105
27
330
A
100
AcDbSymbolTableRecord
100
AcDbDimStyleTableRecord
  2
ISO-25
 70
     0
 41
2.5
 42
0.625
 43
3.75
 44
1.25
 73
     0
 74
     0
 77
     1
 78
     8
140
2.5
141
2.5
143
0.03937007874016
147
0.625
171
     3
172
     1
271
     2
272
     2
274
     3
278
    44
283
     0
284
     8
340
11
  0
DIMSTYLE
105
32C
330
A
100
AcDbSymbolTableRecord
100
AcDbDimStyleTableRecord
  2
ED20
 70
     0
 40
0.0
 41
20.0
 42
1.0
 43
3.75
 44
1.25
 73
     0
 74
     0
 77
     1
 78
     8
140
20.0
141
3.0
143
0.0394
147
1.5
171
     4
172
     1
173
     1
271
     0
272
     1
273
     8
274
     4
284
     8
340
32B
341
324
343
324
344
324
  0
ENDTAB
  0
TABLE
  2
BLOCK_RECORD
  5
1
330
0
100
AcDbSymbolTable
 70
     6
  0
BLOCK_RECORD
  5
1F
102
{ACAD_XDICTIONARY
360
393
102
}
330
1
100
AcDbSymbolTableRecord
100
AcDbBlockTableRecord
  2
*Model_Space
340
22
  0
BLOCK_RECORD
  5
D2
330
1
100
AcDbSymbolTableRecord
100
AcDbBlockTableRecord
  2
*Paper_Space
340
D3
  0
BLOCK_RECORD
  5
D6
330
1
100
AcDbSymbolTableRecord
100
AcDbBlockTableRecord
  2
*Paper_Space0
340
D7
  0
BLOCK_RECORD
  5
2E9
330
1
100
AcDbSymbolTableRecord
100
AcDbBlockTableRecord
  2
A$C65174C2D
340
0
1001
ACAD
1000
DesignCenter Data
1002
{
1070
     1
1070
     4
1002
}
  0
BLOCK_RECORD
  5
2F1
330
1
100
AcDbSymbolTableRecord
100
AcDbBlockTableRecord
  2
A$C17A95F2C
340
0
1001
ACAD
1000
DesignCenter Data
1002
{
1070
     1
1070
     4
1002
}
  0
BLOCK_RECORD
  5
324
330
1
100
AcDbSymbolTableRecord
100
AcDbBlockTableRecord
  2
_OPEN
340
0
  0
BLOCK_RECORD
  5
3FF
102
{ACAD_XDICTIONARY
360
415
102
}
330
1
100
AcDbSymbolTableRecord
100
AcDbBlockTableRecord
  2
A$C5C59711D
340
0
1001
ACAD
1000
DesignCenter Data
1002
{
1070
     1
1070
     0
1002
}
  0
ENDTAB
  0
ENDSEC
  0
SECTION
  2
BLOCKS
  0
BLOCK
  5
20
330
1F
100
AcDbEntity
  8
0
100
AcDbBlockBegin
  2
*Model_Space
 70
     0
 10
0.0
 20
0.0
 30
0.0
  3
*Model_Space
  1

  0
ENDBLK
  5
21
330
1F
100
AcDbEntity
  8
0
100
AcDbBlockEnd
  0
BLOCK
  5
D4
330
D2
100
AcDbEntity
 67
     1
  8
0
100
AcDbBlockBegin
  2
*Paper_Space
 70
     0
 10
0.0
 20
0.0
 30
0.0
  3
*Paper_Space
  1

  0
ENDBLK
  5
D5
330
D2
100
AcDbEntity
 67
     1
  8
0
100
AcDbBlockEnd
  0
BLOCK
  5
D8
330
D6
100
AcDbEntity
 67
     1
  8
0
100
AcDbBlockBegin
  2
*Paper_Space0
 70
     0
 10
0.0
 20
0.0
 30
0.0
  3
*Paper_Space0
  1

  0
ENDBLK
  5
D9
330
D6
100
AcDbEntity
 67
     1
  8
0
100
AcDbBlockEnd
  0
BLOCK
  5
2EB
330
2E9
100
AcDbEntity
  8
0
100
AcDbBlockBegin
  2
A$C65174C2D
 70
     0
 10
0.0
 20
0.0
 30
0.0
  3
A$C65174C2D
  1

  0
LWPOLYLINE
  5
2EA
330
2E9
100
AcDbEntity
  8
0
100
AcDbPolyline
 90
        5
 70
     0
 43
0.0
 38
-114.0000024949029
 10
-0.0000005141058637
 20
-114.0
 10
-0.0000005141058637
 20
114.0
 10
-423.0000005141057
 20
114.0
 10
-423.0000005141057
 20
-114.0
 10
-0.0000005141058637
 20
-114.0
210
-1.0
220
0.0
230
0.0
  0
ENDBLK
  5
2EC
330
2E9
100
AcDbEntity
  8
0
100
AcDbBlockEnd
  0
BLOCK
  5
2F3
330
2F1
100
AcDbEntity
  8
0
100
AcDbBlockBegin
  2
A$C17A95F2C
 70
     0
 10
0.0
 20
0.0
 30
0.0
  3
A$C17A95F2C
  1

  0
LWPOLYLINE
  5
2F2
330
2F1
100
AcDbEntity
  8
0
100
AcDbPolyline
 90
        5
 70
     0
 43
0.0
 38
-114.0000024949029
 10
-0.0000005141058637
 20
-114.0
 10
-0.0000005141058637
 20
114.0
 10
-423.0000005141057
 20
114.0
 10
-423.0000005141057
 20
-114.0
 10
-0.0000005141058637
 20
-114.0
210
-1.0
220
0.0
230
0.0
  0
ENDBLK
  5
2F4
330
2F1
100
AcDbEntity
  8
0
100
AcDbBlockEnd
  0
BLOCK
  5
325
330
324
100
AcDbEntity
  8
0
100
AcDbBlockBegin
  2
_OPEN
 70
     0
 10
0.0
 20
0.0
 30
0.0
  3
_OPEN
  1

  0
LINE
  5
326
330
324
100
AcDbEntity
  8
0
  6
ByBlock
 62
     0
100
AcDbLine
 10
-1.0
 20
0.1666666666666666
 30
0.0
 11
0.0
 21
0.0
 31
0.0
  0
LINE
  5
327
330
324
100
AcDbEntity
  8
0
  6
ByBlock
 62
     0
100
AcDbLine
 10
0.0
 20
0.0
 30
0.0
 11
-1.0
 21
-0.1666666666666666
 31
0.0
  0
LINE
  5
328
330
324
100
AcDbEntity
  8
0
  6
ByBlock
 62
     0
100
AcDbLine
 10
0.0
 20
0.0
 30
0.0
 11
-1.0
 21
0.0
 31
0.0
  0
ENDBLK
  5
329
330
324
100
AcDbEntity
  8
0
100
AcDbBlockEnd
  0
BLOCK
  5
417
330
3FF
100
AcDbEntity
  8
0
100
AcDbBlockBegin
  2
A$C5C59711D
 70
     0
 10
0.0
 20
0.0
 30
0.0
  3
A$C5C59711D
  1

  0
ARC
  5
400
330
3FF
100
AcDbEntity
  8
V0-OBRYS
  6
Continuous
 62
    90
100
AcDbCircle
 10
-467.0930531095073
 20
348.0000002503987
 30
0.0
 40
164.0
100
AcDbArc
 50
90.0
 51
270.0
  0
LINE
  5
401
330
3FF
100
AcDbEntity
  8
V0-OBRYS
  6
Continuous
 62
    90
100
AcDbLine
 10
-467.0930531095073
 20
184.0000002503986
 30
0.0
 11
-322.0930531095074
 21
184.0000002503986
 31
0.0
  0
LINE
  5
402
330
3FF
100
AcDbEntity
  8
V0-OBRYS
  6
Continuous
 62
    90
100
AcDbLine
 10
-322.0930531095074
 20
184.0000002503986
 30
0.0
 11
-322.0930531095073
 21
348.0000002503987
 31
0.0
  0
LINE
  5
403
330
3FF
100
AcDbEntity
  8
V0-OBRYS
  6
Continuous
 62
    90
100
AcDbLine
 10
-322.0930531095073
 20
348.0000002503987
 30
0.0
 11
-322.0930531095073
 21
368.0000002503987
 31
0.0
  0
LINE
  5
404
330
3FF
100
AcDbEntity
  8
V0-OBRYS
  6
Continuous
 62
    90
100
AcDbLine
 10
-322.0930531095073
 20
368.0000002503987
 30
0.0
 11
-340.6632607469037
 21
375.4261290066206
 31
0.0
  0
ARC
  5
405
330
3FF
100
AcDbEntity
  8
V0-OBRYS
  6
Continuous
 62
    90
100
AcDbCircle
 10
-468.1435974613871
 20
384.2209653806341
 30
0.0
 40
127.7833533590497
100
AcDbArc
 50
356.0534319940651
 51
89.52894931891277
  0
CIRCLE
  5
406
330
3FF
100
AcDbEntity
  8
V0-OBRYS
  6
Continuous
 62
    90
100
AcDbCircle
 10
-467.0930531095073
 20
348.0000002503987
 30
0.0
 40
107.4846649940139
  0
CIRCLE
  5
407
330
3FF
100
AcDbEntity
  8
V0-OBRYS
  6
Continuous
 62
    90
100
AcDbCircle
 10
-467.0930531095073
 20
348.0000002503987
 30
0.0
 40
93.1969975799039
  0
CIRCLE
  5
408
330
3FF
100
AcDbEntity
  8
V0-OBRYS
  6
Continuous
 62
    90
100
AcDbCircle
 10
-467.0930531095073
 20
348.0000002503987
 30
0.0
 40
22.4782050882451
  0
LINE
  5
409
330
3FF
100
AcDbEntity
  8
V0-OBRYS
  6
Continuous
 62
    90
100
AcDbLine
 10
-467.0930531095073
 20
325.5217951621536
 30
0.0
 11
-467.0930531095073
 21
291.108939200919
 31
0.0
  0
LINE
  5
40A
330
3FF
100
AcDbEntity
  8
V0-OBRYS
  6
Continuous
 62
    90
100
AcDbLine
 10
-472.0930531095071
 20
283.0185652092692
 30
0.0
 11
-472.0930531095071
 21
240.5153352563848
 31
0.0
  0
LINE
  5
40B
330
3FF
100
AcDbEntity
  8
V0-OBRYS
  6
Continuous
 62
    90
100
AcDbLine
 10
-462.0930531095073
 20
325.5217951621536
 30
0.0
 11
-462.0930531095073
 21
240.5153352563848
 31
0.0
  0
ARC
  5
40C
330
3FF
100
AcDbEntity
  8
V0-OBRYS
  6
Continuous
 62
    90
100
AcDbCircle
 10
-457.7641142063687
 20
279.7532502954497
 30
0.0
 40
14.69628427788079
100
AcDbArc
 50
129.4038286720689
 51
167.1625150158241
  0
LINE
  5
40D
330
3FF
100
AcDbEntity
  8
V0-OBRYS
  6
Continuous
 62
    90
100
AcDbLine
 10
-447.6263564716101
 20
359.2391027945212
 30
0.0
 11
-417.8239489924061
 21
376.4455307751386
 31
0.0
  0
LINE
  5
40E
330
3FF
100
AcDbEntity
  8
V0-OBRYS
  6
Continuous
 62
    90
100
AcDbLine
 10
-408.3174795895206
 20
376.1605907520412
 30
0.0
 11
-371.5086027074311
 21
397.4122057284834
 31
0.0
  0
LINE
  5
40F
330
3FF
100
AcDbEntity
  8
V0-OBRYS
  6
Continuous
 62
    90
100
AcDbLine
 10
-450.1263564716103
 20
363.5692298134434
 30
0.0
 11
-376.5086027074311
 21
406.0724597663276
 31
0.0
  0
ARC
  5
410
330
3FF
100
AcDbEntity
  8
V0-OBRYS
  6
Continuous
 62
    90
100
AcDbCircle
 10
-412.6541033743659
 20
390.202473308344
 30
0.0
 40
14.69628427788079
100
AcDbArc
 50
249.4038286720695
 51
287.1625150158262
  0
LINE
  5
411
330
3FF
100
AcDbEntity
  8
V0-OBRYS
  6
Continuous
 62
    90
100
AcDbLine
 10
-486.5597497474039
 20
359.2391027945214
 30
0.0
 11
-516.3621572266078
 21
376.4455307751388
 31
0.0
  0
LINE
  5
412
330
3FF
100
AcDbEntity
  8
V0-OBRYS
  6
Continuous
 62
    90
100
AcDbLine
 10
-520.8686266294935
 20
384.8208447898858
 30
0.0
 11
-557.6775035115831
 21
406.072459766328
 31
0.0
  0
LINE
  5
413
330
3FF
100
AcDbEntity
  8
V0-OBRYS
  6
Continuous
 62
    90
100
AcDbLine
 10
-489.059749747404
 20
354.9089757755993
 30
0.0
 11
-562.6775035115831
 21
397.4122057284837
 31
0.0
  0
ARC
  5
414
330
3FF
100
AcDbEntity
  8
V0-OBRYS
  6
Continuous
 62
    90
100
AcDbCircle
 10
-530.8609417477867
 20
374.0442771474026
 30
0.0
 40
14.69628427788079
100
AcDbArc
 50
9.403828672067083
 51
47.16251501582351
  0
ENDBLK
  5
418
330
3FF
100
AcDbEntity
  8
0
100
AcDbBlockEnd
  0
ENDSEC
  0
SECTION
  2
ENTITIES
  0
3DSOLID
  5
C7C
330
1F
100
AcDbEntity
  8
0
100
AcDbModelerGeometry
 70
     1
  1
koo nkl n o         
  1
ni ^ *+0;:,4 ^ *+0\^ [ nh ^ LR iqoqjqhook QK mk K7* Q0) om ooeoiell mooi 
  1
n fqfffffffffffffffj:rooh n:rono 
  1
=0;& {rn {n {rn {rn |
  1
3*2/ {rn {rn {m {o |
  1
,7:33 {rn {rn {rn {l {rn {n |
  1
9><: {k {j {i {m {rn {h 90-(>-; ,6183: |
  1
<030-r>;:,4r>++-6= {rn {rn {rn {l o |
  1
9><: {g {f {no {m {rn {nn 90-(>-; ,6183: |
  1
300/ {rn {nm {nl {l |
  1
<01:r,*-9><: {rn o rkioqfighjgogjofkgn mkhqfohlgflgoilhfk n o o o ghqglhgolkgjjkijni o n V V o n ghqglhgolkgjjkijni 90-(>-; V V V V |
  1
<030-r>;:,4r>++-6= {rn {rn {rn {j o |
  1
9><: {rn {nk {nj {m {rn {ni 90-(>-; ,6183: |
  1
300/ {rn {rn {nh {j |
  1
/3>1:r,*-9><: {rn njf rkioqfighjgogjofkgn mkhqfohlgflgoilhfk n o o o o rn 90-(>-;@) V V V V |
  1
300/ {rn {rn {ng {l |
  1
<0:;8: {rn {nl {nl {nh {nf 90-(>-; {i {rn |
  1
9><: {mo {mn {mm {m {rn {ml 90-(>-; ,6183: |
  1
300/ {rn {mk {mj {f |
  1
/3>1:r,*-9><: {rn nno rkioqfighjgogjofkgn mkhqfohlgflgoilhfk n o o o o rn 90-(>-;@) V V V V |
  1
<0:;8: {rn {nh {nh {nl {nf -:):-,:; {no {rn |
  1
<0:;8: {rn {ng {ng {mj {mi -:):-,:; {nm {rn |
  1
:;8: {mh {mg {mg {nl {mf 90-(>-; |
  1
<030-r>;:,4r>++-6= {rn {rn {rn {nk o |
  1
9><: {lo {ln {lm {m {rn {ll 90-(>-; ,6183: |
  1
300/ {rn {rn {lk {nk |
  1
<01:r,*-9><: {rn o rkkmqofhhmgnlmkmjg mmlqnhmmlonjjklgml n o o o glqkjnfkjomgkkjmii rikqkhjngjfonomogfl n V V o n nojqkjhkikoionifof 90-(>-; V V V V |
  1
300/ {rn {rn {lj {f |
  1
<0:;8: {rn {mj {mj {ng {mi 90-(>-; {nj {rn |
  1
:;8: {rn {li {li {mj {lh 90-(>-; |
  1
<030-r>;:,4r>++-6= {rn {rn {rn {nf o |
  1
):-+:' {rn {nf {lg |
  1
:336/,:r<*-): {rn njf rkioqfighjgogjofkgn mkhqfohlgflgoilhfk rn o o o ghqglhgolkgjjkijni o n V V |
  1
<030-r>;:,4r>++-6= {rn {rn {rn {mn o |
  1
9><: {lf {ko {kn {m {rn {km 90-(>-; ,6183: |
  1
300/ {rn {rn {kl {mn |
  1
<01:r,*-9><: {rn o rkjoqfkjnhlnhfklimn mkhqfohlgflgoilhfn n o o o rnloqomljgkfojiiolf rnqgnflnfkogggolnh:ronm n V V o n nloqomljgkfojiiolf 90-(>-; V V V V |
  1
<0:;8: {rn {kk {kj {ki {kh 90-(>-; {mm {rn |
  1
<0:;8: {rn {kg {kf {jo {jn -:):-,:; {mk {rn |
  1
):-+:' {rn {mi {jm |
  1
:336/,:r<*-): {rn nno rkioqfighjgogjofkgn mkhqfohlgflgoilhfk rn o o o ghqglhgolkgjjkijni o n V V |
  1
/061+ {rn njf rlhlqnlofjkjffjkglm mkhqfohlgflgoilhfk |
  1
<030-r>;:,4r>++-6= {rn {rn {rn {ln o |
  1
9><: {jl {jk {jj {m {rn {ji 90-(>-; ,6183: |
  1
300/ {rn {rn {jh {ln |
  1
/3>1:r,*-9><: {rn o rkkgqkighjgogjofhgh lhhqfohlgflgoilhfk o o n n o o 90-(>-;@) V V V V |
  1
<0:;8: {rn {jg {jf {io {in 90-(>-; {lm {rn |
  1
<0:;8: {rn {im {lk {jf {il -:):-,:; {mm {rn |
  1
<0:;8: {rn {lk {im {ik {ij 90-(>-; {mm {rn |
  1
<0:;8: {rn {kf {io {lk {kh -:):-,:; {mk {rn |
  1
:;8: {rn {ii {ih {lk {ig 90-(>-; |
  1
<0:;8: {rn {io {lj {jh {if -:):-,:; {mk {rn |
  1
<0:;8: {rn {lj {ki {ho {hn -:):-,:; {mk {rn |
  1
<0:;8: {rn {hm {hl {lj {jn 90-(>-; {jj {rn |
  1
:;8: {rn {hk {hj {jo {hi 90-(>-; |
  1
/061+ {rn nno rjkgqgoijinjhoiknmf mkhqfohlgflgoilhfk |
  1
<030-r>;:,4r>++-6= {rn {rn {rn {ko o |
  1
9><: {hh {hg {hf {m {rn {go 90-(>-; ,6183: |
  1
300/ {rn {rn {jo {ko |
  1
/3>1:r,*-9><: {rn o rlnjqfighjgogjofkgn lhhqfohlgflgoilhfk o n o o o n 90-(>-;@) V V V V |
  1
<0:;8: {rn {gn {gm {kg {if 90-(>-; {kn {rn |
  1
<0:;8: {rn {gl {kl {gm {gk -:):-,:; {lm {rn |
  1
<0:;8: {rn {kl {gl {kk {il 90-(>-; {lm {rn |
  1
<0:;8: {rn {ki {kg {kl {in -:):-,:; {mk {rn |
  1
:;8: {rn {ih {gj {kl {gi 90-(>-; |
  1
<0:;8: {rn {kj {kk {gh {gg 90-(>-; {mm {rn |
  1
:;8: {gf {fo {ih {jf {fn 90-(>-; |
  1
<0:;8: {rn {fm {ho {kj {ij -:):-,:; {hf {rn |
  1
:;8: {fl {fk {ii {kj {fj 90-(>-; |
  1
):-+:' {rn {hn {fi |
  1
):-+:' {rn {in {fh |
  1
:336/,:r<*-): {rn nno rkkmqofhhmgnlmkmjg mmlqnhmmlonjjklgml rn o o o glqkjnfkjomgkkjmii rikqkhjngjfonomogfl n V V |
  1
:;8: {rn {gj {hk {jh {fg 90-(>-; |
  1
<0:;8: {rn {ik {ff {kf {hn 90-(>-; {hf {rn |
  1
:;8: {rn {hj {ii {ho {noo 90-(>-; |
  1
<0:;8: {rn {non {jo {ff {nom -:):-,:; {jj {rn |
  1
<0:;8: {rn {jo {non {gn {nol 90-(>-; {jj {rn |
  1
):-+:' {rn {if {nok |
  1
):-+:' {rn {jn {noj |
  1
,+->687+r<*-): {rn nno rlnjqfighjgogjofkgn lnmqfohlgflgoilhfk o o rn V V |
  1
<030-r>;:,4r>++-6= {rn {rn {rn {jk o |
  1
9><: {noi {rn {noh {m {rn {nog -:):-,:; ,6183: |
  1
300/ {rn {rn {ho {jk |
  1
/3>1:r,*-9><: {rn o rlnjqfighjgogjofkgn mjjqfohlgflgoilhfk o o rn rn o o 90-(>-;@) V V V V |
  1
<0:;8: {rn {nof {jh {hl {nol -:):-,:; {kn {rn |
  1
<0:;8: {rn {jh {nof {jg {gk 90-(>-; {kn {rn |
  1
<0:;8: {rn {jf {jg {nno {nnn 90-(>-; {lm {rn |
  1
:;8: {nnm {nnl {gj {gm {nnk 90-(>-; |
  1
):-+:' {rn {if {nnj |
  1
:336/,:r<*-): {rn nno rkjoqfkjnhlnhfklimn mkhqfohlgflgoilhfn rn o o o rnloqomljgkfojiiolf rnqgnflnfkogggolnh:ronm n V V |
  1
<0:;8: {rn {nno {nni {im {gg -:):-,:; {noh {rn |
  1
:;8: {nnh {fo {fk {gh {nng 90-(>-; |
  1
<030-r>;:,4r>++-6= {rn {rn {rn {il o |
  1
):-+:' {rn {nnn {nnf |
  1
,+->687+r<*-): {rn o rkkgqkighjgogjofkmk nnhqfohlgflgoilhfk n o o V V |
  1
<0:;8: {rn {ff {ik {nni {nmo 90-(>-; {hf {rn |
  1
<030-r>;:,4r>++-6= {rn {rn {rn {ij o |
  1
):-+:' {rn {nmo {nmn |
  1
,+->687+r<*-): {rn o rlknqgkfiojjhlflmjf mjjqfohlgflgoilhfk n o o V V |
  1
/061+ {rn nno rlknqgkfiojjhlflmjf mjjqfohlgflgoilhfk |
  1
/061+ {rn nno rkkgqkighjgogjofkmk nnhqfohlgflgoilhfk |
  1
,+->687+r<*-): {rn nno rkjkqhnghjgogjofilk lhhqfohlgflgoilhfk o n o V V |
  1
<0:;8: {rn {ho {fm {hm {nom 90-(>-; {hf {rn |
  1
,+->687+r<*-): {rn nno rlggqkighjgogjofkgn mjjqfohlgflgoilhfk o rn o V V |
  1
<0:;8: {rn {hl {hm {nmm {nml 90-(>-; {jj {rn |
  1
:;8: {nmk {nmj {hj {ff {nmi 90-(>-; |
  1
:;8: {nmh {nmg {hk {hl {nmf 90-(>-; |
  1
/061+ {rn nno rlnjqfighjgogjofkgn lhhqfohlgflgoilhfk |
  1
/061+ {rn nno rlnjqfighjgogjofkgn mjjqfohlgflgoilhfk |
  1
<030-r>;:,4r>++-6= {rn {rn {rn {hg o |
  1
300/ {rn {rn {nni {hg |
  1
/3>1:r,*-9><: {rn o rkljqnnimoifjlmlnof mjgqfmknommffnmiim n o o o o rn 90-(>-;@) V V V V |
  1
<0:;8: {rn {gm {gn {nlo {nln 90-(>-; {kn {rn |
  1
<0:;8: {rn {nlo {gh {gl {nnn -:):-,:; {noh {rn |
  1
:;8: {nlm {nnl {fo {nno {nll 90-(>-; |
  1
<030-r>;:,4r>++-6= {rn {rn {rn {gk o |
  1
):-+:' {rn {nln {nlk |
  1
,+->687+r<*-): {rn o rkkgqkighjgogjofhgh lhhqfohlgflgoilhfk n o o V V |
  1
/061+ {rn nno rkkgqkighjgogjofhgh lhhqfohlgflgoilhfk |
  1
<0:;8: {rn {gh {nmm {fm {nmo -:):-,:; {noh {rn |
  1
<030-r>;:,4r>++-6= {rn {rn {rn {gg o |
  1
:336/,:r<*-): {rn o rkkmqofhhmgnlmkmjg mmlqnhmmlonjjklgml n o o o glqkjnfkjomgkkjmii rikqkhjngjfonomogfl n V V |
  1
/061+ {rn o rkkgqkighjgogjofkmk nnhqfohlgflgoilhfk |
  1
:;8: {nlj {fk {nmj {nni {nli 90-(>-; |
  1
/061+ {rn o rlknqgkfiojjhlflmjf mjjqfohlgflgoilhfk |
  1
<0:;8: {rn {nni {nlo {non {nml -:):-,:; {noh {rn |
  1
:;8: {nlh {nmj {nmg {nmm {nlg 90-(>-; |
  1
<030-r>;:,4r>++-6= {rn {rn {rn {nom o |
  1
):-+:' {rn {nmo {nlf |
  1
,+->687+r<*-): {rn o rlnjqfighjgogjofkgn mjjqfohlgflgoilhfk n o o V V |
  1
<030-r>;:,4r>++-6= {rn {rn {rn {nol o |
  1
):-+:' {rn {nml {nko |
  1
,+->687+r<*-): {rn o rlnjqfighjgogjofkgn lhhqfohlgflgoilhfk n o o V V |
  1
<0:;8: {rn {nmm {nno {nof {nln -:):-,:; {noh {rn |
  1
:;8: {nkn {nmg {nnl {nlo {nkm 90-(>-; |
  1
<030-r>;:,4r>++-6= {rn {rn {rn {nnn o |
  1
:336/,:r<*-): {rn o rkjoqfkjnhlnhfklimn mkhqfohlgflgoilhfn n o o o rnloqomljgkfojiiolf rnqgnflnfkogggolnh:ronm n V V |
  1
/061+ {rn o rkkgqkighjgogjofhgh lhhqfohlgflgoilhfk |
  1
<030-r>;:,4r>++-6= {rn {rn {rn {nmo o |
  1
,+->687+r<*-): {rn o rlknqgkfiojjhlflmjf mjjqfohlgflgoilhfk o n o V V |
  1
<030-r>;:,4r>++-6= {rn {rn {rn {nml o |
  1
,+->687+r<*-): {rn o rlnjqfighjgogjofkgn mjjqfohlgflgoilhfk o o n V V |
  1
/061+ {rn o rlnjqfighjgogjofkgn mjjqfohlgflgoilhfk |
  1
/061+ {rn o rlnjqfighjgogjofkgn lhhqfohlgflgoilhfk |
  1
<030-r>;:,4r>++-6= {rn {rn {rn {nln o |
  1
,+->687+r<*-): {rn o rlnjqfighjgogjofkgn lhhqfohlgflgoilhfk o rn o V V |
  0
ENDSEC
  0
SECTION
  2
OBJECTS
  0
DICTIONARY
  5
C
330
0
100
AcDbDictionary
281
     1
  3
ACAD_COLOR
350
6B
  3
ACAD_GROUP
350
D
  3
ACAD_LAYOUT
350
1A
  3
ACAD_MATERIAL
350
6A
  3
ACAD_MLINESTYLE
350
17
  3
ACAD_PLOTSETTINGS
350
19
  3
ACAD_PLOTSTYLENAME
350
E
  3
ACAD_TABLESTYLE
350
7E
  3
ACDBHEADERROUNDTRIPXREC
350
CA7
  3
AcDbVariableDictionary
350
5E
  3
DWGPROPS
350
CA6
  0
DICTIONARY
  5
393
330
1F
100
AcDbDictionary
280
     1
281
     1
  3
ACAD_SORTENTS
360
394
  0
DICTIONARY
  5
415
330
3FF
100
AcDbDictionary
280
     1
281
     1
  3
ACAD_SORTENTS
360
416
  0
DICTIONARY
  5
6B
102
{ACAD_REACTORS
330
C
102
}
330
C
100
AcDbDictionary
281
     1
  0
DICTIONARY
  5
D
102
{ACAD_REACTORS
330
C
102
}
330
C
100
AcDbDictionary
281
     1
  0
DICTIONARY
  5
1A
102
{ACAD_REACTORS
330
C
102
}
330
C
100
AcDbDictionary
281
     1
  3
Layout1
350
D3
  3
Layout2
350
D7
  3
Model
350
22
  0
DICTIONARY
  5
6A
102
{ACAD_REACTORS
330
C
102
}
330
C
100
AcDbDictionary
281
     1
  0
DICTIONARY
  5
17
102
{ACAD_REACTORS
330
C
102
}
330
C
100
AcDbDictionary
281
     1
  3
Standard
350
18
  0
DICTIONARY
  5
19
102
{ACAD_REACTORS
330
C
102
}
330
C
100
AcDbDictionary
281
     1
  0
ACDBDICTIONARYWDFLT
  5
E
102
{ACAD_REACTORS
330
C
102
}
330
C
100
AcDbDictionary
281
     1
  3
Normal
350
F
100
AcDbDictionaryWithDefault
340
F
  0
DICTIONARY
  5
7E
102
{ACAD_REACTORS
330
C
102
}
330
C
100
AcDbDictionary
281
     1
  3
Standard
350
7F
  0
DICTIONARY
  5
CA7
102
{ACAD_REACTORS
330
C
102
}
330
C
100
AcDbDictionary
281
     1
  0
DICTIONARY
  5
5E
102
{ACAD_REACTORS
330
C
102
}
330
C
100
AcDbDictionary
281
     1
  3
CTABLESTYLE
350
84
  3
DIMASSOC
350
5F
  3
HIDETEXT
350
63
  3
PROJECTNAME
350
379
  0
XRECORD
  5
CA6
102
{ACAD_REACTORS
330
C
102
}
330
C
100
AcDbXrecord
280
     1
  1
DWGPROPS COOKIE
  2

  3

  4

  6

  7

  8
Autodesk
  9

300
=
301
=
302
=
303
=
304
=
305
=
306
=
307
=
308
=
309
=
 40
0.0620328935185185
 41
2454034.845179572
 42
2454042.004554931
  1

 90
        0
  0
SORTENTSTABLE
  5
394
102
{ACAD_REACTORS
330
393
102
}
330
393
100
AcDbSortentsTable
330
1F
  0
SORTENTSTABLE
  5
416
102
{ACAD_REACTORS
330
415
102
}
330
415
100
AcDbSortentsTable
330
3FF
  0
LAYOUT
  5
D3
102
{ACAD_XDICTIONARY
360
CAA
102
}
102
{ACAD_REACTORS
330
1A
102
}
330
1A
100
AcDbPlotSettings
  1

  2
C:\Documents and Settings\basas\Application Data\Autodesk\AutoCAD 2005\R16.1\enu\plotters\Default Windows System Printer.pc3
  4

  6

 40
0.0
 41
0.0
 42
0.0
 43
0.0
 44
0.0
 45
0.0
 46
0.0
 47
0.0
 48
0.0
 49
0.0
140
0.0
141
0.0
142
1.0
143
1.0
 70
   688
 72
     0
 73
     0
 74
     5
  7

 75
    16
147
1.0
148
0.0
149
0.0
100
AcDbLayout
  1
Layout1
 70
     1
 71
     1
 10
0.0
 20
0.0
 11
12.0
 21
9.0
 12
0.0
 22
0.0
 32
0.0
 14
0.0
 24
0.0
 34
0.0
 15
0.0
 25
0.0
 35
0.0
146
0.0
 13
0.0
 23
0.0
 33
0.0
 16
1.0
 26
0.0
 36
0.0
 17
0.0
 27
1.0
 37
0.0
 76
     0
330
D2
  0
LAYOUT
  5
D7
102
{ACAD_XDICTIONARY
360
CAC
102
}
102
{ACAD_REACTORS
330
1A
102
}
330
1A
100
AcDbPlotSettings
  1

  2
C:\Documents and Settings\basas\Application Data\Autodesk\AutoCAD 2005\R16.1\enu\plotters\Default Windows System Printer.pc3
  4

  6

 40
0.0
 41
0.0
 42
0.0
 43
0.0
 44
0.0
 45
0.0
 46
0.0
 47
0.0
 48
0.0
 49
0.0
140
0.0
141
0.0
142
1.0
143
1.0
 70
   688
 72
     0
 73
     0
 74
     5
  7

 75
    16
147
1.0
148
0.0
149
0.0
100
AcDbLayout
  1
Layout2
 70
     1
 71
     2
 10
0.0
 20
0.0
 11
12.0
 21
9.0
 12
0.0
 22
0.0
 32
0.0
 14
0.0
 24
0.0
 34
0.0
 15
0.0
 25
0.0
 35
0.0
146
0.0
 13
0.0
 23
0.0
 33
0.0
 16
1.0
 26
0.0
 36
0.0
 17
0.0
 27
1.0
 37
0.0
 76
     0
330
D6
  0
LAYOUT
  5
22
102
{ACAD_XDICTIONARY
360
CA8
102
}
102
{ACAD_REACTORS
330
1A
102
}
330
1A
100
AcDbPlotSettings
  1

  2
none_device
  4
ISO_A4_(210.00_x_297.00_MM)
  6

 40
7.5
 41
20.0
 42
7.5
 43
20.0
 44
210.0
 45
297.0
 46
11.54999923706054
 47
-13.65000009536743
 48
0.0
 49
0.0
140
0.0
141
0.0
142
1.0
143
8.704084754739808
 70
 11952
 72
     1
 73
     0
 74
     0
  7

 75
     0
147
0.1148885871608098
148
0.0
149
0.0
100
AcDbLayout
  1
Model
 70
     1
 71
     0
 10
0.0
 20
0.0
 11
12.0
 21
9.0
 12
0.0
 22
0.0
 32
0.0
 14
0.0
 24
0.0
 34
0.0
 15
0.0
 25
0.0
 35
0.0
146
0.0
 13
0.0
 23
0.0
 33
0.0
 16
1.0
 26
0.0
 36
0.0
 17
0.0
 27
1.0
 37
0.0
 76
     0
330
1F
1001
ACAD_PSEXT
1000
None
1000
None
1000
Not applicable
1000
The layout will not be plotted unless a new plotter configuration name is selected.
1070
     0
  0
MLINESTYLE
  5
18
102
{ACAD_REACTORS
330
17
102
}
330
17
100
AcDbMlineStyle
  2
STANDARD
 70
     0
  3

 62
   256
 51
90.0
 52
90.0
 71
     2
 49
0.5
 62
   256
  6
BYLAYER
 49
-0.5
 62
   256
  6
BYLAYER
  0
ACDBPLACEHOLDER
  5
F
102
{ACAD_REACTORS
330
E
102
}
330
E
  0
TABLESTYLE
  5
7F
102
{ACAD_REACTORS
330
7E
102
}
330
7E
100
AcDbTableStyle
  3
Standard
 70
     0
 71
     0
 40
1.5
 41
1.5
280
     0
281
     0
  7
Standard
140
4.5
170
     2
 62
     0
 63
     7
283
     0
274
    -2
284
     1
 64
     0
275
    -2
285
     1
 65
     0
276
    -2
286
     1
 66
     0
277
    -2
287
     1
 67
     0
278
    -2
288
     1
 68
     0
279
    -2
289
     1
 69
     0
  7
Standard
140
6.0
170
     5
 62
     0
 63
     7
283
     0
274
    -2
284
     1
 64
     0
275
    -2
285
     1
 65
     0
276
    -2
286
     1
 66
     0
277
    -2
287
     1
 67
     0
278
    -2
288
     1
 68
     0
279
    -2
289
     1
 69
     0
  7
Standard
140
4.5
170
     5
 62
     0
 63
     7
283
     0
274
    -2
284
     1
 64
     0
275
    -2
285
     1
 65
     0
276
    -2
286
     1
 66
     0
277
    -2
287
     1
 67
     0
278
    -2
288
     1
 68
     0
279
    -2
289
     1
 69
     0
  0
DICTIONARYVAR
  5
84
102
{ACAD_REACTORS
330
5E
102
}
330
5E
100
DictionaryVariables
280
     0
  1
STANDARD
  0
DICTIONARYVAR
  5
5F
102
{ACAD_REACTORS
330
5E
102
}
330
5E
100
DictionaryVariables
280
     0
  1
2
  0
DICTIONARYVAR
  5
63
102
{ACAD_REACTORS
330
5E
102
}
330
5E
100
DictionaryVariables
280
     0
  1
1
  0
DICTIONARYVAR
  5
379
102
{ACAD_REACTORS
330
5E
102
}
330
5E
100
DictionaryVariables
280
     0
  1

  0
DICTIONARY
  5
CAA
330
D3
100
AcDbDictionary
280
     1
281
     1
  3
ACAD_XREC_ROUNDTRIP
360
CAB
  0
DICTIONARY
  5
CAC
330
D7
100
AcDbDictionary
280
     1
281
     1
  3
ACAD_XREC_ROUNDTRIP
360
CAD
  0
DICTIONARY
  5
CA8
330
22
100
AcDbDictionary
280
     1
281
     1
  3
ACAD_XREC_ROUNDTRIP
360
CA9
  0
XRECORD
  5
CAB
102
{ACAD_REACTORS
330
CAA
102
}
330
CAA
100
AcDbXrecord
280
     1
102
SHADEPLOT
 70
     0
102
SHADEPLOTRESLEVEL
 70
     2
102
SHADEPLOTCUSTOMDPI
 70
   300
  0
XRECORD
  5
CAD
102
{ACAD_REACTORS
330
CAC
102
}
330
CAC
100
AcDbXrecord
280
     1
102
SHADEPLOT
 70
     0
102
SHADEPLOTRESLEVEL
 70
     2
102
SHADEPLOTCUSTOMDPI
 70
   300
  0
XRECORD
  5
CA9
102
{ACAD_REACTORS
330
CA8
102
}
330
CA8
100
AcDbXrecord
280
     1
102
SHADEPLOT
 70
     0
102
SHADEPLOTRESLEVEL
 70
     2
102
SHADEPLOTCUSTOMDPI
 70
   300
  0
ENDSEC
  0
EOF
