  0
SECTION
  2
HEADER
  9
$ACADVER
  1
AC1012
  9
$DWGCODEPAGE
  3
ansi_1252
  9
$INSBASE
 10
0.0
 20
0.0
 30
0.0
  9
$EXTMIN
 10
1.000000000000000E+20
 20
1.000000000000000E+20
 30
1.000000000000000E+20
  9
$EXTMAX
 10
-1.000000000000000E+20
 20
-1.000000000000000E+20
 30
-1.000000000000000E+20
  9
$LIMMIN
 10
0.0
 20
0.0
  9
$LIMMAX
 10
420.0
 20
297.0
  9
$ORTHOMODE
 70
     0
  9
$REGENMODE
 70
     1
  9
$FILLMODE
 70
     1
  9
$QTEXTMODE
 70
     0
  9
$MIRRTEXT
 70
     1
  9
$DRAGMODE
 70
     2
  9
$LTSCALE
 40
1.0
  9
$OSMODE
 70
    37
  9
$ATTMODE
 70
     1
  9
$TEXTSIZE
 40
2.5
  9
$TRACEWID
 40
1.0
  9
$TEXTSTYLE
  7
STANDARD
  9
$CLAYER
  8
0
  9
$CELTYPE
  6
BYLAYER
  9
$CECOLOR
 62
   256
  9
$CELTSCALE
 40
1.0
  9
$DELOBJ
 70
     1
  9
$DISPSILH
 70
     0
  9
$DIMSCALE
 40
1.0
  9
$DIMASZ
 40
2.5
  9
$DIMEXO
 40
0.625
  9
$DIMDLI
 40
3.75
  9
$DIMRND
 40
0.0
  9
$DIMDLE
 40
0.0
  9
$DIMEXE
 40
1.25
  9
$DIMTP
 40
0.0
  9
$DIMTM
 40
0.0
  9
$DIMTXT
 40
2.5
  9
$DIMCEN
 40
2.5
  9
$DIMTSZ
 40
0.0
  9
$DIMTOL
 70
     0
  9
$DIMLIM
 70
     0
  9
$DIMTIH
 70
     0
  9
$DIMTOH
 70
     0
  9
$DIMSE1
 70
     0
  9
$DIMSE2
 70
     0
  9
$DIMTAD
 70
     1
  9
$DIMZIN
 70
     8
  9
$DIMBLK
  1

  9
$DIMASO
 70
     1
  9
$DIMSHO
 70
     1
  9
$DIMPOST
  1

  9
$DIMAPOST
  1

  9
$DIMALT
 70
     0
  9
$DIMALTD
 70
     3
  9
$DIMALTF
 40
0.03937007874016
  9
$DIMLFAC
 40
1.0
  9
$DIMTOFL
 70
     1
  9
$DIMTVP
 40
0.0
  9
$DIMTIX
 70
     0
  9
$DIMSOXD
 70
     0
  9
$DIMSAH
 70
     0
  9
$DIMBLK1
  1

  9
$DIMBLK2
  1

  9
$DIMSTYLE
  2
ISO-25
  9
$DIMCLRD
 70
     0
  9
$DIMCLRE
 70
     0
  9
$DIMCLRT
 70
     0
  9
$DIMTFAC
 40
1.0
  9
$DIMGAP
 40
0.625
  9
$DIMJUST
 70
     0
  9
$DIMSD1
 70
     0
  9
$DIMSD2
 70
     0
  9
$DIMTOLJ
 70
     0
  9
$DIMTZIN
 70
     8
  9
$DIMALTZ
 70
     0
  9
$DIMALTTZ
 70
     0
  9
$DIMFIT
 70
     3
  9
$DIMUPT
 70
     0
  9
$DIMUNIT
 70
     2
  9
$DIMDEC
 70
     2
  9
$DIMTDEC
 70
     2
  9
$DIMALTU
 70
     2
  9
$DIMALTTD
 70
     3
  9
$DIMTXSTY
  7
STANDARD
  9
$DIMAUNIT
 70
     0
  9
$LUNITS
 70
     2
  9
$LUPREC
 70
     4
  9
$SKETCHINC
 40
1.0
  9
$FILLETRAD
 40
10.0
  9
$AUNITS
 70
     0
  9
$AUPREC
 70
     0
  9
$MENU
  1
.
  9
$ELEVATION
 40
0.0
  9
$PELEVATION
 40
0.0
  9
$THICKNESS
 40
0.0
  9
$LIMCHECK
 70
     0
  9
$CHAMFERA
 40
0.0
  9
$CHAMFERB
 40
0.0
  9
$CHAMFERC
 40
0.0
  9
$CHAMFERD
 40
0.0
  9
$SKPOLY
 70
     0
  9
$TDCREATE
 40
2458051.655555509
  9
$TDUPDATE
 40
2458051.655558391
  9
$TDINDWG
 40
0.0000000116
  9
$TDUSRTIMER
 40
0.0000000116
  9
$USRTIMER
 70
     1
  9
$ANGBASE
 50
0.0
  9
$ANGDIR
 70
     0
  9
$PDMODE
 70
     0
  9
$PDSIZE
 40
0.0
  9
$PLINEWID
 40
0.0
  9
$COORDS
 70
     1
  9
$SPLFRAME
 70
     0
  9
$SPLINETYPE
 70
     6
  9
$SPLINESEGS
 70
     8
  9
$ATTDIA
 70
     0
  9
$ATTREQ
 70
     1
  9
$HANDLING
 70
     1
  9
$HANDSEED
  5
279
  9
$SURFTAB1
 70
     6
  9
$SURFTAB2
 70
     6
  9
$SURFTYPE
 70
     6
  9
$SURFU
 70
     6
  9
$SURFV
 70
     6
  9
$UCSNAME
  2

  9
$UCSORG
 10
0.0
 20
0.0
 30
0.0
  9
$UCSXDIR
 10
1.0
 20
0.0
 30
0.0
  9
$UCSYDIR
 10
0.0
 20
1.0
 30
0.0
  9
$PUCSNAME
  2

  9
$PUCSORG
 10
0.0
 20
0.0
 30
0.0
  9
$PUCSXDIR
 10
1.0
 20
0.0
 30
0.0
  9
$PUCSYDIR
 10
0.0
 20
1.0
 30
0.0
  9
$USERI1
 70
     0
  9
$USERI2
 70
     0
  9
$USERI3
 70
     0
  9
$USERI4
 70
     0
  9
$USERI5
 70
     0
  9
$USERR1
 40
0.0
  9
$USERR2
 40
0.0
  9
$USERR3
 40
0.0
  9
$USERR4
 40
0.0
  9
$USERR5
 40
0.0
  9
$WORLDVIEW
 70
     1
  9
$SHADEDGE
 70
     3
  9
$SHADEDIF
 70
    70
  9
$TILEMODE
 70
     1
  9
$MAXACTVP
 70
    64
  9
$PINSBASE
 10
0.0
 20
0.0
 30
0.0
  9
$PLIMCHECK
 70
     0
  9
$PEXTMIN
 10
1.000000000000000E+20
 20
1.000000000000000E+20
 30
1.000000000000000E+20
  9
$PEXTMAX
 10
-1.000000000000000E+20
 20
-1.000000000000000E+20
 30
-1.000000000000000E+20
  9
$PLIMMIN
 10
0.0
 20
0.0
  9
$PLIMMAX
 10
420.0
 20
297.0
  9
$UNITMODE
 70
     0
  9
$VISRETAIN
 70
     1
  9
$PLINEGEN
 70
     0
  9
$PSLTSCALE
 70
     1
  9
$TREEDEPTH
 70
  3020
  9
$PICKSTYLE
 70
     1
  9
$CMLSTYLE
  2
STANDARD
  9
$CMLJUST
 70
     0
  9
$CMLSCALE
 40
20.0
  9
$SAVEIMAGES
 70
     1
  0
ENDSEC
  0
SECTION
  2
CLASSES
  0
CLASS
  1
ACDBDICTIONARYWDFLT
  2
AcDbDictionaryWithDefault
  3
ObjectDBX Classes
 90
    32768
280
     0
281
     0
  0
CLASS
  1
VISUALSTYLE
  2
AcDbVisualStyle
  3
ObjectDBX Classes
 90
     4095
280
     0
281
     0
  0
CLASS
  1
MATERIAL
  2
AcDbMaterial
  3
ObjectDBX Classes
 90
     1153
280
     0
281
     0
  0
CLASS
  1
SCALE
  2
AcDbScale
  3
ObjectDBX Classes
 90
     1153
280
     0
281
     0
  0
CLASS
  1
TABLESTYLE
  2
AcDbTableStyle
  3
ObjectDBX Classes
 90
     4095
280
     0
281
     0
  0
CLASS
  1
MLEADERSTYLE
  2
AcDbMLeaderStyle
  3
ACDB_MLEADERSTYLE_CLASS
 90
     4095
280
     0
281
     0
  0
CLASS
  1
SUN
  2
AcDbSun
  3
SCENEOE
 90
     1153
280
     0
281
     0
  0
CLASS
  1
DICTIONARYVAR
  2
AcDbDictionaryVar
  3
ObjectDBX Classes
 90
        0
280
     0
281
     0
  0
CLASS
  1
XRECORD
  2
AcDbXrecord
  3
ObjectDBX Classes
 90
    32768
280
     0
281
     0
  0
CLASS
  1
LWPOLYLINE
  2
AcDbPolyline
  3
ObjectDBX Classes
 90
    32768
280
     0
281
     1
  0
CLASS
  1
HATCH
  2
AcDbHatch
  3
ObjectDBX Classes
 90
    32768
280
     0
281
     1
  0
CLASS
  1
ACDBPLACEHOLDER
  2
AcDbPlaceHolder
  3
ObjectDBX Classes
 90
        0
280
     0
281
     0
  0
CLASS
  1
LAYOUT
  2
AcDbLayout
  3
ObjectDBX Classes
 90
        0
280
     0
281
     0
  0
ENDSEC
  0
SECTION
  2
TABLES
  0
TABLE
  2
VPORT
  5
8
330
0
100
AcDbSymbolTable
 70
     1
  0
VPORT
  5
29
330
8
100
AcDbSymbolTableRecord
100
AcDbViewportTableRecord
  2
*ACTIVE
 70
     0
 10
0.0
 20
0.0
 11
1.0
 21
1.0
 12
-0.0000000000001705
 22
0.5
 13
0.0
 23
0.0
 14
10.0
 24
10.0
 15
10.0
 25
10.0
 16
0.0
 26
0.0
 36
1.0
 17
0.0
 27
0.0
 37
0.0
 40
906.78
 41
1.725084364454443
 42
50.0
 43
0.0
 44
0.0
 50
0.0
 51
0.0
 71
     0
 72
   100
 73
     1
 74
     3
 75
     0
 76
     0
 77
     0
 78
     0
  0
ENDTAB
  0
TABLE
  2
LTYPE
  5
5
330
0
100
AcDbSymbolTable
 70
     1
  0
LTYPE
  5
14
330
5
100
AcDbSymbolTableRecord
100
AcDbLinetypeTableRecord
  2
BYBLOCK
 70
     0
  3

 72
    65
 73
     0
 40
0.0
  0
LTYPE
  5
15
330
5
100
AcDbSymbolTableRecord
100
AcDbLinetypeTableRecord
  2
BYLAYER
 70
     0
  3

 72
    65
 73
     0
 40
0.0
  0
LTYPE
  5
16
330
5
100
AcDbSymbolTableRecord
100
AcDbLinetypeTableRecord
  2
CONTINUOUS
 70
     0
  3
Solid line
 72
    65
 73
     0
 40
0.0
  0
ENDTAB
  0
TABLE
  2
LAYER
  5
2
330
0
100
AcDbSymbolTable
 70
     4
  0
LAYER
  5
10
330
2
100
AcDbSymbolTableRecord
100
AcDbLayerTableRecord
  2
0
 70
     0
 62
     7
  6
CONTINUOUS
  0
LAYER
  5
6E
330
2
100
AcDbSymbolTableRecord
100
AcDbLayerTableRecord
  2
THICK
 70
     0
 62
     7
  6
CONTINUOUS
  0
LAYER
  5
6F
330
2
100
AcDbSymbolTableRecord
100
AcDbLayerTableRecord
  2
HIDDEN
 70
     0
 62
     7
  6
CONTINUOUS
  0
LAYER
  5
70
330
2
100
AcDbSymbolTableRecord
100
AcDbLayerTableRecord
  2
HASHLINES
 70
     0
 62
     7
  6
CONTINUOUS
  0
ENDTAB
  0
TABLE
  2
STYLE
  5
3
330
0
100
AcDbSymbolTable
 70
     1
  0
STYLE
  5
11
330
3
100
AcDbSymbolTableRecord
100
AcDbTextStyleTableRecord
  2
STANDARD
 70
     0
 40
0.0
 41
1.0
 50
0.0
 71
     0
 42
2.5
  3
txt
  4

  0
ENDTAB
  0
TABLE
  2
VIEW
  5
6
330
0
100
AcDbSymbolTable
 70
     0
  0
ENDTAB
  0
TABLE
  2
UCS
  5
7
330
0
100
AcDbSymbolTable
 70
     0
  0
ENDTAB
  0
TABLE
  2
APPID
  5
9
330
0
100
AcDbSymbolTable
 70
     3
  0
APPID
  5
12
330
9
100
AcDbSymbolTableRecord
100
AcDbRegAppTableRecord
  2
ACAD
 70
     0
  0
APPID
  5
71
330
9
100
AcDbSymbolTableRecord
100
AcDbRegAppTableRecord
  2
DBPROPERTIES
 70
     0
  0
APPID
  5
278
330
9
100
AcDbSymbolTableRecord
100
AcDbRegAppTableRecord
  2
ACAD_MLEADERVER
 70
     0
  0
ENDTAB
  0
TABLE
  2
DIMSTYLE
  5
A
330
0
100
AcDbSymbolTable
 70
     1
  0
DIMSTYLE
105
27
330
A
100
AcDbSymbolTableRecord
100
AcDbDimStyleTableRecord
  2
ISO-25
 70
     0
  3

  4

  5

  6

  7

 40
1.0
 41
2.5
 42
0.625
 43
3.75
 44
1.25
 45
0.0
 46
0.0
 47
0.0
 48
0.0
140
2.5
141
2.5
142
0.0
143
0.03937007874016
144
1.0
145
0.0
146
1.0
147
0.625
 71
     0
 72
     0
 73
     0
 74
     0
 75
     0
 76
     0
 77
     1
 78
     8
170
     0
171
     3
172
     1
173
     0
174
     0
175
     0
176
     0
177
     0
178
     0
270
     2
271
     2
272
     2
273
     2
274
     3
340
11
275
     0
280
     0
281
     0
282
     0
283
     0
284
     8
285
     0
286
     0
287
     3
288
     0
  0
ENDTAB
  0
TABLE
  2
BLOCK_RECORD
  5
1
330
0
100
AcDbSymbolTable
 70
     0
  0
BLOCK_RECORD
  5
1F
330
1
100
AcDbSymbolTableRecord
100
AcDbBlockTableRecord
  2
*MODEL_SPACE
  0
BLOCK_RECORD
  5
1B
330
1
100
AcDbSymbolTableRecord
100
AcDbBlockTableRecord
  2
*PAPER_SPACE
  0
ENDTAB
  0
ENDSEC
  0
SECTION
  2
BLOCKS
  0
BLOCK
  5
20
330
1F
100
AcDbEntity
  8
0
100
AcDbBlockBegin
  2
*MODEL_SPACE
 70
     0
 10
0.0
 20
0.0
 30
0.0
  3
*MODEL_SPACE
  1

  0
ENDBLK
  5
21
330
1F
100
AcDbEntity
  8
0
100
AcDbBlockEnd
  0
BLOCK
  5
1C
330
1B
100
AcDbEntity
 67
     1
  8
0
100
AcDbBlockBegin
  2
*PAPER_SPACE
 70
     0
 10
0.0
 20
0.0
 30
0.0
  3
*PAPER_SPACE
  1

  0
ENDBLK
  5
1D
330
1B
100
AcDbEntity
 67
     1
  8
0
100
AcDbBlockEnd
  0
ENDSEC
  0
SECTION
  2
ENTITIES
  0
LINE
  5
72
330
1F
100
AcDbEntity
  8
HIDDEN
100
AcDbLine
 10
575.0999999999999
 20
377.1
 30
0.0
 11
575.1
 21
377.1
 31
0.0
1001
DBPROPERTIES
1002
{
1000
PbHidd
1002
}
  0
LINE
  5
73
330
1F
100
AcDbEntity
  8
THICK
100
AcDbLine
 10
-575.1
 20
377.1
 30
0.0
 11
575.1
 21
377.1
 31
0.0
1001
DBPROPERTIES
1002
{
1000
PbThick
1002
}
  0
LINE
  5
74
330
1F
100
AcDbEntity
  8
HIDDEN
100
AcDbLine
 10
-575.1
 20
377.1
 30
0.0
 11
-575.1
 21
377.1
 31
0.0
1001
DBPROPERTIES
1002
{
1000
PbHidd
1002
}
  0
LINE
  5
75
330
1F
100
AcDbEntity
  8
HIDDEN
100
AcDbLine
 10
259.6000000000001
 20
377.1
 30
0.0
 11
259.6
 21
377.1
 31
0.0
1001
DBPROPERTIES
1002
{
1000
PbHidd
1002
}
  0
LINE
  5
76
330
1F
100
AcDbEntity
  8
THICK
100
AcDbLine
 10
-547.15
 20
445.0
 30
0.0
 11
-543.15
 21
445.0
 31
0.0
1001
DBPROPERTIES
1002
{
1000
PbThick
1002
}
  0
ARC
  5
77
330
1F
100
AcDbEntity
  8
THICK
100
AcDbCircle
 10
-547.15
 20
444.0
 30
0.0
 40
1.0
100
AcDbArc
 50
90.00135637473997
 51
180.0000198478428
1001
DBPROPERTIES
1002
{
1000
PbThick
1002
}
  0
LINE
  5
78
330
1F
100
AcDbEntity
  8
THICK
100
AcDbLine
 10
-548.15
 20
444.0
 30
0.0
 11
-543.15
 21
444.0
 31
0.0
1001
DBPROPERTIES
1002
{
1000
PbThick
1002
}
  0
LINE
  5
79
330
1F
100
AcDbEntity
  8
THICK
100
AcDbLine
 10
-543.15
 20
444.0
 30
0.0
 11
-538.15
 21
444.0
 31
0.0
1001
DBPROPERTIES
1002
{
1000
PbThick
1002
}
  0
ARC
  5
7A
330
1F
100
AcDbEntity
  8
THICK
100
AcDbCircle
 10
-539.15
 20
444.0
 30
0.0
 40
1.0
100
AcDbArc
 50
0.0
 51
90.00135637473997
1001
DBPROPERTIES
1002
{
1000
PbThick
1002
}
  0
LINE
  5
7B
330
1F
100
AcDbEntity
  8
THICK
100
AcDbLine
 10
-543.15
 20
445.0
 30
0.0
 11
-539.15
 21
445.0
 31
0.0
1001
DBPROPERTIES
1002
{
1000
PbThick
1002
}
  0
LINE
  5
7C
330
1F
100
AcDbEntity
  8
HIDDEN
100
AcDbLine
 10
-543.15
 20
444.0
 30
0.0
 11
-548.15
 21
444.0
 31
0.0
1001
DBPROPERTIES
1002
{
1000
PbHidd
1002
}
  0
LINE
  5
7D
330
1F
100
AcDbEntity
  8
THICK
100
AcDbLine
 10
219.65
 20
445.0
 30
0.0
 11
223.65
 21
445.0
 31
0.0
1001
DBPROPERTIES
1002
{
1000
PbThick
1002
}
  0
ARC
  5
7E
330
1F
100
AcDbEntity
  8
THICK
100
AcDbCircle
 10
219.65
 20
444.0
 30
0.0
 40
1.0
100
AcDbArc
 50
90.00032505070875
 51
180.0000198478428
1001
DBPROPERTIES
1002
{
1000
PbThick
1002
}
  0
LINE
  5
7F
330
1F
100
AcDbEntity
  8
THICK
100
AcDbLine
 10
218.65
 20
444.0
 30
0.0
 11
223.65
 21
444.0
 31
0.0
1001
DBPROPERTIES
1002
{
1000
PbThick
1002
}
  0
LINE
  5
80
330
1F
100
AcDbEntity
  8
THICK
100
AcDbLine
 10
223.65
 20
444.0
 30
0.0
 11
228.65
 21
444.0
 31
0.0
1001
DBPROPERTIES
1002
{
1000
PbThick
1002
}
  0
ARC
  5
81
330
1F
100
AcDbEntity
  8
THICK
100
AcDbCircle
 10
227.65
 20
444.0
 30
0.0
 40
1.0
100
AcDbArc
 50
0.0
 51
90.00032505070875
1001
DBPROPERTIES
1002
{
1000
PbThick
1002
}
  0
LINE
  5
82
330
1F
100
AcDbEntity
  8
THICK
100
AcDbLine
 10
223.65
 20
445.0
 30
0.0
 11
227.65
 21
445.0
 31
0.0
1001
DBPROPERTIES
1002
{
1000
PbThick
1002
}
  0
LINE
  5
83
330
1F
100
AcDbEntity
  8
HIDDEN
100
AcDbLine
 10
223.65
 20
444.0
 30
0.0
 11
218.65
 21
444.0
 31
0.0
1001
DBPROPERTIES
1002
{
1000
PbHidd
1002
}
  0
LINE
  5
84
330
1F
100
AcDbEntity
  8
HIDDEN
100
AcDbLine
 10
-548.15
 20
444.0
 30
0.0
 11
-543.15
 21
444.0
 31
0.0
1001
DBPROPERTIES
1002
{
1000
PbHidd
1002
}
  0
LINE
  5
85
330
1F
100
AcDbEntity
  8
HIDDEN
100
AcDbLine
 10
-543.15
 20
444.0
 30
0.0
 11
-538.15
 21
444.0
 31
0.0
1001
DBPROPERTIES
1002
{
1000
PbHidd
1002
}
  0
LINE
  5
86
330
1F
100
AcDbEntity
  8
HIDDEN
100
AcDbLine
 10
-543.15
 20
444.0
 30
0.0
 11
-548.15
 21
444.0
 31
0.0
1001
DBPROPERTIES
1002
{
1000
PbHidd
1002
}
  0
LINE
  5
87
330
1F
100
AcDbEntity
  8
HIDDEN
100
AcDbLine
 10
218.65
 20
444.0
 30
0.0
 11
223.65
 21
444.0
 31
0.0
1001
DBPROPERTIES
1002
{
1000
PbHidd
1002
}
  0
LINE
  5
88
330
1F
100
AcDbEntity
  8
HIDDEN
100
AcDbLine
 10
223.65
 20
444.0
 30
0.0
 11
228.65
 21
444.0
 31
0.0
1001
DBPROPERTIES
1002
{
1000
PbHidd
1002
}
  0
LINE
  5
89
330
1F
100
AcDbEntity
  8
HIDDEN
100
AcDbLine
 10
223.65
 20
444.0
 30
0.0
 11
218.65
 21
444.0
 31
0.0
1001
DBPROPERTIES
1002
{
1000
PbHidd
1002
}
  0
LINE
  5
8A
330
1F
100
AcDbEntity
  8
HIDDEN
100
AcDbLine
 10
-548.15
 20
444.0
 30
0.0
 11
-543.15
 21
444.0
 31
0.0
1001
DBPROPERTIES
1002
{
1000
PbHidd
1002
}
  0
LINE
  5
8B
330
1F
100
AcDbEntity
  8
HIDDEN
100
AcDbLine
 10
-543.15
 20
444.0
 30
0.0
 11
-538.15
 21
444.0
 31
0.0
1001
DBPROPERTIES
1002
{
1000
PbHidd
1002
}
  0
LINE
  5
8C
330
1F
100
AcDbEntity
  8
HIDDEN
100
AcDbLine
 10
-543.15
 20
444.0
 30
0.0
 11
-548.15
 21
444.0
 31
0.0
1001
DBPROPERTIES
1002
{
1000
PbHidd
1002
}
  0
LINE
  5
8D
330
1F
100
AcDbEntity
  8
HIDDEN
100
AcDbLine
 10
218.65
 20
444.0
 30
0.0
 11
223.65
 21
444.0
 31
0.0
1001
DBPROPERTIES
1002
{
1000
PbHidd
1002
}
  0
LINE
  5
8E
330
1F
100
AcDbEntity
  8
HIDDEN
100
AcDbLine
 10
223.65
 20
444.0
 30
0.0
 11
228.65
 21
444.0
 31
0.0
1001
DBPROPERTIES
1002
{
1000
PbHidd
1002
}
  0
LINE
  5
8F
330
1F
100
AcDbEntity
  8
HIDDEN
100
AcDbLine
 10
223.65
 20
444.0
 30
0.0
 11
218.65
 21
444.0
 31
0.0
1001
DBPROPERTIES
1002
{
1000
PbHidd
1002
}
  0
LINE
  5
90
330
1F
100
AcDbEntity
  8
HIDDEN
100
AcDbLine
 10
-548.15
 20
444.0
 30
0.0
 11
-543.15
 21
444.0
 31
0.0
1001
DBPROPERTIES
1002
{
1000
PbHidd
1002
}
  0
LINE
  5
91
330
1F
100
AcDbEntity
  8
HIDDEN
100
AcDbLine
 10
-543.15
 20
444.0
 30
0.0
 11
-538.15
 21
444.0
 31
0.0
1001
DBPROPERTIES
1002
{
1000
PbHidd
1002
}
  0
LINE
  5
92
330
1F
100
AcDbEntity
  8
HIDDEN
100
AcDbLine
 10
-543.15
 20
444.0
 30
0.0
 11
-548.15
 21
444.0
 31
0.0
1001
DBPROPERTIES
1002
{
1000
PbHidd
1002
}
  0
LINE
  5
93
330
1F
100
AcDbEntity
  8
HIDDEN
100
AcDbLine
 10
218.6499999999999
 20
444.0
 30
0.0
 11
223.6499999999999
 21
444.0
 31
0.0
1001
DBPROPERTIES
1002
{
1000
PbHidd
1002
}
  0
LINE
  5
94
330
1F
100
AcDbEntity
  8
HIDDEN
100
AcDbLine
 10
223.6499999999999
 20
444.0
 30
0.0
 11
228.6499999999999
 21
444.0
 31
0.0
1001
DBPROPERTIES
1002
{
1000
PbHidd
1002
}
  0
LINE
  5
95
330
1F
100
AcDbEntity
  8
HIDDEN
100
AcDbLine
 10
223.6499999999999
 20
444.0
 30
0.0
 11
218.6499999999999
 21
444.0
 31
0.0
1001
DBPROPERTIES
1002
{
1000
PbHidd
1002
}
  0
LINE
  5
96
330
1F
100
AcDbEntity
  8
HIDDEN
100
AcDbLine
 10
-548.15
 20
444.0
 30
0.0
 11
-543.15
 21
444.0
 31
0.0
1001
DBPROPERTIES
1002
{
1000
PbHidd
1002
}
  0
LINE
  5
97
330
1F
100
AcDbEntity
  8
HIDDEN
100
AcDbLine
 10
-543.15
 20
444.0
 30
0.0
 11
-538.15
 21
444.0
 31
0.0
1001
DBPROPERTIES
1002
{
1000
PbHidd
1002
}
  0
LINE
  5
98
330
1F
100
AcDbEntity
  8
HIDDEN
100
AcDbLine
 10
-543.15
 20
444.0
 30
0.0
 11
-548.15
 21
444.0
 31
0.0
1001
DBPROPERTIES
1002
{
1000
PbHidd
1002
}
  0
LINE
  5
99
330
1F
100
AcDbEntity
  8
HIDDEN
100
AcDbLine
 10
218.6499999999999
 20
444.0
 30
0.0
 11
223.6499999999999
 21
444.0
 31
0.0
1001
DBPROPERTIES
1002
{
1000
PbHidd
1002
}
  0
LINE
  5
9A
330
1F
100
AcDbEntity
  8
HIDDEN
100
AcDbLine
 10
223.6499999999999
 20
444.0
 30
0.0
 11
228.6499999999999
 21
444.0
 31
0.0
1001
DBPROPERTIES
1002
{
1000
PbHidd
1002
}
  0
LINE
  5
9B
330
1F
100
AcDbEntity
  8
HIDDEN
100
AcDbLine
 10
223.6499999999999
 20
444.0
 30
0.0
 11
218.6499999999999
 21
444.0
 31
0.0
1001
DBPROPERTIES
1002
{
1000
PbHidd
1002
}
  0
LINE
  5
9C
330
1F
100
AcDbEntity
  8
THICK
100
AcDbLine
 10
-515.1999999999999
 20
445.0
 30
0.0
 11
-511.1999999999999
 21
445.0
 31
0.0
1001
DBPROPERTIES
1002
{
1000
PbThick
1002
}
  0
ARC
  5
9D
330
1F
100
AcDbEntity
  8
THICK
100
AcDbCircle
 10
-515.1999999999999
 20
444.0
 30
0.0
 40
1.0
100
AcDbArc
 50
90.00066882538582
 51
180.0000198478428
1001
DBPROPERTIES
1002
{
1000
PbThick
1002
}
  0
LINE
  5
9E
330
1F
100
AcDbEntity
  8
THICK
100
AcDbLine
 10
-516.1999999999999
 20
444.0
 30
0.0
 11
-511.1999999999999
 21
444.0
 31
0.0
1001
DBPROPERTIES
1002
{
1000
PbThick
1002
}
  0
LINE
  5
9F
330
1F
100
AcDbEntity
  8
THICK
100
AcDbLine
 10
-511.1999999999999
 20
444.0
 30
0.0
 11
-506.1999999999999
 21
444.0
 31
0.0
1001
DBPROPERTIES
1002
{
1000
PbThick
1002
}
  0
ARC
  5
A0
330
1F
100
AcDbEntity
  8
THICK
100
AcDbCircle
 10
-507.1999999999999
 20
444.0
 30
0.0
 40
1.0
100
AcDbArc
 50
0.0
 51
90.00066882538582
1001
DBPROPERTIES
1002
{
1000
PbThick
1002
}
  0
LINE
  5
A1
330
1F
100
AcDbEntity
  8
THICK
100
AcDbLine
 10
-511.1999999999999
 20
445.0
 30
0.0
 11
-507.1999999999999
 21
445.0
 31
0.0
1001
DBPROPERTIES
1002
{
1000
PbThick
1002
}
  0
LINE
  5
A2
330
1F
100
AcDbEntity
  8
HIDDEN
100
AcDbLine
 10
-511.1999999999999
 20
444.0
 30
0.0
 11
-516.1999999999999
 21
444.0
 31
0.0
1001
DBPROPERTIES
1002
{
1000
PbHidd
1002
}
  0
LINE
  5
A3
330
1F
100
AcDbEntity
  8
THICK
100
AcDbLine
 10
-339.475
 20
445.0
 30
0.0
 11
-335.475
 21
445.0
 31
0.0
1001
DBPROPERTIES
1002
{
1000
PbThick
1002
}
  0
ARC
  5
A4
330
1F
100
AcDbEntity
  8
THICK
100
AcDbCircle
 10
-339.475
 20
444.0
 30
0.0
 40
1.0
100
AcDbArc
 50
90.00032505070875
 51
180.0000198478428
1001
DBPROPERTIES
1002
{
1000
PbThick
1002
}
  0
LINE
  5
A5
330
1F
100
AcDbEntity
  8
THICK
100
AcDbLine
 10
-340.475
 20
444.0
 30
0.0
 11
-335.475
 21
444.0
 31
0.0
1001
DBPROPERTIES
1002
{
1000
PbThick
1002
}
  0
LINE
  5
A6
330
1F
100
AcDbEntity
  8
THICK
100
AcDbLine
 10
-335.475
 20
444.0
 30
0.0
 11
-330.475
 21
444.0
 31
0.0
1001
DBPROPERTIES
1002
{
1000
PbThick
1002
}
  0
ARC
  5
A7
330
1F
100
AcDbEntity
  8
THICK
100
AcDbCircle
 10
-331.475
 20
444.0
 30
0.0
 40
1.0
100
AcDbArc
 50
0.0
 51
90.00032505070875
1001
DBPROPERTIES
1002
{
1000
PbThick
1002
}
  0
LINE
  5
A8
330
1F
100
AcDbEntity
  8
THICK
100
AcDbLine
 10
-335.475
 20
445.0
 30
0.0
 11
-331.475
 21
445.0
 31
0.0
1001
DBPROPERTIES
1002
{
1000
PbThick
1002
}
  0
LINE
  5
A9
330
1F
100
AcDbEntity
  8
HIDDEN
100
AcDbLine
 10
-335.475
 20
444.0
 30
0.0
 11
-340.475
 21
444.0
 31
0.0
1001
DBPROPERTIES
1002
{
1000
PbHidd
1002
}
  0
LINE
  5
AA
330
1F
100
AcDbEntity
  8
THICK
100
AcDbLine
 10
-163.75
 20
445.0
 30
0.0
 11
-159.75
 21
445.0
 31
0.0
1001
DBPROPERTIES
1002
{
1000
PbThick
1002
}
  0
ARC
  5
AB
330
1F
100
AcDbEntity
  8
THICK
100
AcDbCircle
 10
-163.75
 20
444.0
 30
0.0
 40
1.0
100
AcDbArc
 50
89.99998127603165
 51
180.0000198478428
1001
DBPROPERTIES
1002
{
1000
PbThick
1002
}
  0
LINE
  5
AC
330
1F
100
AcDbEntity
  8
THICK
100
AcDbLine
 10
-164.75
 20
444.0
 30
0.0
 11
-159.75
 21
444.0
 31
0.0
1001
DBPROPERTIES
1002
{
1000
PbThick
1002
}
  0
LINE
  5
AD
330
1F
100
AcDbEntity
  8
THICK
100
AcDbLine
 10
-159.75
 20
444.0
 30
0.0
 11
-154.75
 21
444.0
 31
0.0
1001
DBPROPERTIES
1002
{
1000
PbThick
1002
}
  0
ARC
  5
AE
330
1F
100
AcDbEntity
  8
THICK
100
AcDbCircle
 10
-155.75
 20
444.0
 30
0.0
 40
1.0
100
AcDbArc
 50
0.0
 51
89.99998127603165
1001
DBPROPERTIES
1002
{
1000
PbThick
1002
}
  0
LINE
  5
AF
330
1F
100
AcDbEntity
  8
THICK
100
AcDbLine
 10
-159.75
 20
445.0
 30
0.0
 11
-155.75
 21
445.0
 31
0.0
1001
DBPROPERTIES
1002
{
1000
PbThick
1002
}
  0
LINE
  5
B0
330
1F
100
AcDbEntity
  8
HIDDEN
100
AcDbLine
 10
-159.75
 20
444.0
 30
0.0
 11
-164.75
 21
444.0
 31
0.0
1001
DBPROPERTIES
1002
{
1000
PbHidd
1002
}
  0
LINE
  5
B1
330
1F
100
AcDbEntity
  8
THICK
100
AcDbLine
 10
11.975
 20
445.0
 30
0.0
 11
15.975
 21
445.0
 31
0.0
1001
DBPROPERTIES
1002
{
1000
PbThick
1002
}
  0
ARC
  5
B2
330
1F
100
AcDbEntity
  8
THICK
100
AcDbCircle
 10
11.975
 20
444.0
 30
0.0
 40
1.0
100
AcDbArc
 50
89.99998127603165
 51
180.0000198478428
1001
DBPROPERTIES
1002
{
1000
PbThick
1002
}
  0
LINE
  5
B3
330
1F
100
AcDbEntity
  8
THICK
100
AcDbLine
 10
10.975
 20
444.0
 30
0.0
 11
15.975
 21
444.0
 31
0.0
1001
DBPROPERTIES
1002
{
1000
PbThick
1002
}
  0
LINE
  5
B4
330
1F
100
AcDbEntity
  8
THICK
100
AcDbLine
 10
15.975
 20
444.0
 30
0.0
 11
20.975
 21
444.0
 31
0.0
1001
DBPROPERTIES
1002
{
1000
PbThick
1002
}
  0
ARC
  5
B5
330
1F
100
AcDbEntity
  8
THICK
100
AcDbCircle
 10
19.975
 20
444.0
 30
0.0
 40
1.0
100
AcDbArc
 50
0.0
 51
89.99998127603165
1001
DBPROPERTIES
1002
{
1000
PbThick
1002
}
  0
LINE
  5
B6
330
1F
100
AcDbEntity
  8
THICK
100
AcDbLine
 10
15.975
 20
445.0
 30
0.0
 11
19.975
 21
445.0
 31
0.0
1001
DBPROPERTIES
1002
{
1000
PbThick
1002
}
  0
LINE
  5
B7
330
1F
100
AcDbEntity
  8
HIDDEN
100
AcDbLine
 10
15.975
 20
444.0
 30
0.0
 11
10.975
 21
444.0
 31
0.0
1001
DBPROPERTIES
1002
{
1000
PbHidd
1002
}
  0
LINE
  5
B8
330
1F
100
AcDbEntity
  8
THICK
100
AcDbLine
 10
187.7
 20
445.0
 30
0.0
 11
191.7
 21
445.0
 31
0.0
1001
DBPROPERTIES
1002
{
1000
PbThick
1002
}
  0
ARC
  5
B9
330
1F
100
AcDbEntity
  8
THICK
100
AcDbCircle
 10
187.7
 20
444.0
 30
0.0
 40
1.0
100
AcDbArc
 50
90.00015316337019
 51
180.0000198478428
1001
DBPROPERTIES
1002
{
1000
PbThick
1002
}
  0
LINE
  5
BA
330
1F
100
AcDbEntity
  8
THICK
100
AcDbLine
 10
186.7
 20
444.0
 30
0.0
 11
191.7
 21
444.0
 31
0.0
1001
DBPROPERTIES
1002
{
1000
PbThick
1002
}
  0
LINE
  5
BB
330
1F
100
AcDbEntity
  8
THICK
100
AcDbLine
 10
191.7
 20
444.0
 30
0.0
 11
196.7
 21
444.0
 31
0.0
1001
DBPROPERTIES
1002
{
1000
PbThick
1002
}
  0
ARC
  5
BC
330
1F
100
AcDbEntity
  8
THICK
100
AcDbCircle
 10
195.7
 20
444.0
 30
0.0
 40
1.0
100
AcDbArc
 50
0.0
 51
90.00015316337019
1001
DBPROPERTIES
1002
{
1000
PbThick
1002
}
  0
LINE
  5
BD
330
1F
100
AcDbEntity
  8
THICK
100
AcDbLine
 10
191.7
 20
445.0
 30
0.0
 11
195.7
 21
445.0
 31
0.0
1001
DBPROPERTIES
1002
{
1000
PbThick
1002
}
  0
LINE
  5
BE
330
1F
100
AcDbEntity
  8
HIDDEN
100
AcDbLine
 10
191.7
 20
444.0
 30
0.0
 11
186.7
 21
444.0
 31
0.0
1001
DBPROPERTIES
1002
{
1000
PbHidd
1002
}
  0
LINE
  5
BF
330
1F
100
AcDbEntity
  8
HIDDEN
100
AcDbLine
 10
-516.2
 20
444.0
 30
0.0
 11
-511.2
 21
444.0
 31
0.0
1001
DBPROPERTIES
1002
{
1000
PbHidd
1002
}
  0
LINE
  5
C0
330
1F
100
AcDbEntity
  8
HIDDEN
100
AcDbLine
 10
-511.2
 20
444.0
 30
0.0
 11
-506.2
 21
444.0
 31
0.0
1001
DBPROPERTIES
1002
{
1000
PbHidd
1002
}
  0
LINE
  5
C1
330
1F
100
AcDbEntity
  8
HIDDEN
100
AcDbLine
 10
-511.2
 20
444.0
 30
0.0
 11
-516.2
 21
444.0
 31
0.0
1001
DBPROPERTIES
1002
{
1000
PbHidd
1002
}
  0
LINE
  5
C2
330
1F
100
AcDbEntity
  8
HIDDEN
100
AcDbLine
 10
-340.4750000000001
 20
444.0
 30
0.0
 11
-335.4750000000001
 21
444.0
 31
0.0
1001
DBPROPERTIES
1002
{
1000
PbHidd
1002
}
  0
LINE
  5
C3
330
1F
100
AcDbEntity
  8
HIDDEN
100
AcDbLine
 10
-335.4750000000001
 20
444.0
 30
0.0
 11
-330.4750000000001
 21
444.0
 31
0.0
1001
DBPROPERTIES
1002
{
1000
PbHidd
1002
}
  0
LINE
  5
C4
330
1F
100
AcDbEntity
  8
HIDDEN
100
AcDbLine
 10
-335.4750000000001
 20
444.0
 30
0.0
 11
-340.4750000000001
 21
444.0
 31
0.0
1001
DBPROPERTIES
1002
{
1000
PbHidd
1002
}
  0
LINE
  5
C5
330
1F
100
AcDbEntity
  8
HIDDEN
100
AcDbLine
 10
-164.75
 20
444.0
 30
0.0
 11
-159.75
 21
444.0
 31
0.0
1001
DBPROPERTIES
1002
{
1000
PbHidd
1002
}
  0
LINE
  5
C6
330
1F
100
AcDbEntity
  8
HIDDEN
100
AcDbLine
 10
-159.75
 20
444.0
 30
0.0
 11
-154.75
 21
444.0
 31
0.0
1001
DBPROPERTIES
1002
{
1000
PbHidd
1002
}
  0
LINE
  5
C7
330
1F
100
AcDbEntity
  8
HIDDEN
100
AcDbLine
 10
-159.75
 20
444.0
 30
0.0
 11
-164.75
 21
444.0
 31
0.0
1001
DBPROPERTIES
1002
{
1000
PbHidd
1002
}
  0
LINE
  5
C8
330
1F
100
AcDbEntity
  8
HIDDEN
100
AcDbLine
 10
10.97499999999993
 20
444.0
 30
0.0
 11
15.97499999999993
 21
444.0
 31
0.0
1001
DBPROPERTIES
1002
{
1000
PbHidd
1002
}
  0
LINE
  5
C9
330
1F
100
AcDbEntity
  8
HIDDEN
100
AcDbLine
 10
15.97499999999993
 20
444.0
 30
0.0
 11
20.97499999999993
 21
444.0
 31
0.0
1001
DBPROPERTIES
1002
{
1000
PbHidd
1002
}
  0
LINE
  5
CA
330
1F
100
AcDbEntity
  8
HIDDEN
100
AcDbLine
 10
15.97499999999993
 20
444.0
 30
0.0
 11
10.97499999999993
 21
444.0
 31
0.0
1001
DBPROPERTIES
1002
{
1000
PbHidd
1002
}
  0
LINE
  5
CB
330
1F
100
AcDbEntity
  8
HIDDEN
100
AcDbLine
 10
186.7
 20
444.0
 30
0.0
 11
191.7
 21
444.0
 31
0.0
1001
DBPROPERTIES
1002
{
1000
PbHidd
1002
}
  0
LINE
  5
CC
330
1F
100
AcDbEntity
  8
HIDDEN
100
AcDbLine
 10
191.7
 20
444.0
 30
0.0
 11
196.7
 21
444.0
 31
0.0
1001
DBPROPERTIES
1002
{
1000
PbHidd
1002
}
  0
LINE
  5
CD
330
1F
100
AcDbEntity
  8
HIDDEN
100
AcDbLine
 10
191.7
 20
444.0
 30
0.0
 11
186.7
 21
444.0
 31
0.0
1001
DBPROPERTIES
1002
{
1000
PbHidd
1002
}
  0
ARC
  5
CE
330
1F
100
AcDbEntity
  8
HIDDEN
100
AcDbCircle
 10
415.35
 20
-220.5
 30
0.0
 40
115.02
100
AcDbArc
 50
89.99998127603165
 51
179.9999801521572
1001
DBPROPERTIES
1002
{
1000
PbHidd
1002
}
  0
ARC
  5
CF
330
1F
100
AcDbEntity
  8
HIDDEN
100
AcDbCircle
 10
415.35
 20
-220.5
 30
0.0
 40
115.02
100
AcDbArc
 50
0.0
 51
89.99998127603165
1001
DBPROPERTIES
1002
{
1000
PbHidd
1002
}
  0
ARC
  5
D0
330
1F
100
AcDbEntity
  8
THICK
100
AcDbCircle
 10
415.3500000000001
 20
-220.5
 30
0.0
 40
115.02
100
AcDbArc
 50
0.0
 51
89.99998127603165
1001
DBPROPERTIES
1002
{
1000
PbThick
1002
}
  0
ARC
  5
D1
330
1F
100
AcDbEntity
  8
THICK
100
AcDbCircle
 10
415.3500000000001
 20
-220.5
 30
0.0
 40
127.8
100
AcDbArc
 50
0.0
 51
127.5095800667432
1001
DBPROPERTIES
1002
{
1000
PbThick
1002
}
  0
ARC
  5
D2
330
1F
100
AcDbEntity
  8
HIDDEN
100
AcDbCircle
 10
415.3500000000001
 20
-220.5
 30
0.0
 40
127.8
100
AcDbArc
 50
127.5095800667432
 51
130.4548123168337
1001
DBPROPERTIES
1002
{
1000
PbHidd
1002
}
  0
ARC
  5
D3
330
1F
100
AcDbEntity
  8
THICK
100
AcDbCircle
 10
415.3500000000001
 20
-220.5
 30
0.0
 40
127.8
100
AcDbArc
 50
130.4548123168337
 51
175.5451583991417
1001
DBPROPERTIES
1002
{
1000
PbThick
1002
}
  0
ARC
  5
D4
330
1F
100
AcDbEntity
  8
HIDDEN
100
AcDbCircle
 10
415.3500000000001
 20
-220.5
 30
0.0
 40
127.8
100
AcDbArc
 50
175.5451583991417
 51
178.4903906492321
1001
DBPROPERTIES
1002
{
1000
PbHidd
1002
}
  0
ARC
  5
D5
330
1F
100
AcDbEntity
  8
THICK
100
AcDbCircle
 10
415.3500000000001
 20
-220.5
 30
0.0
 40
127.8
100
AcDbArc
 50
178.4903906492321
 51
180.0000198478428
1001
DBPROPERTIES
1002
{
1000
PbThick
1002
}
  0
ARC
  5
D6
330
1F
100
AcDbEntity
  8
THICK
100
AcDbCircle
 10
415.3500000000001
 20
-220.5
 30
0.0
 40
115.02
100
AcDbArc
 50
89.99998127603165
 51
124.4335415520243
1001
DBPROPERTIES
1002
{
1000
PbThick
1002
}
  0
ARC
  5
D7
330
1F
100
AcDbEntity
  8
HIDDEN
100
AcDbCircle
 10
415.3500000000001
 20
-220.5
 30
0.0
 40
115.02
100
AcDbArc
 50
124.4335415520243
 51
127.7852300619806
1001
DBPROPERTIES
1002
{
1000
PbHidd
1002
}
  0
ARC
  5
D8
330
1F
100
AcDbEntity
  8
THICK
100
AcDbCircle
 10
415.3500000000001
 20
-220.5
 30
0.0
 40
115.02
100
AcDbArc
 50
127.7852300619806
 51
178.2147979497742
1001
DBPROPERTIES
1002
{
1000
PbThick
1002
}
  0
ARC
  5
D9
330
1F
100
AcDbEntity
  8
HIDDEN
100
AcDbCircle
 10
415.3500000000001
 20
-220.5
 30
0.0
 40
115.02
100
AcDbArc
 50
178.2147979497742
 51
180.0000198478428
1001
DBPROPERTIES
1002
{
1000
PbHidd
1002
}
  0
ARC
  5
DA
330
1F
100
AcDbEntity
  8
THICK
100
AcDbCircle
 10
415.3500000000001
 20
-220.5
 30
0.0
 40
127.8
100
AcDbArc
 50
180.0000198478428
 51
221.4096453585447
1001
DBPROPERTIES
1002
{
1000
PbThick
1002
}
  0
LINE
  5
DB
330
1F
100
AcDbEntity
  8
HIDDEN
100
AcDbLine
 10
319.5
 20
-305.0317543885137
 30
0.0
 11
319.5
 21
-305.0317543885137
 31
0.0
1001
DBPROPERTIES
1002
{
1000
PbHidd
1002
}
  0
ARC
  5
DC
330
1F
100
AcDbEntity
  8
THICK
100
AcDbCircle
 10
415.3500000000001
 20
-220.5
 30
0.0
 40
127.8
100
AcDbArc
 50
318.590392089392
 51
0.0
1001
DBPROPERTIES
1002
{
1000
PbThick
1002
}
  0
LINE
  5
DD
330
1F
100
AcDbEntity
  8
HIDDEN
100
AcDbLine
 10
511.2
 20
-305.0317543885137
 30
0.0
 11
511.2
 21
-305.0317543885137
 31
0.0
1001
DBPROPERTIES
1002
{
1000
PbHidd
1002
}
  0
ARC
  5
DE
330
1F
100
AcDbEntity
  8
HIDDEN
100
AcDbCircle
 10
-73.9192448023109
 20
226.7734802003985
 30
0.0
 40
26.45999999999999
100
AcDbArc
 50
153.0000140058774
 51
157.3012081739245
1001
DBPROPERTIES
1002
{
1000
PbHidd
1002
}
  0
LINE
  5
DF
330
1F
100
AcDbEntity
  8
HIDDEN
100
AcDbLine
 10
-98.32982047906806
 20
236.9840333259305
 30
0.0
 11
-98.32982047906809
 21
236.9840333259305
 31
0.0
1001
DBPROPERTIES
1002
{
1000
PbHidd
1002
}
  0
ARC
  5
E0
330
1F
100
AcDbEntity
  8
HIDDEN
100
AcDbCircle
 10
-73.9192448023109
 20
226.7734802003985
 30
0.0
 40
26.45999999999999
100
AcDbArc
 50
328.6987999899875
 51
332.9999941580346
1001
DBPROPERTIES
1002
{
1000
PbHidd
1002
}
  0
LINE
  5
E1
330
1F
100
AcDbEntity
  8
HIDDEN
100
AcDbLine
 10
-51.31055741902005
 20
213.0265221803627
 30
0.0
 11
-51.31055741902001
 21
213.0265221803627
 31
0.0
1001
DBPROPERTIES
1002
{
1000
PbHidd
1002
}
  0
ARC
  5
E2
330
1F
100
AcDbEntity
  8
HIDDEN
100
AcDbCircle
 10
-126.4081293232702
 20
243.8281526145527
 30
0.0
 40
26.45999999999999
100
AcDbArc
 50
170.9999988019279
 51
175.3012502657545
1001
DBPROPERTIES
1002
{
1000
PbHidd
1002
}
  0
LINE
  5
E3
330
1F
100
AcDbEntity
  8
HIDDEN
100
AcDbLine
 10
-152.7792008249237
 20
245.9956829729741
 30
0.0
 11
-152.7792008249237
 21
245.9956829729741
 31
0.0
1001
DBPROPERTIES
1002
{
1000
PbHidd
1002
}
  0
ARC
  5
E4
330
1F
100
AcDbEntity
  8
HIDDEN
100
AcDbCircle
 10
-126.4081293232702
 20
243.8281526145527
 30
0.0
 40
26.45999999999999
100
AcDbArc
 50
346.6987847860379
 51
350.9999789540851
1001
DBPROPERTIES
1002
{
1000
PbHidd
1002
}
  0
LINE
  5
E5
330
1F
100
AcDbEntity
  8
HIDDEN
100
AcDbLine
 10
-100.6579462133615
 20
237.7404872323091
 30
0.0
 11
-100.6579462133615
 21
237.7404872323091
 31
0.0
1001
DBPROPERTIES
1002
{
1000
PbHidd
1002
}
  0
ARC
  5
E6
330
1F
100
AcDbEntity
  8
HIDDEN
100
AcDbCircle
 10
-181.5982085894637
 20
243.8281526145527
 30
0.0
 40
26.45999999999999
100
AcDbArc
 50
189.0000011980722
 51
193.3011953661192
1001
DBPROPERTIES
1002
{
1000
PbHidd
1002
}
  0
LINE
  5
E7
330
1F
100
AcDbEntity
  8
HIDDEN
100
AcDbLine
 10
-207.3483916993725
 20
237.7404872323091
 30
0.0
 11
-207.3483916993726
 21
237.7404872323091
 31
0.0
1001
DBPROPERTIES
1002
{
1000
PbHidd
1002
}
  0
ARC
  5
E8
330
1F
100
AcDbEntity
  8
HIDDEN
100
AcDbCircle
 10
-181.5982085894637
 20
243.8281526145527
 30
0.0
 40
26.45999999999999
100
AcDbArc
 50
4.698769582088368
 51
9.000021045914972
1001
DBPROPERTIES
1002
{
1000
PbHidd
1002
}
  0
LINE
  5
E9
330
1F
100
AcDbEntity
  8
HIDDEN
100
AcDbLine
 10
-155.2271370878102
 20
245.995682972974
 30
0.0
 11
-155.2271370878102
 21
245.995682972974
 31
0.0
1001
DBPROPERTIES
1002
{
1000
PbHidd
1002
}
  0
ARC
  5
EA
330
1F
100
AcDbEntity
  8
HIDDEN
100
AcDbCircle
 10
-234.0870931104228
 20
226.7734802003984
 30
0.0
 40
26.45999999999999
100
AcDbArc
 50
206.9999859941226
 51
211.3012374579492
1001
DBPROPERTIES
1002
{
1000
PbHidd
1002
}
  0
LINE
  5
EB
330
1F
100
AcDbEntity
  8
HIDDEN
100
AcDbLine
 10
-256.6957804937139
 20
213.0265221803627
 30
0.0
 11
-256.6957804937139
 21
213.0265221803627
 31
0.0
1001
DBPROPERTIES
1002
{
1000
PbHidd
1002
}
  0
ARC
  5
EC
330
1F
100
AcDbEntity
  8
HIDDEN
100
AcDbCircle
 10
-234.0870931104228
 20
226.7734802003984
 30
0.0
 40
26.45999999999999
100
AcDbArc
 50
22.69875437813879
 51
27.0000058419654
1001
DBPROPERTIES
1002
{
1000
PbHidd
1002
}
  0
LINE
  5
ED
330
1F
100
AcDbEntity
  8
HIDDEN
100
AcDbLine
 10
-209.6765174336659
 20
236.9840333259305
 30
0.0
 11
-209.6765174336658
 21
236.9840333259305
 31
0.0
1001
DBPROPERTIES
1002
{
1000
PbHidd
1002
}
  0
ARC
  5
EE
330
1F
100
AcDbEntity
  8
HIDDEN
100
AcDbCircle
 10
-278.7368051576739
 20
194.3335655348773
 30
0.0
 40
26.45999999999999
100
AcDbArc
 50
225.0000280859525
 51
229.3012222539996
1001
DBPROPERTIES
1002
{
1000
PbHidd
1002
}
  0
LINE
  5
EF
330
1F
100
AcDbEntity
  8
HIDDEN
100
AcDbLine
 10
-295.9909009692827
 20
174.2729629087391
 30
0.0
 11
-295.9909009692827
 21
174.2729629087391
 31
0.0
1001
DBPROPERTIES
1002
{
1000
PbHidd
1002
}
  0
ARC
  5
F0
330
1F
100
AcDbEntity
  8
HIDDEN
100
AcDbCircle
 10
-278.7368051576739
 20
194.3335655348773
 30
0.0
 40
26.45999999999999
100
AcDbArc
 50
40.69879646996873
 51
44.99999063801582
1001
DBPROPERTIES
1002
{
1000
PbHidd
1002
}
  0
LINE
  5
F1
330
1F
100
AcDbEntity
  8
HIDDEN
100
AcDbLine
 10
-258.6762025315358
 20
211.5876613464861
 30
0.0
 11
-258.6762025315358
 21
211.5876613464861
 31
0.0
1001
DBPROPERTIES
1002
{
1000
PbHidd
1002
}
  0
ARC
  5
F2
330
1F
100
AcDbEntity
  8
HIDDEN
100
AcDbCircle
 10
-311.1767198231951
 20
149.6838534876264
 30
0.0
 40
26.45999999999999
100
AcDbArc
 50
243.0000128820029
 51
247.30120705005
1001
DBPROPERTIES
1002
{
1000
PbHidd
1002
}
  0
LINE
  5
F3
330
1F
100
AcDbEntity
  8
HIDDEN
100
AcDbLine
 10
-321.3872729487271
 20
125.2732778108693
 30
0.0
 11
-321.3872729487271
 21
125.2732778108693
 31
0.0
1001
DBPROPERTIES
1002
{
1000
PbHidd
1002
}
  0
ARC
  5
F4
330
1F
100
AcDbEntity
  8
HIDDEN
100
AcDbCircle
 10
-311.1767198231951
 20
149.6838534876264
 30
0.0
 40
26.45999999999999
100
AcDbArc
 50
58.69878126601917
 51
62.99997543406626
1001
DBPROPERTIES
1002
{
1000
PbHidd
1002
}
  0
LINE
  5
F5
330
1F
100
AcDbEntity
  8
HIDDEN
100
AcDbLine
 10
-297.4297618031593
 20
172.2925408709173
 30
0.0
 11
-297.4297618031593
 21
172.2925408709173
 31
0.0
1001
DBPROPERTIES
1002
{
1000
PbHidd
1002
}
  0
ARC
  5
F6
330
1F
100
AcDbEntity
  8
HIDDEN
100
AcDbCircle
 10
-328.2313922373493
 20
97.19496896666709
 30
0.0
 40
26.45999999999999
100
AcDbArc
 50
260.9999976780534
 51
265.30124914188
1001
DBPROPERTIES
1002
{
1000
PbHidd
1002
}
  0
LINE
  5
F7
330
1F
100
AcDbEntity
  8
HIDDEN
100
AcDbLine
 10
-330.3989225957706
 20
70.8238974650136
 30
0.0
 11
-330.3989225957706
 21
70.8238974650136
 31
0.0
1001
DBPROPERTIES
1002
{
1000
PbHidd
1002
}
  0
ARC
  5
F8
330
1F
100
AcDbEntity
  8
HIDDEN
100
AcDbCircle
 10
-328.2313922373493
 20
97.19496896666709
 30
0.0
 40
26.45999999999999
100
AcDbArc
 50
76.6987660620696
 51
81.0000175258962
1001
DBPROPERTIES
1002
{
1000
PbHidd
1002
}
  0
LINE
  5
F9
330
1F
100
AcDbEntity
  8
HIDDEN
100
AcDbLine
 10
-322.1437268551057
 20
122.9451520765759
 30
0.0
 11
-322.1437268551057
 21
122.9451520765759
 31
0.0
1001
DBPROPERTIES
1002
{
1000
PbHidd
1002
}
  0
ARC
  5
FA
330
1F
100
AcDbEntity
  8
HIDDEN
100
AcDbCircle
 10
-328.2313922373492
 20
42.00488970047365
 30
0.0
 40
26.45999999999999
100
AcDbArc
 50
278.9999824741038
 51
283.3012339379304
1001
DBPROPERTIES
1002
{
1000
PbHidd
1002
}
  0
LINE
  5
FB
330
1F
100
AcDbEntity
  8
HIDDEN
100
AcDbLine
 10
-322.1437268551057
 20
16.25470659056484
 30
0.0
 11
-322.1437268551057
 21
16.25470659056484
 31
0.0
1001
DBPROPERTIES
1002
{
1000
PbHidd
1002
}
  0
ARC
  5
FC
330
1F
100
AcDbEntity
  8
HIDDEN
100
AcDbCircle
 10
-328.2313922373492
 20
42.00488970047365
 30
0.0
 40
26.45999999999999
100
AcDbArc
 50
94.69875085812002
 51
99.00000232194662
1001
DBPROPERTIES
1002
{
1000
PbHidd
1002
}
  0
LINE
  5
FD
330
1F
100
AcDbEntity
  8
HIDDEN
100
AcDbLine
 10
-330.3989225957706
 20
68.37596120212714
 30
0.0
 11
-330.3989225957706
 21
68.37596120212714
 31
0.0
1001
DBPROPERTIES
1002
{
1000
PbHidd
1002
}
  0
ARC
  5
FE
330
1F
100
AcDbEntity
  8
HIDDEN
100
AcDbCircle
 10
-311.1767198231952
 20
-10.48399482048558
 30
0.0
 40
26.45999999999999
100
AcDbArc
 50
297.0000245659338
 51
301.3012187339808
1001
DBPROPERTIES
1002
{
1000
PbHidd
1002
}
  0
LINE
  5
FF
330
1F
100
AcDbEntity
  8
HIDDEN
100
AcDbLine
 10
-297.4297618031595
 20
-33.09268220377649
 30
0.0
 11
-297.4297618031595
 21
-33.09268220377649
 31
0.0
1001
DBPROPERTIES
1002
{
1000
PbHidd
1002
}
  0
ARC
  5
100
330
1F
100
AcDbEntity
  8
HIDDEN
100
AcDbCircle
 10
-311.1767198231952
 20
-10.48399482048558
 30
0.0
 40
26.45999999999999
100
AcDbArc
 50
112.69879294995
 51
116.9999871179971
1001
DBPROPERTIES
1002
{
1000
PbHidd
1002
}
  0
LINE
  5
101
330
1F
100
AcDbEntity
  8
HIDDEN
100
AcDbLine
 10
-321.3872729487272
 20
13.92658085627156
 30
0.0
 11
-321.3872729487272
 21
13.92658085627156
 31
0.0
1001
DBPROPERTIES
1002
{
1000
PbHidd
1002
}
  0
ARC
  5
102
330
1F
100
AcDbEntity
  8
HIDDEN
100
AcDbCircle
 10
-278.736805157674
 20
-55.13370686773658
 30
0.0
 40
26.45999999999999
100
AcDbArc
 50
315.0000093619842
 51
319.3012035300313
1001
DBPROPERTIES
1002
{
1000
PbHidd
1002
}
  0
LINE
  5
103
330
1F
100
AcDbEntity
  8
HIDDEN
100
AcDbLine
 10
-258.6762025315358
 20
-72.38780267934541
 30
0.0
 11
-258.6762025315358
 21
-72.38780267934541
 31
0.0
1001
DBPROPERTIES
1002
{
1000
PbHidd
1002
}
  0
ARC
  5
104
330
1F
100
AcDbEntity
  8
HIDDEN
100
AcDbCircle
 10
-278.736805157674
 20
-55.13370686773658
 30
0.0
 40
26.45999999999999
100
AcDbArc
 50
130.6987777460004
 51
134.9999719140475
1001
DBPROPERTIES
1002
{
1000
PbHidd
1002
}
  0
LINE
  5
105
330
1F
100
AcDbEntity
  8
HIDDEN
100
AcDbLine
 10
-295.9909009692827
 20
-35.0731042415984
 30
0.0
 11
-295.9909009692827
 21
-35.0731042415984
 31
0.0
1001
DBPROPERTIES
1002
{
1000
PbHidd
1002
}
  0
ARC
  5
106
330
1F
100
AcDbEntity
  8
HIDDEN
100
AcDbCircle
 10
-234.087093110423
 20
-87.57362153325775
 30
0.0
 40
26.45999999999999
100
AcDbArc
 50
332.9999941580346
 51
337.3012456218612
1001
DBPROPERTIES
1002
{
1000
PbHidd
1002
}
  0
LINE
  5
107
330
1F
100
AcDbEntity
  8
HIDDEN
100
AcDbLine
 10
-209.6765174336658
 20
-97.7841746587898
 30
0.0
 11
-209.6765174336659
 21
-97.7841746587898
 31
0.0
1001
DBPROPERTIES
1002
{
1000
PbHidd
1002
}
  0
ARC
  5
108
330
1F
100
AcDbEntity
  8
HIDDEN
100
AcDbCircle
 10
-234.087093110423
 20
-87.57362153325775
 30
0.0
 40
26.45999999999999
100
AcDbArc
 50
148.6987625420508
 51
153.0000140058774
1001
DBPROPERTIES
1002
{
1000
PbHidd
1002
}
  0
LINE
  5
109
330
1F
100
AcDbEntity
  8
HIDDEN
100
AcDbLine
 10
-256.6957804937139
 20
-73.82666351322203
 30
0.0
 11
-256.6957804937139
 21
-73.82666351322203
 31
0.0
1001
DBPROPERTIES
1002
{
1000
PbHidd
1002
}
  0
ARC
  5
10A
330
1F
100
AcDbEntity
  8
HIDDEN
100
AcDbCircle
 10
-181.5982085894637
 20
-104.6282939474119
 30
0.0
 40
26.45999999999999
100
AcDbArc
 50
350.9999789540851
 51
355.3012304179116
1001
DBPROPERTIES
1002
{
1000
PbHidd
1002
}
  0
LINE
  5
10B
330
1F
100
AcDbEntity
  8
HIDDEN
100
AcDbLine
 10
-155.2271370878103
 20
-106.7958243058334
 30
0.0
 11
-155.2271370878103
 21
-106.7958243058334
 31
0.0
1001
DBPROPERTIES
1002
{
1000
PbHidd
1002
}
  0
ARC
  5
10C
330
1F
100
AcDbEntity
  8
HIDDEN
100
AcDbCircle
 10
-181.5982085894637
 20
-104.6282939474119
 30
0.0
 40
26.45999999999999
100
AcDbArc
 50
166.6988046338808
 51
170.9999988019279
1001
DBPROPERTIES
1002
{
1000
PbHidd
1002
}
  0
LINE
  5
10D
330
1F
100
AcDbEntity
  8
HIDDEN
100
AcDbLine
 10
-207.3483916993727
 20
-98.54062856516839
 30
0.0
 11
-207.3483916993726
 21
-98.54062856516839
 31
0.0
1001
DBPROPERTIES
1002
{
1000
PbHidd
1002
}
  0
ARC
  5
10E
330
1F
100
AcDbEntity
  8
HIDDEN
100
AcDbCircle
 10
-126.4081293232702
 20
-104.6282939474119
 30
0.0
 40
26.45999999999999
100
AcDbArc
 50
9.000021045914972
 51
13.30121521396206
1001
DBPROPERTIES
1002
{
1000
PbHidd
1002
}
  0
LINE
  5
10F
330
1F
100
AcDbEntity
  8
HIDDEN
100
AcDbLine
 10
-100.6579462133615
 20
-98.54062856516845
 30
0.0
 11
-100.6579462133615
 21
-98.54062856516845
 31
0.0
1001
DBPROPERTIES
1002
{
1000
PbHidd
1002
}
  0
ARC
  5
110
330
1F
100
AcDbEntity
  8
HIDDEN
100
AcDbCircle
 10
-126.4081293232702
 20
-104.6282939474119
 30
0.0
 40
26.45999999999999
100
AcDbArc
 50
184.6987497342455
 51
189.0000011980722
1001
DBPROPERTIES
1002
{
1000
PbHidd
1002
}
  0
LINE
  5
111
330
1F
100
AcDbEntity
  8
HIDDEN
100
AcDbLine
 10
-152.7792008249238
 20
-106.7958243058334
 30
0.0
 11
-152.7792008249238
 21
-106.7958243058334
 31
0.0
1001
DBPROPERTIES
1002
{
1000
PbHidd
1002
}
  0
ARC
  5
112
330
1F
100
AcDbEntity
  8
HIDDEN
100
AcDbCircle
 10
-73.91924480231096
 20
-87.57362153325772
 30
0.0
 40
26.45999999999999
100
AcDbArc
 50
27.0000058419654
 51
31.30120001001249
1001
DBPROPERTIES
1002
{
1000
PbHidd
1002
}
  0
LINE
  5
113
330
1F
100
AcDbEntity
  8
HIDDEN
100
AcDbLine
 10
-51.31055741902006
 20
-73.82666351322206
 30
0.0
 11
-51.31055741902011
 21
-73.82666351322206
 31
0.0
1001
DBPROPERTIES
1002
{
1000
PbHidd
1002
}
  0
ARC
  5
114
330
1F
100
AcDbEntity
  8
HIDDEN
100
AcDbCircle
 10
-73.91924480231096
 20
-87.57362153325772
 30
0.0
 40
26.45999999999999
100
AcDbArc
 50
202.6987918260755
 51
206.9999859941226
1001
DBPROPERTIES
1002
{
1000
PbHidd
1002
}
  0
LINE
  5
115
330
1F
100
AcDbEntity
  8
HIDDEN
100
AcDbLine
 10
-98.32982047906809
 20
-97.7841746587898
 30
0.0
 11
-98.32982047906806
 21
-97.7841746587898
 31
0.0
1001
DBPROPERTIES
1002
{
1000
PbHidd
1002
}
  0
ARC
  5
116
330
1F
100
AcDbEntity
  8
HIDDEN
100
AcDbCircle
 10
-29.2695327550599
 20
-55.13370686773666
 30
0.0
 40
26.45999999999999
100
AcDbArc
 50
44.99999063801582
 51
49.30124210184243
1001
DBPROPERTIES
1002
{
1000
PbHidd
1002
}
  0
LINE
  5
117
330
1F
100
AcDbEntity
  8
HIDDEN
100
AcDbLine
 10
-12.01543694345114
 20
-35.0731042415984
 30
0.0
 11
-12.01543694345119
 21
-35.0731042415984
 31
0.0
1001
DBPROPERTIES
1002
{
1000
PbHidd
1002
}
  0
ARC
  5
118
330
1F
100
AcDbEntity
  8
HIDDEN
100
AcDbCircle
 10
-29.2695327550599
 20
-55.13370686773666
 30
0.0
 40
26.45999999999999
100
AcDbArc
 50
220.6987766221259
 51
225.0000280859525
1001
DBPROPERTIES
1002
{
1000
PbHidd
1002
}
  0
LINE
  5
119
330
1F
100
AcDbEntity
  8
HIDDEN
100
AcDbLine
 10
-49.33013538119823
 20
-72.38780267934544
 30
0.0
 11
-49.33013538119818
 21
-72.38780267934544
 31
0.0
1001
DBPROPERTIES
1002
{
1000
PbHidd
1002
}
  0
ARC
  5
11A
330
1F
100
AcDbEntity
  8
HIDDEN
100
AcDbCircle
 10
3.170381910461136
 20
-10.48399482048569
 30
0.0
 40
26.45999999999999
100
AcDbArc
 50
62.99997543406626
 51
67.30122689789286
1001
DBPROPERTIES
1002
{
1000
PbHidd
1002
}
  0
LINE
  5
11B
330
1F
100
AcDbEntity
  8
HIDDEN
100
AcDbLine
 10
13.38093503599318
 20
13.92658085627141
 30
0.0
 11
13.38093503599314
 21
13.92658085627141
 31
0.0
1001
DBPROPERTIES
1002
{
1000
PbHidd
1002
}
  0
ARC
  5
11C
330
1F
100
AcDbEntity
  8
HIDDEN
100
AcDbCircle
 10
3.170381910461136
 20
-10.48399482048569
 30
0.0
 40
26.45999999999999
100
AcDbArc
 50
238.6987614181764
 51
243.0000128820029
1001
DBPROPERTIES
1002
{
1000
PbHidd
1002
}
  0
LINE
  5
11D
330
1F
100
AcDbEntity
  8
HIDDEN
100
AcDbLine
 10
-10.57657610957463
 20
-33.09268220377658
 30
0.0
 11
-10.57657610957458
 21
-33.09268220377658
 31
0.0
1001
DBPROPERTIES
1002
{
1000
PbHidd
1002
}
  0
ARC
  5
11E
330
1F
100
AcDbEntity
  8
HIDDEN
100
AcDbCircle
 10
20.22505432461539
 20
42.0048897004736
 30
0.0
 40
26.45999999999999
100
AcDbArc
 50
81.0000175258962
 51
85.30121169394329
1001
DBPROPERTIES
1002
{
1000
PbHidd
1002
}
  0
LINE
  5
11F
330
1F
100
AcDbEntity
  8
HIDDEN
100
AcDbLine
 10
22.39258468303673
 20
68.37596120212709
 30
0.0
 11
22.39258468303669
 21
68.37596120212709
 31
0.0
1001
DBPROPERTIES
1002
{
1000
PbHidd
1002
}
  0
ARC
  5
120
330
1F
100
AcDbEntity
  8
HIDDEN
100
AcDbCircle
 10
20.22505432461539
 20
42.0048897004736
 30
0.0
 40
26.45999999999999
100
AcDbArc
 50
256.6988035100063
 51
260.9999976780534
1001
DBPROPERTIES
1002
{
1000
PbHidd
1002
}
  0
LINE
  5
121
330
1F
100
AcDbEntity
  8
HIDDEN
100
AcDbLine
 10
14.13738894237176
 20
16.25470659056481
 30
0.0
 11
14.13738894237181
 21
16.25470659056481
 31
0.0
1001
DBPROPERTIES
1002
{
1000
PbHidd
1002
}
  0
ARC
  5
122
330
1F
100
AcDbEntity
  8
HIDDEN
100
AcDbCircle
 10
20.22505432461528
 20
97.19496896666698
 30
0.0
 40
26.45999999999999
100
AcDbArc
 50
99.00000232194662
 51
103.3011964899937
1001
DBPROPERTIES
1002
{
1000
PbHidd
1002
}
  0
LINE
  5
123
330
1F
100
AcDbEntity
  8
HIDDEN
100
AcDbLine
 10
14.13738894237186
 20
122.9451520765758
 30
0.0
 11
14.13738894237182
 21
122.9451520765758
 31
0.0
1001
DBPROPERTIES
1002
{
1000
PbHidd
1002
}
  0
ARC
  5
124
330
1F
100
AcDbEntity
  8
HIDDEN
100
AcDbCircle
 10
20.22505432461528
 20
97.19496896666698
 30
0.0
 40
26.45999999999999
100
AcDbArc
 50
274.6987883060567
 51
278.9999824741038
1001
DBPROPERTIES
1002
{
1000
PbHidd
1002
}
  0
LINE
  5
125
330
1F
100
AcDbEntity
  8
HIDDEN
100
AcDbLine
 10
22.39258468303675
 20
70.82389746501349
 30
0.0
 11
22.39258468303679
 21
70.82389746501349
 31
0.0
1001
DBPROPERTIES
1002
{
1000
PbHidd
1002
}
  0
ARC
  5
126
330
1F
100
AcDbEntity
  8
HIDDEN
100
AcDbCircle
 10
3.170381910461193
 20
149.6838534876264
 30
0.0
 40
26.45999999999999
100
AcDbArc
 50
116.9999871179971
 51
121.3012385818236
1001
DBPROPERTIES
1002
{
1000
PbHidd
1002
}
  0
LINE
  5
127
330
1F
100
AcDbEntity
  8
HIDDEN
100
AcDbLine
 10
-10.57657610957453
 20
172.2925408709173
 30
0.0
 11
-10.57657610957457
 21
172.2925408709173
 31
0.0
1001
DBPROPERTIES
1002
{
1000
PbHidd
1002
}
  0
ARC
  5
128
330
1F
100
AcDbEntity
  8
HIDDEN
100
AcDbCircle
 10
3.170381910461193
 20
149.6838534876264
 30
0.0
 40
26.45999999999999
100
AcDbArc
 50
292.6987731021071
 51
297.0000245659338
1001
DBPROPERTIES
1002
{
1000
PbHidd
1002
}
  0
LINE
  5
129
330
1F
100
AcDbEntity
  8
HIDDEN
100
AcDbLine
 10
13.3809350359932
 20
125.2732778108692
 30
0.0
 11
13.38093503599324
 21
125.2732778108692
 31
0.0
1001
DBPROPERTIES
1002
{
1000
PbHidd
1002
}
  0
ARC
  5
12A
330
1F
100
AcDbEntity
  8
HIDDEN
100
AcDbCircle
 10
-29.26953275505995
 20
194.3335655348773
 30
0.0
 40
26.45999999999999
100
AcDbArc
 50
134.9999719140475
 51
139.3012233778741
1001
DBPROPERTIES
1002
{
1000
PbHidd
1002
}
  0
LINE
  5
12B
330
1F
100
AcDbEntity
  8
HIDDEN
100
AcDbLine
 10
-49.33013538119813
 20
211.5876613464861
 30
0.0
 11
-49.33013538119817
 21
211.5876613464861
 31
0.0
1001
DBPROPERTIES
1002
{
1000
PbHidd
1002
}
  0
ARC
  5
12C
330
1F
100
AcDbEntity
  8
HIDDEN
100
AcDbCircle
 10
-29.26953275505995
 20
194.3335655348773
 30
0.0
 40
26.45999999999999
100
AcDbArc
 50
310.6987578981576
 51
315.0000093619842
1001
DBPROPERTIES
1002
{
1000
PbHidd
1002
}
  0
LINE
  5
12D
330
1F
100
AcDbEntity
  8
HIDDEN
100
AcDbLine
 10
-12.01543694345119
 20
174.2729629087391
 30
0.0
 11
-12.01543694345114
 21
174.2729629087391
 31
0.0
1001
DBPROPERTIES
1002
{
1000
PbHidd
1002
}
  0
ARC
  5
12E
330
1F
100
AcDbEntity
  8
HIDDEN
100
AcDbCircle
 10
-154.0031689563669
 20
69.59992933357034
 30
0.0
 40
220.5
100
AcDbArc
 50
153.0000140058774
 51
332.9999941580346
1001
DBPROPERTIES
1002
{
1000
PbHidd
1002
}
  0
ARC
  5
12F
330
1F
100
AcDbEntity
  8
THICK
100
AcDbCircle
 10
-154.0031689563669
 20
69.59992933357034
 30
0.0
 40
59.99999999999999
100
AcDbArc
 50
153.0000140058774
 51
332.9999941580346
1001
DBPROPERTIES
1002
{
1000
PbThick
1002
}
  0
ARC
  5
130
330
1F
100
AcDbEntity
  8
HIDDEN
100
AcDbCircle
 10
-154.0031689563669
 20
69.59992933357034
 30
0.0
 40
5.0
100
AcDbArc
 50
153.0000140058774
 51
332.9999941580346
1001
DBPROPERTIES
1002
{
1000
PbHidd
1002
}
  0
ARC
  5
131
330
1F
100
AcDbEntity
  8
THICK
100
AcDbCircle
 10
415.35
 20
-220.5
 30
0.0
 40
60.0
100
AcDbArc
 50
180.0000198478428
 51
0.0
1001
DBPROPERTIES
1002
{
1000
PbThick
1002
}
  0
ARC
  5
132
330
1F
100
AcDbEntity
  8
HIDDEN
100
AcDbCircle
 10
415.35
 20
-220.5
 30
0.0
 40
5.0
100
AcDbArc
 50
180.0000198478428
 51
0.0
1001
DBPROPERTIES
1002
{
1000
PbHidd
1002
}
  0
ARC
  5
133
330
1F
100
AcDbEntity
  8
HIDDEN
100
AcDbCircle
 10
-154.0031689563669
 20
69.59992933357034
 30
0.0
 40
49.99999999999999
100
AcDbArc
 50
254.4783628707563
 51
332.9999941580346
1001
DBPROPERTIES
1002
{
1000
PbHidd
1002
}
  0
LINE
  5
134
330
1F
100
AcDbEntity
  8
HIDDEN
100
AcDbLine
 10
-167.38330046413
 20
21.42346121027425
 30
0.0
 11
-167.38330046413
 21
21.42346121027425
 31
0.0
1001
DBPROPERTIES
1002
{
1000
PbHidd
1002
}
  0
ARC
  5
135
330
1F
100
AcDbEntity
  8
HIDDEN
100
AcDbCircle
 10
415.35
 20
-220.5
 30
0.0
 40
50.0
100
AcDbArc
 50
180.0000198478428
 51
231.5216628932496
1001
DBPROPERTIES
1002
{
1000
PbHidd
1002
}
  0
LINE
  5
136
330
1F
100
AcDbEntity
  8
HIDDEN
100
AcDbLine
 10
384.2390625332874
 20
-259.6421712471638
 30
0.0
 11
384.2390625332874
 21
-259.6421712471638
 31
0.0
1001
DBPROPERTIES
1002
{
1000
PbHidd
1002
}
  0
ARC
  5
137
330
1F
100
AcDbEntity
  8
HIDDEN
100
AcDbCircle
 10
-154.0031689563669
 20
69.5999293335704
 30
0.0
 40
55.0
100
AcDbArc
 50
62.99997543406626
 51
153.0000140058774
1001
DBPROPERTIES
1002
{
1000
PbHidd
1002
}
  0
LINE
  5
138
330
1F
100
AcDbEntity
  8
HIDDEN
100
AcDbLine
 10
-129.0336914706919
 20
118.6052881639307
 30
0.0
 11
-129.0336914706919
 21
118.6052881639307
 31
0.0
1001
DBPROPERTIES
1002
{
1000
PbHidd
1002
}
  0
ARC
  5
139
330
1F
100
AcDbEntity
  8
HIDDEN
100
AcDbCircle
 10
415.3500000000001
 20
-220.5
 30
0.0
 40
55.0
100
AcDbArc
 50
332.9999941580346
 51
62.99997543406626
1001
DBPROPERTIES
1002
{
1000
PbHidd
1002
}
  0
LINE
  5
13A
330
1F
100
AcDbEntity
  8
HIDDEN
100
AcDbLine
 10
440.3194774856751
 20
-171.4946411696398
 30
0.0
 11
440.3194774856751
 21
-171.4946411696398
 31
0.0
1001
DBPROPERTIES
1002
{
1000
PbHidd
1002
}
  0
ARC
  5
13B
330
1F
100
AcDbEntity
  8
THICK
100
AcDbCircle
 10
-678.75
 20
-377.1
 30
0.0
 40
7.5
100
AcDbArc
 50
180.0000198478428
 51
0.0
1001
DBPROPERTIES
1002
{
1000
PbThick
1002
}
  0
ARC
  5
13C
330
1F
100
AcDbEntity
  8
THICK
100
AcDbCircle
 10
678.75
 20
-377.1
 30
0.0
 40
7.5
100
AcDbArc
 50
180.0000198478428
 51
0.0
1001
DBPROPERTIES
1002
{
1000
PbThick
1002
}
  0
LINE
  5
13D
330
1F
100
AcDbEntity
  8
HIDDEN
100
AcDbLine
 10
576.1
 20
-312.2
 30
0.0
 11
576.1
 21
-312.2
 31
0.0
1001
DBPROPERTIES
1002
{
1000
PbHidd
1002
}
  0
LINE
  5
13E
330
1F
100
AcDbEntity
  8
THICK
100
AcDbLine
 10
702.8999999999999
 20
-312.2
 30
0.0
 11
576.1
 21
-312.2
 31
0.0
1001
DBPROPERTIES
1002
{
1000
PbThick
1002
}
  0
LINE
  5
13F
330
1F
100
AcDbEntity
  8
HIDDEN
100
AcDbLine
 10
702.9
 20
-312.2
 30
0.0
 11
702.9
 21
-312.2
 31
0.0
1001
DBPROPERTIES
1002
{
1000
PbHidd
1002
}
  0
LINE
  5
140
330
1F
100
AcDbEntity
  8
HIDDEN
100
AcDbLine
 10
576.1
 20
-378.1
 30
0.0
 11
576.1
 21
-378.1
 31
0.0
1001
DBPROPERTIES
1002
{
1000
PbHidd
1002
}
  0
LINE
  5
141
330
1F
100
AcDbEntity
  8
THICK
100
AcDbLine
 10
576.1
 20
-312.2
 30
0.0
 11
576.1
 21
-378.1
 31
0.0
1001
DBPROPERTIES
1002
{
1000
PbThick
1002
}
  0
LINE
  5
142
330
1F
100
AcDbEntity
  8
HIDDEN
100
AcDbLine
 10
511.2
 20
-378.1
 30
0.0
 11
511.2
 21
-378.1
 31
0.0
1001
DBPROPERTIES
1002
{
1000
PbHidd
1002
}
  0
LINE
  5
143
330
1F
100
AcDbEntity
  8
THICK
100
AcDbLine
 10
576.1000000000001
 20
-378.1
 30
0.0
 11
511.2
 21
-378.1
 31
0.0
1001
DBPROPERTIES
1002
{
1000
PbThick
1002
}
  0
LINE
  5
144
330
1F
100
AcDbEntity
  8
HIDDEN
100
AcDbLine
 10
634.0
 20
-441.0
 30
0.0
 11
511.2
 21
-441.0
 31
0.0
1001
DBPROPERTIES
1002
{
1000
PbHidd
1002
}
  0
ARC
  5
145
330
1F
100
AcDbEntity
  8
HIDDEN
100
AcDbCircle
 10
634.0
 20
-436.0
 30
0.0
 40
5.0
100
AcDbArc
 50
270.0000187239684
 51
281.4783114169422
1001
DBPROPERTIES
1002
{
1000
PbHidd
1002
}
  0
LINE
  5
146
330
1F
100
AcDbEntity
  8
THICK
100
AcDbLine
 10
702.9
 20
-313.2
 30
0.0
 11
702.9
 21
-312.2
 31
0.0
1001
DBPROPERTIES
1002
{
1000
PbThick
1002
}
  0
LINE
  5
147
330
1F
100
AcDbEntity
  8
HIDDEN
100
AcDbLine
 10
702.9
 20
-313.2
 30
0.0
 11
702.9
 21
-313.2
 31
0.0
1001
DBPROPERTIES
1002
{
1000
PbHidd
1002
}
  0
LINE
  5
148
330
1F
100
AcDbEntity
  8
THICK
100
AcDbLine
 10
766.7999999999998
 20
-377.1
 30
0.0
 11
702.8999999999999
 21
-313.2
 31
0.0
1001
DBPROPERTIES
1002
{
1000
PbThick
1002
}
  0
LINE
  5
149
330
1F
100
AcDbEntity
  8
HIDDEN
100
AcDbLine
 10
766.8
 20
-377.1
 30
0.0
 11
766.8
 21
-377.1
 31
0.0
1001
DBPROPERTIES
1002
{
1000
PbHidd
1002
}
  0
ARC
  5
14A
330
1F
100
AcDbEntity
  8
HIDDEN
100
AcDbCircle
 10
634.0000000000001
 20
-436.0000000000001
 30
0.0
 40
0.9949874371056159
100
AcDbArc
 50
270.0000187239684
 51
0.0
1001
DBPROPERTIES
1002
{
1000
PbHidd
1002
}
  0
LINE
  5
14B
330
1F
100
AcDbEntity
  8
HIDDEN
100
AcDbLine
 10
634.9949874371066
 20
-312.2
 30
0.0
 11
634.9949874371066
 21
-436.0
 31
0.0
1001
DBPROPERTIES
1002
{
1000
PbHidd
1002
}
  0
LINE
  5
14C
330
1F
100
AcDbEntity
  8
HIDDEN
100
AcDbLine
 10
766.8
 20
-440.9
 30
0.0
 11
511.1999999999999
 21
-440.9
 31
0.0
1001
DBPROPERTIES
1002
{
1000
PbHidd
1002
}
  0
LINE
  5
14D
330
1F
100
AcDbEntity
  8
HIDDEN
100
AcDbLine
 10
634.0000000000001
 20
-436.9949874371062
 30
0.0
 11
511.2
 21
-436.9949874371062
 31
0.0
1001
DBPROPERTIES
1002
{
1000
PbHidd
1002
}
  0
LINE
  5
14E
330
1F
100
AcDbEntity
  8
HIDDEN
100
AcDbLine
 10
511.2
 20
-440.9
 30
0.0
 11
511.2
 21
-440.9
 31
0.0
1001
DBPROPERTIES
1002
{
1000
PbHidd
1002
}
  0
LINE
  5
14F
330
1F
100
AcDbEntity
  8
HIDDEN
100
AcDbLine
 10
511.2
 20
-441.0
 30
0.0
 11
511.2
 21
-441.0
 31
0.0
1001
DBPROPERTIES
1002
{
1000
PbHidd
1002
}
  0
LINE
  5
150
330
1F
100
AcDbEntity
  8
HIDDEN
100
AcDbLine
 10
511.2
 20
-444.0
 30
0.0
 11
511.2
 21
-444.0
 31
0.0
1001
DBPROPERTIES
1002
{
1000
PbHidd
1002
}
  0
LINE
  5
151
330
1F
100
AcDbEntity
  8
THICK
100
AcDbLine
 10
511.2
 20
-444.0
 30
0.0
 11
511.2
 21
-378.1
 31
0.0
1001
DBPROPERTIES
1002
{
1000
PbThick
1002
}
  0
ARC
  5
152
330
1F
100
AcDbEntity
  8
THICK
100
AcDbCircle
 10
678.75
 20
-377.1
 30
0.0
 40
7.5
100
AcDbArc
 50
0.0
 51
180.0000198478428
1001
DBPROPERTIES
1002
{
1000
PbThick
1002
}
  0
LINE
  5
153
330
1F
100
AcDbEntity
  8
HIDDEN
100
AcDbLine
 10
766.7999999999998
 20
-440.9
 30
0.0
 11
766.7999999999998
 21
-440.9
 31
0.0
1001
DBPROPERTIES
1002
{
1000
PbHidd
1002
}
  0
LINE
  5
154
330
1F
100
AcDbEntity
  8
HIDDEN
100
AcDbLine
 10
634.9949874371067
 20
-440.9
 30
0.0
 11
634.9949874371067
 21
-440.9
 31
0.0
1001
DBPROPERTIES
1002
{
1000
PbHidd
1002
}
  0
LINE
  5
155
330
1F
100
AcDbEntity
  8
THICK
100
AcDbLine
 10
766.7999999999998
 20
-377.1
 30
0.0
 11
766.7999999999998
 21
-444.0
 31
0.0
1001
DBPROPERTIES
1002
{
1000
PbThick
1002
}
  0
LINE
  5
156
330
1F
100
AcDbEntity
  8
HIDDEN
100
AcDbLine
 10
766.7999999999998
 20
-444.0
 30
0.0
 11
766.7999999999998
 21
-444.0
 31
0.0
1001
DBPROPERTIES
1002
{
1000
PbHidd
1002
}
  0
LINE
  5
157
330
1F
100
AcDbEntity
  8
THICK
100
AcDbLine
 10
766.8
 20
-444.0
 30
0.0
 11
511.1999999999999
 21
-444.0
 31
0.0
1001
DBPROPERTIES
1002
{
1000
PbThick
1002
}
  0
LINE
  5
158
330
1F
100
AcDbEntity
  8
HIDDEN
100
AcDbLine
 10
634.0000000000001
 20
-440.9
 30
0.0
 11
634.0000000000001
 21
-436.9949874371062
 31
0.0
1001
DBPROPERTIES
1002
{
1000
PbHidd
1002
}
  0
LINE
  5
159
330
1F
100
AcDbEntity
  8
THICK
100
AcDbLine
 10
-511.2
 20
-436.0000000000001
 30
0.0
 11
511.2
 21
-436.0000000000001
 31
0.0
1001
DBPROPERTIES
1002
{
1000
PbThick
1002
}
  0
LINE
  5
15A
330
1F
100
AcDbEntity
  8
HIDDEN
100
AcDbLine
 10
-511.2
 20
-436.9949874371073
 30
0.0
 11
-634.0
 21
-436.9949874371073
 31
0.0
1001
DBPROPERTIES
1002
{
1000
PbHidd
1002
}
  0
LINE
  5
15B
330
1F
100
AcDbEntity
  8
HIDDEN
100
AcDbLine
 10
-633.9999999999999
 20
-440.9
 30
0.0
 11
-634.0
 21
-436.9949874371073
 31
0.0
1001
DBPROPERTIES
1002
{
1000
PbHidd
1002
}
  0
LINE
  5
15C
330
1F
100
AcDbEntity
  8
THICK
100
AcDbLine
 10
-511.2
 20
-441.0
 30
0.0
 11
511.2
 21
-441.0
 31
0.0
1001
DBPROPERTIES
1002
{
1000
PbThick
1002
}
  0
LINE
  5
15D
330
1F
100
AcDbEntity
  8
HIDDEN
100
AcDbLine
 10
634.9949874371066
 20
-436.0
 30
0.0
 11
638.9999999999999
 21
-436.0
 31
0.0
1001
DBPROPERTIES
1002
{
1000
PbHidd
1002
}
  0
ARC
  5
15E
330
1F
100
AcDbEntity
  8
HIDDEN
100
AcDbCircle
 10
634.0
 20
-436.0
 30
0.0
 40
5.0
100
AcDbArc
 50
281.4783114169422
 51
0.0
1001
DBPROPERTIES
1002
{
1000
PbHidd
1002
}
  0
LINE
  5
15F
330
1F
100
AcDbEntity
  8
HIDDEN
100
AcDbLine
 10
-576.1
 20
-378.1
 30
0.0
 11
-576.1
 21
-378.1
 31
0.0
1001
DBPROPERTIES
1002
{
1000
PbHidd
1002
}
  0
LINE
  5
160
330
1F
100
AcDbEntity
  8
HIDDEN
100
AcDbLine
 10
-576.1
 20
-312.2
 30
0.0
 11
-576.1
 21
-312.2
 31
0.0
1001
DBPROPERTIES
1002
{
1000
PbHidd
1002
}
  0
LINE
  5
161
330
1F
100
AcDbEntity
  8
THICK
100
AcDbLine
 10
-576.1
 20
-378.1
 30
0.0
 11
-576.1
 21
-312.2
 31
0.0
1001
DBPROPERTIES
1002
{
1000
PbThick
1002
}
  0
LINE
  5
162
330
1F
100
AcDbEntity
  8
HIDDEN
100
AcDbLine
 10
-702.9
 20
-312.2
 30
0.0
 11
-702.9
 21
-312.2
 31
0.0
1001
DBPROPERTIES
1002
{
1000
PbHidd
1002
}
  0
LINE
  5
163
330
1F
100
AcDbEntity
  8
THICK
100
AcDbLine
 10
-576.1
 20
-312.2
 30
0.0
 11
-702.9000000000001
 21
-312.2
 31
0.0
1001
DBPROPERTIES
1002
{
1000
PbThick
1002
}
  0
LINE
  5
164
330
1F
100
AcDbEntity
  8
HIDDEN
100
AcDbLine
 10
-634.9949874371073
 20
-436.0
 30
0.0
 11
-634.9949874371073
 21
-312.2
 31
0.0
1001
DBPROPERTIES
1002
{
1000
PbHidd
1002
}
  0
ARC
  5
165
330
1F
100
AcDbEntity
  8
HIDDEN
100
AcDbCircle
 10
-633.9999999999999
 20
-436.0000000000001
 30
0.0
 40
0.9949874371078474
100
AcDbArc
 50
180.0000198478428
 51
270.0000187239684
1001
DBPROPERTIES
1002
{
1000
PbHidd
1002
}
  0
LINE
  5
166
330
1F
100
AcDbEntity
  8
HIDDEN
100
AcDbLine
 10
-511.2000000000001
 20
-440.9
 30
0.0
 11
-766.8000000000001
 21
-440.9
 31
0.0
1001
DBPROPERTIES
1002
{
1000
PbHidd
1002
}
  0
ARC
  5
167
330
1F
100
AcDbEntity
  8
HIDDEN
100
AcDbCircle
 10
-633.9999999999999
 20
-435.9999999999999
 30
0.0
 40
5.0
100
AcDbArc
 50
258.521668735215
 51
270.0000187239684
1001
DBPROPERTIES
1002
{
1000
PbHidd
1002
}
  0
LINE
  5
168
330
1F
100
AcDbEntity
  8
HIDDEN
100
AcDbLine
 10
-511.2
 20
-441.0
 30
0.0
 11
-634.0
 21
-441.0
 31
0.0
1001
DBPROPERTIES
1002
{
1000
PbHidd
1002
}
  0
LINE
  5
169
330
1F
100
AcDbEntity
  8
HIDDEN
100
AcDbLine
 10
-702.9000000000001
 20
-313.2
 30
0.0
 11
-702.9000000000001
 21
-313.2
 31
0.0
1001
DBPROPERTIES
1002
{
1000
PbHidd
1002
}
  0
LINE
  5
16A
330
1F
100
AcDbEntity
  8
THICK
100
AcDbLine
 10
-702.9000000000001
 20
-312.2
 30
0.0
 11
-702.9000000000001
 21
-313.2
 31
0.0
1001
DBPROPERTIES
1002
{
1000
PbThick
1002
}
  0
LINE
  5
16B
330
1F
100
AcDbEntity
  8
HIDDEN
100
AcDbLine
 10
-766.8000000000001
 20
-377.1
 30
0.0
 11
-766.8000000000001
 21
-377.1
 31
0.0
1001
DBPROPERTIES
1002
{
1000
PbHidd
1002
}
  0
LINE
  5
16C
330
1F
100
AcDbEntity
  8
THICK
100
AcDbLine
 10
-702.9000000000001
 20
-313.2
 30
0.0
 11
-766.8000000000001
 21
-377.1
 31
0.0
1001
DBPROPERTIES
1002
{
1000
PbThick
1002
}
  0
LINE
  5
16D
330
1F
100
AcDbEntity
  8
THICK
100
AcDbLine
 10
-766.8000000000001
 20
-444.0
 30
0.0
 11
-766.8000000000001
 21
-377.1
 31
0.0
1001
DBPROPERTIES
1002
{
1000
PbThick
1002
}
  0
LINE
  5
16E
330
1F
100
AcDbEntity
  8
THICK
100
AcDbLine
 10
-511.2000000000001
 20
-444.0
 30
0.0
 11
-766.8000000000001
 21
-444.0
 31
0.0
1001
DBPROPERTIES
1002
{
1000
PbThick
1002
}
  0
LINE
  5
16F
330
1F
100
AcDbEntity
  8
THICK
100
AcDbLine
 10
-511.2
 20
-378.1
 30
0.0
 11
-511.2
 21
-444.0
 31
0.0
1001
DBPROPERTIES
1002
{
1000
PbThick
1002
}
  0
LINE
  5
170
330
1F
100
AcDbEntity
  8
THICK
100
AcDbLine
 10
-511.2
 20
-378.1
 30
0.0
 11
-576.0999999999999
 21
-378.1
 31
0.0
1001
DBPROPERTIES
1002
{
1000
PbThick
1002
}
  0
ARC
  5
171
330
1F
100
AcDbEntity
  8
THICK
100
AcDbCircle
 10
-678.75
 20
-377.1
 30
0.0
 40
7.5
100
AcDbArc
 50
0.0
 51
180.0000198478428
1001
DBPROPERTIES
1002
{
1000
PbThick
1002
}
  0
LINE
  5
172
330
1F
100
AcDbEntity
  8
HIDDEN
100
AcDbLine
 10
-511.2
 20
-378.1
 30
0.0
 11
-511.2
 21
-378.1
 31
0.0
1001
DBPROPERTIES
1002
{
1000
PbHidd
1002
}
  0
LINE
  5
173
330
1F
100
AcDbEntity
  8
HIDDEN
100
AcDbLine
 10
-634.9949874371064
 20
-440.9
 30
0.0
 11
-634.9949874371064
 21
-440.9
 31
0.0
1001
DBPROPERTIES
1002
{
1000
PbHidd
1002
}
  0
LINE
  5
174
330
1F
100
AcDbEntity
  8
HIDDEN
100
AcDbLine
 10
-766.8000000000001
 20
-440.9
 30
0.0
 11
-766.8000000000001
 21
-440.9
 31
0.0
1001
DBPROPERTIES
1002
{
1000
PbHidd
1002
}
  0
LINE
  5
175
330
1F
100
AcDbEntity
  8
HIDDEN
100
AcDbLine
 10
-511.2
 20
-440.9
 30
0.0
 11
-511.2
 21
-440.9
 31
0.0
1001
DBPROPERTIES
1002
{
1000
PbHidd
1002
}
  0
LINE
  5
176
330
1F
100
AcDbEntity
  8
HIDDEN
100
AcDbLine
 10
-766.8000000000001
 20
-444.0
 30
0.0
 11
-766.8000000000001
 21
-444.0
 31
0.0
1001
DBPROPERTIES
1002
{
1000
PbHidd
1002
}
  0
LINE
  5
177
330
1F
100
AcDbEntity
  8
HIDDEN
100
AcDbLine
 10
-511.2
 20
-444.0
 30
0.0
 11
-511.2
 21
-444.0
 31
0.0
1001
DBPROPERTIES
1002
{
1000
PbHidd
1002
}
  0
LINE
  5
178
330
1F
100
AcDbEntity
  8
HIDDEN
100
AcDbLine
 10
-511.2
 20
-441.0
 30
0.0
 11
-511.2
 21
-441.0
 31
0.0
1001
DBPROPERTIES
1002
{
1000
PbHidd
1002
}
  0
LINE
  5
179
330
1F
100
AcDbEntity
  8
THICK
100
AcDbLine
 10
633.9999999999999
 20
-312.2
 30
0.0
 11
633.9999999999999
 21
436.0
 31
0.0
1001
DBPROPERTIES
1002
{
1000
PbThick
1002
}
  0
LINE
  5
17A
330
1F
100
AcDbEntity
  8
THICK
100
AcDbLine
 10
-634.0
 20
436.0
 30
0.0
 11
633.9999999999999
 21
436.0
 31
0.0
1001
DBPROPERTIES
1002
{
1000
PbThick
1002
}
  0
LINE
  5
17B
330
1F
100
AcDbEntity
  8
THICK
100
AcDbLine
 10
-634.0
 20
-312.2
 30
0.0
 11
-634.0
 21
436.0
 31
0.0
1001
DBPROPERTIES
1002
{
1000
PbThick
1002
}
  0
LINE
  5
17C
330
1F
100
AcDbEntity
  8
THICK
100
AcDbLine
 10
575.1
 20
377.1
 30
0.0
 11
575.1
 21
-377.1
 31
0.0
1001
DBPROPERTIES
1002
{
1000
PbThick
1002
}
  0
LINE
  5
17D
330
1F
100
AcDbEntity
  8
THICK
100
AcDbLine
 10
575.1
 20
-377.1
 30
0.0
 11
-575.1
 21
-377.1
 31
0.0
1001
DBPROPERTIES
1002
{
1000
PbThick
1002
}
  0
LINE
  5
17E
330
1F
100
AcDbEntity
  8
THICK
100
AcDbLine
 10
-575.1
 20
-377.1
 30
0.0
 11
-575.1
 21
377.1
 31
0.0
1001
DBPROPERTIES
1002
{
1000
PbThick
1002
}
  0
LINE
  5
17F
330
1F
100
AcDbEntity
  8
HIDDEN
100
AcDbLine
 10
-576.0999999999999
 20
-312.2
 30
0.0
 11
-576.0999999999999
 21
-312.2
 31
0.0
1001
DBPROPERTIES
1002
{
1000
PbHidd
1002
}
  0
LINE
  5
180
330
1F
100
AcDbEntity
  8
HIDDEN
100
AcDbLine
 10
-702.8999999999999
 20
-312.2
 30
0.0
 11
-702.8999999999999
 21
-312.2
 31
0.0
1001
DBPROPERTIES
1002
{
1000
PbHidd
1002
}
  0
LINE
  5
181
330
1F
100
AcDbEntity
  8
HIDDEN
100
AcDbLine
 10
-576.1
 20
-378.1
 30
0.0
 11
-576.1
 21
-378.1
 31
0.0
1001
DBPROPERTIES
1002
{
1000
PbHidd
1002
}
  0
LINE
  5
182
330
1F
100
AcDbEntity
  8
HIDDEN
100
AcDbLine
 10
-511.2
 20
-378.1
 30
0.0
 11
-511.2
 21
-378.1
 31
0.0
1001
DBPROPERTIES
1002
{
1000
PbHidd
1002
}
  0
LINE
  5
183
330
1F
100
AcDbEntity
  8
HIDDEN
100
AcDbLine
 10
-702.9
 20
-313.2
 30
0.0
 11
-702.9
 21
-313.2
 31
0.0
1001
DBPROPERTIES
1002
{
1000
PbHidd
1002
}
  0
LINE
  5
184
330
1F
100
AcDbEntity
  8
HIDDEN
100
AcDbLine
 10
-766.8
 20
-377.1
 30
0.0
 11
-766.8
 21
-377.1
 31
0.0
1001
DBPROPERTIES
1002
{
1000
PbHidd
1002
}
  0
ARC
  5
185
330
1F
100
AcDbEntity
  8
HIDDEN
100
AcDbCircle
 10
-634.0
 20
-435.9999999999999
 30
0.0
 40
0.9949874371067317
100
AcDbArc
 50
179.9999801521572
 51
270.0000187239684
1001
DBPROPERTIES
1002
{
1000
PbHidd
1002
}
  0
LINE
  5
186
330
1F
100
AcDbEntity
  8
HIDDEN
100
AcDbLine
 10
-634.9949874371067
 20
-312.2
 30
0.0
 11
-634.9949874371067
 21
-436.0
 31
0.0
1001
DBPROPERTIES
1002
{
1000
PbHidd
1002
}
  0
LINE
  5
187
330
1F
100
AcDbEntity
  8
HIDDEN
100
AcDbLine
 10
-634.0
 20
-436.9949874371067
 30
0.0
 11
-511.2
 21
-436.9949874371067
 31
0.0
1001
DBPROPERTIES
1002
{
1000
PbHidd
1002
}
  0
LINE
  5
188
330
1F
100
AcDbEntity
  8
HIDDEN
100
AcDbLine
 10
-511.2000000000001
 20
-440.9
 30
0.0
 11
-511.2000000000001
 21
-440.9
 31
0.0
1001
DBPROPERTIES
1002
{
1000
PbHidd
1002
}
  0
LINE
  5
189
330
1F
100
AcDbEntity
  8
HIDDEN
100
AcDbLine
 10
-511.2
 20
-441.0
 30
0.0
 11
-511.2
 21
-441.0
 31
0.0
1001
DBPROPERTIES
1002
{
1000
PbHidd
1002
}
  0
LINE
  5
18A
330
1F
100
AcDbEntity
  8
HIDDEN
100
AcDbLine
 10
-511.2000000000001
 20
-444.0
 30
0.0
 11
-511.2000000000001
 21
-444.0
 31
0.0
1001
DBPROPERTIES
1002
{
1000
PbHidd
1002
}
  0
LINE
  5
18B
330
1F
100
AcDbEntity
  8
HIDDEN
100
AcDbLine
 10
-766.8
 20
-440.9
 30
0.0
 11
-766.8
 21
-440.9
 31
0.0
1001
DBPROPERTIES
1002
{
1000
PbHidd
1002
}
  0
LINE
  5
18C
330
1F
100
AcDbEntity
  8
HIDDEN
100
AcDbLine
 10
-634.9949874371065
 20
-440.9
 30
0.0
 11
-634.9949874371065
 21
-440.9
 31
0.0
1001
DBPROPERTIES
1002
{
1000
PbHidd
1002
}
  0
LINE
  5
18D
330
1F
100
AcDbEntity
  8
HIDDEN
100
AcDbLine
 10
-766.8
 20
-444.0
 30
0.0
 11
-766.8
 21
-444.0
 31
0.0
1001
DBPROPERTIES
1002
{
1000
PbHidd
1002
}
  0
LINE
  5
18E
330
1F
100
AcDbEntity
  8
HIDDEN
100
AcDbLine
 10
-634.0
 20
-436.9949874371067
 30
0.0
 11
-634.0
 21
-440.9
 31
0.0
1001
DBPROPERTIES
1002
{
1000
PbHidd
1002
}
  0
LINE
  5
18F
330
1F
100
AcDbEntity
  8
HIDDEN
100
AcDbLine
 10
-511.2000000000001
 20
-435.9999999999999
 30
0.0
 11
511.1999999999999
 21
-435.9999999999999
 31
0.0
1001
DBPROPERTIES
1002
{
1000
PbHidd
1002
}
  0
LINE
  5
190
330
1F
100
AcDbEntity
  8
HIDDEN
100
AcDbLine
 10
511.2
 20
-436.9949874371067
 30
0.0
 11
634.0
 21
-436.9949874371067
 31
0.0
1001
DBPROPERTIES
1002
{
1000
PbHidd
1002
}
  0
LINE
  5
191
330
1F
100
AcDbEntity
  8
HIDDEN
100
AcDbLine
 10
634.0
 20
-436.9949874371067
 30
0.0
 11
634.0
 21
-440.9
 31
0.0
1001
DBPROPERTIES
1002
{
1000
PbHidd
1002
}
  0
LINE
  5
192
330
1F
100
AcDbEntity
  8
HIDDEN
100
AcDbLine
 10
-639.0
 20
-435.9999999999999
 30
0.0
 11
-634.9949874371067
 21
-436.0
 31
0.0
1001
DBPROPERTIES
1002
{
1000
PbHidd
1002
}
  0
LINE
  5
193
330
1F
100
AcDbEntity
  8
HIDDEN
100
AcDbLine
 10
576.1
 20
-378.1
 30
0.0
 11
576.1
 21
-378.1
 31
0.0
1001
DBPROPERTIES
1002
{
1000
PbHidd
1002
}
  0
LINE
  5
194
330
1F
100
AcDbEntity
  8
HIDDEN
100
AcDbLine
 10
576.0999999999999
 20
-312.2
 30
0.0
 11
576.0999999999999
 21
-312.2
 31
0.0
1001
DBPROPERTIES
1002
{
1000
PbHidd
1002
}
  0
LINE
  5
195
330
1F
100
AcDbEntity
  8
HIDDEN
100
AcDbLine
 10
702.9000000000001
 20
-312.2
 30
0.0
 11
702.9000000000001
 21
-312.2
 31
0.0
1001
DBPROPERTIES
1002
{
1000
PbHidd
1002
}
  0
LINE
  5
196
330
1F
100
AcDbEntity
  8
HIDDEN
100
AcDbLine
 10
634.9949874371063
 20
-436.0
 30
0.0
 11
634.9949874371063
 21
-312.2
 31
0.0
1001
DBPROPERTIES
1002
{
1000
PbHidd
1002
}
  0
ARC
  5
197
330
1F
100
AcDbEntity
  8
HIDDEN
100
AcDbCircle
 10
634.0
 20
-435.9999999999999
 30
0.0
 40
0.9949874371067317
100
AcDbArc
 50
270.0000187239684
 51
0.0
1001
DBPROPERTIES
1002
{
1000
PbHidd
1002
}
  0
LINE
  5
198
330
1F
100
AcDbEntity
  8
HIDDEN
100
AcDbLine
 10
511.1999999999999
 20
-440.9
 30
0.0
 11
511.1999999999999
 21
-440.9
 31
0.0
1001
DBPROPERTIES
1002
{
1000
PbHidd
1002
}
  0
LINE
  5
199
330
1F
100
AcDbEntity
  8
HIDDEN
100
AcDbLine
 10
634.994987437107
 20
-440.9
 30
0.0
 11
634.994987437107
 21
-440.9
 31
0.0
1001
DBPROPERTIES
1002
{
1000
PbHidd
1002
}
  0
LINE
  5
19A
330
1F
100
AcDbEntity
  8
HIDDEN
100
AcDbLine
 10
766.8
 20
-440.9
 30
0.0
 11
766.8
 21
-440.9
 31
0.0
1001
DBPROPERTIES
1002
{
1000
PbHidd
1002
}
  0
LINE
  5
19B
330
1F
100
AcDbEntity
  8
HIDDEN
100
AcDbLine
 10
702.9
 20
-313.2
 30
0.0
 11
702.9
 21
-313.2
 31
0.0
1001
DBPROPERTIES
1002
{
1000
PbHidd
1002
}
  0
LINE
  5
19C
330
1F
100
AcDbEntity
  8
HIDDEN
100
AcDbLine
 10
766.8
 20
-377.1
 30
0.0
 11
766.8
 21
-377.1
 31
0.0
1001
DBPROPERTIES
1002
{
1000
PbHidd
1002
}
  0
LINE
  5
19D
330
1F
100
AcDbEntity
  8
HIDDEN
100
AcDbLine
 10
511.2
 20
-378.1
 30
0.0
 11
511.2
 21
-378.1
 31
0.0
1001
DBPROPERTIES
1002
{
1000
PbHidd
1002
}
  0
LINE
  5
19E
330
1F
100
AcDbEntity
  8
HIDDEN
100
AcDbLine
 10
766.8
 20
-444.0
 30
0.0
 11
766.8
 21
-444.0
 31
0.0
1001
DBPROPERTIES
1002
{
1000
PbHidd
1002
}
  0
LINE
  5
19F
330
1F
100
AcDbEntity
  8
HIDDEN
100
AcDbLine
 10
511.1999999999999
 20
-444.0
 30
0.0
 11
511.1999999999999
 21
-444.0
 31
0.0
1001
DBPROPERTIES
1002
{
1000
PbHidd
1002
}
  0
LINE
  5
1A0
330
1F
100
AcDbEntity
  8
HIDDEN
100
AcDbLine
 10
511.2
 20
-441.0
 30
0.0
 11
511.2
 21
-441.0
 31
0.0
1001
DBPROPERTIES
1002
{
1000
PbHidd
1002
}
  0
LINE
  5
1A1
330
1F
100
AcDbEntity
  8
HIDDEN
100
AcDbLine
 10
-634.0
 20
-312.2
 30
0.0
 11
-634.0
 21
436.0
 31
0.0
1001
DBPROPERTIES
1002
{
1000
PbHidd
1002
}
  0
LINE
  5
1A2
330
1F
100
AcDbEntity
  8
HIDDEN
100
AcDbLine
 10
-634.0
 20
436.0
 30
0.0
 11
634.0000000000001
 21
436.0
 31
0.0
1001
DBPROPERTIES
1002
{
1000
PbHidd
1002
}
  0
LINE
  5
1A3
330
1F
100
AcDbEntity
  8
HIDDEN
100
AcDbLine
 10
634.0000000000001
 20
-312.2
 30
0.0
 11
634.0000000000001
 21
436.0
 31
0.0
1001
DBPROPERTIES
1002
{
1000
PbHidd
1002
}
  0
LINE
  5
1A4
330
1F
100
AcDbEntity
  8
HIDDEN
100
AcDbLine
 10
-633.9999999999999
 20
-441.0
 30
0.0
 11
-634.0000000000001
 21
-441.0
 31
0.0
1001
DBPROPERTIES
1002
{
1000
PbHidd
1002
}
  0
LINE
  5
1A5
330
1F
100
AcDbEntity
  8
HIDDEN
100
AcDbLine
 10
634.0
 20
-440.9999999999999
 30
0.0
 11
634.0
 21
-441.0000000000001
 31
0.0
1001
DBPROPERTIES
1002
{
1000
PbHidd
1002
}
  0
LINE
  5
1A6
330
1F
100
AcDbEntity
  8
HIDDEN
100
AcDbLine
 10
639.0
 20
-435.9999999999999
 30
0.0
 11
639.0
 21
-436.0000000000001
 31
0.0
1001
DBPROPERTIES
1002
{
1000
PbHidd
1002
}
  0
LINE
  5
1A7
330
1F
100
AcDbEntity
  8
HIDDEN
100
AcDbLine
 10
428.7301315077632
 20
-172.3235318767039
 30
0.0
 11
428.7301315077632
 21
-172.3235318767039
 31
0.0
1001
DBPROPERTIES
1002
{
1000
PbHidd
1002
}
  0
LINE
  5
1A8
330
1F
100
AcDbEntity
  8
HIDDEN
100
AcDbLine
 10
406.7430263436632
 20
-161.1205422348846
 30
0.0
 11
428.7301315077632
 21
-172.3235318767039
 31
0.0
1001
DBPROPERTIES
1002
{
1000
PbHidd
1002
}
  0
LINE
  5
1A9
330
1F
100
AcDbEntity
  8
THICK
100
AcDbLine
 10
-100.9051263255545
 20
97.539110938915
 30
0.0
 11
406.7430263436631
 21
-161.1205422348846
 31
0.0
1001
DBPROPERTIES
1002
{
1000
PbThick
1002
}
  0
LINE
  5
1AA
330
1F
100
AcDbEntity
  8
HIDDEN
100
AcDbLine
 10
-122.8922314896546
 20
108.7421005807344
 30
0.0
 11
-100.9051263255545
 21
97.53911093891503
 31
0.0
1001
DBPROPERTIES
1002
{
1000
PbHidd
1002
}
  0
LINE
  5
1AB
330
1F
100
AcDbEntity
  8
HIDDEN
100
AcDbLine
 10
-122.8922314896546
 20
108.7421005807344
 30
0.0
 11
-122.8922314896546
 21
108.7421005807344
 31
0.0
1001
DBPROPERTIES
1002
{
1000
PbHidd
1002
}
  0
LINE
  5
1AC
330
1F
100
AcDbEntity
  8
THICK
100
AcDbLine
 10
-107.6681055897926
 20
107.7189784142536
 30
0.0
 11
418.9538916047757
 21
-160.6083314199627
 31
0.0
1001
DBPROPERTIES
1002
{
1000
PbThick
1002
}
  0
LINE
  5
1AD
330
1F
100
AcDbEntity
  8
THICK
100
AcDbLine
 10
369.0149366334255
 20
-258.6190490806831
 30
0.0
 11
-157.6070605611425
 21
9.708260753533079
 31
0.0
1001
DBPROPERTIES
1002
{
1000
PbThick
1002
}
  0
LINE
  5
1AE
330
1F
100
AcDbEntity
  8
THICK
100
AcDbLine
 10
362.2519573691875
 20
-248.4391816053446
 30
0.0
 11
-145.39619530003
 21
10.22047156845494
 31
0.0
1001
DBPROPERTIES
1002
{
1000
PbThick
1002
}
  0
LINE
  5
1AF
330
1F
100
AcDbEntity
  8
HIDDEN
100
AcDbLine
 10
384.2390625332873
 20
-259.6421712471638
 30
0.0
 11
362.2519573691875
 21
-248.4391816053446
 31
0.0
1001
DBPROPERTIES
1002
{
1000
PbHidd
1002
}
  0
LINE
  5
1B0
330
1F
100
AcDbEntity
  8
HIDDEN
100
AcDbLine
 10
-145.39619530003
 20
10.22047156845495
 30
0.0
 11
-167.38330046413
 21
21.42346121027424
 31
0.0
1001
DBPROPERTIES
1002
{
1000
PbHidd
1002
}
  0
LINE
  5
1B1
330
1F
100
AcDbEntity
  8
HIDDEN
100
AcDbLine
 10
-107.6681055897925
 20
107.7189784142536
 30
0.0
 11
-129.0336914706919
 21
118.6052881639306
 31
0.0
1001
DBPROPERTIES
1002
{
1000
PbHidd
1002
}
  0
LINE
  5
1B2
330
1F
100
AcDbEntity
  8
HIDDEN
100
AcDbLine
 10
440.3194774856751
 20
-171.4946411696398
 30
0.0
 11
418.9538916047757
 21
-160.6083314199627
 31
0.0
1001
DBPROPERTIES
1002
{
1000
PbHidd
1002
}
  0
ARC
  5
1B3
330
1F
100
AcDbEntity
  8
HIDDEN
100
AcDbCircle
 10
415.3500000000001
 20
-220.5
 30
0.0
 40
55.0
100
AcDbArc
 50
243.0000128820029
 51
332.9999941580346
1001
DBPROPERTIES
1002
{
1000
PbHidd
1002
}
  0
LINE
  5
1B4
330
1F
100
AcDbEntity
  8
HIDDEN
100
AcDbLine
 10
390.380522514325
 20
-269.5053588303603
 30
0.0
 11
390.380522514325
 21
-269.5053588303603
 31
0.0
1001
DBPROPERTIES
1002
{
1000
PbHidd
1002
}
  0
LINE
  5
1B5
330
1F
100
AcDbEntity
  8
HIDDEN
100
AcDbLine
 10
369.0149366334255
 20
-258.6190490806831
 30
0.0
 11
390.3805225143249
 21
-269.5053588303603
 31
0.0
1001
DBPROPERTIES
1002
{
1000
PbHidd
1002
}
  0
LINE
  5
1B6
330
1F
100
AcDbEntity
  8
HIDDEN
100
AcDbLine
 10
-178.972646442042
 20
20.59457050321014
 30
0.0
 11
-157.6070605611425
 21
9.708260753533033
 31
0.0
1001
DBPROPERTIES
1002
{
1000
PbHidd
1002
}
  0
LINE
  5
1B7
330
1F
100
AcDbEntity
  8
HIDDEN
100
AcDbLine
 10
-178.972646442042
 20
20.59457050321018
 30
0.0
 11
-178.972646442042
 21
20.59457050321018
 31
0.0
1001
DBPROPERTIES
1002
{
1000
PbHidd
1002
}
  0
ARC
  5
1B8
330
1F
100
AcDbEntity
  8
HIDDEN
100
AcDbCircle
 10
-154.0031689563669
 20
69.5999293335704
 30
0.0
 40
55.0
100
AcDbArc
 50
153.0000140058774
 51
243.0000128820029
1001
DBPROPERTIES
1002
{
1000
PbHidd
1002
}
  0
ARC
  5
1B9
330
1F
100
AcDbEntity
  8
HIDDEN
100
AcDbCircle
 10
415.35
 20
-220.5
 30
0.0
 40
50.0
100
AcDbArc
 50
74.47832542281961
 51
180.0000198478428
1001
DBPROPERTIES
1002
{
1000
PbHidd
1002
}
  0
ARC
  5
1BA
330
1F
100
AcDbEntity
  8
HIDDEN
100
AcDbCircle
 10
-154.0031689563669
 20
69.59992933357034
 30
0.0
 40
49.99999999999999
100
AcDbArc
 50
332.9999941580346
 51
51.52168274109243
1001
DBPROPERTIES
1002
{
1000
PbHidd
1002
}
  0
ARC
  5
1BB
330
1F
100
AcDbEntity
  8
HIDDEN
100
AcDbCircle
 10
415.35
 20
-220.5
 30
0.0
 40
5.0
100
AcDbArc
 50
0.0
 51
180.0000198478428
1001
DBPROPERTIES
1002
{
1000
PbHidd
1002
}
  0
ARC
  5
1BC
330
1F
100
AcDbEntity
  8
THICK
100
AcDbCircle
 10
415.35
 20
-220.5
 30
0.0
 40
60.0
100
AcDbArc
 50
0.0
 51
180.0000198478428
1001
DBPROPERTIES
1002
{
1000
PbThick
1002
}
  0
ARC
  5
1BD
330
1F
100
AcDbEntity
  8
HIDDEN
100
AcDbCircle
 10
-154.0031689563669
 20
69.59992933357034
 30
0.0
 40
5.0
100
AcDbArc
 50
332.9999941580346
 51
153.0000140058774
1001
DBPROPERTIES
1002
{
1000
PbHidd
1002
}
  0
ARC
  5
1BE
330
1F
100
AcDbEntity
  8
THICK
100
AcDbCircle
 10
-154.0031689563669
 20
69.59992933357034
 30
0.0
 40
59.99999999999999
100
AcDbArc
 50
332.9999941580346
 51
153.0000140058774
1001
DBPROPERTIES
1002
{
1000
PbThick
1002
}
  0
ARC
  5
1BF
330
1F
100
AcDbEntity
  8
HIDDEN
100
AcDbCircle
 10
-154.0031689563669
 20
69.59992933357034
 30
0.0
 40
220.5
100
AcDbArc
 50
332.9999941580346
 51
153.0000140058774
1001
DBPROPERTIES
1002
{
1000
PbHidd
1002
}
  0
ARC
  5
1C0
330
1F
100
AcDbEntity
  8
HIDDEN
100
AcDbCircle
 10
-29.26953275505995
 20
194.3335655348773
 30
0.0
 40
26.45999999999999
100
AcDbArc
 50
315.0000093619842
 51
134.9999719140475
1001
DBPROPERTIES
1002
{
1000
PbHidd
1002
}
  0
ARC
  5
1C1
330
1F
100
AcDbEntity
  8
HIDDEN
100
AcDbCircle
 10
-154.0031689563669
 20
69.59992933357034
 30
0.0
 40
176.4
100
AcDbArc
 50
35.60245147383909
 51
36.39754500614214
1001
DBPROPERTIES
1002
{
1000
PbHidd
1002
}
  0
ARC
  5
1C2
330
1F
100
AcDbEntity
  8
HIDDEN
100
AcDbCircle
 10
3.170381910461193
 20
149.6838534876264
 30
0.0
 40
26.45999999999999
100
AcDbArc
 50
297.0000245659338
 51
116.9999871179971
1001
DBPROPERTIES
1002
{
1000
PbHidd
1002
}
  0
ARC
  5
1C3
330
1F
100
AcDbEntity
  8
HIDDEN
100
AcDbCircle
 10
-154.0031689563669
 20
69.59992933357034
 30
0.0
 40
176.4
100
AcDbArc
 50
17.60246667778866
 51
18.39756021009171
1001
DBPROPERTIES
1002
{
1000
PbHidd
1002
}
  0
ARC
  5
1C4
330
1F
100
AcDbEntity
  8
HIDDEN
100
AcDbCircle
 10
20.22505432461528
 20
97.19496896666698
 30
0.0
 40
26.45999999999999
100
AcDbArc
 50
278.9999824741038
 51
99.00000232194662
1001
DBPROPERTIES
1002
{
1000
PbHidd
1002
}
  0
ARC
  5
1C5
330
1F
100
AcDbEntity
  8
HIDDEN
100
AcDbCircle
 10
-154.0031689563669
 20
69.59992933357034
 30
0.0
 40
176.4
100
AcDbArc
 50
359.6024245859587
 51
0.3975754140412783
1001
DBPROPERTIES
1002
{
1000
PbHidd
1002
}
  0
ARC
  5
1C6
330
1F
100
AcDbEntity
  8
HIDDEN
100
AcDbCircle
 10
20.22505432461539
 20
42.0048897004736
 30
0.0
 40
26.45999999999999
100
AcDbArc
 50
260.9999976780534
 51
81.0000175258962
1001
DBPROPERTIES
1002
{
1000
PbHidd
1002
}
  0
ARC
  5
1C7
330
1F
100
AcDbEntity
  8
HIDDEN
100
AcDbCircle
 10
-154.0031689563669
 20
69.59992933357034
 30
0.0
 40
176.4
100
AcDbArc
 50
341.6024397899083
 51
342.3975333222114
1001
DBPROPERTIES
1002
{
1000
PbHidd
1002
}
  0
ARC
  5
1C8
330
1F
100
AcDbEntity
  8
HIDDEN
100
AcDbCircle
 10
3.170381910461136
 20
-10.48399482048569
 30
0.0
 40
26.45999999999999
100
AcDbArc
 50
243.0000128820029
 51
62.99997543406626
1001
DBPROPERTIES
1002
{
1000
PbHidd
1002
}
  0
ARC
  5
1C9
330
1F
100
AcDbEntity
  8
HIDDEN
100
AcDbCircle
 10
-154.0031689563669
 20
69.59992933357034
 30
0.0
 40
176.4
100
AcDbArc
 50
323.6024549938579
 51
324.3975485261609
1001
DBPROPERTIES
1002
{
1000
PbHidd
1002
}
  0
ARC
  5
1CA
330
1F
100
AcDbEntity
  8
HIDDEN
100
AcDbCircle
 10
-29.2695327550599
 20
-55.13370686773666
 30
0.0
 40
26.45999999999999
100
AcDbArc
 50
225.0000280859525
 51
44.99999063801582
1001
DBPROPERTIES
1002
{
1000
PbHidd
1002
}
  0
ARC
  5
1CB
330
1F
100
AcDbEntity
  8
HIDDEN
100
AcDbCircle
 10
-154.0031689563669
 20
69.59992933357034
 30
0.0
 40
176.4
100
AcDbArc
 50
305.6024701978074
 51
306.3975637301104
1001
DBPROPERTIES
1002
{
1000
PbHidd
1002
}
  0
ARC
  5
1CC
330
1F
100
AcDbEntity
  8
HIDDEN
100
AcDbCircle
 10
-73.91924480231096
 20
-87.57362153325772
 30
0.0
 40
26.45999999999999
100
AcDbArc
 50
206.9999859941226
 51
27.0000058419654
1001
DBPROPERTIES
1002
{
1000
PbHidd
1002
}
  0
ARC
  5
1CD
330
1F
100
AcDbEntity
  8
HIDDEN
100
AcDbCircle
 10
-154.0031689563669
 20
69.59992933357034
 30
0.0
 40
176.4
100
AcDbArc
 50
287.6024281059775
 51
288.39757893406
1001
DBPROPERTIES
1002
{
1000
PbHidd
1002
}
  0
ARC
  5
1CE
330
1F
100
AcDbEntity
  8
HIDDEN
100
AcDbCircle
 10
-126.4081293232702
 20
-104.6282939474119
 30
0.0
 40
26.45999999999999
100
AcDbArc
 50
189.0000011980722
 51
9.000021045914972
1001
DBPROPERTIES
1002
{
1000
PbHidd
1002
}
  0
ARC
  5
1CF
330
1F
100
AcDbEntity
  8
HIDDEN
100
AcDbCircle
 10
-154.0031689563669
 20
69.59992933357034
 30
0.0
 40
176.4
100
AcDbArc
 50
269.6024433099271
 51
270.3975368422301
1001
DBPROPERTIES
1002
{
1000
PbHidd
1002
}
  0
ARC
  5
1D0
330
1F
100
AcDbEntity
  8
HIDDEN
100
AcDbCircle
 10
-181.5982085894637
 20
-104.6282939474119
 30
0.0
 40
26.45999999999999
100
AcDbArc
 50
170.9999988019279
 51
350.9999789540851
1001
DBPROPERTIES
1002
{
1000
PbHidd
1002
}
  0
ARC
  5
1D1
330
1F
100
AcDbEntity
  8
HIDDEN
100
AcDbCircle
 10
-154.0031689563669
 20
69.59992933357034
 30
0.0
 40
176.4
100
AcDbArc
 50
251.6024585138766
 51
252.3975520461797
1001
DBPROPERTIES
1002
{
1000
PbHidd
1002
}
  0
ARC
  5
1D2
330
1F
100
AcDbEntity
  8
HIDDEN
100
AcDbCircle
 10
-234.087093110423
 20
-87.57362153325775
 30
0.0
 40
26.45999999999999
100
AcDbArc
 50
153.0000140058774
 51
332.9999941580346
1001
DBPROPERTIES
1002
{
1000
PbHidd
1002
}
  0
ARC
  5
1D3
330
1F
100
AcDbEntity
  8
HIDDEN
100
AcDbCircle
 10
-154.0031689563669
 20
69.59992933357034
 30
0.0
 40
176.4
100
AcDbArc
 50
233.6024164220467
 51
234.3975672501292
1001
DBPROPERTIES
1002
{
1000
PbHidd
1002
}
  0
ARC
  5
1D4
330
1F
100
AcDbEntity
  8
HIDDEN
100
AcDbCircle
 10
-278.736805157674
 20
-55.13370686773658
 30
0.0
 40
26.45999999999999
100
AcDbArc
 50
134.9999719140475
 51
315.0000093619842
1001
DBPROPERTIES
1002
{
1000
PbHidd
1002
}
  0
ARC
  5
1D5
330
1F
100
AcDbEntity
  8
HIDDEN
100
AcDbCircle
 10
-154.0031689563669
 20
69.59992933357034
 30
0.0
 40
176.4
100
AcDbArc
 50
215.6024316259962
 51
216.3975824540788
1001
DBPROPERTIES
1002
{
1000
PbHidd
1002
}
  0
ARC
  5
1D6
330
1F
100
AcDbEntity
  8
HIDDEN
100
AcDbCircle
 10
-311.1767198231952
 20
-10.48399482048558
 30
0.0
 40
26.45999999999999
100
AcDbArc
 50
116.9999871179971
 51
297.0000245659338
1001
DBPROPERTIES
1002
{
1000
PbHidd
1002
}
  0
ARC
  5
1D7
330
1F
100
AcDbEntity
  8
HIDDEN
100
AcDbCircle
 10
-154.0031689563669
 20
69.59992933357034
 30
0.0
 40
176.4
100
AcDbArc
 50
197.6024468299458
 51
198.3975403622489
1001
DBPROPERTIES
1002
{
1000
PbHidd
1002
}
  0
ARC
  5
1D8
330
1F
100
AcDbEntity
  8
HIDDEN
100
AcDbCircle
 10
-328.2313922373492
 20
42.00488970047365
 30
0.0
 40
26.45999999999999
100
AcDbArc
 50
99.00000232194662
 51
278.9999824741038
1001
DBPROPERTIES
1002
{
1000
PbHidd
1002
}
  0
ARC
  5
1D9
330
1F
100
AcDbEntity
  8
HIDDEN
100
AcDbCircle
 10
-154.0031689563669
 20
69.59992933357034
 30
0.0
 40
176.4
100
AcDbArc
 50
179.6024444338016
 51
180.3975555661984
1001
DBPROPERTIES
1002
{
1000
PbHidd
1002
}
  0
ARC
  5
1DA
330
1F
100
AcDbEntity
  8
HIDDEN
100
AcDbCircle
 10
-328.2313922373493
 20
97.19496896666709
 30
0.0
 40
26.45999999999999
100
AcDbArc
 50
81.0000175258962
 51
260.9999976780534
1001
DBPROPERTIES
1002
{
1000
PbHidd
1002
}
  0
ARC
  5
1DB
330
1F
100
AcDbEntity
  8
HIDDEN
100
AcDbCircle
 10
-154.0031689563669
 20
69.59992933357034
 30
0.0
 40
176.4
100
AcDbArc
 50
161.6024596377511
 51
162.3975531700542
1001
DBPROPERTIES
1002
{
1000
PbHidd
1002
}
  0
ARC
  5
1DC
330
1F
100
AcDbEntity
  8
HIDDEN
100
AcDbCircle
 10
-311.1767198231951
 20
149.6838534876264
 30
0.0
 40
26.45999999999999
100
AcDbArc
 50
62.99997543406626
 51
243.0000128820029
1001
DBPROPERTIES
1002
{
1000
PbHidd
1002
}
  0
ARC
  5
1DD
330
1F
100
AcDbEntity
  8
HIDDEN
100
AcDbCircle
 10
-154.0031689563669
 20
69.59992933357034
 30
0.0
 40
176.4
100
AcDbArc
 50
143.6024175459212
 51
144.3975683740037
1001
DBPROPERTIES
1002
{
1000
PbHidd
1002
}
  0
ARC
  5
1DE
330
1F
100
AcDbEntity
  8
HIDDEN
100
AcDbCircle
 10
-278.7368051576739
 20
194.3335655348773
 30
0.0
 40
26.45999999999999
100
AcDbArc
 50
44.99999063801582
 51
225.0000280859525
1001
DBPROPERTIES
1002
{
1000
PbHidd
1002
}
  0
ARC
  5
1DF
330
1F
100
AcDbEntity
  8
HIDDEN
100
AcDbCircle
 10
-154.0031689563669
 20
69.59992933357034
 30
0.0
 40
176.4
100
AcDbArc
 50
125.6024327498707
 51
126.3975835779533
1001
DBPROPERTIES
1002
{
1000
PbHidd
1002
}
  0
ARC
  5
1E0
330
1F
100
AcDbEntity
  8
HIDDEN
100
AcDbCircle
 10
-234.0870931104228
 20
226.7734802003984
 30
0.0
 40
26.45999999999999
100
AcDbArc
 50
27.0000058419654
 51
206.9999859941226
1001
DBPROPERTIES
1002
{
1000
PbHidd
1002
}
  0
ARC
  5
1E1
330
1F
100
AcDbEntity
  8
HIDDEN
100
AcDbCircle
 10
-154.0031689563669
 20
69.59992933357034
 30
0.0
 40
176.4
100
AcDbArc
 50
107.6024479538203
 51
108.3975414861234
1001
DBPROPERTIES
1002
{
1000
PbHidd
1002
}
  0
ARC
  5
1E2
330
1F
100
AcDbEntity
  8
HIDDEN
100
AcDbCircle
 10
-181.5982085894637
 20
243.8281526145527
 30
0.0
 40
26.45999999999999
100
AcDbArc
 50
9.000021045914972
 51
189.0000011980722
1001
DBPROPERTIES
1002
{
1000
PbHidd
1002
}
  0
ARC
  5
1E3
330
1F
100
AcDbEntity
  8
HIDDEN
100
AcDbCircle
 10
-154.0031689563669
 20
69.59992933357034
 30
0.0
 40
176.4
100
AcDbArc
 50
89.6024631577699
 51
90.39755669007295
1001
DBPROPERTIES
1002
{
1000
PbHidd
1002
}
  0
ARC
  5
1E4
330
1F
100
AcDbEntity
  8
HIDDEN
100
AcDbCircle
 10
-126.4081293232702
 20
243.8281526145527
 30
0.0
 40
26.45999999999999
100
AcDbArc
 50
350.9999789540851
 51
170.9999988019279
1001
DBPROPERTIES
1002
{
1000
PbHidd
1002
}
  0
ARC
  5
1E5
330
1F
100
AcDbEntity
  8
HIDDEN
100
AcDbCircle
 10
-154.0031689563669
 20
69.59992933357034
 30
0.0
 40
176.4
100
AcDbArc
 50
71.60242106593995
 51
72.39757189402252
1001
DBPROPERTIES
1002
{
1000
PbHidd
1002
}
  0
ARC
  5
1E6
330
1F
100
AcDbEntity
  8
HIDDEN
100
AcDbCircle
 10
-73.9192448023109
 20
226.7734802003985
 30
0.0
 40
26.45999999999999
100
AcDbArc
 50
332.9999941580346
 51
153.0000140058774
1001
DBPROPERTIES
1002
{
1000
PbHidd
1002
}
  0
ARC
  5
1E7
330
1F
100
AcDbEntity
  8
HIDDEN
100
AcDbCircle
 10
-154.0031689563669
 20
69.59992933357034
 30
0.0
 40
176.4
100
AcDbArc
 50
53.60243626988952
 51
54.39752980219256
1001
DBPROPERTIES
1002
{
1000
PbHidd
1002
}
  0
LINE
  5
1E8
330
1F
100
AcDbEntity
  8
THICK
100
AcDbLine
 10
511.2000000000001
 20
-305.0317543885137
 30
0.0
 11
511.2000000000001
 21
-377.1
 31
0.0
1001
DBPROPERTIES
1002
{
1000
PbThick
1002
}
  0
LINE
  5
1E9
330
1F
100
AcDbEntity
  8
HIDDEN
100
AcDbLine
 10
511.2
 20
-377.1
 30
0.0
 11
511.2
 21
-377.1
 31
0.0
1001
DBPROPERTIES
1002
{
1000
PbHidd
1002
}
  0
ARC
  5
1EA
330
1F
100
AcDbEntity
  8
HIDDEN
100
AcDbCircle
 10
415.35
 20
-220.5
 30
0.0
 40
127.8
100
AcDbArc
 50
221.4096453585447
 51
318.590392089392
1001
DBPROPERTIES
1002
{
1000
PbHidd
1002
}
  0
LINE
  5
1EB
330
1F
100
AcDbEntity
  8
HIDDEN
100
AcDbLine
 10
319.5
 20
-377.1
 30
0.0
 11
319.5
 21
-377.1
 31
0.0
1001
DBPROPERTIES
1002
{
1000
PbHidd
1002
}
  0
LINE
  5
1EC
330
1F
100
AcDbEntity
  8
THICK
100
AcDbLine
 10
319.5000000000001
 20
-377.1
 30
0.0
 11
319.5000000000001
 21
-305.0317543885137
 31
0.0
1001
DBPROPERTIES
1002
{
1000
PbThick
1002
}
  0
ARC
  5
1ED
330
1F
100
AcDbEntity
  8
THICK
100
AcDbCircle
 10
415.3500000000001
 20
-220.5
 30
0.0
 40
127.8
100
AcDbArc
 50
221.4096453585447
 51
318.590392089392
1001
DBPROPERTIES
1002
{
1000
PbThick
1002
}
  0
ARC
  5
1EE
330
1F
100
AcDbEntity
  8
HIDDEN
100
AcDbCircle
 10
415.3500000000001
 20
-220.5
 30
0.0
 40
115.02
100
AcDbArc
 50
180.0000198478428
 51
181.5664467640449
1001
DBPROPERTIES
1002
{
1000
PbHidd
1002
}
  0
ARC
  5
1EF
330
1F
100
AcDbEntity
  8
THICK
100
AcDbCircle
 10
415.3500000000001
 20
-220.5
 30
0.0
 40
115.02
100
AcDbArc
 50
181.5664467640449
 51
0.0
1001
DBPROPERTIES
1002
{
1000
PbThick
1002
}
  0
ARC
  5
1F0
330
1F
100
AcDbEntity
  8
HIDDEN
100
AcDbCircle
 10
415.35
 20
-220.5
 30
0.0
 40
115.02
100
AcDbArc
 50
179.9999801521572
 51
0.0
1001
DBPROPERTIES
1002
{
1000
PbHidd
1002
}
  0
LINE
  5
1F1
330
1F
100
AcDbEntity
  8
HIDDEN
100
AcDbLine
 10
196.7
 20
444.0
 30
0.0
 11
191.7
 21
444.0
 31
0.0
1001
DBPROPERTIES
1002
{
1000
PbHidd
1002
}
  0
LINE
  5
1F2
330
1F
100
AcDbEntity
  8
HIDDEN
100
AcDbLine
 10
20.97499999999993
 20
444.0
 30
0.0
 11
15.97499999999993
 21
444.0
 31
0.0
1001
DBPROPERTIES
1002
{
1000
PbHidd
1002
}
  0
LINE
  5
1F3
330
1F
100
AcDbEntity
  8
HIDDEN
100
AcDbLine
 10
-154.75
 20
444.0
 30
0.0
 11
-159.75
 21
444.0
 31
0.0
1001
DBPROPERTIES
1002
{
1000
PbHidd
1002
}
  0
LINE
  5
1F4
330
1F
100
AcDbEntity
  8
HIDDEN
100
AcDbLine
 10
-330.4750000000001
 20
444.0
 30
0.0
 11
-335.4750000000001
 21
444.0
 31
0.0
1001
DBPROPERTIES
1002
{
1000
PbHidd
1002
}
  0
LINE
  5
1F5
330
1F
100
AcDbEntity
  8
HIDDEN
100
AcDbLine
 10
-506.2
 20
444.0
 30
0.0
 11
-511.2
 21
444.0
 31
0.0
1001
DBPROPERTIES
1002
{
1000
PbHidd
1002
}
  0
LINE
  5
1F6
330
1F
100
AcDbEntity
  8
HIDDEN
100
AcDbLine
 10
196.7
 20
444.0
 30
0.0
 11
191.7
 21
444.0
 31
0.0
1001
DBPROPERTIES
1002
{
1000
PbHidd
1002
}
  0
LINE
  5
1F7
330
1F
100
AcDbEntity
  8
HIDDEN
100
AcDbLine
 10
20.975
 20
444.0
 30
0.0
 11
15.975
 21
444.0
 31
0.0
1001
DBPROPERTIES
1002
{
1000
PbHidd
1002
}
  0
LINE
  5
1F8
330
1F
100
AcDbEntity
  8
HIDDEN
100
AcDbLine
 10
-154.75
 20
444.0
 30
0.0
 11
-159.75
 21
444.0
 31
0.0
1001
DBPROPERTIES
1002
{
1000
PbHidd
1002
}
  0
LINE
  5
1F9
330
1F
100
AcDbEntity
  8
HIDDEN
100
AcDbLine
 10
-330.475
 20
444.0
 30
0.0
 11
-335.475
 21
444.0
 31
0.0
1001
DBPROPERTIES
1002
{
1000
PbHidd
1002
}
  0
LINE
  5
1FA
330
1F
100
AcDbEntity
  8
HIDDEN
100
AcDbLine
 10
-506.1999999999999
 20
444.0
 30
0.0
 11
-511.1999999999999
 21
444.0
 31
0.0
1001
DBPROPERTIES
1002
{
1000
PbHidd
1002
}
  0
LINE
  5
1FB
330
1F
100
AcDbEntity
  8
HIDDEN
100
AcDbLine
 10
228.6499999999999
 20
444.0
 30
0.0
 11
223.6499999999999
 21
444.0
 31
0.0
1001
DBPROPERTIES
1002
{
1000
PbHidd
1002
}
  0
LINE
  5
1FC
330
1F
100
AcDbEntity
  8
HIDDEN
100
AcDbLine
 10
-538.15
 20
444.0
 30
0.0
 11
-543.15
 21
444.0
 31
0.0
1001
DBPROPERTIES
1002
{
1000
PbHidd
1002
}
  0
LINE
  5
1FD
330
1F
100
AcDbEntity
  8
HIDDEN
100
AcDbLine
 10
228.6499999999999
 20
444.0
 30
0.0
 11
223.6499999999999
 21
444.0
 31
0.0
1001
DBPROPERTIES
1002
{
1000
PbHidd
1002
}
  0
LINE
  5
1FE
330
1F
100
AcDbEntity
  8
HIDDEN
100
AcDbLine
 10
-538.15
 20
444.0
 30
0.0
 11
-543.15
 21
444.0
 31
0.0
1001
DBPROPERTIES
1002
{
1000
PbHidd
1002
}
  0
LINE
  5
1FF
330
1F
100
AcDbEntity
  8
HIDDEN
100
AcDbLine
 10
228.65
 20
444.0
 30
0.0
 11
223.65
 21
444.0
 31
0.0
1001
DBPROPERTIES
1002
{
1000
PbHidd
1002
}
  0
LINE
  5
200
330
1F
100
AcDbEntity
  8
HIDDEN
100
AcDbLine
 10
-538.15
 20
444.0
 30
0.0
 11
-543.15
 21
444.0
 31
0.0
1001
DBPROPERTIES
1002
{
1000
PbHidd
1002
}
  0
LINE
  5
201
330
1F
100
AcDbEntity
  8
HIDDEN
100
AcDbLine
 10
228.65
 20
444.0
 30
0.0
 11
223.65
 21
444.0
 31
0.0
1001
DBPROPERTIES
1002
{
1000
PbHidd
1002
}
  0
LINE
  5
202
330
1F
100
AcDbEntity
  8
HIDDEN
100
AcDbLine
 10
-538.15
 20
444.0
 30
0.0
 11
-543.15
 21
444.0
 31
0.0
1001
DBPROPERTIES
1002
{
1000
PbHidd
1002
}
  0
LINE
  5
203
330
1F
100
AcDbEntity
  8
HIDDEN
100
AcDbLine
 10
228.65
 20
444.0
 30
0.0
 11
223.65
 21
444.0
 31
0.0
1001
DBPROPERTIES
1002
{
1000
PbHidd
1002
}
  0
LINE
  5
204
330
1F
100
AcDbEntity
  8
HIDDEN
100
AcDbLine
 10
-538.15
 20
444.0
 30
0.0
 11
-543.15
 21
444.0
 31
0.0
1001
DBPROPERTIES
1002
{
1000
PbHidd
1002
}
  0
LINE
  5
205
330
1F
100
AcDbEntity
  8
HIDDEN
100
AcDbLine
 10
679.0
 20
346.0
 30
0.0
 11
679.0
 21
346.0
 31
0.0
1001
DBPROPERTIES
1002
{
1000
PbHidd
1002
}
  0
LINE
  5
206
330
1F
100
AcDbEntity
  8
HIDDEN
100
AcDbLine
 10
575.1
 20
346.0
 30
0.0
 11
679.0
 21
346.0
 31
0.0
1001
DBPROPERTIES
1002
{
1000
PbHidd
1002
}
  0
LINE
  5
207
330
1F
100
AcDbEntity
  8
HIDDEN
100
AcDbLine
 10
575.1
 20
346.0
 30
0.0
 11
575.1
 21
346.0
 31
0.0
1001
DBPROPERTIES
1002
{
1000
PbHidd
1002
}
  0
LINE
  5
208
330
1F
100
AcDbEntity
  8
HIDDEN
100
AcDbLine
 10
575.1
 20
-346.0
 30
0.0
 11
679.0
 21
-346.0
 31
0.0
1001
DBPROPERTIES
1002
{
1000
PbHidd
1002
}
  0
LINE
  5
209
330
1F
100
AcDbEntity
  8
HIDDEN
100
AcDbLine
 10
679.0
 20
-346.0
 30
0.0
 11
679.0
 21
-346.0
 31
0.0
1001
DBPROPERTIES
1002
{
1000
PbHidd
1002
}
  0
LINE
  5
20A
330
1F
100
AcDbEntity
  8
HIDDEN
100
AcDbLine
 10
575.1
 20
-346.0
 30
0.0
 11
575.1
 21
-346.0
 31
0.0
1001
DBPROPERTIES
1002
{
1000
PbHidd
1002
}
  0
LINE
  5
20B
330
1F
100
AcDbEntity
  8
THICK
100
AcDbLine
 10
639.0
 20
350.0
 30
0.0
 11
679.0
 21
350.0
 31
0.0
1001
DBPROPERTIES
1002
{
1000
PbThick
1002
}
  0
LINE
  5
20C
330
1F
100
AcDbEntity
  8
HIDDEN
100
AcDbLine
 10
639.0
 20
-350.0
 30
0.0
 11
679.0
 21
-350.0
 31
0.0
1001
DBPROPERTIES
1002
{
1000
PbHidd
1002
}
  0
LINE
  5
20D
330
1F
100
AcDbEntity
  8
THICK
100
AcDbLine
 10
679.0
 20
350.0
 30
0.0
 11
679.0
 21
-312.1999999999999
 31
0.0
1001
DBPROPERTIES
1002
{
1000
PbThick
1002
}
  0
LINE
  5
20E
330
1F
100
AcDbEntity
  8
HIDDEN
100
AcDbLine
 10
679.0
 20
-312.1999999999999
 30
0.0
 11
679.0
 21
-350.0
 31
0.0
1001
DBPROPERTIES
1002
{
1000
PbHidd
1002
}
  0
LINE
  5
20F
330
1F
100
AcDbEntity
  8
HIDDEN
100
AcDbLine
 10
639.0
 20
-350.0
 30
0.0
 11
639.0
 21
-350.0
 31
0.0
1001
DBPROPERTIES
1002
{
1000
PbHidd
1002
}
  0
LINE
  5
210
330
1F
100
AcDbEntity
  8
HIDDEN
100
AcDbLine
 10
679.0
 20
-350.0
 30
0.0
 11
679.0
 21
-350.0
 31
0.0
1001
DBPROPERTIES
1002
{
1000
PbHidd
1002
}
  0
LINE
  5
211
330
1F
100
AcDbEntity
  8
HIDDEN
100
AcDbLine
 10
679.0
 20
350.0
 30
0.0
 11
679.0
 21
350.0
 31
0.0
1001
DBPROPERTIES
1002
{
1000
PbHidd
1002
}
  0
LINE
  5
212
330
1F
100
AcDbEntity
  8
HIDDEN
100
AcDbLine
 10
639.0
 20
350.0
 30
0.0
 11
639.0
 21
350.0
 31
0.0
1001
DBPROPERTIES
1002
{
1000
PbHidd
1002
}
  0
LINE
  5
213
330
1F
100
AcDbEntity
  8
HIDDEN
100
AcDbLine
 10
-669.0
 20
371.5
 30
0.0
 11
-575.1
 21
371.5
 31
0.0
1001
DBPROPERTIES
1002
{
1000
PbHidd
1002
}
  0
LINE
  5
214
330
1F
100
AcDbEntity
  8
HIDDEN
100
AcDbLine
 10
-669.0
 20
371.5
 30
0.0
 11
-669.0
 21
371.5
 31
0.0
1001
DBPROPERTIES
1002
{
1000
PbHidd
1002
}
  0
LINE
  5
215
330
1F
100
AcDbEntity
  8
HIDDEN
100
AcDbLine
 10
-575.1
 20
371.5
 30
0.0
 11
-575.1
 21
371.5
 31
0.0
1001
DBPROPERTIES
1002
{
1000
PbHidd
1002
}
  0
LINE
  5
216
330
1F
100
AcDbEntity
  8
HIDDEN
100
AcDbLine
 10
-669.0
 20
-105.5
 30
0.0
 11
-575.1
 21
-105.5
 31
0.0
1001
DBPROPERTIES
1002
{
1000
PbHidd
1002
}
  0
LINE
  5
217
330
1F
100
AcDbEntity
  8
HIDDEN
100
AcDbLine
 10
-669.0
 20
-105.5
 30
0.0
 11
-669.0
 21
-105.5
 31
0.0
1001
DBPROPERTIES
1002
{
1000
PbHidd
1002
}
  0
LINE
  5
218
330
1F
100
AcDbEntity
  8
HIDDEN
100
AcDbLine
 10
-575.1
 20
-105.5
 30
0.0
 11
-575.1
 21
-105.5
 31
0.0
1001
DBPROPERTIES
1002
{
1000
PbHidd
1002
}
  0
LINE
  5
219
330
1F
100
AcDbEntity
  8
HIDDEN
100
AcDbLine
 10
-575.1
 20
377.1
 30
0.0
 11
-575.1
 21
377.1
 31
0.0
1001
DBPROPERTIES
1002
{
1000
PbHidd
1002
}
  0
LINE
  5
21A
330
1F
100
AcDbEntity
  8
HIDDEN
100
AcDbLine
 10
-575.1
 20
-377.1
 30
0.0
 11
-575.1
 21
-377.1
 31
0.0
1001
DBPROPERTIES
1002
{
1000
PbHidd
1002
}
  0
LINE
  5
21B
330
1F
100
AcDbEntity
  8
HIDDEN
100
AcDbLine
 10
255.5999999999999
 20
-377.1
 30
0.0
 11
255.5999999999999
 21
-377.1
 31
0.0
1001
DBPROPERTIES
1002
{
1000
PbHidd
1002
}
  0
LINE
  5
21C
330
1F
100
AcDbEntity
  8
HIDDEN
100
AcDbLine
 10
255.5999999999999
 20
377.1
 30
0.0
 11
255.5999999999999
 21
-377.1
 31
0.0
1001
DBPROPERTIES
1002
{
1000
PbHidd
1002
}
  0
LINE
  5
21D
330
1F
100
AcDbEntity
  8
HIDDEN
100
AcDbLine
 10
255.5999999999999
 20
377.1
 30
0.0
 11
255.5999999999999
 21
377.1
 31
0.0
1001
DBPROPERTIES
1002
{
1000
PbHidd
1002
}
  0
LINE
  5
21E
330
1F
100
AcDbEntity
  8
HIDDEN
100
AcDbLine
 10
-575.1
 20
-377.1
 30
0.0
 11
255.5999999999999
 21
-377.1
 31
0.0
1001
DBPROPERTIES
1002
{
1000
PbHidd
1002
}
  0
LINE
  5
21F
330
1F
100
AcDbEntity
  8
HIDDEN
100
AcDbLine
 10
-575.1
 20
377.1
 30
0.0
 11
255.5999999999999
 21
377.1
 31
0.0
1001
DBPROPERTIES
1002
{
1000
PbHidd
1002
}
  0
LINE
  5
220
330
1F
100
AcDbEntity
  8
HIDDEN
100
AcDbLine
 10
-639.0
 20
-109.5
 30
0.0
 11
-639.0
 21
-109.5
 31
0.0
1001
DBPROPERTIES
1002
{
1000
PbHidd
1002
}
  0
LINE
  5
221
330
1F
100
AcDbEntity
  8
THICK
100
AcDbLine
 10
-669.0
 20
-109.5
 30
0.0
 11
-639.0
 21
-109.5
 31
0.0
1001
DBPROPERTIES
1002
{
1000
PbThick
1002
}
  0
LINE
  5
222
330
1F
100
AcDbEntity
  8
HIDDEN
100
AcDbLine
 10
-669.0
 20
-109.5
 30
0.0
 11
-669.0
 21
-109.5
 31
0.0
1001
DBPROPERTIES
1002
{
1000
PbHidd
1002
}
  0
LINE
  5
223
330
1F
100
AcDbEntity
  8
THICK
100
AcDbLine
 10
-669.0
 20
-109.5
 30
0.0
 11
-669.0
 21
375.5
 31
0.0
1001
DBPROPERTIES
1002
{
1000
PbThick
1002
}
  0
LINE
  5
224
330
1F
100
AcDbEntity
  8
HIDDEN
100
AcDbLine
 10
-669.0
 20
375.5
 30
0.0
 11
-669.0
 21
375.5
 31
0.0
1001
DBPROPERTIES
1002
{
1000
PbHidd
1002
}
  0
LINE
  5
225
330
1F
100
AcDbEntity
  8
THICK
100
AcDbLine
 10
-669.0
 20
375.5
 30
0.0
 11
-639.0
 21
375.5
 31
0.0
1001
DBPROPERTIES
1002
{
1000
PbThick
1002
}
  0
LINE
  5
226
330
1F
100
AcDbEntity
  8
HIDDEN
100
AcDbLine
 10
-639.0
 20
375.5
 30
0.0
 11
-639.0
 21
375.5
 31
0.0
1001
DBPROPERTIES
1002
{
1000
PbHidd
1002
}
  0
LINE
  5
227
330
1F
100
AcDbEntity
  8
THICK
100
AcDbLine
 10
259.6000000000001
 20
345.15
 30
0.0
 11
259.6000000000001
 21
-79.41346817135292
 31
0.0
1001
DBPROPERTIES
1002
{
1000
PbThick
1002
}
  0
LINE
  5
228
330
1F
100
AcDbEntity
  8
HIDDEN
100
AcDbLine
 10
259.6000000000001
 20
-79.41346817135292
 30
0.0
 11
259.6000000000001
 21
-86.14742559715904
 31
0.0
1001
DBPROPERTIES
1002
{
1000
PbHidd
1002
}
  0
LINE
  5
229
330
1F
100
AcDbEntity
  8
THICK
100
AcDbLine
 10
259.6000000000001
 20
-86.14742559715904
 30
0.0
 11
259.6000000000001
 21
-196.1353968853264
 31
0.0
1001
DBPROPERTIES
1002
{
1000
PbThick
1002
}
  0
LINE
  5
22A
330
1F
100
AcDbEntity
  8
HIDDEN
100
AcDbLine
 10
259.6000000000001
 20
-196.1353968853264
 30
0.0
 11
259.6000000000001
 21
-202.8693543111326
 31
0.0
1001
DBPROPERTIES
1002
{
1000
PbHidd
1002
}
  0
LINE
  5
22B
330
1F
100
AcDbEntity
  8
THICK
100
AcDbLine
 10
259.6000000000001
 20
-202.8693543111326
 30
0.0
 11
259.6000000000001
 21
-345.15
 31
0.0
1001
DBPROPERTIES
1002
{
1000
PbThick
1002
}
  0
LINE
  5
22C
330
1F
100
AcDbEntity
  8
THICK
100
AcDbLine
 10
259.6000000000001
 20
-345.15
 30
0.0
 11
-543.15
 21
-345.15
 31
0.0
1001
DBPROPERTIES
1002
{
1000
PbThick
1002
}
  0
LINE
  5
22D
330
1F
100
AcDbEntity
  8
HIDDEN
100
AcDbLine
 10
259.6
 20
-345.15
 30
0.0
 11
259.6
 21
-345.15
 31
0.0
1001
DBPROPERTIES
1002
{
1000
PbHidd
1002
}
  0
LINE
  5
22E
330
1F
100
AcDbEntity
  8
HIDDEN
100
AcDbLine
 10
-543.15
 20
-345.15
 30
0.0
 11
-543.15
 21
-345.15
 31
0.0
1001
DBPROPERTIES
1002
{
1000
PbHidd
1002
}
  0
LINE
  5
22F
330
1F
100
AcDbEntity
  8
HIDDEN
100
AcDbLine
 10
-543.15
 20
345.15
 30
0.0
 11
-543.15
 21
345.15
 31
0.0
1001
DBPROPERTIES
1002
{
1000
PbHidd
1002
}
  0
LINE
  5
230
330
1F
100
AcDbEntity
  8
THICK
100
AcDbLine
 10
-543.15
 20
-345.15
 30
0.0
 11
-543.15
 21
345.15
 31
0.0
1001
DBPROPERTIES
1002
{
1000
PbThick
1002
}
  0
LINE
  5
231
330
1F
100
AcDbEntity
  8
HIDDEN
100
AcDbLine
 10
259.6
 20
345.15
 30
0.0
 11
259.6
 21
345.15
 31
0.0
1001
DBPROPERTIES
1002
{
1000
PbHidd
1002
}
  0
LINE
  5
232
330
1F
100
AcDbEntity
  8
THICK
100
AcDbLine
 10
-543.15
 20
345.15
 30
0.0
 11
259.6000000000001
 21
345.15
 31
0.0
1001
DBPROPERTIES
1002
{
1000
PbThick
1002
}
  0
LINE
  5
233
330
1F
100
AcDbEntity
  8
THICK
100
AcDbLine
 10
259.6000000000001
 20
345.15
 30
0.0
 11
259.6000000000001
 21
377.1
 31
0.0
1001
DBPROPERTIES
1002
{
1000
PbThick
1002
}
  0
LINE
  5
234
330
1F
100
AcDbEntity
  8
THICK
100
AcDbLine
 10
259.6000000000001
 20
-377.1
 30
0.0
 11
259.6000000000001
 21
-345.15
 31
0.0
1001
DBPROPERTIES
1002
{
1000
PbThick
1002
}
  0
LINE
  5
235
330
1F
100
AcDbEntity
  8
HIDDEN
100
AcDbLine
 10
259.6
 20
-377.1
 30
0.0
 11
259.6000000000001
 21
-377.1
 31
0.0
1001
DBPROPERTIES
1002
{
1000
PbHidd
1002
}
  0
LINE
  5
236
330
1F
100
AcDbEntity
  8
HIDDEN
100
AcDbLine
 10
-575.1
 20
-377.1
 30
0.0
 11
-575.1
 21
-377.1
 31
0.0
1001
DBPROPERTIES
1002
{
1000
PbHidd
1002
}
  0
LINE
  5
237
330
1F
100
AcDbEntity
  8
HIDDEN
100
AcDbLine
 10
-639.0
 20
-436.0
 30
0.0
 11
-634.9949874371073
 21
-436.0000000000001
 31
0.0
1001
DBPROPERTIES
1002
{
1000
PbHidd
1002
}
  0
ARC
  5
238
330
1F
100
AcDbEntity
  8
HIDDEN
100
AcDbCircle
 10
-633.9999999999999
 20
-435.9999999999999
 30
0.0
 40
5.0
100
AcDbArc
 50
180.0000198478428
 51
258.521668735215
1001
DBPROPERTIES
1002
{
1000
PbHidd
1002
}
  0
LINE
  5
239
330
1F
100
AcDbEntity
  8
HIDDEN
100
AcDbLine
 10
-638.9999999999999
 20
-435.9999999999999
 30
0.0
 11
-639.0000000000001
 21
-435.9999999999999
 31
0.0
1001
DBPROPERTIES
1002
{
1000
PbHidd
1002
}
  0
LINE
  5
23A
330
1F
100
AcDbEntity
  8
HIDDEN
100
AcDbLine
 10
634.9949874371063
 20
-435.9999999999999
 30
0.0
 11
639.0000000000001
 21
-436.0
 31
0.0
1001
DBPROPERTIES
1002
{
1000
PbHidd
1002
}
  0
LINE
  5
23B
330
1F
100
AcDbEntity
  8
HIDDEN
100
AcDbLine
 10
-639.0
 20
436.0
 30
0.0
 11
-634.0
 21
436.0
 31
0.0
1001
DBPROPERTIES
1002
{
1000
PbHidd
1002
}
  0
LINE
  5
23C
330
1F
100
AcDbEntity
  8
HIDDEN
100
AcDbLine
 10
-633.9999999999999
 20
441.0
 30
0.0
 11
-634.0
 21
436.0
 31
0.0
1001
DBPROPERTIES
1002
{
1000
PbHidd
1002
}
  0
LINE
  5
23D
330
1F
100
AcDbEntity
  8
HIDDEN
100
AcDbLine
 10
634.0000000000001
 20
441.0
 30
0.0
 11
634.0000000000001
 21
436.0
 31
0.0
1001
DBPROPERTIES
1002
{
1000
PbHidd
1002
}
  0
LINE
  5
23E
330
1F
100
AcDbEntity
  8
THICK
100
AcDbLine
 10
633.9999999999999
 20
436.0
 30
0.0
 11
638.9999999999999
 21
436.0
 31
0.0
1001
DBPROPERTIES
1002
{
1000
PbThick
1002
}
  0
ARC
  5
23F
330
1F
100
AcDbEntity
  8
THICK
100
AcDbCircle
 10
633.9999999999999
 20
436.0
 30
0.0
 40
5.0
100
AcDbArc
 50
0.0
 51
89.99998127603165
1001
DBPROPERTIES
1002
{
1000
PbThick
1002
}
  0
LINE
  5
240
330
1F
100
AcDbEntity
  8
THICK
100
AcDbLine
 10
634.0
 20
436.0
 30
0.0
 11
634.0
 21
441.0
 31
0.0
1001
DBPROPERTIES
1002
{
1000
PbThick
1002
}
  0
LINE
  5
241
330
1F
100
AcDbEntity
  8
THICK
100
AcDbLine
 10
-634.0
 20
441.0
 30
0.0
 11
633.9999999999999
 21
441.0
 31
0.0
1001
DBPROPERTIES
1002
{
1000
PbThick
1002
}
  0
LINE
  5
242
330
1F
100
AcDbEntity
  8
THICK
100
AcDbLine
 10
-634.0
 20
436.0
 30
0.0
 11
-634.0
 21
441.0
 31
0.0
1001
DBPROPERTIES
1002
{
1000
PbThick
1002
}
  0
LINE
  5
243
330
1F
100
AcDbEntity
  8
HIDDEN
100
AcDbLine
 10
634.0
 20
441.0
 30
0.0
 11
634.0
 21
441.0
 31
0.0
1001
DBPROPERTIES
1002
{
1000
PbHidd
1002
}
  0
LINE
  5
244
330
1F
100
AcDbEntity
  8
HIDDEN
100
AcDbLine
 10
639.0
 20
436.0
 30
0.0
 11
639.0
 21
436.0
 31
0.0
1001
DBPROPERTIES
1002
{
1000
PbHidd
1002
}
  0
LINE
  5
245
330
1F
100
AcDbEntity
  8
HIDDEN
100
AcDbLine
 10
634.0000000000001
 20
436.0
 30
0.0
 11
639.0000000000001
 21
436.0
 31
0.0
1001
DBPROPERTIES
1002
{
1000
PbHidd
1002
}
  0
LINE
  5
246
330
1F
100
AcDbEntity
  8
THICK
100
AcDbLine
 10
-639.0
 20
436.0
 30
0.0
 11
-634.0
 21
436.0
 31
0.0
1001
DBPROPERTIES
1002
{
1000
PbThick
1002
}
  0
ARC
  5
247
330
1F
100
AcDbEntity
  8
THICK
100
AcDbCircle
 10
-634.0
 20
435.9999999999999
 30
0.0
 40
5.0
100
AcDbArc
 50
89.99998127603165
 51
179.9999801521572
1001
DBPROPERTIES
1002
{
1000
PbThick
1002
}
  0
LINE
  5
248
330
1F
100
AcDbEntity
  8
HIDDEN
100
AcDbLine
 10
-634.0
 20
440.9999999999999
 30
0.0
 11
-634.0
 21
441.0000000000001
 31
0.0
1001
DBPROPERTIES
1002
{
1000
PbHidd
1002
}
  0
LINE
  5
249
330
1F
100
AcDbEntity
  8
HIDDEN
100
AcDbLine
 10
-639.0
 20
435.9999999999999
 30
0.0
 11
-639.0
 21
436.0
 31
0.0
1001
DBPROPERTIES
1002
{
1000
PbHidd
1002
}
  0
LINE
  5
24A
330
1F
100
AcDbEntity
  8
HIDDEN
100
AcDbLine
 10
639.0
 20
-436.0
 30
0.0
 11
639.0
 21
-312.1999999999998
 31
0.0
1001
DBPROPERTIES
1002
{
1000
PbHidd
1002
}
  0
LINE
  5
24B
330
1F
100
AcDbEntity
  8
THICK
100
AcDbLine
 10
639.0
 20
-312.1999999999998
 30
0.0
 11
639.0
 21
436.0
 31
0.0
1001
DBPROPERTIES
1002
{
1000
PbThick
1002
}
  0
LINE
  5
24C
330
1F
100
AcDbEntity
  8
HIDDEN
100
AcDbLine
 10
-639.0
 20
-435.9999999999999
 30
0.0
 11
-639.0
 21
-312.2
 31
0.0
1001
DBPROPERTIES
1002
{
1000
PbHidd
1002
}
  0
LINE
  5
24D
330
1F
100
AcDbEntity
  8
THICK
100
AcDbLine
 10
-639.0
 20
-312.2
 30
0.0
 11
-639.0
 21
435.9999999999999
 31
0.0
1001
DBPROPERTIES
1002
{
1000
PbThick
1002
}
  0
LINE
  5
24E
330
1F
100
AcDbEntity
  8
HIDDEN
100
AcDbLine
 10
575.1
 20
-377.1
 30
0.0
 11
575.0999999999999
 21
-377.1
 31
0.0
1001
DBPROPERTIES
1002
{
1000
PbHidd
1002
}
  0
LINE
  5
24F
330
1F
100
AcDbEntity
  8
THICK
100
AcDbLine
 10
-548.15
 20
444.0
 30
0.0
 11
-548.15
 21
441.0
 31
0.0
1001
DBPROPERTIES
1002
{
1000
PbThick
1002
}
  0
LINE
  5
250
330
1F
100
AcDbEntity
  8
THICK
100
AcDbLine
 10
218.65
 20
444.0
 30
0.0
 11
218.65
 21
441.0
 31
0.0
1001
DBPROPERTIES
1002
{
1000
PbThick
1002
}
  0
LINE
  5
251
330
1F
100
AcDbEntity
  8
THICK
100
AcDbLine
 10
-516.1999999999999
 20
444.0
 30
0.0
 11
-516.1999999999999
 21
441.0
 31
0.0
1001
DBPROPERTIES
1002
{
1000
PbThick
1002
}
  0
LINE
  5
252
330
1F
100
AcDbEntity
  8
THICK
100
AcDbLine
 10
-340.475
 20
444.0
 30
0.0
 11
-340.475
 21
441.0
 31
0.0
1001
DBPROPERTIES
1002
{
1000
PbThick
1002
}
  0
LINE
  5
253
330
1F
100
AcDbEntity
  8
THICK
100
AcDbLine
 10
-164.75
 20
444.0
 30
0.0
 11
-164.75
 21
441.0
 31
0.0
1001
DBPROPERTIES
1002
{
1000
PbThick
1002
}
  0
LINE
  5
254
330
1F
100
AcDbEntity
  8
THICK
100
AcDbLine
 10
10.975
 20
444.0
 30
0.0
 11
10.975
 21
441.0
 31
0.0
1001
DBPROPERTIES
1002
{
1000
PbThick
1002
}
  0
LINE
  5
255
330
1F
100
AcDbEntity
  8
THICK
100
AcDbLine
 10
186.7
 20
444.0
 30
0.0
 11
186.7
 21
441.0
 31
0.0
1001
DBPROPERTIES
1002
{
1000
PbThick
1002
}
  0
LINE
  5
256
330
1F
100
AcDbEntity
  8
HIDDEN
100
AcDbLine
 10
686.25
 20
-444.0
 30
0.0
 11
686.25
 21
-440.8999938964844
 31
0.0
1001
DBPROPERTIES
1002
{
1000
PbHidd
1002
}
  0
LINE
  5
257
330
1F
100
AcDbEntity
  8
HIDDEN
100
AcDbLine
 10
-671.25
 20
-444.0
 30
0.0
 11
-671.25
 21
-440.8999938964844
 31
0.0
1001
DBPROPERTIES
1002
{
1000
PbHidd
1002
}
  0
LINE
  5
258
330
1F
100
AcDbEntity
  8
HIDDEN
100
AcDbLine
 10
-671.25
 20
-444.0
 30
0.0
 11
-671.25
 21
-440.8999938964844
 31
0.0
1001
DBPROPERTIES
1002
{
1000
PbHidd
1002
}
  0
LINE
  5
259
330
1F
100
AcDbEntity
  8
HIDDEN
100
AcDbLine
 10
686.25
 20
-444.0
 30
0.0
 11
686.25
 21
-440.8999938964844
 31
0.0
1001
DBPROPERTIES
1002
{
1000
PbHidd
1002
}
  0
LINE
  5
25A
330
1F
100
AcDbEntity
  8
HIDDEN
100
AcDbLine
 10
671.25
 20
-444.0
 30
0.0
 11
671.25
 21
-440.8999938964844
 31
0.0
1001
DBPROPERTIES
1002
{
1000
PbHidd
1002
}
  0
LINE
  5
25B
330
1F
100
AcDbEntity
  8
HIDDEN
100
AcDbLine
 10
-686.25
 20
-444.0
 30
0.0
 11
-686.25
 21
-440.8999938964844
 31
0.0
1001
DBPROPERTIES
1002
{
1000
PbHidd
1002
}
  0
LINE
  5
25C
330
1F
100
AcDbEntity
  8
HIDDEN
100
AcDbLine
 10
-686.25
 20
-444.0
 30
0.0
 11
-686.25
 21
-440.8999938964844
 31
0.0
1001
DBPROPERTIES
1002
{
1000
PbHidd
1002
}
  0
LINE
  5
25D
330
1F
100
AcDbEntity
  8
HIDDEN
100
AcDbLine
 10
671.25
 20
-444.0
 30
0.0
 11
671.25
 21
-440.8999938964844
 31
0.0
1001
DBPROPERTIES
1002
{
1000
PbHidd
1002
}
  0
LINE
  5
25E
330
1F
100
AcDbEntity
  8
THICK
100
AcDbLine
 10
196.6999969482422
 20
444.0
 30
0.0
 11
196.6999969482422
 21
441.0
 31
0.0
1001
DBPROPERTIES
1002
{
1000
PbThick
1002
}
  0
LINE
  5
25F
330
1F
100
AcDbEntity
  8
THICK
100
AcDbLine
 10
20.97500038146973
 20
444.0
 30
0.0
 11
20.97500038146973
 21
441.0
 31
0.0
1001
DBPROPERTIES
1002
{
1000
PbThick
1002
}
  0
LINE
  5
260
330
1F
100
AcDbEntity
  8
THICK
100
AcDbLine
 10
-154.75
 20
444.0
 30
0.0
 11
-154.75
 21
441.0
 31
0.0
1001
DBPROPERTIES
1002
{
1000
PbThick
1002
}
  0
LINE
  5
261
330
1F
100
AcDbEntity
  8
THICK
100
AcDbLine
 10
-330.4750061035156
 20
444.0
 30
0.0
 11
-330.4750061035156
 21
441.0
 31
0.0
1001
DBPROPERTIES
1002
{
1000
PbThick
1002
}
  0
LINE
  5
262
330
1F
100
AcDbEntity
  8
THICK
100
AcDbLine
 10
-506.2000122070312
 20
444.0
 30
0.0
 11
-506.2000122070312
 21
441.0
 31
0.0
1001
DBPROPERTIES
1002
{
1000
PbThick
1002
}
  0
LINE
  5
263
330
1F
100
AcDbEntity
  8
THICK
100
AcDbLine
 10
228.6499938964844
 20
444.0
 30
0.0
 11
228.6499938964844
 21
441.0
 31
0.0
1001
DBPROPERTIES
1002
{
1000
PbThick
1002
}
  0
LINE
  5
264
330
1F
100
AcDbEntity
  8
THICK
100
AcDbLine
 10
-538.1500244140625
 20
444.0
 30
0.0
 11
-538.1500244140625
 21
441.0
 31
0.0
1001
DBPROPERTIES
1002
{
1000
PbThick
1002
}
  0
ENDSEC
  0
SECTION
  2
OBJECTS
  0
DICTIONARY
  5
C
330
0
100
AcDbDictionary
  3
ACAD_GROUP
350
D
  3
ACAD_LAYOUT
350
1A
  3
ACAD_MATERIAL
350
43
  3
ACAD_MLEADERSTYLE
350
6B
  3
ACAD_MLINESTYLE
350
17
  3
ACAD_PLOTSETTINGS
350
19
  3
ACAD_SCALELIST
350
47
  3
ACAD_VISUALSTYLE
350
2A
  3
ACDBVARIABLEDICTIONARY
350
265
1001
ACAD
1000
TREAT_AS_HARD
1070
     0
  0
DICTIONARY
  5
D
102
{ACAD_REACTORS
330
C
102
}
330
C
100
AcDbDictionary
1001
ACAD
1000
TREAT_AS_HARD
1070
     0
  0
DICTIONARY
  5
1A
102
{ACAD_REACTORS
330
C
102
}
330
C
100
AcDbDictionary
1001
ACAD
1000
TREAT_AS_HARD
1070
     0
  0
DICTIONARY
  5
43
102
{ACAD_REACTORS
330
C
102
}
330
C
100
AcDbDictionary
  3
BYBLOCK
350
45
  3
BYLAYER
350
44
  3
GLOBAL
350
46
1001
ACAD
1000
TREAT_AS_HARD
1070
     0
  0
DICTIONARY
  5
6B
102
{ACAD_REACTORS
330
C
102
}
330
C
100
AcDbDictionary
  3
STANDARD
350
6C
1001
ACAD
1000
TREAT_AS_HARD
1070
     0
  0
DICTIONARY
  5
17
102
{ACAD_REACTORS
330
C
102
}
330
C
100
AcDbDictionary
  3
STANDARD
350
18
1001
ACAD
1000
TREAT_AS_HARD
1070
     0
  0
DICTIONARY
  5
19
102
{ACAD_REACTORS
330
C
102
}
330
C
100
AcDbDictionary
1001
ACAD
1000
TREAT_AS_HARD
1070
     0
  0
DICTIONARY
  5
47
102
{ACAD_REACTORS
330
C
102
}
330
C
100
AcDbDictionary
  3
A0
350
48
  3
A1
350
49
  3
A2
350
4A
  3
A3
350
4B
  3
A4
350
4C
  3
A5
350
4D
  3
A6
350
4E
  3
A7
350
4F
  3
A8
350
50
  3
A9
350
51
  3
B0
350
52
  3
B1
350
53
  3
B2
350
54
  3
B3
350
55
  3
B4
350
56
  3
B5
350
57
  3
B6
350
58
  3
B7
350
59
  3
B8
350
5A
  3
B9
350
5B
  3
C0
350
5C
  3
C1
350
5D
  3
C2
350
5E
  3
C3
350
5F
  3
C4
350
60
  3
C5
350
61
  3
C6
350
62
  3
C7
350
63
  3
C8
350
64
  3
C9
350
65
  3
D0
350
66
  3
D1
350
67
  3
D2
350
68
1001
ACAD
1000
TREAT_AS_HARD
1070
     0
  0
DICTIONARY
  5
2A
102
{ACAD_REACTORS
330
C
102
}
330
C
100
AcDbDictionary
  3
2DWIREFRAME
350
2F
  3
BASIC
350
32
  3
BRIGHTEN
350
36
  3
COLORCHANGE
350
3A
  3
CONCEPTUAL
350
34
  3
DIM
350
35
  3
EDGECOLOROFF
350
3D
  3
FACEPATTERN
350
39
  3
FLAT
350
2B
  3
FLATWITHEDGES
350
2C
  3
GOURAUD
350
2D
  3
GOURAUDWITHEDGES
350
2E
  3
HIDDEN
350
31
  3
JITTEROFF
350
3B
  3
LINEPATTERN
350
38
  3
OVERHANGOFF
350
3C
  3
REALISTIC
350
33
  3
SHADED
350
42
  3
SHADED_WITH_EDGES
350
41
  3
SHADES_OF_GRAY
350
3E
  3
SKETCHY
350
3F
  3
THICKEN
350
37
  3
WIREFRAME
350
30
  3
X-RAY
350
40
1001
ACAD
1000
TREAT_AS_HARD
1070
     0
  0
DICTIONARY
  5
265
102
{ACAD_REACTORS
330
C
102
}
330
C
100
AcDbDictionary
  3
CANNOSCALE
350
270
  3
CENTEREXE
350
26C
  3
CENTERLTYPEFILE
350
26D
  3
CMLEADERSTYLE
350
267
  3
CTABLESTYLE
350
266
  3
DIMASSOC
350
26E
  3
HIDETEXT
350
26F
  3
MSLTSCALE
350
271
  3
PSOLHEIGHT
350
269
  3
PSOLWIDTH
350
268
1001
ACAD
1000
TREAT_AS_HARD
1070
     0
  0
MATERIAL
  5
45
102
{ACAD_REACTORS
330
43
102
}
102
{ACAD_XDICTIONARY
360
274
102
}
330
43
100
AcDbMaterial
  1
BYBLOCK
  0
MATERIAL
  5
44
102
{ACAD_REACTORS
330
43
102
}
102
{ACAD_XDICTIONARY
360
272
102
}
330
43
100
AcDbMaterial
  1
BYLAYER
  0
MATERIAL
  5
46
102
{ACAD_REACTORS
330
43
102
}
102
{ACAD_XDICTIONARY
360
276
102
}
330
43
100
AcDbMaterial
  1
GLOBAL
  0
ACAD_PROXY_OBJECT
  5
6C
102
{ACAD_REACTORS
330
6B
102
}
330
6B
100
AcDbZombieObject
 90
      499
 91
      505
 93
      610
310
40901902A4063FBFFFFFE0000000000000020400000000000020404214DD185B99185C990000000000000104090141901A00000000000004100000000000000041025764000000000000039000
340
14
340
0
340
11
340
0
 94
        0
1001
ACAD_MLEADERVER
1070
     2
  0
MLINESTYLE
  5
18
102
{ACAD_REACTORS
330
17
102
}
330
17
100
AcDbMlineStyle
  2
Standard
 70
     0
  3

 62
   256
 51
90.0
 52
90.0
 71
     2
 49
0.5
 62
   256
  6
BYLAYER
 49
-0.5
 62
   256
  6
BYLAYER
  0
ACAD_PROXY_OBJECT
  5
48
102
{ACAD_REACTORS
330
47
102
}
330
47
100
AcDbZombieObject
 90
      499
 91
      503
 93
       41
310
903313A31580
  0
ACAD_PROXY_OBJECT
  5
49
102
{ACAD_REACTORS
330
47
102
}
330
47
100
AcDbZombieObject
 90
      499
 91
      503
 93
      105
310
903313A324000000000000004000
  0
ACAD_PROXY_OBJECT
  5
4A
102
{ACAD_REACTORS
330
47
102
}
330
47
100
AcDbZombieObject
 90
      499
 91
      503
 93
      105
310
903313A344000000000000104000
  0
ACAD_PROXY_OBJECT
  5
4B
102
{ACAD_REACTORS
330
47
102
}
330
47
100
AcDbZombieObject
 90
      499
 91
      503
 93
      105
310
903313A354000000000000144000
  0
ACAD_PROXY_OBJECT
  5
4C
102
{ACAD_REACTORS
330
47
102
}
330
47
100
AcDbZombieObject
 90
      499
 91
      503
 93
      105
310
903313A384000000000000204000
  0
ACAD_PROXY_OBJECT
  5
4D
102
{ACAD_REACTORS
330
47
102
}
330
47
100
AcDbZombieObject
 90
      499
 91
      503
 93
      113
310
904313A31304000000000000244000
  0
ACAD_PROXY_OBJECT
  5
4E
102
{ACAD_REACTORS
330
47
102
}
330
47
100
AcDbZombieObject
 90
      499
 91
      503
 93
      113
310
904313A31364000000000000304000
  0
ACAD_PROXY_OBJECT
  5
4F
102
{ACAD_REACTORS
330
47
102
}
330
47
100
AcDbZombieObject
 90
      499
 91
      503
 93
      113
310
904313A32304000000000000344000
  0
ACAD_PROXY_OBJECT
  5
50
102
{ACAD_REACTORS
330
47
102
}
330
47
100
AcDbZombieObject
 90
      499
 91
      503
 93
      113
310
904313A333040000000000003E4000
  0
ACAD_PROXY_OBJECT
  5
51
102
{ACAD_REACTORS
330
47
102
}
330
47
100
AcDbZombieObject
 90
      499
 91
      503
 93
      113
310
904313A34304000000000000444000
  0
ACAD_PROXY_OBJECT
  5
52
102
{ACAD_REACTORS
330
47
102
}
330
47
100
AcDbZombieObject
 90
      499
 91
      503
 93
      113
310
904313A35304000000000000494000
  0
ACAD_PROXY_OBJECT
  5
53
102
{ACAD_REACTORS
330
47
102
}
330
47
100
AcDbZombieObject
 90
      499
 91
      503
 93
      121
310
905313A3130304000000000000594000
  0
ACAD_PROXY_OBJECT
  5
54
102
{ACAD_REACTORS
330
47
102
}
330
47
100
AcDbZombieObject
 90
      499
 91
      503
 93
      105
310
903323A310000000000000010100
  0
ACAD_PROXY_OBJECT
  5
55
102
{ACAD_REACTORS
330
47
102
}
330
47
100
AcDbZombieObject
 90
      499
 91
      503
 93
      105
310
903343A310000000000000410100
  0
ACAD_PROXY_OBJECT
  5
56
102
{ACAD_REACTORS
330
47
102
}
330
47
100
AcDbZombieObject
 90
      499
 91
      503
 93
      105
310
903383A310000000000000810100
  0
ACAD_PROXY_OBJECT
  5
57
102
{ACAD_REACTORS
330
47
102
}
330
47
100
AcDbZombieObject
 90
      499
 91
      503
 93
      113
310
90431303A310000000000000910100
  0
ACAD_PROXY_OBJECT
  5
58
102
{ACAD_REACTORS
330
47
102
}
330
47
100
AcDbZombieObject
 90
      499
 91
      503
 93
      121
310
9053130303A310000000000001650100
  0
ACAD_PROXY_OBJECT
  5
59
102
{ACAD_REACTORS
330
47
102
}
330
47
100
AcDbZombieObject
 90
      499
 91
      503
 93
      257
310
90E312F31323822203D2031272D3022000000000000200FC000000000000284000
  0
ACAD_PROXY_OBJECT
  5
5A
102
{ACAD_REACTORS
330
47
102
}
330
47
100
AcDbZombieObject
 90
      499
 91
      503
 93
      249
310
90D312F363422203D2031272D3022000000000000240FC000000000000284000
  0
ACAD_PROXY_OBJECT
  5
5B
102
{ACAD_REACTORS
330
47
102
}
330
47
100
AcDbZombieObject
 90
      499
 91
      503
 93
      249
310
90D312F333222203D2031272D3022000000000000280FC000000000000284000
  0
ACAD_PROXY_OBJECT
  5
5C
102
{ACAD_REACTORS
330
47
102
}
330
47
100
AcDbZombieObject
 90
      499
 91
      503
 93
      249
310
90D312F313622203D2031272D30220000000000002C0FC000000000000284000
  0
ACAD_PROXY_OBJECT
  5
5D
102
{ACAD_REACTORS
330
47
102
}
330
47
100
AcDbZombieObject
 90
      499
 91
      503
 93
      249
310
90D332F333222203D2031272D30220000000000002E0FC000000000000284000
  0
ACAD_PROXY_OBJECT
  5
5E
102
{ACAD_REACTORS
330
47
102
}
330
47
100
AcDbZombieObject
 90
      499
 91
      503
 93
      241
310
90C312F3822203D2031272D3022000000000000300FC000000000000284000
  0
ACAD_PROXY_OBJECT
  5
5F
102
{ACAD_REACTORS
330
47
102
}
330
47
100
AcDbZombieObject
 90
      499
 91
      503
 93
      249
310
90D332F313622203D2031272D3022000000000000320FC000000000000284000
  0
ACAD_PROXY_OBJECT
  5
60
102
{ACAD_REACTORS
330
47
102
}
330
47
100
AcDbZombieObject
 90
      499
 91
      503
 93
      241
310
90C312F3422203D2031272D3022000000000000340FC000000000000284000
  0
ACAD_PROXY_OBJECT
  5
61
102
{ACAD_REACTORS
330
47
102
}
330
47
100
AcDbZombieObject
 90
      499
 91
      503
 93
      241
310
90C332F3822203D2031272D3022000000000000360FC000000000000284000
  0
ACAD_PROXY_OBJECT
  5
62
102
{ACAD_REACTORS
330
47
102
}
330
47
100
AcDbZombieObject
 90
      499
 91
      503
 93
      241
310
90C312F3222203D2031272D3022000000000000380FC000000000000284000
  0
ACAD_PROXY_OBJECT
  5
63
102
{ACAD_REACTORS
330
47
102
}
330
47
100
AcDbZombieObject
 90
      499
 91
      503
 93
      241
310
90C332F3422203D2031272D30220000000000003A0FC000000000000284000
  0
ACAD_PROXY_OBJECT
  5
64
102
{ACAD_REACTORS
330
47
102
}
330
47
100
AcDbZombieObject
 90
      499
 91
      503
 93
      161
310
90A3122203D2031272D30224000000000000284000
  0
ACAD_PROXY_OBJECT
  5
65
102
{ACAD_REACTORS
330
47
102
}
330
47
100
AcDbZombieObject
 90
      499
 91
      503
 93
      257
310
90E312D312F3222203D2031272D30220000000000003E0FC000000000000284000
  0
ACAD_PROXY_OBJECT
  5
66
102
{ACAD_REACTORS
330
47
102
}
330
47
100
AcDbZombieObject
 90
      499
 91
      503
 93
      225
310
90A3322203D2031272D302200000000000002100000000000000284000
  0
ACAD_PROXY_OBJECT
  5
67
102
{ACAD_REACTORS
330
47
102
}
330
47
100
AcDbZombieObject
 90
      499
 91
      503
 93
      225
310
90A3622203D2031272D302200000000000006100000000000000284000
  0
ACAD_PROXY_OBJECT
  5
68
102
{ACAD_REACTORS
330
47
102
}
330
47
100
AcDbZombieObject
 90
      499
 91
      503
 93
      249
310
90D31272D3022203D2031272D30220000000000000A100000000000000284000
  0
ACAD_PROXY_OBJECT
  5
2F
102
{ACAD_REACTORS
330
2A
102
}
330
2A
100
AcDbZombieObject
 90
      499
 91
      501
 93
      436
310
42CC9915DA5C99599C985B595049028333333333333E33F0000000000000F90107901411070040501600405405064090741402480A0340
1001
ACAD
1000
AcDbSavedByObjectVersion
1070
     0
  0
ACAD_PROXY_OBJECT
  5
32
102
{ACAD_REACTORS
330
2A
102
}
330
2A
100
AcDbZombieObject
 90
      499
 91
      501
 93
      388
310
4150985CDA58D07406404333333333333E33F0000000000000F90107A41107004050150841D405064090741402480A0350
1001
ACAD
1000
AcDbSavedByObjectVersion
1070
     0
  0
ACAD_PROXY_OBJECT
  5
36
102
{ACAD_REACTORS
330
2A
102
}
330
2A
100
AcDbZombieObject
 90
      499
 91
      501
 93
      428
310
42109C9A59DA1D195B90C409028333333333333E33F0000000000000F9010790141107004050150841D405064090741402480A029950
1001
ACAD
1000
AcDbSavedByObjectVersion
1070
     0
  0
ACAD_PROXY_OBJECT
  5
3A
102
{ACAD_REACTORS
330
2A
102
}
330
2A
100
AcDbZombieObject
 90
      499
 91
      501
 93
      452
310
42D0DBDB1BDC90DA185B99D95104090240C333333333333E33F0000000000000F90108901411070040501508421405064090741402480A0350
1001
ACAD
1000
AcDbSavedByObjectVersion
1070
     0
  0
ACAD_PROXY_OBJECT
  5
34
102
{ACAD_REACTORS
330
2A
102
}
330
2A
100
AcDbZombieObject
 90
      499
 91
      501
 93
      500
310
4290DBDB98D95C1D1D585B10940D028333333333333E33F0000000000000F90107902409070040501000000000018199010841D405064090740C02480A0340
1001
ACAD
1000
AcDbSavedByObjectVersion
1070
     0
  0
ACAD_PROXY_OBJECT
  5
35
102
{ACAD_REACTORS
330
2A
102
}
330
2A
100
AcDbZombieObject
 90
      499
 91
      501
 93
      412
310
40D11A5B50B409028333333333333E33F0000000000000F9010790141107004050150841D405064090741402480A02677FFFFFD0
1001
ACAD
1000
AcDbSavedByObjectVersion
1070
     0
  0
ACAD_PROXY_OBJECT
  5
3D
102
{ACAD_REACTORS
330
2A
102
}
330
2A
100
AcDbZombieObject
 90
      499
 91
      501
 93
      452
310
43115919D950DBDB1BDC93D999916409028333333333333E33F0000000000000F9010790141107004050150841D405064090741402480A0350
1001
ACAD
1000
AcDbSavedByObjectVersion
1070
     0
  0
ACAD_PROXY_OBJECT
  5
39
102
{ACAD_REACTORS
330
2A
102
}
330
2A
100
AcDbZombieObject
 90
      499
 91
      501
 93
      444
310
42D19858D95C185D1D195C9B90F409028333333333333E33F0000000000000F9010790141107004050150841D405064090741402480A0350
1001
ACAD
1000
AcDbSavedByObjectVersion
1070
     0
  0
ACAD_PROXY_OBJECT
  5
2B
102
{ACAD_REACTORS
330
2A
102
}
330
2A
100
AcDbZombieObject
 90
      499
 91
      501
 93
      380
310
41119B185D240901404333333333333E33F0000000000000F9010740A907004050150841D405064090741402480A1B50
1001
ACAD
1000
AcDbSavedByObjectVersion
1070
     0
  0
ACAD_PROXY_OBJECT
  5
2C
102
{ACAD_REACTORS
330
2A
102
}
330
2A
100
AcDbZombieObject
 90
      499
 91
      501
 93
      468
310
43519B185D15DA5D1A115919D95CD0140901404333333333333E33F0000000000000F90107409019070040501600405405064090741402480A1B50
1001
ACAD
1000
AcDbSavedByObjectVersion
1070
     0
  0
ACAD_PROXY_OBJECT
  5
2D
102
{ACAD_REACTORS
330
2A
102
}
330
2A
100
AcDbZombieObject
 90
      499
 91
      501
 93
      404
310
41D1DBDD5C985D5910240902404333333333333E33F0000000000000F9010740A9070040501641D405064090741402480A1B50
1001
ACAD
1000
AcDbSavedByObjectVersion
1070
     0
  0
ACAD_PROXY_OBJECT
  5
2E
102
{ACAD_REACTORS
330
2A
102
}
330
2A
100
AcDbZombieObject
 90
      499
 91
      501
 93
      492
310
4411DBDD5C985D5915DA5D1A115919D95CD0340902404333333333333E33F0000000000000F90107409019070040501600405405064090741402480A1B50
1001
ACAD
1000
AcDbSavedByObjectVersion
1070
     0
  0
ACAD_PROXY_OBJECT
  5
31
102
{ACAD_REACTORS
330
2A
102
}
330
2A
100
AcDbZombieObject
 90
      499
 91
      501
 93
      476
310
41921A5919195B90640502408333333333333E33F0000000000000F901079024090700405020000000000001110200405405064090740C02480A0340
1001
ACAD
1000
AcDbSavedByObjectVersion
1070
     0
  0
ACAD_PROXY_OBJECT
  5
3B
102
{ACAD_REACTORS
330
2A
102
}
330
2A
100
AcDbZombieObject
 90
      499
 91
      501
 93
      428
310
42529A5D1D195C93D999914409028333333333333E33F0000000000000F9010790141107004050150A41D405064090741402480A0350
1001
ACAD
1000
AcDbSavedByObjectVersion
1070
     0
  0
ACAD_PROXY_OBJECT
  5
38
102
{ACAD_REACTORS
330
2A
102
}
330
2A
100
AcDbZombieObject
 90
      499
 91
      501
 93
      444
310
42D31A5B995C185D1D195C9B90E409028333333333333E33F0000000000000F9010790141107004050750841D405064090741402483A0350
1001
ACAD
1000
AcDbSavedByObjectVersion
1070
     0
  0
ACAD_PROXY_OBJECT
  5
3C
102
{ACAD_REACTORS
330
2A
102
}
330
2A
100
AcDbZombieObject
 90
      499
 91
      501
 93
      444
310
42D3DD995C9A185B99D3D999915409028333333333333E33F0000000000000F9010790141107004050150941D405064090741402480A0350
1001
ACAD
1000
AcDbSavedByObjectVersion
1070
     0
  0
ACAD_PROXY_OBJECT
  5
33
102
{ACAD_REACTORS
330
2A
102
}
330
2A
100
AcDbZombieObject
 90
      499
 91
      501
 93
      428
310
425499585B1A5CDD1A58D08409038333333333333E33F0000000000000F9010740A907004050150800405405064090740C02480A1B40
1001
ACAD
1000
AcDbSavedByObjectVersion
1070
     0
  0
ACAD_PROXY_OBJECT
  5
42
102
{ACAD_REACTORS
330
2A
102
}
330
2A
100
AcDbZombieObject
 90
      499
 91
      501
 93
      420
310
4194DA1859195911B40902404333333333333E33F0000000000000F9010740A41107004050150800405405064090840C02480A0B40
1001
ACAD
1000
AcDbSavedByObjectVersion
1070
     0
  0
ACAD_PROXY_OBJECT
  5
41
102
{ACAD_REACTORS
330
2A
102
}
330
2A
100
AcDbZombieObject
 90
      499
 91
      501
 93
      516
310
4454DA18591959081DDA5D1A08195919D95CD1A40902404333333333333E33F0000000000000F901074090142907004050250800405405064090740C02480A0B40
1001
ACAD
1000
AcDbSavedByObjectVersion
1070
     0
  0
ACAD_PROXY_OBJECT
  5
3E
102
{ACAD_REACTORS
330
2A
102
}
330
2A
100
AcDbZombieObject
 90
      499
 91
      501
 93
      532
310
4394DA1859195CC81BD98811DC985E5174090240C333333333333E33F0000000000000F901079024090741D01000000000000111010841D405064090740C02480A0340
1001
ACAD
1000
AcDbSavedByObjectVersion
1070
     0
  0
ACAD_PROXY_OBJECT
  5
3F
102
{ACAD_REACTORS
330
2A
102
}
330
2A
100
AcDbZombieObject
 90
      499
 91
      501
 93
      476
310
41D4DAD95D18DA1E51840502408333333333333E33F0000000000000F901079024090741D01000000000000111010B41D405064090741802480A0340
1001
ACAD
1000
AcDbSavedByObjectVersion
1070
     0
  0
ACAD_PROXY_OBJECT
  5
37
102
{ACAD_REACTORS
330
2A
102
}
330
2A
100
AcDbZombieObject
 90
      499
 91
      501
 93
      412
310
41D51A1A58DAD95B90D409028333333333333E33F0000000000000F9010790141107004050150C41D405064090741402480A0350
1001
ACAD
1000
AcDbSavedByObjectVersion
1070
     0
  0
ACAD_PROXY_OBJECT
  5
30
102
{ACAD_REACTORS
330
2A
102
}
330
2A
100
AcDbZombieObject
 90
      499
 91
      501
 93
      420
310
4255DA5C99599C985B595059028333333333333E33F0000000000000F90107901411070040501600405405064090740C02480A0340
1001
ACAD
1000
AcDbSavedByObjectVersion
1070
     0
  0
ACAD_PROXY_OBJECT
  5
40
102
{ACAD_REACTORS
330
2A
102
}
330
2A
100
AcDbZombieObject
 90
      499
 91
      501
 93
      404
310
41560B54985E51940902404000000000000E03F0000000000000F9010740501907004050150841D405064090740C02480A1B40
1001
ACAD
1000
AcDbSavedByObjectVersion
1070
     0
  0
DICTIONARYVAR
  5
270
102
{ACAD_REACTORS
330
265
102
}
330
265
100
DictionaryVariables
280
     0
  1
1:1
  0
DICTIONARYVAR
  5
26C
102
{ACAD_REACTORS
330
265
102
}
330
265
100
DictionaryVariables
280
     0
  1
3.500000
  0
DICTIONARYVAR
  5
26D
102
{ACAD_REACTORS
330
265
102
}
330
265
100
DictionaryVariables
280
     0
  1
acadiso.lin
  0
DICTIONARYVAR
  5
267
102
{ACAD_REACTORS
330
265
102
}
330
265
100
DictionaryVariables
280
     0
  1
Standard
  0
DICTIONARYVAR
  5
266
102
{ACAD_REACTORS
330
265
102
}
330
265
100
DictionaryVariables
280
     0
  1
Standard
  0
DICTIONARYVAR
  5
26E
102
{ACAD_REACTORS
330
265
102
}
330
265
100
DictionaryVariables
280
     0
  1
2
  0
DICTIONARYVAR
  5
26F
102
{ACAD_REACTORS
330
265
102
}
330
265
100
DictionaryVariables
280
     0
  1
1
  0
DICTIONARYVAR
  5
271
102
{ACAD_REACTORS
330
265
102
}
330
265
100
DictionaryVariables
280
     0
  1
1
  0
DICTIONARYVAR
  5
269
102
{ACAD_REACTORS
330
265
102
}
330
265
100
DictionaryVariables
280
     0
  1
80.000000
  0
DICTIONARYVAR
  5
268
102
{ACAD_REACTORS
330
265
102
}
330
265
100
DictionaryVariables
280
     0
  1
5.000000
  0
DICTIONARY
  5
274
330
45
100
AcDbDictionary
  3
ACAD_XREC_ROUNDTRIP
360
275
1001
ACAD
1000
TREAT_AS_HARD
1070
     1
  0
DICTIONARY
  5
272
330
44
100
AcDbDictionary
  3
ACAD_XREC_ROUNDTRIP
360
273
1001
ACAD
1000
TREAT_AS_HARD
1070
     1
  0
DICTIONARY
  5
276
330
46
100
AcDbDictionary
  3
ACAD_XREC_ROUNDTRIP
360
277
1001
ACAD
1000
TREAT_AS_HARD
1070
     1
  0
XRECORD
  5
275
102
{ACAD_REACTORS
330
274
102
}
330
274
100
AcDbXrecord
102
MATERIAL
148
0.0
149
0.0
149
0.0
 93
        0
 94
      127
282
     0
 72
     1
 77
     1
171
     1
175
     1
179
     1
273
     0
  0
XRECORD
  5
273
102
{ACAD_REACTORS
330
272
102
}
330
272
100
AcDbXrecord
102
MATERIAL
148
0.0
149
0.0
149
0.0
 93
        0
 94
      127
282
     0
 72
     1
 77
     1
171
     1
175
     1
179
     1
273
     0
  0
XRECORD
  5
277
102
{ACAD_REACTORS
330
276
102
}
330
276
100
AcDbXrecord
102
MATERIAL
148
0.0
149
0.0
149
0.0
 93
        0
 94
      127
282
     0
 72
     1
 77
     1
171
     1
175
     1
179
     1
273
     0
  0
ENDSEC
  0
EOF
