  0
SECTION
  2
HEADER
  9
$ACADVER
  1
AC1012
  9
$DWGCODEPAGE
  3
ansi_1252
  9
$INSBASE
 10
0.0
 20
0.0
 30
0.0
  9
$EXTMIN
 10
1.000000000000000E+20
 20
1.000000000000000E+20
 30
1.000000000000000E+20
  9
$EXTMAX
 10
-1.000000000000000E+20
 20
-1.000000000000000E+20
 30
-1.000000000000000E+20
  9
$LIMMIN
 10
0.0
 20
0.0
  9
$LIMMAX
 10
420.0
 20
297.0
  9
$ORTHOMODE
 70
     0
  9
$REGENMODE
 70
     1
  9
$FILLMODE
 70
     1
  9
$QTEXTMODE
 70
     0
  9
$MIRRTEXT
 70
     1
  9
$DRAGMODE
 70
     2
  9
$LTSCALE
 40
1.0
  9
$OSMODE
 70
    37
  9
$ATTMODE
 70
     1
  9
$TEXTSIZE
 40
2.5
  9
$TRACEWID
 40
1.0
  9
$TEXTSTYLE
  7
STANDARD
  9
$CLAYER
  8
0
  9
$CELTYPE
  6
BYLAYER
  9
$CECOLOR
 62
   256
  9
$CELTSCALE
 40
1.0
  9
$DELOBJ
 70
     1
  9
$DISPSILH
 70
     0
  9
$DIMSCALE
 40
1.0
  9
$DIMASZ
 40
2.5
  9
$DIMEXO
 40
0.625
  9
$DIMDLI
 40
3.75
  9
$DIMRND
 40
0.0
  9
$DIMDLE
 40
0.0
  9
$DIMEXE
 40
1.25
  9
$DIMTP
 40
0.0
  9
$DIMTM
 40
0.0
  9
$DIMTXT
 40
2.5
  9
$DIMCEN
 40
2.5
  9
$DIMTSZ
 40
0.0
  9
$DIMTOL
 70
     0
  9
$DIMLIM
 70
     0
  9
$DIMTIH
 70
     0
  9
$DIMTOH
 70
     0
  9
$DIMSE1
 70
     0
  9
$DIMSE2
 70
     0
  9
$DIMTAD
 70
     1
  9
$DIMZIN
 70
     8
  9
$DIMBLK
  1

  9
$DIMASO
 70
     1
  9
$DIMSHO
 70
     1
  9
$DIMPOST
  1

  9
$DIMAPOST
  1

  9
$DIMALT
 70
     0
  9
$DIMALTD
 70
     3
  9
$DIMALTF
 40
0.03937007874016
  9
$DIMLFAC
 40
1.0
  9
$DIMTOFL
 70
     1
  9
$DIMTVP
 40
0.0
  9
$DIMTIX
 70
     0
  9
$DIMSOXD
 70
     0
  9
$DIMSAH
 70
     0
  9
$DIMBLK1
  1

  9
$DIMBLK2
  1

  9
$DIMSTYLE
  2
ISO-25
  9
$DIMCLRD
 70
     0
  9
$DIMCLRE
 70
     0
  9
$DIMCLRT
 70
     0
  9
$DIMTFAC
 40
1.0
  9
$DIMGAP
 40
0.625
  9
$DIMJUST
 70
     0
  9
$DIMSD1
 70
     0
  9
$DIMSD2
 70
     0
  9
$DIMTOLJ
 70
     0
  9
$DIMTZIN
 70
     8
  9
$DIMALTZ
 70
     0
  9
$DIMALTTZ
 70
     0
  9
$DIMFIT
 70
     3
  9
$DIMUPT
 70
     0
  9
$DIMUNIT
 70
     2
  9
$DIMDEC
 70
     2
  9
$DIMTDEC
 70
     2
  9
$DIMALTU
 70
     2
  9
$DIMALTTD
 70
     3
  9
$DIMTXSTY
  7
STANDARD
  9
$DIMAUNIT
 70
     0
  9
$LUNITS
 70
     2
  9
$LUPREC
 70
     4
  9
$SKETCHINC
 40
1.0
  9
$FILLETRAD
 40
10.0
  9
$AUNITS
 70
     0
  9
$AUPREC
 70
     0
  9
$MENU
  1
.
  9
$ELEVATION
 40
0.0
  9
$PELEVATION
 40
0.0
  9
$THICKNESS
 40
0.0
  9
$LIMCHECK
 70
     0
  9
$CHAMFERA
 40
0.0
  9
$CHAMFERB
 40
0.0
  9
$CHAMFERC
 40
0.0
  9
$CHAMFERD
 40
0.0
  9
$SKPOLY
 70
     0
  9
$TDCREATE
 40
2457981.421447037
  9
$TDUPDATE
 40
2457981.421448843
  9
$TDINDWG
 40
0.0000000116
  9
$TDUSRTIMER
 40
0.0000000116
  9
$USRTIMER
 70
     1
  9
$ANGBASE
 50
0.0
  9
$ANGDIR
 70
     0
  9
$PDMODE
 70
     0
  9
$PDSIZE
 40
0.0
  9
$PLINEWID
 40
0.0
  9
$COORDS
 70
     1
  9
$SPLFRAME
 70
     0
  9
$SPLINETYPE
 70
     6
  9
$SPLINESEGS
 70
     8
  9
$ATTDIA
 70
     0
  9
$ATTREQ
 70
     1
  9
$HANDLING
 70
     1
  9
$HANDSEED
  5
1B0
  9
$SURFTAB1
 70
     6
  9
$SURFTAB2
 70
     6
  9
$SURFTYPE
 70
     6
  9
$SURFU
 70
     6
  9
$SURFV
 70
     6
  9
$UCSNAME
  2

  9
$UCSORG
 10
0.0
 20
0.0
 30
0.0
  9
$UCSXDIR
 10
1.0
 20
0.0
 30
0.0
  9
$UCSYDIR
 10
0.0
 20
1.0
 30
0.0
  9
$PUCSNAME
  2

  9
$PUCSORG
 10
0.0
 20
0.0
 30
0.0
  9
$PUCSXDIR
 10
1.0
 20
0.0
 30
0.0
  9
$PUCSYDIR
 10
0.0
 20
1.0
 30
0.0
  9
$USERI1
 70
     0
  9
$USERI2
 70
     0
  9
$USERI3
 70
     0
  9
$USERI4
 70
     0
  9
$USERI5
 70
     0
  9
$USERR1
 40
0.0
  9
$USERR2
 40
0.0
  9
$USERR3
 40
0.0
  9
$USERR4
 40
0.0
  9
$USERR5
 40
0.0
  9
$WORLDVIEW
 70
     1
  9
$SHADEDGE
 70
     3
  9
$SHADEDIF
 70
    70
  9
$TILEMODE
 70
     1
  9
$MAXACTVP
 70
    64
  9
$PINSBASE
 10
0.0
 20
0.0
 30
0.0
  9
$PLIMCHECK
 70
     0
  9
$PEXTMIN
 10
1.000000000000000E+20
 20
1.000000000000000E+20
 30
1.000000000000000E+20
  9
$PEXTMAX
 10
-1.000000000000000E+20
 20
-1.000000000000000E+20
 30
-1.000000000000000E+20
  9
$PLIMMIN
 10
0.0
 20
0.0
  9
$PLIMMAX
 10
420.0
 20
297.0
  9
$UNITMODE
 70
     0
  9
$VISRETAIN
 70
     1
  9
$PLINEGEN
 70
     0
  9
$PSLTSCALE
 70
     1
  9
$TREEDEPTH
 70
  3020
  9
$PICKSTYLE
 70
     1
  9
$CMLSTYLE
  2
STANDARD
  9
$CMLJUST
 70
     0
  9
$CMLSCALE
 40
20.0
  9
$SAVEIMAGES
 70
     1
  0
ENDSEC
  0
SECTION
  2
CLASSES
  0
CLASS
  1
ACDBDICTIONARYWDFLT
  2
AcDbDictionaryWithDefault
  3
ObjectDBX Classes
 90
    32768
280
     0
281
     0
  0
CLASS
  1
VISUALSTYLE
  2
AcDbVisualStyle
  3
ObjectDBX Classes
 90
     4095
280
     0
281
     0
  0
CLASS
  1
MATERIAL
  2
AcDbMaterial
  3
ObjectDBX Classes
 90
     1153
280
     0
281
     0
  0
CLASS
  1
SCALE
  2
AcDbScale
  3
ObjectDBX Classes
 90
     1153
280
     0
281
     0
  0
CLASS
  1
TABLESTYLE
  2
AcDbTableStyle
  3
ObjectDBX Classes
 90
     4095
280
     0
281
     0
  0
CLASS
  1
MLEADERSTYLE
  2
AcDbMLeaderStyle
  3
ACDB_MLEADERSTYLE_CLASS
 90
     4095
280
     0
281
     0
  0
CLASS
  1
SUN
  2
AcDbSun
  3
SCENEOE
 90
     1153
280
     0
281
     0
  0
CLASS
  1
DICTIONARYVAR
  2
AcDbDictionaryVar
  3
ObjectDBX Classes
 90
        0
280
     0
281
     0
  0
CLASS
  1
XRECORD
  2
AcDbXrecord
  3
ObjectDBX Classes
 90
    32768
280
     0
281
     0
  0
CLASS
  1
LWPOLYLINE
  2
AcDbPolyline
  3
ObjectDBX Classes
 90
    32768
280
     0
281
     1
  0
CLASS
  1
HATCH
  2
AcDbHatch
  3
ObjectDBX Classes
 90
    32768
280
     0
281
     1
  0
CLASS
  1
ACDBPLACEHOLDER
  2
AcDbPlaceHolder
  3
ObjectDBX Classes
 90
        0
280
     0
281
     0
  0
CLASS
  1
LAYOUT
  2
AcDbLayout
  3
ObjectDBX Classes
 90
        0
280
     0
281
     0
  0
ENDSEC
  0
SECTION
  2
TABLES
  0
TABLE
  2
VPORT
  5
8
330
0
100
AcDbSymbolTable
 70
     1
  0
VPORT
  5
29
330
8
100
AcDbSymbolTableRecord
100
AcDbViewportTableRecord
  2
*ACTIVE
 70
     0
 10
0.0
 20
0.0
 11
1.0
 21
1.0
 12
0.0
 22
0.0
 13
0.0
 23
0.0
 14
10.0
 24
10.0
 15
10.0
 25
10.0
 16
0.0
 26
0.0
 36
1.0
 17
0.0000000000000568
 27
-0.0000000000000284
 37
0.0
 40
493.6800000000001
 41
0.9999999999999998
 42
50.0
 43
0.0
 44
0.0
 50
0.0
 51
0.0
 71
     0
 72
   100
 73
     1
 74
     3
 75
     0
 76
     0
 77
     0
 78
     0
  0
ENDTAB
  0
TABLE
  2
LTYPE
  5
5
330
0
100
AcDbSymbolTable
 70
     1
  0
LTYPE
  5
14
330
5
100
AcDbSymbolTableRecord
100
AcDbLinetypeTableRecord
  2
BYBLOCK
 70
     0
  3

 72
    65
 73
     0
 40
0.0
  0
LTYPE
  5
15
330
5
100
AcDbSymbolTableRecord
100
AcDbLinetypeTableRecord
  2
BYLAYER
 70
     0
  3

 72
    65
 73
     0
 40
0.0
  0
LTYPE
  5
16
330
5
100
AcDbSymbolTableRecord
100
AcDbLinetypeTableRecord
  2
CONTINUOUS
 70
     0
  3
Solid line
 72
    65
 73
     0
 40
0.0
  0
ENDTAB
  0
TABLE
  2
LAYER
  5
2
330
0
100
AcDbSymbolTable
 70
     4
  0
LAYER
  5
10
330
2
100
AcDbSymbolTableRecord
100
AcDbLayerTableRecord
  2
0
 70
     0
 62
     7
  6
CONTINUOUS
  0
LAYER
  5
6E
330
2
100
AcDbSymbolTableRecord
100
AcDbLayerTableRecord
  2
THICK
 70
     0
 62
     7
  6
CONTINUOUS
  0
LAYER
  5
6F
330
2
100
AcDbSymbolTableRecord
100
AcDbLayerTableRecord
  2
HIDDEN
 70
     0
 62
     7
  6
CONTINUOUS
  0
LAYER
  5
70
330
2
100
AcDbSymbolTableRecord
100
AcDbLayerTableRecord
  2
HASHLINES
 70
     0
 62
     7
  6
CONTINUOUS
  0
ENDTAB
  0
TABLE
  2
STYLE
  5
3
330
0
100
AcDbSymbolTable
 70
     1
  0
STYLE
  5
11
330
3
100
AcDbSymbolTableRecord
100
AcDbTextStyleTableRecord
  2
STANDARD
 70
     0
 40
0.0
 41
1.0
 50
0.0
 71
     0
 42
2.5
  3
txt
  4

  0
ENDTAB
  0
TABLE
  2
VIEW
  5
6
330
0
100
AcDbSymbolTable
 70
     0
  0
ENDTAB
  0
TABLE
  2
UCS
  5
7
330
0
100
AcDbSymbolTable
 70
     0
  0
ENDTAB
  0
TABLE
  2
APPID
  5
9
330
0
100
AcDbSymbolTable
 70
     3
  0
APPID
  5
12
330
9
100
AcDbSymbolTableRecord
100
AcDbRegAppTableRecord
  2
ACAD
 70
     0
  0
APPID
  5
71
330
9
100
AcDbSymbolTableRecord
100
AcDbRegAppTableRecord
  2
DBPROPERTIES
 70
     0
  0
APPID
  5
1AF
330
9
100
AcDbSymbolTableRecord
100
AcDbRegAppTableRecord
  2
ACAD_MLEADERVER
 70
     0
  0
ENDTAB
  0
TABLE
  2
DIMSTYLE
  5
A
330
0
100
AcDbSymbolTable
 70
     1
  0
DIMSTYLE
105
27
330
A
100
AcDbSymbolTableRecord
100
AcDbDimStyleTableRecord
  2
ISO-25
 70
     0
  3

  4

  5

  6

  7

 40
1.0
 41
2.5
 42
0.625
 43
3.75
 44
1.25
 45
0.0
 46
0.0
 47
0.0
 48
0.0
140
2.5
141
2.5
142
0.0
143
0.03937007874016
144
1.0
145
0.0
146
1.0
147
0.625
 71
     0
 72
     0
 73
     0
 74
     0
 75
     0
 76
     0
 77
     1
 78
     8
170
     0
171
     3
172
     1
173
     0
174
     0
175
     0
176
     0
177
     0
178
     0
270
     2
271
     2
272
     2
273
     2
274
     3
340
11
275
     0
280
     0
281
     0
282
     0
283
     0
284
     8
285
     0
286
     0
287
     3
288
     0
  0
ENDTAB
  0
TABLE
  2
BLOCK_RECORD
  5
1
330
0
100
AcDbSymbolTable
 70
     0
  0
BLOCK_RECORD
  5
1F
330
1
100
AcDbSymbolTableRecord
100
AcDbBlockTableRecord
  2
*MODEL_SPACE
  0
BLOCK_RECORD
  5
1B
330
1
100
AcDbSymbolTableRecord
100
AcDbBlockTableRecord
  2
*PAPER_SPACE
  0
ENDTAB
  0
ENDSEC
  0
SECTION
  2
BLOCKS
  0
BLOCK
  5
20
330
1F
100
AcDbEntity
  8
0
100
AcDbBlockBegin
  2
*MODEL_SPACE
 70
     0
 10
0.0
 20
0.0
 30
0.0
  3
*MODEL_SPACE
  1

  0
ENDBLK
  5
21
330
1F
100
AcDbEntity
  8
0
100
AcDbBlockEnd
  0
BLOCK
  5
1C
330
1B
100
AcDbEntity
 67
     1
  8
0
100
AcDbBlockBegin
  2
*PAPER_SPACE
 70
     0
 10
0.0
 20
0.0
 30
0.0
  3
*PAPER_SPACE
  1

  0
ENDBLK
  5
1D
330
1B
100
AcDbEntity
 67
     1
  8
0
100
AcDbBlockEnd
  0
ENDSEC
  0
SECTION
  2
ENTITIES
  0
ARC
  5
72
330
1F
100
AcDbEntity
  8
THICK
100
AcDbCircle
 10
0.0
 20
0.0
 30
0.0
 40
239.25
100
AcDbArc
 50
270.0000187239684
 51
0.0
1001
DBPROPERTIES
1002
{
1000
PbThick
1002
}
  0
ARC
  5
73
330
1F
100
AcDbEntity
  8
THICK
100
AcDbCircle
 10
0.0
 20
0.0
 30
0.0
 40
239.25
100
AcDbArc
 50
0.0
 51
89.99998127603165
1001
DBPROPERTIES
1002
{
1000
PbThick
1002
}
  0
ARC
  5
74
330
1F
100
AcDbEntity
  8
THICK
100
AcDbCircle
 10
0.0
 20
0.0
 30
0.0
 40
239.25
100
AcDbArc
 50
89.99998127603165
 51
270.0000187239684
1001
DBPROPERTIES
1002
{
1000
PbThick
1002
}
  0
ARC
  5
75
330
1F
100
AcDbEntity
  8
THICK
100
AcDbCircle
 10
159.0990257669732
 20
159.0990257669731
 30
0.0
 40
4.999999999999999
100
AcDbArc
 50
134.9999719140475
 51
315.0000093619842
1001
DBPROPERTIES
1002
{
1000
PbThick
1002
}
  0
ARC
  5
76
330
1F
100
AcDbEntity
  8
THICK
100
AcDbCircle
 10
159.0990257669732
 20
159.0990257669731
 30
0.0
 40
4.999999999999999
100
AcDbArc
 50
315.0000093619842
 51
134.9999719140475
1001
DBPROPERTIES
1002
{
1000
PbThick
1002
}
  0
ARC
  5
77
330
1F
100
AcDbEntity
  8
THICK
100
AcDbCircle
 10
225.0
 20
-0.0000000000000413
 30
0.0
 40
5.0
100
AcDbArc
 50
89.99998127603165
 51
270.0000187239684
1001
DBPROPERTIES
1002
{
1000
PbThick
1002
}
  0
ARC
  5
78
330
1F
100
AcDbEntity
  8
THICK
100
AcDbCircle
 10
225.0
 20
-0.0000000000000413
 30
0.0
 40
5.0
100
AcDbArc
 50
270.0000187239684
 51
89.99998127603165
1001
DBPROPERTIES
1002
{
1000
PbThick
1002
}
  0
ARC
  5
79
330
1F
100
AcDbEntity
  8
THICK
100
AcDbCircle
 10
159.0990257669732
 20
-159.0990257669732
 30
0.0
 40
5.000000000000001
100
AcDbArc
 50
44.99999063801582
 51
225.0000280859525
1001
DBPROPERTIES
1002
{
1000
PbThick
1002
}
  0
ARC
  5
7A
330
1F
100
AcDbEntity
  8
THICK
100
AcDbCircle
 10
159.0990257669732
 20
-159.0990257669732
 30
0.0
 40
5.000000000000001
100
AcDbArc
 50
225.0000280859525
 51
44.99999063801582
1001
DBPROPERTIES
1002
{
1000
PbThick
1002
}
  0
ARC
  5
7B
330
1F
100
AcDbEntity
  8
THICK
100
AcDbCircle
 10
-0.0000000000000276
 20
-225.0
 30
0.0
 40
5.0
100
AcDbArc
 50
0.0
 51
180.0000198478428
1001
DBPROPERTIES
1002
{
1000
PbThick
1002
}
  0
ARC
  5
7C
330
1F
100
AcDbEntity
  8
THICK
100
AcDbCircle
 10
-0.0000000000000276
 20
-225.0
 30
0.0
 40
5.0
100
AcDbArc
 50
180.0000198478428
 51
0.0
1001
DBPROPERTIES
1002
{
1000
PbThick
1002
}
  0
ARC
  5
7D
330
1F
100
AcDbEntity
  8
THICK
100
AcDbCircle
 10
-159.0990257669732
 20
-159.0990257669732
 30
0.0
 40
5.0
100
AcDbArc
 50
315.0000093619842
 51
134.9999719140475
1001
DBPROPERTIES
1002
{
1000
PbThick
1002
}
  0
ARC
  5
7E
330
1F
100
AcDbEntity
  8
THICK
100
AcDbCircle
 10
-159.0990257669732
 20
-159.0990257669732
 30
0.0
 40
5.0
100
AcDbArc
 50
134.9999719140475
 51
315.0000093619842
1001
DBPROPERTIES
1002
{
1000
PbThick
1002
}
  0
ARC
  5
7F
330
1F
100
AcDbEntity
  8
THICK
100
AcDbCircle
 10
-225.0
 20
0.0000000000000138
 30
0.0
 40
5.0
100
AcDbArc
 50
270.0000187239684
 51
89.99998127603165
1001
DBPROPERTIES
1002
{
1000
PbThick
1002
}
  0
ARC
  5
80
330
1F
100
AcDbEntity
  8
THICK
100
AcDbCircle
 10
-225.0
 20
0.0000000000000138
 30
0.0
 40
5.0
100
AcDbArc
 50
89.99998127603165
 51
270.0000187239684
1001
DBPROPERTIES
1002
{
1000
PbThick
1002
}
  0
ARC
  5
81
330
1F
100
AcDbEntity
  8
THICK
100
AcDbCircle
 10
-159.0990257669732
 20
159.0990257669732
 30
0.0
 40
5.0
100
AcDbArc
 50
225.0000280859525
 51
44.99999063801582
1001
DBPROPERTIES
1002
{
1000
PbThick
1002
}
  0
ARC
  5
82
330
1F
100
AcDbEntity
  8
THICK
100
AcDbCircle
 10
-159.0990257669732
 20
159.0990257669732
 30
0.0
 40
5.0
100
AcDbArc
 50
44.99999063801582
 51
225.0000280859525
1001
DBPROPERTIES
1002
{
1000
PbThick
1002
}
  0
ARC
  5
83
330
1F
100
AcDbEntity
  8
THICK
100
AcDbCircle
 10
0.0
 20
225.0
 30
0.0
 40
5.0
100
AcDbArc
 50
180.0000198478428
 51
0.0
1001
DBPROPERTIES
1002
{
1000
PbThick
1002
}
  0
ARC
  5
84
330
1F
100
AcDbEntity
  8
THICK
100
AcDbCircle
 10
0.0
 20
225.0
 30
0.0
 40
5.0
100
AcDbArc
 50
0.0
 51
180.0000198478428
1001
DBPROPERTIES
1002
{
1000
PbThick
1002
}
  0
ARC
  5
85
330
1F
100
AcDbEntity
  8
THICK
100
AcDbCircle
 10
0.0
 20
0.0
 30
0.0
 40
200.0
100
AcDbArc
 50
179.9999801521572
 51
0.0
1001
DBPROPERTIES
1002
{
1000
PbThick
1002
}
  0
ARC
  5
86
330
1F
100
AcDbEntity
  8
THICK
100
AcDbCircle
 10
0.0
 20
0.0
 30
0.0
 40
200.0
100
AcDbArc
 50
0.0
 51
180.0000198478428
1001
DBPROPERTIES
1002
{
1000
PbThick
1002
}
  0
ARC
  5
87
330
1F
100
AcDbEntity
  8
HIDDEN
100
AcDbCircle
 10
0.0
 20
0.0
 30
0.0
 40
211.0
100
AcDbArc
 50
179.9999801521572
 51
0.0
1001
DBPROPERTIES
1002
{
1000
PbHidd
1002
}
  0
ARC
  5
88
330
1F
100
AcDbEntity
  8
THICK
100
AcDbCircle
 10
0.0
 20
-0.0000000000000002
 30
0.0
 40
242.0
100
AcDbArc
 50
270.0000187239684
 51
0.0
1001
DBPROPERTIES
1002
{
1000
PbThick
1002
}
  0
ARC
  5
89
330
1F
100
AcDbEntity
  8
THICK
100
AcDbCircle
 10
0.0
 20
-0.0000000000000002
 30
0.0
 40
242.0
100
AcDbArc
 50
180.0000198478428
 51
270.0000187239684
1001
DBPROPERTIES
1002
{
1000
PbThick
1002
}
  0
ARC
  5
8A
330
1F
100
AcDbEntity
  8
THICK
100
AcDbCircle
 10
0.0
 20
-0.0000000000000002
 30
0.0
 40
242.0
100
AcDbArc
 50
0.0
 51
89.99998127603165
1001
DBPROPERTIES
1002
{
1000
PbThick
1002
}
  0
ARC
  5
8B
330
1F
100
AcDbEntity
  8
HIDDEN
100
AcDbCircle
 10
0.0
 20
0.0
 30
0.0
 40
239.25
100
AcDbArc
 50
270.0000187239684
 51
0.0
1001
DBPROPERTIES
1002
{
1000
PbHidd
1002
}
  0
ARC
  5
8C
330
1F
100
AcDbEntity
  8
HIDDEN
100
AcDbCircle
 10
0.0
 20
0.0
 30
0.0
 40
239.25
100
AcDbArc
 50
0.0
 51
89.99998127603165
1001
DBPROPERTIES
1002
{
1000
PbHidd
1002
}
  0
ARC
  5
8D
330
1F
100
AcDbEntity
  8
HIDDEN
100
AcDbCircle
 10
0.0000000000000135
 20
0.0
 30
0.0
 40
239.25
100
AcDbArc
 50
179.9999801521572
 51
270.0000187239684
1001
DBPROPERTIES
1002
{
1000
PbHidd
1002
}
  0
ARC
  5
8E
330
1F
100
AcDbEntity
  8
HIDDEN
100
AcDbCircle
 10
0.0000000000000135
 20
0.0
 30
0.0
 40
239.25
100
AcDbArc
 50
89.99998127603165
 51
180.0000198478428
1001
DBPROPERTIES
1002
{
1000
PbHidd
1002
}
  0
ARC
  5
8F
330
1F
100
AcDbEntity
  8
HIDDEN
100
AcDbCircle
 10
0.0000000000000135
 20
0.0
 30
0.0
 40
239.25
100
AcDbArc
 50
179.9999801521572
 51
270.0000187239684
1001
DBPROPERTIES
1002
{
1000
PbHidd
1002
}
  0
ARC
  5
90
330
1F
100
AcDbEntity
  8
HIDDEN
100
AcDbCircle
 10
0.0000000000000135
 20
0.0
 30
0.0
 40
239.25
100
AcDbArc
 50
89.99998127603165
 51
180.0000198478428
1001
DBPROPERTIES
1002
{
1000
PbHidd
1002
}
  0
LINE
  5
91
330
1F
100
AcDbEntity
  8
HIDDEN
100
AcDbLine
 10
-178.4429096551807
 20
-90.32235600222685
 30
0.0
 11
-178.4429096551807
 21
-90.32235600222685
 31
0.0
1001
DBPROPERTIES
1002
{
1000
PbHidd
1002
}
  0
LINE
  5
92
330
1F
100
AcDbEntity
  8
HIDDEN
100
AcDbLine
 10
-167.4429096551807
 20
-109.3749148854845
 30
0.0
 11
-167.4429096551807
 21
-109.3749148854845
 31
0.0
1001
DBPROPERTIES
1002
{
1000
PbHidd
1002
}
  0
LINE
  5
93
330
1F
100
AcDbEntity
  8
HIDDEN
100
AcDbLine
 10
167.4429096551807
 20
-109.3749148854845
 30
0.0
 11
167.4429096551807
 21
-109.3749148854845
 31
0.0
1001
DBPROPERTIES
1002
{
1000
PbHidd
1002
}
  0
LINE
  5
94
330
1F
100
AcDbEntity
  8
HIDDEN
100
AcDbLine
 10
178.4429096551807
 20
-90.32235600222685
 30
0.0
 11
178.4429096551807
 21
-90.32235600222685
 31
0.0
1001
DBPROPERTIES
1002
{
1000
PbHidd
1002
}
  0
ARC
  5
95
330
1F
100
AcDbEntity
  8
HIDDEN
100
AcDbCircle
 10
0.0
 20
0.0
 30
0.0
 40
97.25
100
AcDbArc
 50
270.0000187239684
 51
0.0
1001
DBPROPERTIES
1002
{
1000
PbHidd
1002
}
  0
ARC
  5
96
330
1F
100
AcDbEntity
  8
HIDDEN
100
AcDbCircle
 10
0.0
 20
0.0
 30
0.0
 40
97.25
100
AcDbArc
 50
0.0
 51
89.99998127603165
1001
DBPROPERTIES
1002
{
1000
PbHidd
1002
}
  0
LINE
  5
97
330
1F
100
AcDbEntity
  8
HIDDEN
100
AcDbLine
 10
-11.0
 20
99.39315871829409
 30
0.0
 11
-11.0
 21
99.39315871829409
 31
0.0
1001
DBPROPERTIES
1002
{
1000
PbHidd
1002
}
  0
LINE
  5
98
330
1F
100
AcDbEntity
  8
HIDDEN
100
AcDbLine
 10
11.0
 20
99.39315871829409
 30
0.0
 11
11.0
 21
99.39315871829409
 31
0.0
1001
DBPROPERTIES
1002
{
1000
PbHidd
1002
}
  0
ARC
  5
99
330
1F
100
AcDbEntity
  8
HIDDEN
100
AcDbCircle
 10
0.0
 20
0.0
 30
0.0
 40
97.25
100
AcDbArc
 50
179.9999801521572
 51
270.0000187239684
1001
DBPROPERTIES
1002
{
1000
PbHidd
1002
}
  0
ARC
  5
9A
330
1F
100
AcDbEntity
  8
HIDDEN
100
AcDbCircle
 10
0.0
 20
0.0
 30
0.0
 40
97.25
100
AcDbArc
 50
89.99998127603165
 51
180.0000198478428
1001
DBPROPERTIES
1002
{
1000
PbHidd
1002
}
  0
ARC
  5
9B
330
1F
100
AcDbEntity
  8
HIDDEN
100
AcDbCircle
 10
0.0
 20
0.0
 30
0.0
 40
78.0
100
AcDbArc
 50
270.0000187239684
 51
0.0
1001
DBPROPERTIES
1002
{
1000
PbHidd
1002
}
  0
ARC
  5
9C
330
1F
100
AcDbEntity
  8
HIDDEN
100
AcDbCircle
 10
0.0
 20
-0.0000000000000007
 30
0.0
 40
89.0
100
AcDbArc
 50
270.0000187239684
 51
0.0
1001
DBPROPERTIES
1002
{
1000
PbHidd
1002
}
  0
ARC
  5
9D
330
1F
100
AcDbEntity
  8
HIDDEN
100
AcDbCircle
 10
0.0
 20
-0.0000000000000007
 30
0.0
 40
89.0
100
AcDbArc
 50
0.0
 51
89.99998127603165
1001
DBPROPERTIES
1002
{
1000
PbHidd
1002
}
  0
ARC
  5
9E
330
1F
100
AcDbEntity
  8
HIDDEN
100
AcDbCircle
 10
0.0
 20
0.0
 30
0.0
 40
78.0
100
AcDbArc
 50
0.0
 51
89.99998127603165
1001
DBPROPERTIES
1002
{
1000
PbHidd
1002
}
  0
ARC
  5
9F
330
1F
100
AcDbEntity
  8
HIDDEN
100
AcDbCircle
 10
0.0
 20
0.0
 30
0.0
 40
78.0
100
AcDbArc
 50
179.9999801521572
 51
270.0000187239684
1001
DBPROPERTIES
1002
{
1000
PbHidd
1002
}
  0
ARC
  5
A0
330
1F
100
AcDbEntity
  8
HIDDEN
100
AcDbCircle
 10
0.0
 20
0.0
 30
0.0
 40
78.0
100
AcDbArc
 50
89.99998127603165
 51
180.0000198478428
1001
DBPROPERTIES
1002
{
1000
PbHidd
1002
}
  0
ARC
  5
A1
330
1F
100
AcDbEntity
  8
HIDDEN
100
AcDbCircle
 10
0.0
 20
-0.0000000000000007
 30
0.0
 40
89.0
100
AcDbArc
 50
89.99998127603165
 51
179.9999801521572
1001
DBPROPERTIES
1002
{
1000
PbHidd
1002
}
  0
ARC
  5
A2
330
1F
100
AcDbEntity
  8
THICK
100
AcDbCircle
 10
0.0000000000000003
 20
-0.0000000000000002
 30
0.0
 40
100.0
100
AcDbArc
 50
89.99998127603165
 51
180.0000198478428
1001
DBPROPERTIES
1002
{
1000
PbThick
1002
}
  0
ARC
  5
A3
330
1F
100
AcDbEntity
  8
THICK
100
AcDbCircle
 10
0.0000000000000003
 20
-0.0000000000000002
 30
0.0
 40
100.0
100
AcDbArc
 50
0.0
 51
89.99998127603165
1001
DBPROPERTIES
1002
{
1000
PbThick
1002
}
  0
ARC
  5
A4
330
1F
100
AcDbEntity
  8
HIDDEN
100
AcDbCircle
 10
0.0
 20
0.0
 30
0.0
 40
97.25
100
AcDbArc
 50
0.0
 51
89.99998127603165
1001
DBPROPERTIES
1002
{
1000
PbHidd
1002
}
  0
ARC
  5
A5
330
1F
100
AcDbEntity
  8
HIDDEN
100
AcDbCircle
 10
0.0
 20
0.0
 30
0.0
 40
97.25
100
AcDbArc
 50
270.0000187239684
 51
0.0
1001
DBPROPERTIES
1002
{
1000
PbHidd
1002
}
  0
ARC
  5
A6
330
1F
100
AcDbEntity
  8
THICK
100
AcDbCircle
 10
0.0
 20
0.0
 30
0.0
 40
97.25
100
AcDbArc
 50
89.99998127603165
 51
180.0000198478428
1001
DBPROPERTIES
1002
{
1000
PbThick
1002
}
  0
ARC
  5
A7
330
1F
100
AcDbEntity
  8
THICK
100
AcDbCircle
 10
0.0000000000000003
 20
-0.0000000000000002
 30
0.0
 40
100.0
100
AcDbArc
 50
179.9999801521572
 51
270.0000187239684
1001
DBPROPERTIES
1002
{
1000
PbThick
1002
}
  0
ARC
  5
A8
330
1F
100
AcDbEntity
  8
THICK
100
AcDbCircle
 10
0.0
 20
0.0
 30
0.0
 40
97.25
100
AcDbArc
 50
180.0000198478428
 51
270.0000187239684
1001
DBPROPERTIES
1002
{
1000
PbThick
1002
}
  0
ELLIPSE
  5
A9
330
1F
100
AcDbEntity
  8
THICK
100
AcDbEllipse
 10
77.3181704229898
 20
181.0932604233115
 30
0.0
 11
0.0
 21
160.0
 31
0.0
210
0.0
220
0.0
230
1.0
 40
0.7071067811865476
 41
1.570796326794897
 42
2.116145615592543
1001
DBPROPERTIES
1002
{
1000
PbThick
1002
}
  0
ELLIPSE
  5
AA
330
1F
100
AcDbEntity
  8
THICK
100
AcDbEllipse
 10
70.24710261112432
 20
181.0932604233115
 30
0.0
 11
0.0
 21
-160.0
 31
0.0
210
0.0
220
0.0
230
1.0
 40
0.7071067811865476
 41
-1.570796326794896
 42
-1.014500923207004
1001
DBPROPERTIES
1002
{
1000
PbThick
1002
}
  0
ELLIPSE
  5
AB
330
1F
100
AcDbEntity
  8
THICK
100
AcDbEllipse
 10
-23.58713045121196
 20
195.4904491922337
 30
0.0
 11
-79.99999999999999
 21
138.5640646055102
 31
0.0
210
0.0
220
0.0
230
1.0
 40
0.7071067811865476
 41
1.570796326794897
 42
2.116145615592543
1001
DBPROPERTIES
1002
{
1000
PbThick
1002
}
  0
ELLIPSE
  5
AC
330
1F
100
AcDbEntity
  8
THICK
100
AcDbEllipse
 10
-29.71085480816991
 20
191.954915286301
 30
0.0
 11
79.99999999999999
 21
-138.5640646055102
 31
0.0
210
0.0
220
0.0
230
1.0
 40
0.7071067811865476
 41
-1.570796326794896
 42
-1.014500923207003
1001
DBPROPERTIES
1002
{
1000
PbThick
1002
}
  0
ELLIPSE
  5
AD
330
1F
100
AcDbEntity
  8
THICK
100
AcDbEllipse
 10
-118.1722787692439
 20
157.5061299720995
 30
0.0
 11
-138.5640646055102
 21
80.00000000000001
 31
0.0
210
0.0
220
0.0
230
1.0
 40
0.7071067811865476
 41
1.570796326794897
 42
2.116145615592543
1001
DBPROPERTIES
1002
{
1000
PbThick
1002
}
  0
ELLIPSE
  5
AE
330
1F
100
AcDbEntity
  8
THICK
100
AcDbEllipse
 10
-121.7078126751767
 20
151.3824056151416
 30
0.0
 11
138.5640646055102
 21
-80.00000000000001
 31
0.0
210
0.0
220
0.0
230
1.0
 40
0.7071067811865476
 41
-1.570796326794897
 42
-1.014500923207003
1001
DBPROPERTIES
1002
{
1000
PbThick
1002
}
  0
ELLIPSE
  5
AF
330
1F
100
AcDbEntity
  8
THICK
100
AcDbEllipse
 10
-181.0932604233115
 20
77.31817042298981
 30
0.0
 11
-160.0
 21
9.796850830579018E-15
 31
0.0
210
0.0
220
0.0
230
1.0
 40
0.7071067811865476
 41
1.570796326794897
 42
2.116145615592543
1001
DBPROPERTIES
1002
{
1000
PbThick
1002
}
  0
ELLIPSE
  5
B0
330
1F
100
AcDbEntity
  8
THICK
100
AcDbEllipse
 10
-181.0932604233115
 20
70.24710261112433
 30
0.0
 11
160.0
 21
-9.796850830579018E-15
 31
0.0
210
0.0
220
0.0
230
1.0
 40
0.7071067811865476
 41
-1.570796326794896
 42
-1.014500923207003
1001
DBPROPERTIES
1002
{
1000
PbThick
1002
}
  0
ELLIPSE
  5
B1
330
1F
100
AcDbEntity
  8
THICK
100
AcDbEllipse
 10
-195.4904491922337
 20
-23.58713045121193
 30
0.0
 11
-138.5640646055102
 21
-79.99999999999997
 31
0.0
210
0.0
220
0.0
230
1.0
 40
0.7071067811865475
 41
1.570796326794897
 42
2.116145615592543
1001
DBPROPERTIES
1002
{
1000
PbThick
1002
}
  0
ELLIPSE
  5
B2
330
1F
100
AcDbEntity
  8
THICK
100
AcDbEllipse
 10
-191.954915286301
 20
-29.71085480816988
 30
0.0
 11
138.5640646055102
 21
79.99999999999997
 31
0.0
210
0.0
220
0.0
230
1.0
 40
0.7071067811865475
 41
-1.570796326794896
 42
-1.014500923207003
1001
DBPROPERTIES
1002
{
1000
PbThick
1002
}
  0
ELLIPSE
  5
B3
330
1F
100
AcDbEntity
  8
THICK
100
AcDbEllipse
 10
-157.5061299720996
 20
-118.1722787692439
 30
0.0
 11
-80.00000000000006
 21
-138.5640646055102
 31
0.0
210
0.0
220
0.0
230
1.0
 40
0.7071067811865475
 41
1.570796326794897
 42
2.116145615592544
1001
DBPROPERTIES
1002
{
1000
PbThick
1002
}
  0
ELLIPSE
  5
B4
330
1F
100
AcDbEntity
  8
THICK
100
AcDbEllipse
 10
-151.3824056151416
 20
-121.7078126751766
 30
0.0
 11
80.00000000000006
 21
138.5640646055102
 31
0.0
210
0.0
220
0.0
230
1.0
 40
0.7071067811865475
 41
-1.570796326794896
 42
-1.014500923207003
1001
DBPROPERTIES
1002
{
1000
PbThick
1002
}
  0
ELLIPSE
  5
B5
330
1F
100
AcDbEntity
  8
THICK
100
AcDbEllipse
 10
-77.31817042298982
 20
-181.0932604233115
 30
0.0
 11
-1.959370166115804E-14
 21
-160.0
 31
0.0
210
0.0
220
0.0
230
1.0
 40
0.7071067811865476
 41
1.570796326794897
 42
2.116145615592543
1001
DBPROPERTIES
1002
{
1000
PbThick
1002
}
  0
ELLIPSE
  5
B6
330
1F
100
AcDbEntity
  8
THICK
100
AcDbEllipse
 10
-70.24710261112435
 20
-181.0932604233115
 30
0.0
 11
1.959370166115804E-14
 21
160.0
 31
0.0
210
0.0
220
0.0
230
1.0
 40
0.7071067811865476
 41
-1.570796326794896
 42
-1.014500923207003
1001
DBPROPERTIES
1002
{
1000
PbThick
1002
}
  0
ELLIPSE
  5
B7
330
1F
100
AcDbEntity
  8
THICK
100
AcDbEllipse
 10
23.58713045121191
 20
-195.4904491922337
 30
0.0
 11
79.99999999999993
 21
-138.5640646055102
 31
0.0
210
0.0
220
0.0
230
1.0
 40
0.7071067811865476
 41
1.570796326794897
 42
2.116145615592543
1001
DBPROPERTIES
1002
{
1000
PbThick
1002
}
  0
ELLIPSE
  5
B8
330
1F
100
AcDbEntity
  8
THICK
100
AcDbEllipse
 10
29.71085480816985
 20
-191.954915286301
 30
0.0
 11
-79.99999999999993
 21
138.5640646055102
 31
0.0
210
0.0
220
0.0
230
1.0
 40
0.7071067811865476
 41
-1.570796326794897
 42
-1.014500923207003
1001
DBPROPERTIES
1002
{
1000
PbThick
1002
}
  0
ELLIPSE
  5
B9
330
1F
100
AcDbEntity
  8
THICK
100
AcDbEllipse
 10
118.1722787692439
 20
-157.5061299720996
 30
0.0
 11
138.5640646055101
 21
-80.00000000000006
 31
0.0
210
0.0
220
0.0
230
1.0
 40
0.7071067811865476
 41
1.570796326794896
 42
2.116145615592543
1001
DBPROPERTIES
1002
{
1000
PbThick
1002
}
  0
ELLIPSE
  5
BA
330
1F
100
AcDbEntity
  8
THICK
100
AcDbEllipse
 10
121.7078126751766
 20
-151.3824056151416
 30
0.0
 11
-138.5640646055101
 21
80.00000000000006
 31
0.0
210
0.0
220
0.0
230
1.0
 40
0.7071067811865476
 41
-1.570796326794897
 42
-1.014500923207003
1001
DBPROPERTIES
1002
{
1000
PbThick
1002
}
  0
ELLIPSE
  5
BB
330
1F
100
AcDbEntity
  8
THICK
100
AcDbEllipse
 10
181.0932604233115
 20
-77.31817042298982
 30
0.0
 11
160.0
 21
-2.939055249173705E-14
 31
0.0
210
0.0
220
0.0
230
1.0
 40
0.7071067811865476
 41
1.570796326794897
 42
2.116145615592543
1001
DBPROPERTIES
1002
{
1000
PbThick
1002
}
  0
ELLIPSE
  5
BC
330
1F
100
AcDbEntity
  8
THICK
100
AcDbEllipse
 10
181.0932604233115
 20
-70.24710261112435
 30
0.0
 11
-160.0
 21
2.939055249173705E-14
 31
0.0
210
0.0
220
0.0
230
1.0
 40
0.7071067811865476
 41
-1.570796326794897
 42
-1.014500923207003
1001
DBPROPERTIES
1002
{
1000
PbThick
1002
}
  0
ELLIPSE
  5
BD
330
1F
100
AcDbEntity
  8
THICK
100
AcDbEllipse
 10
195.4904491922338
 20
23.58713045121183
 30
0.0
 11
138.5640646055103
 21
79.99999999999989
 31
0.0
210
0.0
220
0.0
230
1.0
 40
0.7071067811865475
 41
1.570796326794897
 42
2.116145615592543
1001
DBPROPERTIES
1002
{
1000
PbThick
1002
}
  0
ELLIPSE
  5
BE
330
1F
100
AcDbEntity
  8
THICK
100
AcDbEllipse
 10
191.954915286301
 20
29.71085480816978
 30
0.0
 11
-138.5640646055103
 21
-79.99999999999989
 31
0.0
210
0.0
220
0.0
230
1.0
 40
0.7071067811865475
 41
-1.570796326794896
 42
-1.014500923207003
1001
DBPROPERTIES
1002
{
1000
PbThick
1002
}
  0
ELLIPSE
  5
BF
330
1F
100
AcDbEntity
  8
THICK
100
AcDbEllipse
 10
157.5061299720996
 20
118.1722787692439
 30
0.0
 11
80.00000000000006
 21
138.5640646055101
 31
0.0
210
0.0
220
0.0
230
1.0
 40
0.7071067811865476
 41
1.570796326794896
 42
2.116145615592543
1001
DBPROPERTIES
1002
{
1000
PbThick
1002
}
  0
ELLIPSE
  5
C0
330
1F
100
AcDbEntity
  8
THICK
100
AcDbEllipse
 10
151.3824056151416
 20
121.7078126751766
 30
0.0
 11
-80.00000000000006
 21
-138.5640646055101
 31
0.0
210
0.0
220
0.0
230
1.0
 40
0.7071067811865476
 41
-1.570796326794897
 42
-1.014500923207003
1001
DBPROPERTIES
1002
{
1000
PbThick
1002
}
  0
ARC
  5
C1
330
1F
100
AcDbEntity
  8
HIDDEN
100
AcDbCircle
 10
0.0
 20
0.0
 30
0.0
 40
10.0
100
AcDbArc
 50
0.0
 51
180.0000198478428
1001
DBPROPERTIES
1002
{
1000
PbHidd
1002
}
  0
ARC
  5
C2
330
1F
100
AcDbEntity
  8
HIDDEN
100
AcDbCircle
 10
0.0
 20
0.0
 30
0.0
 40
10.0
100
AcDbArc
 50
179.9999801521572
 51
0.0
1001
DBPROPERTIES
1002
{
1000
PbHidd
1002
}
  0
LINE
  5
C3
330
1F
100
AcDbEntity
  8
THICK
100
AcDbLine
 10
74.82066281365705
 20
81.50992832854803
 30
0.0
 11
69.35415640313606
 21
72.04166148562472
 31
0.0
1001
DBPROPERTIES
1002
{
1000
PbThick
1002
}
  0
ELLIPSE
  5
C4
330
1F
100
AcDbEntity
  8
THICK
100
AcDbEllipse
 10
158.5548558214831
 20
3.253128707529299
 30
0.0
 11
-80.00000000000006
 21
-138.5640646055101
 31
0.0
210
0.0
220
0.0
230
1.0
 40
0.7071067811865476
 41
-2.280952544182832
 42
-1.733420185294637
1001
DBPROPERTIES
1002
{
1000
PbThick
1002
}
  0
ELLIPSE
  5
C5
330
1F
100
AcDbEntity
  8
THICK
100
AcDbEllipse
 10
6.123724356957943
 20
-3.53553390593274
 30
0.0
 11
98.00000000000006
 21
169.7409791417498
 31
0.0
210
0.0
220
0.0
230
1.0
 40
0.7071067811865477
 41
0.0
 42
0.3141592653589793
1001
DBPROPERTIES
1002
{
1000
PbThick
1002
}
  0
ELLIPSE
  5
C6
330
1F
100
AcDbEntity
  8
THICK
100
AcDbEllipse
 10
6.123724356957943
 20
-3.53553390593274
 30
0.0
 11
98.00000000000006
 21
169.7409791417498
 31
0.0
210
0.0
220
0.0
230
1.0
 40
0.7071067811865477
 41
-0.3141592653589798
 42
0.0
1001
DBPROPERTIES
1002
{
1000
PbThick
1002
}
  0
ELLIPSE
  5
C7
330
1F
100
AcDbEntity
  8
THICK
100
AcDbEllipse
 10
157.5061299720996
 20
118.1722787692439
 30
0.0
 11
80.00000000000006
 21
138.5640646055101
 31
0.0
210
0.0
220
0.0
230
1.0
 40
0.7071067811865476
 41
1.537578863625339
 42
1.570796326794896
1001
DBPROPERTIES
1002
{
1000
PbThick
1002
}
  0
LINE
  5
C8
330
1F
100
AcDbEntity
  8
HIDDEN
100
AcDbLine
 10
63.97167843571879
 20
76.86107179916888
 30
0.0
 11
68.69693845669912
 21
85.04546223448077
 31
0.0
1001
DBPROPERTIES
1002
{
1000
PbHidd
1002
}
  0
LINE
  5
C9
330
1F
100
AcDbEntity
  8
HIDDEN
100
AcDbLine
 10
68.69693845669912
 20
85.04546223448077
 30
0.0
 11
74.82066281365705
 21
81.50992832854803
 31
0.0
1001
DBPROPERTIES
1002
{
1000
PbHidd
1002
}
  0
ELLIPSE
  5
CA
330
1F
100
AcDbEntity
  8
THICK
100
AcDbEllipse
 10
151.3824056151416
 20
121.7078126751766
 30
0.0
 11
-80.00000000000006
 21
-138.5640646055101
 31
0.0
210
0.0
220
0.0
230
1.0
 40
0.7071067811865476
 41
-1.604013789964454
 42
-1.570796326794897
1001
DBPROPERTIES
1002
{
1000
PbThick
1002
}
  0
LINE
  5
CB
330
1F
100
AcDbEntity
  8
THICK
100
AcDbLine
 10
56.11377465163626
 20
182.8470494930733
 30
0.0
 11
62.23749900859419
 21
179.3115155871405
 31
0.0
1001
DBPROPERTIES
1002
{
1000
PbThick
1002
}
  0
LINE
  5
CC
330
1F
100
AcDbEntity
  8
HIDDEN
100
AcDbLine
 10
130.293302542214
 20
140.0194790970887
 30
0.0
 11
136.417026899172
 21
136.483945191156
 31
0.0
1001
DBPROPERTIES
1002
{
1000
PbHidd
1002
}
  0
ELLIPSE
  5
CD
330
1F
100
AcDbEntity
  8
HIDDEN
100
AcDbEllipse
 10
0.0000000000000005
 20
0.0000000000000008
 30
0.0
 11
-98.00000000000006
 21
-169.7409791417498
 31
0.0
210
0.0
220
0.0
230
1.0
 40
0.7071067811865477
 41
2.827433388230813
 42
3.141592653589793
1001
DBPROPERTIES
1002
{
1000
PbHidd
1002
}
  0
ELLIPSE
  5
CE
330
1F
100
AcDbEntity
  8
THICK
100
AcDbEllipse
 10
0.0000000000000005
 20
0.0000000000000008
 30
0.0
 11
-98.00000000000006
 21
-169.7409791417498
 31
0.0
210
0.0
220
0.0
230
1.0
 40
0.7071067811865477
 41
3.141592653589793
 42
3.455751918948772
1001
DBPROPERTIES
1002
{
1000
PbThick
1002
}
  0
ELLIPSE
  5
CF
330
1F
100
AcDbEntity
  8
HIDDEN
100
AcDbEllipse
 10
152.4311314645252
 20
6.788662613462037
 30
0.0
 11
-80.00000000000006
 21
-138.5640646055101
 31
0.0
210
0.0
220
0.0
230
1.0
 40
0.7071067811865476
 41
-2.280952544182832
 42
-1.733420185294637
1001
DBPROPERTIES
1002
{
1000
PbHidd
1002
}
  0
LINE
  5
D0
330
1F
100
AcDbEntity
  8
THICK
100
AcDbLine
 10
105.5515588888907
 20
33.1793371863429
 30
0.0
 11
96.08329204596737
 21
27.71283077582191
 31
0.0
1001
DBPROPERTIES
1002
{
1000
PbThick
1002
}
  0
ELLIPSE
  5
D1
330
1F
100
AcDbEntity
  8
THICK
100
AcDbEllipse
 10
138.939097388548
 20
-76.4601358082408
 30
0.0
 11
-138.5640646055103
 21
-79.99999999999989
 31
0.0
210
0.0
220
0.0
230
1.0
 40
0.7071067811865475
 41
-2.280952544182832
 42
-1.733420185294637
1001
DBPROPERTIES
1002
{
1000
PbThick
1002
}
  0
ELLIPSE
  5
D2
330
1F
100
AcDbEntity
  8
THICK
100
AcDbEllipse
 10
3.535533905932733
 20
-6.123724356957947
 30
0.0
 11
169.74097914175
 21
97.99999999999986
 31
0.0
210
0.0
220
0.0
230
1.0
 40
0.7071067811865476
 41
0.0
 42
0.3141592653589795
1001
DBPROPERTIES
1002
{
1000
PbThick
1002
}
  0
ELLIPSE
  5
D3
330
1F
100
AcDbEntity
  8
THICK
100
AcDbEllipse
 10
3.535533905932733
 20
-6.123724356957947
 30
0.0
 11
169.74097914175
 21
97.99999999999986
 31
0.0
210
0.0
220
0.0
230
1.0
 40
0.7071067811865476
 41
-0.3141592653589797
 42
0.0
1001
DBPROPERTIES
1002
{
1000
PbThick
1002
}
  0
ELLIPSE
  5
D4
330
1F
100
AcDbEntity
  8
THICK
100
AcDbEllipse
 10
195.4904491922338
 20
23.58713045121183
 30
0.0
 11
138.5640646055103
 21
79.99999999999989
 31
0.0
210
0.0
220
0.0
230
1.0
 40
0.7071067811865475
 41
1.537578863625339
 42
1.570796326794897
1001
DBPROPERTIES
1002
{
1000
PbThick
1002
}
  0
LINE
  5
D5
330
1F
100
AcDbEntity
  8
HIDDEN
100
AcDbLine
 10
93.83163454764608
 20
34.57780152232053
 30
0.0
 11
102.016024982958
 21
39.30306154330085
 31
0.0
1001
DBPROPERTIES
1002
{
1000
PbHidd
1002
}
  0
LINE
  5
D6
330
1F
100
AcDbEntity
  8
HIDDEN
100
AcDbLine
 10
102.016024982958
 20
39.30306154330086
 30
0.0
 11
105.5515588888907
 21
33.17933718634291
 31
0.0
1001
DBPROPERTIES
1002
{
1000
PbHidd
1002
}
  0
ELLIPSE
  5
D7
330
1F
100
AcDbEntity
  8
THICK
100
AcDbEllipse
 10
191.954915286301
 20
29.71085480816978
 30
0.0
 11
-138.5640646055103
 21
-79.99999999999989
 31
0.0
210
0.0
220
0.0
230
1.0
 40
0.7071067811865475
 41
-1.604013789964454
 42
-1.570796326794896
1001
DBPROPERTIES
1002
{
1000
PbThick
1002
}
  0
LINE
  5
D8
330
1F
100
AcDbEntity
  8
THICK
100
AcDbLine
 10
140.0194790970889
 20
130.2933025422138
 30
0.0
 11
143.5550130030217
 21
124.1695781852559
 31
0.0
1001
DBPROPERTIES
1002
{
1000
PbThick
1002
}
  0
LINE
  5
D9
330
1F
100
AcDbEntity
  8
HIDDEN
100
AcDbLine
 10
182.8470494930733
 20
56.11377465163594
 30
0.0
 11
186.3825833990061
 21
49.990050294678
 31
0.0
1001
DBPROPERTIES
1002
{
1000
PbHidd
1002
}
  0
ELLIPSE
  5
DA
330
1F
100
AcDbEntity
  8
HIDDEN
100
AcDbEllipse
 10
0.0000000000000008
 20
0.0000000000000005
 30
0.0
 11
-169.74097914175
 21
-97.99999999999986
 31
0.0
210
0.0
220
0.0
230
1.0
 40
0.7071067811865476
 41
2.827433388230813
 42
3.141592653589793
1001
DBPROPERTIES
1002
{
1000
PbHidd
1002
}
  0
ELLIPSE
  5
DB
330
1F
100
AcDbEntity
  8
THICK
100
AcDbEllipse
 10
0.0000000000000008
 20
0.0000000000000005
 30
0.0
 11
-169.74097914175
 21
-97.99999999999986
 31
0.0
210
0.0
220
0.0
230
1.0
 40
0.7071067811865476
 41
3.141592653589793
 42
3.455751918948772
1001
DBPROPERTIES
1002
{
1000
PbThick
1002
}
  0
ELLIPSE
  5
DC
330
1F
100
AcDbEntity
  8
HIDDEN
100
AcDbEllipse
 10
135.4035634826153
 20
-70.33641145128286
 30
0.0
 11
-138.5640646055103
 21
-79.99999999999989
 31
0.0
210
0.0
220
0.0
230
1.0
 40
0.7071067811865475
 41
-2.280952544182832
 42
-1.733420185294637
1001
DBPROPERTIES
1002
{
1000
PbHidd
1002
}
  0
LINE
  5
DD
330
1F
100
AcDbEntity
  8
THICK
100
AcDbLine
 10
108.0
 20
-24.04163056034264
 30
0.0
 11
97.06698717895802
 21
-24.04163056034264
 31
0.0
1001
DBPROPERTIES
1002
{
1000
PbThick
1002
}
  0
ELLIPSE
  5
DE
330
1F
100
AcDbEntity
  8
THICK
100
AcDbEllipse
 10
82.09472001324241
 20
-135.6859686810187
 30
0.0
 11
-160.0
 21
2.939055249173705E-14
 31
0.0
210
0.0
220
0.0
230
1.0
 40
0.7071067811865476
 41
-2.280952544182833
 42
-1.733420185294637
1001
DBPROPERTIES
1002
{
1000
PbThick
1002
}
  0
ELLIPSE
  5
DF
330
1F
100
AcDbEntity
  8
THICK
100
AcDbEllipse
 10
-0.0000000000000004
 20
-7.071067811865475
 30
0.0
 11
196.0
 21
-3.600342680237789E-14
 31
0.0
210
0.0
220
0.0
230
1.0
 40
0.7071067811865476
 41
0.0
 42
0.3141592653589791
1001
DBPROPERTIES
1002
{
1000
PbThick
1002
}
  0
ELLIPSE
  5
E0
330
1F
100
AcDbEntity
  8
THICK
100
AcDbEllipse
 10
-0.0000000000000004
 20
-7.071067811865475
 30
0.0
 11
196.0
 21
-3.600342680237789E-14
 31
0.0
210
0.0
220
0.0
230
1.0
 40
0.7071067811865476
 41
-0.3141592653589798
 42
0.0
1001
DBPROPERTIES
1002
{
1000
PbThick
1002
}
  0
ELLIPSE
  5
E1
330
1F
100
AcDbEntity
  8
THICK
100
AcDbEllipse
 10
181.0932604233115
 20
-77.31817042298982
 30
0.0
 11
160.0
 21
-2.939055249173705E-14
 31
0.0
210
0.0
220
0.0
230
1.0
 40
0.7071067811865476
 41
1.537578863625339
 42
1.570796326794897
1001
DBPROPERTIES
1002
{
1000
PbThick
1002
}
  0
LINE
  5
E2
330
1F
100
AcDbEntity
  8
HIDDEN
100
AcDbLine
 10
98.54947995803936
 20
-16.97056274847716
 30
0.0
 11
108.0
 21
-16.97056274847716
 31
0.0
1001
DBPROPERTIES
1002
{
1000
PbHidd
1002
}
  0
LINE
  5
E3
330
1F
100
AcDbEntity
  8
HIDDEN
100
AcDbLine
 10
108.0
 20
-16.97056274847716
 30
0.0
 11
108.0
 21
-24.04163056034263
 31
0.0
1001
DBPROPERTIES
1002
{
1000
PbHidd
1002
}
  0
ELLIPSE
  5
E4
330
1F
100
AcDbEntity
  8
THICK
100
AcDbEllipse
 10
181.0932604233115
 20
-70.24710261112435
 30
0.0
 11
-160.0
 21
2.939055249173705E-14
 31
0.0
210
0.0
220
0.0
230
1.0
 40
0.7071067811865476
 41
-1.604013789964454
 42
-1.570796326794897
1001
DBPROPERTIES
1002
{
1000
PbThick
1002
}
  0
LINE
  5
E5
330
1F
100
AcDbEntity
  8
THICK
100
AcDbLine
 10
186.4070771938501
 20
42.82757039598441
 30
0.0
 11
186.4070771938501
 21
35.75650258411894
 31
0.0
1001
DBPROPERTIES
1002
{
1000
PbThick
1002
}
  0
LINE
  5
E6
330
1F
100
AcDbEntity
  8
HIDDEN
100
AcDbLine
 10
186.4070771938501
 20
-42.82757039598453
 30
0.0
 11
186.4070771938501
 21
-49.89863820785
 31
0.0
1001
DBPROPERTIES
1002
{
1000
PbHidd
1002
}
  0
ELLIPSE
  5
E7
330
1F
100
AcDbEntity
  8
HIDDEN
100
AcDbEllipse
 10
0.0000000000000009
 20
0.0
 30
0.0
 11
-196.0
 21
3.600342680237789E-14
 31
0.0
210
0.0
220
0.0
230
1.0
 40
0.7071067811865476
 41
2.827433388230813
 42
3.141592653589793
1001
DBPROPERTIES
1002
{
1000
PbHidd
1002
}
  0
ELLIPSE
  5
E8
330
1F
100
AcDbEntity
  8
THICK
100
AcDbEllipse
 10
0.0000000000000009
 20
0.0
 30
0.0
 11
-196.0
 21
3.600342680237789E-14
 31
0.0
210
0.0
220
0.0
230
1.0
 40
0.7071067811865476
 41
3.141592653589793
 42
3.455751918948772
1001
DBPROPERTIES
1002
{
1000
PbThick
1002
}
  0
ELLIPSE
  5
E9
330
1F
100
AcDbEntity
  8
HIDDEN
100
AcDbEllipse
 10
82.09472001324241
 20
-128.6149008691532
 30
0.0
 11
-160.0
 21
2.939055249173705E-14
 31
0.0
210
0.0
220
0.0
230
1.0
 40
0.7071067811865476
 41
-2.280952544182833
 42
-1.733420185294637
1001
DBPROPERTIES
1002
{
1000
PbHidd
1002
}
  0
LINE
  5
EA
330
1F
100
AcDbEntity
  8
THICK
100
AcDbLine
 10
81.50992832854803
 20
-74.82066281365705
 30
0.0
 11
72.04166148562472
 21
-69.35415640313606
 31
0.0
1001
DBPROPERTIES
1002
{
1000
PbThick
1002
}
  0
ELLIPSE
  5
EB
330
1F
100
AcDbEntity
  8
THICK
100
AcDbEllipse
 10
3.253128707529299
 20
-158.5548558214831
 30
0.0
 11
-138.5640646055101
 21
80.00000000000006
 31
0.0
210
0.0
220
0.0
230
1.0
 40
0.7071067811865476
 41
-2.280952544182832
 42
-1.733420185294637
1001
DBPROPERTIES
1002
{
1000
PbThick
1002
}
  0
ELLIPSE
  5
EC
330
1F
100
AcDbEntity
  8
THICK
100
AcDbEllipse
 10
-3.53553390593274
 20
-6.123724356957943
 30
0.0
 11
169.7409791417498
 21
-98.00000000000006
 31
0.0
210
0.0
220
0.0
230
1.0
 40
0.7071067811865477
 41
0.0
 42
0.3141592653589793
1001
DBPROPERTIES
1002
{
1000
PbThick
1002
}
  0
ELLIPSE
  5
ED
330
1F
100
AcDbEntity
  8
THICK
100
AcDbEllipse
 10
-3.53553390593274
 20
-6.123724356957943
 30
0.0
 11
169.7409791417498
 21
-98.00000000000006
 31
0.0
210
0.0
220
0.0
230
1.0
 40
0.7071067811865477
 41
-0.3141592653589798
 42
0.0
1001
DBPROPERTIES
1002
{
1000
PbThick
1002
}
  0
ELLIPSE
  5
EE
330
1F
100
AcDbEntity
  8
THICK
100
AcDbEllipse
 10
118.1722787692439
 20
-157.5061299720996
 30
0.0
 11
138.5640646055101
 21
-80.00000000000006
 31
0.0
210
0.0
220
0.0
230
1.0
 40
0.7071067811865476
 41
1.537578863625339
 42
1.570796326794896
1001
DBPROPERTIES
1002
{
1000
PbThick
1002
}
  0
LINE
  5
EF
330
1F
100
AcDbEntity
  8
HIDDEN
100
AcDbLine
 10
76.86107179916888
 20
-63.97167843571879
 30
0.0
 11
85.04546223448077
 21
-68.69693845669912
 31
0.0
1001
DBPROPERTIES
1002
{
1000
PbHidd
1002
}
  0
LINE
  5
F0
330
1F
100
AcDbEntity
  8
HIDDEN
100
AcDbLine
 10
85.04546223448077
 20
-68.69693845669912
 30
0.0
 11
81.50992832854803
 21
-74.82066281365705
 31
0.0
1001
DBPROPERTIES
1002
{
1000
PbHidd
1002
}
  0
ELLIPSE
  5
F1
330
1F
100
AcDbEntity
  8
THICK
100
AcDbEllipse
 10
121.7078126751766
 20
-151.3824056151416
 30
0.0
 11
-138.5640646055101
 21
80.00000000000006
 31
0.0
210
0.0
220
0.0
230
1.0
 40
0.7071067811865476
 41
-1.604013789964454
 42
-1.570796326794897
1001
DBPROPERTIES
1002
{
1000
PbThick
1002
}
  0
LINE
  5
F2
330
1F
100
AcDbEntity
  8
THICK
100
AcDbLine
 10
182.8470494930733
 20
-56.11377465163626
 30
0.0
 11
179.3115155871405
 21
-62.23749900859419
 31
0.0
1001
DBPROPERTIES
1002
{
1000
PbThick
1002
}
  0
LINE
  5
F3
330
1F
100
AcDbEntity
  8
HIDDEN
100
AcDbLine
 10
140.0194790970887
 20
-130.293302542214
 30
0.0
 11
136.483945191156
 21
-136.417026899172
 31
0.0
1001
DBPROPERTIES
1002
{
1000
PbHidd
1002
}
  0
ELLIPSE
  5
F4
330
1F
100
AcDbEntity
  8
HIDDEN
100
AcDbEllipse
 10
0.0000000000000008
 20
-0.0000000000000005
 30
0.0
 11
-169.7409791417498
 21
98.00000000000006
 31
0.0
210
0.0
220
0.0
230
1.0
 40
0.7071067811865477
 41
2.827433388230813
 42
3.141592653589793
1001
DBPROPERTIES
1002
{
1000
PbHidd
1002
}
  0
ELLIPSE
  5
F5
330
1F
100
AcDbEntity
  8
THICK
100
AcDbEllipse
 10
0.0000000000000008
 20
-0.0000000000000005
 30
0.0
 11
-169.7409791417498
 21
98.00000000000006
 31
0.0
210
0.0
220
0.0
230
1.0
 40
0.7071067811865477
 41
3.141592653589793
 42
3.455751918948772
1001
DBPROPERTIES
1002
{
1000
PbThick
1002
}
  0
ELLIPSE
  5
F6
330
1F
100
AcDbEntity
  8
HIDDEN
100
AcDbEllipse
 10
6.788662613462037
 20
-152.4311314645252
 30
0.0
 11
-138.5640646055101
 21
80.00000000000006
 31
0.0
210
0.0
220
0.0
230
1.0
 40
0.7071067811865476
 41
-2.280952544182832
 42
-1.733420185294637
1001
DBPROPERTIES
1002
{
1000
PbHidd
1002
}
  0
LINE
  5
F7
330
1F
100
AcDbEntity
  8
THICK
100
AcDbLine
 10
33.17933718634294
 20
-105.5515588888907
 30
0.0
 11
27.71283077582196
 21
-96.08329204596737
 31
0.0
1001
DBPROPERTIES
1002
{
1000
PbThick
1002
}
  0
ELLIPSE
  5
F8
330
1F
100
AcDbEntity
  8
THICK
100
AcDbEllipse
 10
-76.46013580824074
 20
-138.939097388548
 30
0.0
 11
-79.99999999999993
 21
138.5640646055102
 31
0.0
210
0.0
220
0.0
230
1.0
 40
0.7071067811865476
 41
-2.280952544182833
 42
-1.733420185294637
1001
DBPROPERTIES
1002
{
1000
PbThick
1002
}
  0
ELLIPSE
  5
F9
330
1F
100
AcDbEntity
  8
THICK
100
AcDbEllipse
 10
-6.123724356957945
 20
-3.535533905932736
 30
0.0
 11
97.99999999999991
 21
-169.74097914175
 31
0.0
210
0.0
220
0.0
230
1.0
 40
0.7071067811865476
 41
0.0
 42
0.3141592653589794
1001
DBPROPERTIES
1002
{
1000
PbThick
1002
}
  0
ELLIPSE
  5
FA
330
1F
100
AcDbEntity
  8
THICK
100
AcDbEllipse
 10
-6.123724356957945
 20
-3.535533905932736
 30
0.0
 11
97.99999999999991
 21
-169.74097914175
 31
0.0
210
0.0
220
0.0
230
1.0
 40
0.7071067811865476
 41
-0.3141592653589798
 42
0.0
1001
DBPROPERTIES
1002
{
1000
PbThick
1002
}
  0
ELLIPSE
  5
FB
330
1F
100
AcDbEntity
  8
THICK
100
AcDbEllipse
 10
23.58713045121191
 20
-195.4904491922337
 30
0.0
 11
79.99999999999993
 21
-138.5640646055102
 31
0.0
210
0.0
220
0.0
230
1.0
 40
0.7071067811865476
 41
1.537578863625339
 42
1.570796326794897
1001
DBPROPERTIES
1002
{
1000
PbThick
1002
}
  0
LINE
  5
FC
330
1F
100
AcDbEntity
  8
HIDDEN
100
AcDbLine
 10
34.57780152232058
 20
-93.83163454764608
 30
0.0
 11
39.30306154330088
 21
-102.016024982958
 31
0.0
1001
DBPROPERTIES
1002
{
1000
PbHidd
1002
}
  0
LINE
  5
FD
330
1F
100
AcDbEntity
  8
HIDDEN
100
AcDbLine
 10
39.30306154330089
 20
-102.016024982958
 30
0.0
 11
33.17933718634295
 21
-105.5515588888907
 31
0.0
1001
DBPROPERTIES
1002
{
1000
PbHidd
1002
}
  0
ELLIPSE
  5
FE
330
1F
100
AcDbEntity
  8
THICK
100
AcDbEllipse
 10
29.71085480816985
 20
-191.954915286301
 30
0.0
 11
-79.99999999999993
 21
138.5640646055102
 31
0.0
210
0.0
220
0.0
230
1.0
 40
0.7071067811865476
 41
-1.604013789964454
 42
-1.570796326794897
1001
DBPROPERTIES
1002
{
1000
PbThick
1002
}
  0
LINE
  5
FF
330
1F
100
AcDbEntity
  8
THICK
100
AcDbLine
 10
130.2933025422139
 20
-140.0194790970889
 30
0.0
 11
124.169578185256
 21
-143.5550130030216
 31
0.0
1001
DBPROPERTIES
1002
{
1000
PbThick
1002
}
  0
LINE
  5
100
330
1F
100
AcDbEntity
  8
HIDDEN
100
AcDbLine
 10
56.11377465163602
 20
-182.8470494930733
 30
0.0
 11
49.99005029467808
 21
-186.382583399006
 31
0.0
1001
DBPROPERTIES
1002
{
1000
PbHidd
1002
}
  0
ELLIPSE
  5
101
330
1F
100
AcDbEntity
  8
HIDDEN
100
AcDbEllipse
 10
0.0000000000000005
 20
-0.0000000000000008
 30
0.0
 11
-97.99999999999991
 21
169.74097914175
 31
0.0
210
0.0
220
0.0
230
1.0
 40
0.7071067811865476
 41
2.827433388230813
 42
3.141592653589793
1001
DBPROPERTIES
1002
{
1000
PbHidd
1002
}
  0
ELLIPSE
  5
102
330
1F
100
AcDbEntity
  8
THICK
100
AcDbEllipse
 10
0.0000000000000005
 20
-0.0000000000000008
 30
0.0
 11
-97.99999999999991
 21
169.74097914175
 31
0.0
210
0.0
220
0.0
230
1.0
 40
0.7071067811865476
 41
3.141592653589793
 42
3.455751918948772
1001
DBPROPERTIES
1002
{
1000
PbThick
1002
}
  0
ELLIPSE
  5
103
330
1F
100
AcDbEntity
  8
HIDDEN
100
AcDbEllipse
 10
-70.3364114512828
 20
-135.4035634826153
 30
0.0
 11
-79.99999999999993
 21
138.5640646055102
 31
0.0
210
0.0
220
0.0
230
1.0
 40
0.7071067811865476
 41
-2.280952544182833
 42
-1.733420185294637
1001
DBPROPERTIES
1002
{
1000
PbHidd
1002
}
  0
LINE
  5
104
330
1F
100
AcDbEntity
  8
THICK
100
AcDbLine
 10
-24.04163056034263
 20
-108.0
 30
0.0
 11
-24.04163056034263
 21
-97.06698717895802
 31
0.0
1001
DBPROPERTIES
1002
{
1000
PbThick
1002
}
  0
ELLIPSE
  5
105
330
1F
100
AcDbEntity
  8
THICK
100
AcDbEllipse
 10
-135.6859686810187
 20
-82.09472001324242
 30
0.0
 11
1.959370166115804E-14
 21
160.0
 31
0.0
210
0.0
220
0.0
230
1.0
 40
0.7071067811865476
 41
-2.280952544182832
 42
-1.733420185294637
1001
DBPROPERTIES
1002
{
1000
PbThick
1002
}
  0
ELLIPSE
  5
106
330
1F
100
AcDbEntity
  8
THICK
100
AcDbEllipse
 10
-7.071067811865475
 20
-0.0000000000000001
 30
0.0
 11
-2.400228453491859E-14
 21
-196.0
 31
0.0
210
0.0
220
0.0
230
1.0
 40
0.7071067811865476
 41
0.0
 42
0.3141592653589791
1001
DBPROPERTIES
1002
{
1000
PbThick
1002
}
  0
ELLIPSE
  5
107
330
1F
100
AcDbEntity
  8
THICK
100
AcDbEllipse
 10
-7.071067811865475
 20
-0.0000000000000001
 30
0.0
 11
-2.400228453491859E-14
 21
-196.0
 31
0.0
210
0.0
220
0.0
230
1.0
 40
0.7071067811865476
 41
-0.3141592653589798
 42
0.0
1001
DBPROPERTIES
1002
{
1000
PbThick
1002
}
  0
ELLIPSE
  5
108
330
1F
100
AcDbEntity
  8
THICK
100
AcDbEllipse
 10
-77.31817042298982
 20
-181.0932604233115
 30
0.0
 11
-1.959370166115804E-14
 21
-160.0
 31
0.0
210
0.0
220
0.0
230
1.0
 40
0.7071067811865476
 41
1.537578863625339
 42
1.570796326794897
1001
DBPROPERTIES
1002
{
1000
PbThick
1002
}
  0
LINE
  5
109
330
1F
100
AcDbEntity
  8
HIDDEN
100
AcDbLine
 10
-16.97056274847716
 20
-98.54947995803936
 30
0.0
 11
-16.97056274847716
 21
-108.0
 31
0.0
1001
DBPROPERTIES
1002
{
1000
PbHidd
1002
}
  0
LINE
  5
10A
330
1F
100
AcDbEntity
  8
HIDDEN
100
AcDbLine
 10
-16.97056274847716
 20
-108.0
 30
0.0
 11
-24.04163056034263
 21
-108.0
 31
0.0
1001
DBPROPERTIES
1002
{
1000
PbHidd
1002
}
  0
ELLIPSE
  5
10B
330
1F
100
AcDbEntity
  8
THICK
100
AcDbEllipse
 10
-70.24710261112435
 20
-181.0932604233115
 30
0.0
 11
1.959370166115804E-14
 21
160.0
 31
0.0
210
0.0
220
0.0
230
1.0
 40
0.7071067811865476
 41
-1.604013789964454
 42
-1.570796326794896
1001
DBPROPERTIES
1002
{
1000
PbThick
1002
}
  0
LINE
  5
10C
330
1F
100
AcDbEntity
  8
THICK
100
AcDbLine
 10
42.82757039598442
 20
-186.4070771938501
 30
0.0
 11
35.75650258411896
 21
-186.4070771938501
 31
0.0
1001
DBPROPERTIES
1002
{
1000
PbThick
1002
}
  0
LINE
  5
10D
330
1F
100
AcDbEntity
  8
HIDDEN
100
AcDbLine
 10
-42.82757039598452
 20
-186.4070771938501
 30
0.0
 11
-49.89863820784998
 21
-186.4070771938501
 31
0.0
1001
DBPROPERTIES
1002
{
1000
PbHidd
1002
}
  0
ELLIPSE
  5
10E
330
1F
100
AcDbEntity
  8
HIDDEN
100
AcDbEllipse
 10
0.0
 20
-0.0000000000000009
 30
0.0
 11
2.400228453491859E-14
 21
196.0
 31
0.0
210
0.0
220
0.0
230
1.0
 40
0.7071067811865476
 41
2.827433388230813
 42
3.141592653589793
1001
DBPROPERTIES
1002
{
1000
PbHidd
1002
}
  0
ELLIPSE
  5
10F
330
1F
100
AcDbEntity
  8
THICK
100
AcDbEllipse
 10
0.0
 20
-0.0000000000000009
 30
0.0
 11
2.400228453491859E-14
 21
196.0
 31
0.0
210
0.0
220
0.0
230
1.0
 40
0.7071067811865476
 41
3.141592653589793
 42
3.455751918948772
1001
DBPROPERTIES
1002
{
1000
PbThick
1002
}
  0
ELLIPSE
  5
110
330
1F
100
AcDbEntity
  8
HIDDEN
100
AcDbEllipse
 10
-128.6149008691532
 20
-82.09472001324242
 30
0.0
 11
1.959370166115804E-14
 21
160.0
 31
0.0
210
0.0
220
0.0
230
1.0
 40
0.7071067811865476
 41
-2.280952544182832
 42
-1.733420185294637
1001
DBPROPERTIES
1002
{
1000
PbHidd
1002
}
  0
LINE
  5
111
330
1F
100
AcDbEntity
  8
THICK
100
AcDbLine
 10
-74.82066281365701
 20
-81.50992832854797
 30
0.0
 11
-69.35415640313602
 21
-72.04166148562464
 31
0.0
1001
DBPROPERTIES
1002
{
1000
PbThick
1002
}
  0
ELLIPSE
  5
112
330
1F
100
AcDbEntity
  8
THICK
100
AcDbEllipse
 10
-158.5548558214831
 20
-3.253128707529328
 30
0.0
 11
80.00000000000006
 21
138.5640646055102
 31
0.0
210
0.0
220
0.0
230
1.0
 40
0.7071067811865475
 41
-2.280952544182833
 42
-1.733420185294637
1001
DBPROPERTIES
1002
{
1000
PbThick
1002
}
  0
ELLIPSE
  5
113
330
1F
100
AcDbEntity
  8
THICK
100
AcDbEllipse
 10
-6.123724356957943
 20
3.535533905932738
 30
0.0
 11
-98.00000000000007
 21
-169.7409791417499
 31
0.0
210
0.0
220
0.0
230
1.0
 40
0.7071067811865474
 41
0.0
 42
0.3141592653589791
1001
DBPROPERTIES
1002
{
1000
PbThick
1002
}
  0
ELLIPSE
  5
114
330
1F
100
AcDbEntity
  8
THICK
100
AcDbEllipse
 10
-6.123724356957943
 20
3.535533905932738
 30
0.0
 11
-98.00000000000007
 21
-169.7409791417499
 31
0.0
210
0.0
220
0.0
230
1.0
 40
0.7071067811865474
 41
-0.3141592653589799
 42
0.0
1001
DBPROPERTIES
1002
{
1000
PbThick
1002
}
  0
ELLIPSE
  5
115
330
1F
100
AcDbEntity
  8
THICK
100
AcDbEllipse
 10
-157.5061299720996
 20
-118.1722787692439
 30
0.0
 11
-80.00000000000006
 21
-138.5640646055102
 31
0.0
210
0.0
220
0.0
230
1.0
 40
0.7071067811865475
 41
1.537578863625339
 42
1.570796326794897
1001
DBPROPERTIES
1002
{
1000
PbThick
1002
}
  0
LINE
  5
116
330
1F
100
AcDbEntity
  8
HIDDEN
100
AcDbLine
 10
-63.97167843571876
 20
-76.86107179916885
 30
0.0
 11
-68.69693845669906
 21
-85.04546223448072
 31
0.0
1001
DBPROPERTIES
1002
{
1000
PbHidd
1002
}
  0
LINE
  5
117
330
1F
100
AcDbEntity
  8
HIDDEN
100
AcDbLine
 10
-68.69693845669909
 20
-85.04546223448077
 30
0.0
 11
-74.82066281365702
 21
-81.50992832854803
 31
0.0
1001
DBPROPERTIES
1002
{
1000
PbHidd
1002
}
  0
ELLIPSE
  5
118
330
1F
100
AcDbEntity
  8
THICK
100
AcDbEllipse
 10
-151.3824056151416
 20
-121.7078126751766
 30
0.0
 11
80.00000000000006
 21
138.5640646055102
 31
0.0
210
0.0
220
0.0
230
1.0
 40
0.7071067811865475
 41
-1.604013789964454
 42
-1.570796326794896
1001
DBPROPERTIES
1002
{
1000
PbThick
1002
}
  0
LINE
  5
119
330
1F
100
AcDbEntity
  8
THICK
100
AcDbLine
 10
-56.11377465163621
 20
-182.8470494930733
 30
0.0
 11
-62.23749900859415
 21
-179.3115155871405
 31
0.0
1001
DBPROPERTIES
1002
{
1000
PbThick
1002
}
  0
LINE
  5
11A
330
1F
100
AcDbEntity
  8
HIDDEN
100
AcDbLine
 10
-130.293302542214
 20
-140.0194790970887
 30
0.0
 11
-136.417026899172
 21
-136.483945191156
 31
0.0
1001
DBPROPERTIES
1002
{
1000
PbHidd
1002
}
  0
ELLIPSE
  5
11B
330
1F
100
AcDbEntity
  8
HIDDEN
100
AcDbEllipse
 10
-0.0000000000000005
 20
-0.0000000000000008
 30
0.0
 11
98.00000000000007
 21
169.7409791417499
 31
0.0
210
0.0
220
0.0
230
1.0
 40
0.7071067811865474
 41
2.827433388230813
 42
3.141592653589793
1001
DBPROPERTIES
1002
{
1000
PbHidd
1002
}
  0
ELLIPSE
  5
11C
330
1F
100
AcDbEntity
  8
THICK
100
AcDbEllipse
 10
-0.0000000000000005
 20
-0.0000000000000008
 30
0.0
 11
98.00000000000007
 21
169.7409791417499
 31
0.0
210
0.0
220
0.0
230
1.0
 40
0.7071067811865474
 41
3.141592653589793
 42
3.455751918948772
1001
DBPROPERTIES
1002
{
1000
PbThick
1002
}
  0
ELLIPSE
  5
11D
330
1F
100
AcDbEntity
  8
HIDDEN
100
AcDbEllipse
 10
-152.4311314645252
 20
-6.788662613462066
 30
0.0
 11
80.00000000000006
 21
138.5640646055102
 31
0.0
210
0.0
220
0.0
230
1.0
 40
0.7071067811865475
 41
-2.280952544182832
 42
-1.733420185294637
1001
DBPROPERTIES
1002
{
1000
PbHidd
1002
}
  0
LINE
  5
11E
330
1F
100
AcDbEntity
  8
THICK
100
AcDbLine
 10
-105.5515588888906
 20
-33.17933718634292
 30
0.0
 11
-96.0832920459673
 21
-27.71283077582194
 31
0.0
1001
DBPROPERTIES
1002
{
1000
PbThick
1002
}
  0
ELLIPSE
  5
11F
330
1F
100
AcDbEntity
  8
THICK
100
AcDbEllipse
 10
-138.939097388548
 20
76.4601358082407
 30
0.0
 11
138.5640646055102
 21
79.99999999999997
 31
0.0
210
0.0
220
0.0
230
1.0
 40
0.7071067811865475
 41
-2.280952544182832
 42
-1.733420185294637
1001
DBPROPERTIES
1002
{
1000
PbThick
1002
}
  0
ELLIPSE
  5
120
330
1F
100
AcDbEntity
  8
THICK
100
AcDbEllipse
 10
-3.535533905932736
 20
6.123724356957943
 30
0.0
 11
-169.74097914175
 21
-97.99999999999996
 31
0.0
210
0.0
220
0.0
230
1.0
 40
0.7071067811865476
 41
0.0
 42
0.3141592653589794
1001
DBPROPERTIES
1002
{
1000
PbThick
1002
}
  0
ELLIPSE
  5
121
330
1F
100
AcDbEntity
  8
THICK
100
AcDbEllipse
 10
-3.535533905932736
 20
6.123724356957943
 30
0.0
 11
-169.74097914175
 21
-97.99999999999996
 31
0.0
210
0.0
220
0.0
230
1.0
 40
0.7071067811865476
 41
-0.3141592653589797
 42
0.0
1001
DBPROPERTIES
1002
{
1000
PbThick
1002
}
  0
ELLIPSE
  5
122
330
1F
100
AcDbEntity
  8
THICK
100
AcDbEllipse
 10
-195.4904491922337
 20
-23.58713045121193
 30
0.0
 11
-138.5640646055102
 21
-79.99999999999997
 31
0.0
210
0.0
220
0.0
230
1.0
 40
0.7071067811865475
 41
1.537578863625339
 42
1.570796326794897
1001
DBPROPERTIES
1002
{
1000
PbThick
1002
}
  0
LINE
  5
123
330
1F
100
AcDbEntity
  8
HIDDEN
100
AcDbLine
 10
-93.83163454764599
 20
-34.57780152232056
 30
0.0
 11
-102.0160249829579
 21
-39.30306154330087
 31
0.0
1001
DBPROPERTIES
1002
{
1000
PbHidd
1002
}
  0
LINE
  5
124
330
1F
100
AcDbEntity
  8
HIDDEN
100
AcDbLine
 10
-102.0160249829579
 20
-39.30306154330091
 30
0.0
 11
-105.5515588888907
 21
-33.17933718634297
 31
0.0
1001
DBPROPERTIES
1002
{
1000
PbHidd
1002
}
  0
ELLIPSE
  5
125
330
1F
100
AcDbEntity
  8
THICK
100
AcDbEllipse
 10
-191.954915286301
 20
-29.71085480816988
 30
0.0
 11
138.5640646055102
 21
79.99999999999997
 31
0.0
210
0.0
220
0.0
230
1.0
 40
0.7071067811865475
 41
-1.604013789964454
 42
-1.570796326794896
1001
DBPROPERTIES
1002
{
1000
PbThick
1002
}
  0
LINE
  5
126
330
1F
100
AcDbEntity
  8
THICK
100
AcDbLine
 10
-140.0194790970889
 20
-130.2933025422139
 30
0.0
 11
-143.5550130030216
 21
-124.169578185256
 31
0.0
1001
DBPROPERTIES
1002
{
1000
PbThick
1002
}
  0
LINE
  5
127
330
1F
100
AcDbEntity
  8
HIDDEN
100
AcDbLine
 10
-182.8470494930733
 20
-56.11377465163604
 30
0.0
 11
-186.382583399006
 21
-49.9900502946781
 31
0.0
1001
DBPROPERTIES
1002
{
1000
PbHidd
1002
}
  0
ELLIPSE
  5
128
330
1F
100
AcDbEntity
  8
HIDDEN
100
AcDbEllipse
 10
-0.0000000000000008
 20
-0.0000000000000005
 30
0.0
 11
169.74097914175
 21
97.99999999999996
 31
0.0
210
0.0
220
0.0
230
1.0
 40
0.7071067811865476
 41
2.827433388230813
 42
3.141592653589793
1001
DBPROPERTIES
1002
{
1000
PbHidd
1002
}
  0
ELLIPSE
  5
129
330
1F
100
AcDbEntity
  8
THICK
100
AcDbEllipse
 10
-0.0000000000000008
 20
-0.0000000000000005
 30
0.0
 11
169.74097914175
 21
97.99999999999996
 31
0.0
210
0.0
220
0.0
230
1.0
 40
0.7071067811865476
 41
3.141592653589793
 42
3.455751918948772
1001
DBPROPERTIES
1002
{
1000
PbThick
1002
}
  0
ELLIPSE
  5
12A
330
1F
100
AcDbEntity
  8
HIDDEN
100
AcDbEllipse
 10
-135.4035634826153
 20
70.33641145128277
 30
0.0
 11
138.5640646055102
 21
79.99999999999997
 31
0.0
210
0.0
220
0.0
230
1.0
 40
0.7071067811865475
 41
-2.280952544182832
 42
-1.733420185294637
1001
DBPROPERTIES
1002
{
1000
PbHidd
1002
}
  0
LINE
  5
12B
330
1F
100
AcDbEntity
  8
THICK
100
AcDbLine
 10
-108.0
 20
24.04163056034263
 30
0.0
 11
-97.06698717895802
 21
24.04163056034263
 31
0.0
1001
DBPROPERTIES
1002
{
1000
PbThick
1002
}
  0
ELLIPSE
  5
12C
330
1F
100
AcDbEntity
  8
THICK
100
AcDbEllipse
 10
-82.09472001324242
 20
135.6859686810187
 30
0.0
 11
160.0
 21
-9.796850830579018E-15
 31
0.0
210
0.0
220
0.0
230
1.0
 40
0.7071067811865476
 41
-2.280952544182833
 42
-1.733420185294637
1001
DBPROPERTIES
1002
{
1000
PbThick
1002
}
  0
ELLIPSE
  5
12D
330
1F
100
AcDbEntity
  8
THICK
100
AcDbEllipse
 10
-0.0000000000000005
 20
7.071067811865475
 30
0.0
 11
-196.0
 21
1.200114226745930E-14
 31
0.0
210
0.0
220
0.0
230
1.0
 40
0.7071067811865476
 41
0.0
 42
0.3141592653589791
1001
DBPROPERTIES
1002
{
1000
PbThick
1002
}
  0
ELLIPSE
  5
12E
330
1F
100
AcDbEntity
  8
THICK
100
AcDbEllipse
 10
-0.0000000000000005
 20
7.071067811865475
 30
0.0
 11
-196.0
 21
1.200114226745930E-14
 31
0.0
210
0.0
220
0.0
230
1.0
 40
0.7071067811865476
 41
-0.3141592653589798
 42
0.0
1001
DBPROPERTIES
1002
{
1000
PbThick
1002
}
  0
ELLIPSE
  5
12F
330
1F
100
AcDbEntity
  8
THICK
100
AcDbEllipse
 10
-181.0932604233115
 20
77.31817042298981
 30
0.0
 11
-160.0
 21
9.796850830579018E-15
 31
0.0
210
0.0
220
0.0
230
1.0
 40
0.7071067811865476
 41
1.537578863625339
 42
1.570796326794897
1001
DBPROPERTIES
1002
{
1000
PbThick
1002
}
  0
LINE
  5
130
330
1F
100
AcDbEntity
  8
HIDDEN
100
AcDbLine
 10
-98.54947995803936
 20
16.97056274847715
 30
0.0
 11
-108.0
 21
16.97056274847715
 31
0.0
1001
DBPROPERTIES
1002
{
1000
PbHidd
1002
}
  0
LINE
  5
131
330
1F
100
AcDbEntity
  8
HIDDEN
100
AcDbLine
 10
-108.0
 20
16.97056274847715
 30
0.0
 11
-108.0
 21
24.04163056034262
 31
0.0
1001
DBPROPERTIES
1002
{
1000
PbHidd
1002
}
  0
ELLIPSE
  5
132
330
1F
100
AcDbEntity
  8
THICK
100
AcDbEllipse
 10
-181.0932604233115
 20
70.24710261112433
 30
0.0
 11
160.0
 21
-9.796850830579018E-15
 31
0.0
210
0.0
220
0.0
230
1.0
 40
0.7071067811865476
 41
-1.604013789964454
 42
-1.570796326794896
1001
DBPROPERTIES
1002
{
1000
PbThick
1002
}
  0
LINE
  5
133
330
1F
100
AcDbEntity
  8
THICK
100
AcDbLine
 10
-186.4070771938501
 20
-42.82757039598443
 30
0.0
 11
-186.4070771938501
 21
-35.75650258411896
 31
0.0
1001
DBPROPERTIES
1002
{
1000
PbThick
1002
}
  0
LINE
  5
134
330
1F
100
AcDbEntity
  8
HIDDEN
100
AcDbLine
 10
-186.4070771938501
 20
42.82757039598451
 30
0.0
 11
-186.4070771938501
 21
49.89863820784998
 31
0.0
1001
DBPROPERTIES
1002
{
1000
PbHidd
1002
}
  0
ELLIPSE
  5
135
330
1F
100
AcDbEntity
  8
HIDDEN
100
AcDbEllipse
 10
-0.0000000000000009
 20
0.0
 30
0.0
 11
196.0
 21
-1.200114226745930E-14
 31
0.0
210
0.0
220
0.0
230
1.0
 40
0.7071067811865476
 41
2.827433388230813
 42
3.141592653589793
1001
DBPROPERTIES
1002
{
1000
PbHidd
1002
}
  0
ELLIPSE
  5
136
330
1F
100
AcDbEntity
  8
THICK
100
AcDbEllipse
 10
-0.0000000000000009
 20
0.0
 30
0.0
 11
196.0
 21
-1.200114226745930E-14
 31
0.0
210
0.0
220
0.0
230
1.0
 40
0.7071067811865476
 41
3.141592653589793
 42
3.455751918948772
1001
DBPROPERTIES
1002
{
1000
PbThick
1002
}
  0
ELLIPSE
  5
137
330
1F
100
AcDbEntity
  8
HIDDEN
100
AcDbEllipse
 10
-82.09472001324242
 20
128.6149008691532
 30
0.0
 11
160.0
 21
-9.796850830579018E-15
 31
0.0
210
0.0
220
0.0
230
1.0
 40
0.7071067811865476
 41
-2.280952544182833
 42
-1.733420185294637
1001
DBPROPERTIES
1002
{
1000
PbHidd
1002
}
  0
LINE
  5
138
330
1F
100
AcDbEntity
  8
THICK
100
AcDbLine
 10
-81.50992832854799
 20
74.82066281365697
 30
0.0
 11
-72.04166148562466
 21
69.35415640313599
 31
0.0
1001
DBPROPERTIES
1002
{
1000
PbThick
1002
}
  0
ELLIPSE
  5
139
330
1F
100
AcDbEntity
  8
THICK
100
AcDbEllipse
 10
-3.25312870752937
 20
158.5548558214831
 30
0.0
 11
138.5640646055102
 21
-80.00000000000001
 31
0.0
210
0.0
220
0.0
230
1.0
 40
0.7071067811865476
 41
-2.280952544182832
 42
-1.733420185294637
1001
DBPROPERTIES
1002
{
1000
PbThick
1002
}
  0
ELLIPSE
  5
13A
330
1F
100
AcDbEntity
  8
THICK
100
AcDbEllipse
 10
3.535533905932736
 20
6.123724356957945
 30
0.0
 11
-169.74097914175
 21
98.00000000000003
 31
0.0
210
0.0
220
0.0
230
1.0
 40
0.7071067811865476
 41
0.0
 42
0.3141592653589791
1001
DBPROPERTIES
1002
{
1000
PbThick
1002
}
  0
ELLIPSE
  5
13B
330
1F
100
AcDbEntity
  8
THICK
100
AcDbEllipse
 10
3.535533905932736
 20
6.123724356957945
 30
0.0
 11
-169.74097914175
 21
98.00000000000003
 31
0.0
210
0.0
220
0.0
230
1.0
 40
0.7071067811865476
 41
-0.31415926535898
 42
0.0
1001
DBPROPERTIES
1002
{
1000
PbThick
1002
}
  0
ELLIPSE
  5
13C
330
1F
100
AcDbEntity
  8
THICK
100
AcDbEllipse
 10
-118.1722787692439
 20
157.5061299720995
 30
0.0
 11
-138.5640646055102
 21
80.00000000000001
 31
0.0
210
0.0
220
0.0
230
1.0
 40
0.7071067811865476
 41
1.537578863625339
 42
1.570796326794897
1001
DBPROPERTIES
1002
{
1000
PbThick
1002
}
  0
LINE
  5
13D
330
1F
100
AcDbEntity
  8
HIDDEN
100
AcDbLine
 10
-76.86107179916884
 20
63.97167843571872
 30
0.0
 11
-85.04546223448072
 21
68.69693845669903
 31
0.0
1001
DBPROPERTIES
1002
{
1000
PbHidd
1002
}
  0
LINE
  5
13E
330
1F
100
AcDbEntity
  8
HIDDEN
100
AcDbLine
 10
-85.0454622344808
 20
68.69693845669907
 30
0.0
 11
-81.50992832854806
 21
74.82066281365701
 31
0.0
1001
DBPROPERTIES
1002
{
1000
PbHidd
1002
}
  0
ELLIPSE
  5
13F
330
1F
100
AcDbEntity
  8
THICK
100
AcDbEllipse
 10
-121.7078126751767
 20
151.3824056151416
 30
0.0
 11
138.5640646055102
 21
-80.00000000000001
 31
0.0
210
0.0
220
0.0
230
1.0
 40
0.7071067811865476
 41
-1.604013789964454
 42
-1.570796326794897
1001
DBPROPERTIES
1002
{
1000
PbThick
1002
}
  0
LINE
  5
140
330
1F
100
AcDbEntity
  8
THICK
100
AcDbLine
 10
-182.8470494930733
 20
56.11377465163616
 30
0.0
 11
-179.3115155871405
 21
62.2374990085941
 31
0.0
1001
DBPROPERTIES
1002
{
1000
PbThick
1002
}
  0
LINE
  5
141
330
1F
100
AcDbEntity
  8
HIDDEN
100
AcDbLine
 10
-140.0194790970888
 20
130.293302542214
 30
0.0
 11
-136.483945191156
 21
136.4170268991719
 31
0.0
1001
DBPROPERTIES
1002
{
1000
PbHidd
1002
}
  0
ELLIPSE
  5
142
330
1F
100
AcDbEntity
  8
HIDDEN
100
AcDbEllipse
 10
-0.0000000000000008
 20
0.0000000000000005
 30
0.0
 11
169.74097914175
 21
-98.00000000000003
 31
0.0
210
0.0
220
0.0
230
1.0
 40
0.7071067811865476
 41
2.827433388230813
 42
3.141592653589793
1001
DBPROPERTIES
1002
{
1000
PbHidd
1002
}
  0
ELLIPSE
  5
143
330
1F
100
AcDbEntity
  8
THICK
100
AcDbEllipse
 10
-0.0000000000000008
 20
0.0000000000000005
 30
0.0
 11
169.74097914175
 21
-98.00000000000003
 31
0.0
210
0.0
220
0.0
230
1.0
 40
0.7071067811865476
 41
3.141592653589793
 42
3.455751918948772
1001
DBPROPERTIES
1002
{
1000
PbThick
1002
}
  0
ELLIPSE
  5
144
330
1F
100
AcDbEntity
  8
HIDDEN
100
AcDbEllipse
 10
-6.788662613462108
 20
152.4311314645252
 30
0.0
 11
138.5640646055102
 21
-80.00000000000001
 31
0.0
210
0.0
220
0.0
230
1.0
 40
0.7071067811865476
 41
-2.280952544182832
 42
-1.733420185294637
1001
DBPROPERTIES
1002
{
1000
PbHidd
1002
}
  0
LINE
  5
145
330
1F
100
AcDbEntity
  8
THICK
100
AcDbLine
 10
-33.17933718634295
 20
105.5515588888906
 30
0.0
 11
-27.71283077582195
 21
96.0832920459673
 31
0.0
1001
DBPROPERTIES
1002
{
1000
PbThick
1002
}
  0
ELLIPSE
  5
146
330
1F
100
AcDbEntity
  8
THICK
100
AcDbEllipse
 10
76.4601358082407
 20
138.939097388548
 30
0.0
 11
79.99999999999999
 21
-138.5640646055102
 31
0.0
210
0.0
220
0.0
230
1.0
 40
0.7071067811865476
 41
-2.280952544182833
 42
-1.733420185294637
1001
DBPROPERTIES
1002
{
1000
PbThick
1002
}
  0
ELLIPSE
  5
147
330
1F
100
AcDbEntity
  8
THICK
100
AcDbEllipse
 10
6.123724356957943
 20
3.535533905932737
 30
0.0
 11
-97.99999999999999
 21
169.74097914175
 31
0.0
210
0.0
220
0.0
230
1.0
 40
0.7071067811865476
 41
0.0
 42
0.3141592653589791
1001
DBPROPERTIES
1002
{
1000
PbThick
1002
}
  0
ELLIPSE
  5
148
330
1F
100
AcDbEntity
  8
THICK
100
AcDbEllipse
 10
6.123724356957943
 20
3.535533905932737
 30
0.0
 11
-97.99999999999999
 21
169.74097914175
 31
0.0
210
0.0
220
0.0
230
1.0
 40
0.7071067811865476
 41
-0.3141592653589799
 42
0.0
1001
DBPROPERTIES
1002
{
1000
PbThick
1002
}
  0
ELLIPSE
  5
149
330
1F
100
AcDbEntity
  8
THICK
100
AcDbEllipse
 10
-23.58713045121196
 20
195.4904491922337
 30
0.0
 11
-79.99999999999999
 21
138.5640646055102
 31
0.0
210
0.0
220
0.0
230
1.0
 40
0.7071067811865476
 41
1.537578863625339
 42
1.570796326794897
1001
DBPROPERTIES
1002
{
1000
PbThick
1002
}
  0
LINE
  5
14A
330
1F
100
AcDbEntity
  8
HIDDEN
100
AcDbLine
 10
-34.57780152232057
 20
93.83163454764599
 30
0.0
 11
-39.30306154330089
 21
102.0160249829579
 31
0.0
1001
DBPROPERTIES
1002
{
1000
PbHidd
1002
}
  0
LINE
  5
14B
330
1F
100
AcDbEntity
  8
HIDDEN
100
AcDbLine
 10
-39.30306154330091
 20
102.0160249829579
 30
0.0
 11
-33.17933718634297
 21
105.5515588888907
 31
0.0
1001
DBPROPERTIES
1002
{
1000
PbHidd
1002
}
  0
ELLIPSE
  5
14C
330
1F
100
AcDbEntity
  8
THICK
100
AcDbEllipse
 10
-29.71085480816991
 20
191.954915286301
 30
0.0
 11
79.99999999999999
 21
-138.5640646055102
 31
0.0
210
0.0
220
0.0
230
1.0
 40
0.7071067811865476
 41
-1.604013789964454
 42
-1.570796326794896
1001
DBPROPERTIES
1002
{
1000
PbThick
1002
}
  0
LINE
  5
14D
330
1F
100
AcDbEntity
  8
THICK
100
AcDbLine
 10
-130.293302542214
 20
140.0194790970889
 30
0.0
 11
-124.169578185256
 21
143.5550130030216
 31
0.0
1001
DBPROPERTIES
1002
{
1000
PbThick
1002
}
  0
LINE
  5
14E
330
1F
100
AcDbEntity
  8
HIDDEN
100
AcDbLine
 10
-56.11377465163607
 20
182.8470494930733
 30
0.0
 11
-49.99005029467813
 21
186.382583399006
 31
0.0
1001
DBPROPERTIES
1002
{
1000
PbHidd
1002
}
  0
ELLIPSE
  5
14F
330
1F
100
AcDbEntity
  8
HIDDEN
100
AcDbEllipse
 10
-0.0000000000000005
 20
0.0000000000000008
 30
0.0
 11
97.99999999999999
 21
-169.74097914175
 31
0.0
210
0.0
220
0.0
230
1.0
 40
0.7071067811865476
 41
2.827433388230813
 42
3.141592653589793
1001
DBPROPERTIES
1002
{
1000
PbHidd
1002
}
  0
ELLIPSE
  5
150
330
1F
100
AcDbEntity
  8
THICK
100
AcDbEllipse
 10
-0.0000000000000005
 20
0.0000000000000008
 30
0.0
 11
97.99999999999999
 21
-169.74097914175
 31
0.0
210
0.0
220
0.0
230
1.0
 40
0.7071067811865476
 41
3.141592653589793
 42
3.455751918948772
1001
DBPROPERTIES
1002
{
1000
PbThick
1002
}
  0
ELLIPSE
  5
151
330
1F
100
AcDbEntity
  8
HIDDEN
100
AcDbEllipse
 10
70.33641145128274
 20
135.4035634826153
 30
0.0
 11
79.99999999999999
 21
-138.5640646055102
 31
0.0
210
0.0
220
0.0
230
1.0
 40
0.7071067811865476
 41
-2.280952544182832
 42
-1.733420185294637
1001
DBPROPERTIES
1002
{
1000
PbHidd
1002
}
  0
LINE
  5
152
330
1F
100
AcDbEntity
  8
THICK
100
AcDbLine
 10
24.04163056034262
 20
108.0
 30
0.0
 11
24.04163056034262
 21
97.06698717895802
 31
0.0
1001
DBPROPERTIES
1002
{
1000
PbThick
1002
}
  0
ELLIPSE
  5
153
330
1F
100
AcDbEntity
  8
THICK
100
AcDbEllipse
 10
135.6859686810187
 20
82.09472001324244
 30
0.0
 11
0.0
 21
-160.0
 31
0.0
210
0.0
220
0.0
230
1.0
 40
0.7071067811865476
 41
-2.280952544182832
 42
-1.733420185294637
1001
DBPROPERTIES
1002
{
1000
PbThick
1002
}
  0
ELLIPSE
  5
154
330
1F
100
AcDbEntity
  8
THICK
100
AcDbEllipse
 10
7.071067811865475
 20
0.0000000000000009
 30
0.0
 11
0.0
 21
196.0
 31
0.0
210
0.0
220
0.0
230
1.0
 40
0.7071067811865476
 41
0.0
 42
0.3141592653589791
1001
DBPROPERTIES
1002
{
1000
PbThick
1002
}
  0
ELLIPSE
  5
155
330
1F
100
AcDbEntity
  8
THICK
100
AcDbEllipse
 10
7.071067811865475
 20
0.0000000000000009
 30
0.0
 11
0.0
 21
196.0
 31
0.0
210
0.0
220
0.0
230
1.0
 40
0.7071067811865476
 41
-0.3141592653589798
 42
0.0
1001
DBPROPERTIES
1002
{
1000
PbThick
1002
}
  0
ELLIPSE
  5
156
330
1F
100
AcDbEntity
  8
THICK
100
AcDbEllipse
 10
77.3181704229898
 20
181.0932604233115
 30
0.0
 11
0.0
 21
160.0
 31
0.0
210
0.0
220
0.0
230
1.0
 40
0.7071067811865476
 41
1.537578863625339
 42
1.570796326794897
1001
DBPROPERTIES
1002
{
1000
PbThick
1002
}
  0
LINE
  5
157
330
1F
100
AcDbEntity
  8
HIDDEN
100
AcDbLine
 10
16.97056274847714
 20
98.54947995803936
 30
0.0
 11
16.97056274847714
 21
108.0
 31
0.0
1001
DBPROPERTIES
1002
{
1000
PbHidd
1002
}
  0
LINE
  5
158
330
1F
100
AcDbEntity
  8
HIDDEN
100
AcDbLine
 10
16.97056274847714
 20
108.0
 30
0.0
 11
24.04163056034261
 21
108.0
 31
0.0
1001
DBPROPERTIES
1002
{
1000
PbHidd
1002
}
  0
ELLIPSE
  5
159
330
1F
100
AcDbEntity
  8
THICK
100
AcDbEllipse
 10
70.24710261112432
 20
181.0932604233115
 30
0.0
 11
0.0
 21
-160.0
 31
0.0
210
0.0
220
0.0
230
1.0
 40
0.7071067811865476
 41
-1.604013789964454
 42
-1.570796326794896
1001
DBPROPERTIES
1002
{
1000
PbThick
1002
}
  0
LINE
  5
15A
330
1F
100
AcDbEntity
  8
THICK
100
AcDbLine
 10
-42.82757039598444
 20
186.4070771938501
 30
0.0
 11
-35.75650258411898
 21
186.4070771938501
 31
0.0
1001
DBPROPERTIES
1002
{
1000
PbThick
1002
}
  0
LINE
  5
15B
330
1F
100
AcDbEntity
  8
HIDDEN
100
AcDbLine
 10
42.82757039598449
 20
186.4070771938501
 30
0.0
 11
49.89863820784996
 21
186.4070771938501
 31
0.0
1001
DBPROPERTIES
1002
{
1000
PbHidd
1002
}
  0
ELLIPSE
  5
15C
330
1F
100
AcDbEntity
  8
HIDDEN
100
AcDbEllipse
 10
0.0
 20
0.0000000000000009
 30
0.0
 11
0.0
 21
-196.0
 31
0.0
210
0.0
220
0.0
230
1.0
 40
0.7071067811865476
 41
2.827433388230813
 42
3.141592653589793
1001
DBPROPERTIES
1002
{
1000
PbHidd
1002
}
  0
ELLIPSE
  5
15D
330
1F
100
AcDbEntity
  8
THICK
100
AcDbEllipse
 10
0.0
 20
0.0000000000000009
 30
0.0
 11
0.0
 21
-196.0
 31
0.0
210
0.0
220
0.0
230
1.0
 40
0.7071067811865476
 41
3.141592653589793
 42
3.455751918948772
1001
DBPROPERTIES
1002
{
1000
PbThick
1002
}
  0
ELLIPSE
  5
15E
330
1F
100
AcDbEntity
  8
HIDDEN
100
AcDbEllipse
 10
128.6149008691532
 20
82.09472001324244
 30
0.0
 11
0.0
 21
-160.0
 31
0.0
210
0.0
220
0.0
230
1.0
 40
0.7071067811865476
 41
-2.280952544182832
 42
-1.733420185294637
1001
DBPROPERTIES
1002
{
1000
PbHidd
1002
}
  0
ARC
  5
15F
330
1F
100
AcDbEntity
  8
THICK
100
AcDbCircle
 10
0.0
 20
0.0
 30
0.0
 40
97.25
100
AcDbArc
 50
270.0000187239684
 51
89.99998127603165
1001
DBPROPERTIES
1002
{
1000
PbThick
1002
}
  0
ARC
  5
160
330
1F
100
AcDbEntity
  8
THICK
100
AcDbCircle
 10
0.0000000000000003
 20
-0.0000000000000002
 30
0.0
 40
100.0
100
AcDbArc
 50
270.0000187239684
 51
0.0
1001
DBPROPERTIES
1002
{
1000
PbThick
1002
}
  0
ARC
  5
161
330
1F
100
AcDbEntity
  8
HIDDEN
100
AcDbCircle
 10
0.0
 20
0.0
 30
0.0
 40
97.25
100
AcDbArc
 50
89.99998127603165
 51
270.0000187239684
1001
DBPROPERTIES
1002
{
1000
PbHidd
1002
}
  0
ARC
  5
162
330
1F
100
AcDbEntity
  8
HIDDEN
100
AcDbCircle
 10
0.0
 20
-0.0000000000000007
 30
0.0
 40
89.0
100
AcDbArc
 50
179.9999801521572
 51
270.0000187239684
1001
DBPROPERTIES
1002
{
1000
PbHidd
1002
}
  0
ARC
  5
163
330
1F
100
AcDbEntity
  8
HIDDEN
100
AcDbCircle
 10
0.0
 20
0.0
 30
0.0
 40
78.0
100
AcDbArc
 50
270.0000187239684
 51
89.99998127603165
1001
DBPROPERTIES
1002
{
1000
PbHidd
1002
}
  0
ARC
  5
164
330
1F
100
AcDbEntity
  8
HIDDEN
100
AcDbCircle
 10
0.0
 20
0.0
 30
0.0
 40
78.0
100
AcDbArc
 50
89.99998127603165
 51
270.0000187239684
1001
DBPROPERTIES
1002
{
1000
PbHidd
1002
}
  0
LINE
  5
165
330
1F
100
AcDbEntity
  8
HIDDEN
100
AcDbLine
 10
177.1826583829794
 20
-92.77017607151782
 30
0.0
 11
90.43231791105549
 21
-42.68484364776087
 31
0.0
1001
DBPROPERTIES
1002
{
1000
PbHidd
1002
}
  0
LINE
  5
166
330
1F
100
AcDbEntity
  8
HIDDEN
100
AcDbLine
 10
168.9326583829794
 20
-107.0595952339611
 30
0.0
 11
82.18231791105549
 21
-56.9742628102041
 31
0.0
1001
DBPROPERTIES
1002
{
1000
PbHidd
1002
}
  0
LINE
  5
167
330
1F
100
AcDbEntity
  8
THICK
100
AcDbLine
 10
167.4429096551807
 20
-109.3749148854845
 30
0.0
 11
164.1727592687737
 21
-107.4868926796018
 31
0.0
1001
DBPROPERTIES
1002
{
1000
PbThick
1002
}
  0
LINE
  5
168
330
1F
100
AcDbEntity
  8
HIDDEN
100
AcDbLine
 10
164.1727592687737
 20
-107.4868926796018
 30
0.0
 11
80.57700041242144
 21
-59.22285880077586
 31
0.0
1001
DBPROPERTIES
1002
{
1000
PbHidd
1002
}
  0
LINE
  5
169
330
1F
100
AcDbEntity
  8
HIDDEN
100
AcDbLine
 10
80.57700041242144
 20
-59.22285880077586
 30
0.0
 11
80.57700041242144
 21
-59.22285880077586
 31
0.0
1001
DBPROPERTIES
1002
{
1000
PbHidd
1002
}
  0
LINE
  5
16A
330
1F
100
AcDbEntity
  8
THICK
100
AcDbLine
 10
168.9326583829794
 20
-107.059595233961
 30
0.0
 11
165.6098378453135
 21
-105.1411639020708
 31
0.0
1001
DBPROPERTIES
1002
{
1000
PbThick
1002
}
  0
LINE
  5
16B
330
1F
100
AcDbEntity
  8
HIDDEN
100
AcDbLine
 10
165.6098378453135
 20
-105.1411639020708
 30
0.0
 11
82.18231791105549
 21
-56.9742628102041
 31
0.0
1001
DBPROPERTIES
1002
{
1000
PbHidd
1002
}
  0
LINE
  5
16C
330
1F
100
AcDbEntity
  8
HIDDEN
100
AcDbLine
 10
-168.9326583829794
 20
-107.059595233961
 30
0.0
 11
-82.18231791105549
 21
-56.9742628102041
 31
0.0
1001
DBPROPERTIES
1002
{
1000
PbHidd
1002
}
  0
LINE
  5
16D
330
1F
100
AcDbEntity
  8
HIDDEN
100
AcDbLine
 10
-177.1826583829794
 20
-92.77017607151782
 30
0.0
 11
-90.43231791105549
 21
-42.68484364776086
 31
0.0
1001
DBPROPERTIES
1002
{
1000
PbHidd
1002
}
  0
LINE
  5
16E
330
1F
100
AcDbEntity
  8
THICK
100
AcDbLine
 10
-178.4429096551808
 20
-90.32235600222688
 30
0.0
 11
-175.1727592687737
 21
-88.43433379634419
 31
0.0
1001
DBPROPERTIES
1002
{
1000
PbThick
1002
}
  0
LINE
  5
16F
330
1F
100
AcDbEntity
  8
HIDDEN
100
AcDbLine
 10
-175.1727592687737
 20
-88.43433379634419
 30
0.0
 11
-91.57700041242144
 21
-40.17029991751821
 31
0.0
1001
DBPROPERTIES
1002
{
1000
PbHidd
1002
}
  0
LINE
  5
170
330
1F
100
AcDbEntity
  8
HIDDEN
100
AcDbLine
 10
-91.57700041242144
 20
-40.17029991751821
 30
0.0
 11
-91.57700041242144
 21
-40.17029991751821
 31
0.0
1001
DBPROPERTIES
1002
{
1000
PbHidd
1002
}
  0
LINE
  5
171
330
1F
100
AcDbEntity
  8
THICK
100
AcDbLine
 10
-177.1826583829794
 20
-92.77017607151782
 30
0.0
 11
-173.8598378453135
 21
-90.85174473962758
 31
0.0
1001
DBPROPERTIES
1002
{
1000
PbThick
1002
}
  0
LINE
  5
172
330
1F
100
AcDbEntity
  8
HIDDEN
100
AcDbLine
 10
-173.8598378453135
 20
-90.85174473962758
 30
0.0
 11
-90.43231791105549
 21
-42.68484364776087
 31
0.0
1001
DBPROPERTIES
1002
{
1000
PbHidd
1002
}
  0
LINE
  5
173
330
1F
100
AcDbEntity
  8
HIDDEN
100
AcDbLine
 10
-8.24999999999999
 20
199.8297713054789
 30
0.0
 11
-8.249999999999995
 21
99.659106457965
 31
0.0
1001
DBPROPERTIES
1002
{
1000
PbHidd
1002
}
  0
LINE
  5
174
330
1F
100
AcDbEntity
  8
HIDDEN
100
AcDbLine
 10
8.25
 20
199.8297713054789
 30
0.0
 11
8.25
 21
99.659106457965
 31
0.0
1001
DBPROPERTIES
1002
{
1000
PbHidd
1002
}
  0
LINE
  5
175
330
1F
100
AcDbEntity
  8
HIDDEN
100
AcDbLine
 10
11.0
 20
199.6972708877114
 30
0.0
 11
11.0
 21
199.6972708877114
 31
0.0
1001
DBPROPERTIES
1002
{
1000
PbHidd
1002
}
  0
LINE
  5
176
330
1F
100
AcDbEntity
  8
THICK
100
AcDbLine
 10
10.99999999999999
 20
199.6972708877114
 30
0.0
 11
10.99999999999999
 21
195.9212264759461
 31
0.0
1001
DBPROPERTIES
1002
{
1000
PbThick
1002
}
  0
LINE
  5
177
330
1F
100
AcDbEntity
  8
HIDDEN
100
AcDbLine
 10
10.99999999999999
 20
195.9212264759461
 30
0.0
 11
11.0
 21
99.39315871829409
 31
0.0
1001
DBPROPERTIES
1002
{
1000
PbHidd
1002
}
  0
LINE
  5
178
330
1F
100
AcDbEntity
  8
THICK
100
AcDbLine
 10
8.24999999999999
 20
199.8297713054789
 30
0.0
 11
8.24999999999999
 21
195.9929086416985
 31
0.0
1001
DBPROPERTIES
1002
{
1000
PbThick
1002
}
  0
LINE
  5
179
330
1F
100
AcDbEntity
  8
HIDDEN
100
AcDbLine
 10
8.24999999999999
 20
195.9929086416985
 30
0.0
 11
8.249999999999995
 21
99.659106457965
 31
0.0
1001
DBPROPERTIES
1002
{
1000
PbHidd
1002
}
  0
LINE
  5
17A
330
1F
100
AcDbEntity
  8
THICK
100
AcDbLine
 10
178.4429096551807
 20
-90.32235600222687
 30
0.0
 11
174.7054963646804
 21
-88.16455943288362
 31
0.0
1001
DBPROPERTIES
1002
{
1000
PbThick
1002
}
  0
LINE
  5
17B
330
1F
100
AcDbEntity
  8
HIDDEN
100
AcDbLine
 10
174.7054963646804
 20
-88.16455943288362
 30
0.0
 11
91.57700041242144
 21
-40.17029991751821
 31
0.0
1001
DBPROPERTIES
1002
{
1000
PbHidd
1002
}
  0
LINE
  5
17C
330
1F
100
AcDbEntity
  8
HIDDEN
100
AcDbLine
 10
91.57700041242144
 20
-40.17029991751821
 30
0.0
 11
91.57700041242144
 21
-40.17029991751821
 31
0.0
1001
DBPROPERTIES
1002
{
1000
PbHidd
1002
}
  0
LINE
  5
17D
330
1F
100
AcDbEntity
  8
THICK
100
AcDbLine
 10
177.1826583829794
 20
-92.77017607151782
 30
0.0
 11
173.5649783136283
 21
-90.68150750963602
 31
0.0
1001
DBPROPERTIES
1002
{
1000
PbThick
1002
}
  0
LINE
  5
17E
330
1F
100
AcDbEntity
  8
HIDDEN
100
AcDbLine
 10
173.5649783136283
 20
-90.68150750963602
 30
0.0
 11
90.43231791105549
 21
-42.68484364776086
 31
0.0
1001
DBPROPERTIES
1002
{
1000
PbHidd
1002
}
  0
LINE
  5
17F
330
1F
100
AcDbEntity
  8
THICK
100
AcDbLine
 10
-167.4429096551808
 20
-109.3749148854845
 30
0.0
 11
-163.7054963646804
 21
-107.2171183161413
 31
0.0
1001
DBPROPERTIES
1002
{
1000
PbThick
1002
}
  0
LINE
  5
180
330
1F
100
AcDbEntity
  8
HIDDEN
100
AcDbLine
 10
-163.7054963646804
 20
-107.2171183161413
 30
0.0
 11
-80.57700041242144
 21
-59.22285880077586
 31
0.0
1001
DBPROPERTIES
1002
{
1000
PbHidd
1002
}
  0
LINE
  5
181
330
1F
100
AcDbEntity
  8
HIDDEN
100
AcDbLine
 10
-80.57700041242144
 20
-59.22285880077586
 30
0.0
 11
-80.57700041242144
 21
-59.22285880077586
 31
0.0
1001
DBPROPERTIES
1002
{
1000
PbHidd
1002
}
  0
LINE
  5
182
330
1F
100
AcDbEntity
  8
THICK
100
AcDbLine
 10
-168.9326583829794
 20
-107.0595952339611
 30
0.0
 11
-165.3149783136283
 21
-104.9709266720793
 31
0.0
1001
DBPROPERTIES
1002
{
1000
PbThick
1002
}
  0
LINE
  5
183
330
1F
100
AcDbEntity
  8
HIDDEN
100
AcDbLine
 10
-165.3149783136283
 20
-104.9709266720793
 30
0.0
 11
-82.18231791105549
 21
-56.9742628102041
 31
0.0
1001
DBPROPERTIES
1002
{
1000
PbHidd
1002
}
  0
LINE
  5
184
330
1F
100
AcDbEntity
  8
THICK
100
AcDbLine
 10
-11.0
 20
199.6972708877114
 30
0.0
 11
-11.0
 21
195.381677749025
 31
0.0
1001
DBPROPERTIES
1002
{
1000
PbThick
1002
}
  0
LINE
  5
185
330
1F
100
AcDbEntity
  8
HIDDEN
100
AcDbLine
 10
-11.0
 20
195.381677749025
 30
0.0
 11
-11.0
 21
99.39315871829409
 31
0.0
1001
DBPROPERTIES
1002
{
1000
PbHidd
1002
}
  0
LINE
  5
186
330
1F
100
AcDbEntity
  8
HIDDEN
100
AcDbLine
 10
-11.0
 20
199.6972708877114
 30
0.0
 11
-11.0
 21
199.6972708877114
 31
0.0
1001
DBPROPERTIES
1002
{
1000
PbHidd
1002
}
  0
LINE
  5
187
330
1F
100
AcDbEntity
  8
THICK
100
AcDbLine
 10
-8.25
 20
199.8297713054789
 30
0.0
 11
-8.25
 21
195.6524341817154
 31
0.0
1001
DBPROPERTIES
1002
{
1000
PbThick
1002
}
  0
LINE
  5
188
330
1F
100
AcDbEntity
  8
HIDDEN
100
AcDbLine
 10
-8.25
 20
195.6524341817154
 30
0.0
 11
-8.25
 21
99.659106457965
 31
0.0
1001
DBPROPERTIES
1002
{
1000
PbHidd
1002
}
  0
ARC
  5
189
330
1F
100
AcDbEntity
  8
HIDDEN
100
AcDbCircle
 10
0.0
 20
0.0
 30
0.0
 40
97.25
100
AcDbArc
 50
270.0000187239684
 51
89.99998127603165
1001
DBPROPERTIES
1002
{
1000
PbHidd
1002
}
  0
ARC
  5
18A
330
1F
100
AcDbEntity
  8
HIDDEN
100
AcDbCircle
 10
0.0
 20
0.0
 30
0.0
 40
97.25
100
AcDbArc
 50
89.99998127603165
 51
270.0000187239684
1001
DBPROPERTIES
1002
{
1000
PbHidd
1002
}
  0
ARC
  5
18B
330
1F
100
AcDbEntity
  8
HIDDEN
100
AcDbCircle
 10
0.0000000000000135
 20
0.0
 30
0.0
 40
239.25
100
AcDbArc
 50
270.0000187239684
 51
89.99998127603165
1001
DBPROPERTIES
1002
{
1000
PbHidd
1002
}
  0
ARC
  5
18C
330
1F
100
AcDbEntity
  8
HIDDEN
100
AcDbCircle
 10
0.0000000000000135
 20
0.0
 30
0.0
 40
239.25
100
AcDbArc
 50
270.0000187239684
 51
89.99998127603165
1001
DBPROPERTIES
1002
{
1000
PbHidd
1002
}
  0
ARC
  5
18D
330
1F
100
AcDbEntity
  8
HIDDEN
100
AcDbCircle
 10
0.0
 20
0.0
 30
0.0
 40
239.25
100
AcDbArc
 50
89.99998127603165
 51
270.0000187239684
1001
DBPROPERTIES
1002
{
1000
PbHidd
1002
}
  0
ARC
  5
18E
330
1F
100
AcDbEntity
  8
THICK
100
AcDbCircle
 10
0.0
 20
-0.0000000000000002
 30
0.0
 40
242.0
100
AcDbArc
 50
89.99998127603165
 51
180.0000198478428
1001
DBPROPERTIES
1002
{
1000
PbThick
1002
}
  0
ARC
  5
18F
330
1F
100
AcDbEntity
  8
HIDDEN
100
AcDbCircle
 10
0.0
 20
0.0
 30
0.0
 40
211.0
100
AcDbArc
 50
0.0
 51
180.0000198478428
1001
DBPROPERTIES
1002
{
1000
PbHidd
1002
}
  0
LINE
  5
190
330
1F
100
AcDbEntity
  8
THICK
100
AcDbLine
 10
104.1237251263135
 20
166.2054447916295
 30
0.0
 11
97.99999936911911
 21
169.7409795059892
 31
0.0
1001
DBPROPERTIES
1002
{
1000
PbThick
1002
}
  0
LINE
  5
191
330
1F
100
AcDbEntity
  8
THICK
100
AcDbLine
 10
173.2765142203488
 20
91.87627361192463
 30
0.0
 11
169.7409795059892
 21
97.99999936911901
 31
0.0
1001
DBPROPERTIES
1002
{
1000
PbThick
1002
}
  0
LINE
  5
192
330
1F
100
AcDbEntity
  8
THICK
100
AcDbLine
 10
196.0
 20
-7.07106781005861
 30
0.0
 11
196.0
 21
-0.000000000000036
 31
0.0
1001
DBPROPERTIES
1002
{
1000
PbThick
1002
}
  0
LINE
  5
193
330
1F
100
AcDbEntity
  8
THICK
100
AcDbLine
 10
166.2054447916295
 20
-104.1237251263135
 30
0.0
 11
169.7409795059892
 21
-97.99999936911911
 31
0.0
1001
DBPROPERTIES
1002
{
1000
PbThick
1002
}
  0
LINE
  5
194
330
1F
100
AcDbEntity
  8
THICK
100
AcDbLine
 10
91.87627361192466
 20
-173.2765142203488
 30
0.0
 11
97.99999936911904
 21
-169.7409795059892
 31
0.0
1001
DBPROPERTIES
1002
{
1000
PbThick
1002
}
  0
LINE
  5
195
330
1F
100
AcDbEntity
  8
THICK
100
AcDbLine
 10
-7.071067810058603
 20
-196.0
 30
0.0
 11
-0.000000000000024
 21
-196.0
 31
0.0
1001
DBPROPERTIES
1002
{
1000
PbThick
1002
}
  0
LINE
  5
196
330
1F
100
AcDbEntity
  8
THICK
100
AcDbLine
 10
-104.1237251263135
 20
-166.2054447916296
 30
0.0
 11
-97.9999993691191
 21
-169.7409795059892
 31
0.0
1001
DBPROPERTIES
1002
{
1000
PbThick
1002
}
  0
LINE
  5
197
330
1F
100
AcDbEntity
  8
THICK
100
AcDbLine
 10
-173.2765142203488
 20
-91.87627361192467
 30
0.0
 11
-169.7409795059892
 21
-97.99999936911905
 31
0.0
1001
DBPROPERTIES
1002
{
1000
PbThick
1002
}
  0
LINE
  5
198
330
1F
100
AcDbEntity
  8
THICK
100
AcDbLine
 10
-196.0
 20
7.071067810058597
 30
0.0
 11
-196.0
 21
0.000000000000012
 31
0.0
1001
DBPROPERTIES
1002
{
1000
PbThick
1002
}
  0
LINE
  5
199
330
1F
100
AcDbEntity
  8
THICK
100
AcDbLine
 10
-166.2054447916296
 20
104.1237251263134
 30
0.0
 11
-169.7409795059892
 21
97.99999936911908
 31
0.0
1001
DBPROPERTIES
1002
{
1000
PbThick
1002
}
  0
LINE
  5
19A
330
1F
100
AcDbEntity
  8
THICK
100
AcDbLine
 10
-91.87627361192469
 20
173.2765142203488
 30
0.0
 11
-97.99999936911907
 21
169.7409795059892
 31
0.0
1001
DBPROPERTIES
1002
{
1000
PbThick
1002
}
  0
LINE
  5
19B
330
1F
100
AcDbEntity
  8
THICK
100
AcDbLine
 10
7.071067810058591
 20
196.0
 30
0.0
 11
0.0
 21
196.0
 31
0.0
1001
DBPROPERTIES
1002
{
1000
PbThick
1002
}
  0
ENDSEC
  0
SECTION
  2
OBJECTS
  0
DICTIONARY
  5
C
330
0
100
AcDbDictionary
  3
ACAD_GROUP
350
D
  3
ACAD_LAYOUT
350
1A
  3
ACAD_MATERIAL
350
43
  3
ACAD_MLEADERSTYLE
350
6B
  3
ACAD_MLINESTYLE
350
17
  3
ACAD_PLOTSETTINGS
350
19
  3
ACAD_SCALELIST
350
47
  3
ACAD_VISUALSTYLE
350
2A
  3
ACDBVARIABLEDICTIONARY
350
19C
1001
ACAD
1000
TREAT_AS_HARD
1070
     0
  0
DICTIONARY
  5
D
102
{ACAD_REACTORS
330
C
102
}
330
C
100
AcDbDictionary
1001
ACAD
1000
TREAT_AS_HARD
1070
     0
  0
DICTIONARY
  5
1A
102
{ACAD_REACTORS
330
C
102
}
330
C
100
AcDbDictionary
1001
ACAD
1000
TREAT_AS_HARD
1070
     0
  0
DICTIONARY
  5
43
102
{ACAD_REACTORS
330
C
102
}
330
C
100
AcDbDictionary
  3
BYBLOCK
350
45
  3
BYLAYER
350
44
  3
GLOBAL
350
46
1001
ACAD
1000
TREAT_AS_HARD
1070
     0
  0
DICTIONARY
  5
6B
102
{ACAD_REACTORS
330
C
102
}
330
C
100
AcDbDictionary
  3
STANDARD
350
6C
1001
ACAD
1000
TREAT_AS_HARD
1070
     0
  0
DICTIONARY
  5
17
102
{ACAD_REACTORS
330
C
102
}
330
C
100
AcDbDictionary
  3
STANDARD
350
18
1001
ACAD
1000
TREAT_AS_HARD
1070
     0
  0
DICTIONARY
  5
19
102
{ACAD_REACTORS
330
C
102
}
330
C
100
AcDbDictionary
1001
ACAD
1000
TREAT_AS_HARD
1070
     0
  0
DICTIONARY
  5
47
102
{ACAD_REACTORS
330
C
102
}
330
C
100
AcDbDictionary
  3
A0
350
48
  3
A1
350
49
  3
A2
350
4A
  3
A3
350
4B
  3
A4
350
4C
  3
A5
350
4D
  3
A6
350
4E
  3
A7
350
4F
  3
A8
350
50
  3
A9
350
51
  3
B0
350
52
  3
B1
350
53
  3
B2
350
54
  3
B3
350
55
  3
B4
350
56
  3
B5
350
57
  3
B6
350
58
  3
B7
350
59
  3
B8
350
5A
  3
B9
350
5B
  3
C0
350
5C
  3
C1
350
5D
  3
C2
350
5E
  3
C3
350
5F
  3
C4
350
60
  3
C5
350
61
  3
C6
350
62
  3
C7
350
63
  3
C8
350
64
  3
C9
350
65
  3
D0
350
66
  3
D1
350
67
  3
D2
350
68
1001
ACAD
1000
TREAT_AS_HARD
1070
     0
  0
DICTIONARY
  5
2A
102
{ACAD_REACTORS
330
C
102
}
330
C
100
AcDbDictionary
  3
2DWIREFRAME
350
2F
  3
BASIC
350
32
  3
BRIGHTEN
350
36
  3
COLORCHANGE
350
3A
  3
CONCEPTUAL
350
34
  3
DIM
350
35
  3
EDGECOLOROFF
350
3D
  3
FACEPATTERN
350
39
  3
FLAT
350
2B
  3
FLATWITHEDGES
350
2C
  3
GOURAUD
350
2D
  3
GOURAUDWITHEDGES
350
2E
  3
HIDDEN
350
31
  3
JITTEROFF
350
3B
  3
LINEPATTERN
350
38
  3
OVERHANGOFF
350
3C
  3
REALISTIC
350
33
  3
SHADED
350
42
  3
SHADED_WITH_EDGES
350
41
  3
SHADES_OF_GRAY
350
3E
  3
SKETCHY
350
3F
  3
THICKEN
350
37
  3
WIREFRAME
350
30
  3
X-RAY
350
40
1001
ACAD
1000
TREAT_AS_HARD
1070
     0
  0
DICTIONARY
  5
19C
102
{ACAD_REACTORS
330
C
102
}
330
C
100
AcDbDictionary
  3
CANNOSCALE
350
1A7
  3
CENTEREXE
350
1A3
  3
CENTERLTYPEFILE
350
1A4
  3
CMLEADERSTYLE
350
19E
  3
CTABLESTYLE
350
19D
  3
DIMASSOC
350
1A5
  3
HIDETEXT
350
1A6
  3
MSLTSCALE
350
1A8
  3
PSOLHEIGHT
350
1A0
  3
PSOLWIDTH
350
19F
1001
ACAD
1000
TREAT_AS_HARD
1070
     0
  0
MATERIAL
  5
45
102
{ACAD_REACTORS
330
43
102
}
102
{ACAD_XDICTIONARY
360
1AB
102
}
330
43
100
AcDbMaterial
  1
BYBLOCK
  0
MATERIAL
  5
44
102
{ACAD_REACTORS
330
43
102
}
102
{ACAD_XDICTIONARY
360
1A9
102
}
330
43
100
AcDbMaterial
  1
BYLAYER
  0
MATERIAL
  5
46
102
{ACAD_REACTORS
330
43
102
}
102
{ACAD_XDICTIONARY
360
1AD
102
}
330
43
100
AcDbMaterial
  1
GLOBAL
  0
ACAD_PROXY_OBJECT
  5
6C
102
{ACAD_REACTORS
330
6B
102
}
330
6B
100
AcDbZombieObject
 90
      499
 91
      505
 93
      610
310
40901902A4063FBFFFFFE0000000000000020400000000000020404214DD185B99185C990000000000000104090141901A00000000000004100000000000000041025764000000000000039000
340
14
340
0
340
11
340
0
 94
        0
1001
ACAD_MLEADERVER
1070
     2
  0
MLINESTYLE
  5
18
102
{ACAD_REACTORS
330
17
102
}
330
17
100
AcDbMlineStyle
  2
Standard
 70
     0
  3

 62
   256
 51
90.0
 52
90.0
 71
     2
 49
0.5
 62
   256
  6
BYLAYER
 49
-0.5
 62
   256
  6
BYLAYER
  0
ACAD_PROXY_OBJECT
  5
48
102
{ACAD_REACTORS
330
47
102
}
330
47
100
AcDbZombieObject
 90
      499
 91
      503
 93
       41
310
903313A31580
  0
ACAD_PROXY_OBJECT
  5
49
102
{ACAD_REACTORS
330
47
102
}
330
47
100
AcDbZombieObject
 90
      499
 91
      503
 93
      105
310
903313A324000000000000004000
  0
ACAD_PROXY_OBJECT
  5
4A
102
{ACAD_REACTORS
330
47
102
}
330
47
100
AcDbZombieObject
 90
      499
 91
      503
 93
      105
310
903313A344000000000000104000
  0
ACAD_PROXY_OBJECT
  5
4B
102
{ACAD_REACTORS
330
47
102
}
330
47
100
AcDbZombieObject
 90
      499
 91
      503
 93
      105
310
903313A354000000000000144000
  0
ACAD_PROXY_OBJECT
  5
4C
102
{ACAD_REACTORS
330
47
102
}
330
47
100
AcDbZombieObject
 90
      499
 91
      503
 93
      105
310
903313A384000000000000204000
  0
ACAD_PROXY_OBJECT
  5
4D
102
{ACAD_REACTORS
330
47
102
}
330
47
100
AcDbZombieObject
 90
      499
 91
      503
 93
      113
310
904313A31304000000000000244000
  0
ACAD_PROXY_OBJECT
  5
4E
102
{ACAD_REACTORS
330
47
102
}
330
47
100
AcDbZombieObject
 90
      499
 91
      503
 93
      113
310
904313A31364000000000000304000
  0
ACAD_PROXY_OBJECT
  5
4F
102
{ACAD_REACTORS
330
47
102
}
330
47
100
AcDbZombieObject
 90
      499
 91
      503
 93
      113
310
904313A32304000000000000344000
  0
ACAD_PROXY_OBJECT
  5
50
102
{ACAD_REACTORS
330
47
102
}
330
47
100
AcDbZombieObject
 90
      499
 91
      503
 93
      113
310
904313A333040000000000003E4000
  0
ACAD_PROXY_OBJECT
  5
51
102
{ACAD_REACTORS
330
47
102
}
330
47
100
AcDbZombieObject
 90
      499
 91
      503
 93
      113
310
904313A34304000000000000444000
  0
ACAD_PROXY_OBJECT
  5
52
102
{ACAD_REACTORS
330
47
102
}
330
47
100
AcDbZombieObject
 90
      499
 91
      503
 93
      113
310
904313A35304000000000000494000
  0
ACAD_PROXY_OBJECT
  5
53
102
{ACAD_REACTORS
330
47
102
}
330
47
100
AcDbZombieObject
 90
      499
 91
      503
 93
      121
310
905313A3130304000000000000594000
  0
ACAD_PROXY_OBJECT
  5
54
102
{ACAD_REACTORS
330
47
102
}
330
47
100
AcDbZombieObject
 90
      499
 91
      503
 93
      105
310
903323A310000000000000010100
  0
ACAD_PROXY_OBJECT
  5
55
102
{ACAD_REACTORS
330
47
102
}
330
47
100
AcDbZombieObject
 90
      499
 91
      503
 93
      105
310
903343A310000000000000410100
  0
ACAD_PROXY_OBJECT
  5
56
102
{ACAD_REACTORS
330
47
102
}
330
47
100
AcDbZombieObject
 90
      499
 91
      503
 93
      105
310
903383A310000000000000810100
  0
ACAD_PROXY_OBJECT
  5
57
102
{ACAD_REACTORS
330
47
102
}
330
47
100
AcDbZombieObject
 90
      499
 91
      503
 93
      113
310
90431303A310000000000000910100
  0
ACAD_PROXY_OBJECT
  5
58
102
{ACAD_REACTORS
330
47
102
}
330
47
100
AcDbZombieObject
 90
      499
 91
      503
 93
      121
310
9053130303A310000000000001650100
  0
ACAD_PROXY_OBJECT
  5
59
102
{ACAD_REACTORS
330
47
102
}
330
47
100
AcDbZombieObject
 90
      499
 91
      503
 93
      257
310
90E312F31323822203D2031272D3022000000000000200FC000000000000284000
  0
ACAD_PROXY_OBJECT
  5
5A
102
{ACAD_REACTORS
330
47
102
}
330
47
100
AcDbZombieObject
 90
      499
 91
      503
 93
      249
310
90D312F363422203D2031272D3022000000000000240FC000000000000284000
  0
ACAD_PROXY_OBJECT
  5
5B
102
{ACAD_REACTORS
330
47
102
}
330
47
100
AcDbZombieObject
 90
      499
 91
      503
 93
      249
310
90D312F333222203D2031272D3022000000000000280FC000000000000284000
  0
ACAD_PROXY_OBJECT
  5
5C
102
{ACAD_REACTORS
330
47
102
}
330
47
100
AcDbZombieObject
 90
      499
 91
      503
 93
      249
310
90D312F313622203D2031272D30220000000000002C0FC000000000000284000
  0
ACAD_PROXY_OBJECT
  5
5D
102
{ACAD_REACTORS
330
47
102
}
330
47
100
AcDbZombieObject
 90
      499
 91
      503
 93
      249
310
90D332F333222203D2031272D30220000000000002E0FC000000000000284000
  0
ACAD_PROXY_OBJECT
  5
5E
102
{ACAD_REACTORS
330
47
102
}
330
47
100
AcDbZombieObject
 90
      499
 91
      503
 93
      241
310
90C312F3822203D2031272D3022000000000000300FC000000000000284000
  0
ACAD_PROXY_OBJECT
  5
5F
102
{ACAD_REACTORS
330
47
102
}
330
47
100
AcDbZombieObject
 90
      499
 91
      503
 93
      249
310
90D332F313622203D2031272D3022000000000000320FC000000000000284000
  0
ACAD_PROXY_OBJECT
  5
60
102
{ACAD_REACTORS
330
47
102
}
330
47
100
AcDbZombieObject
 90
      499
 91
      503
 93
      241
310
90C312F3422203D2031272D3022000000000000340FC000000000000284000
  0
ACAD_PROXY_OBJECT
  5
61
102
{ACAD_REACTORS
330
47
102
}
330
47
100
AcDbZombieObject
 90
      499
 91
      503
 93
      241
310
90C332F3822203D2031272D3022000000000000360FC000000000000284000
  0
ACAD_PROXY_OBJECT
  5
62
102
{ACAD_REACTORS
330
47
102
}
330
47
100
AcDbZombieObject
 90
      499
 91
      503
 93
      241
310
90C312F3222203D2031272D3022000000000000380FC000000000000284000
  0
ACAD_PROXY_OBJECT
  5
63
102
{ACAD_REACTORS
330
47
102
}
330
47
100
AcDbZombieObject
 90
      499
 91
      503
 93
      241
310
90C332F3422203D2031272D30220000000000003A0FC000000000000284000
  0
ACAD_PROXY_OBJECT
  5
64
102
{ACAD_REACTORS
330
47
102
}
330
47
100
AcDbZombieObject
 90
      499
 91
      503
 93
      161
310
90A3122203D2031272D30224000000000000284000
  0
ACAD_PROXY_OBJECT
  5
65
102
{ACAD_REACTORS
330
47
102
}
330
47
100
AcDbZombieObject
 90
      499
 91
      503
 93
      257
310
90E312D312F3222203D2031272D30220000000000003E0FC000000000000284000
  0
ACAD_PROXY_OBJECT
  5
66
102
{ACAD_REACTORS
330
47
102
}
330
47
100
AcDbZombieObject
 90
      499
 91
      503
 93
      225
310
90A3322203D2031272D302200000000000002100000000000000284000
  0
ACAD_PROXY_OBJECT
  5
67
102
{ACAD_REACTORS
330
47
102
}
330
47
100
AcDbZombieObject
 90
      499
 91
      503
 93
      225
310
90A3622203D2031272D302200000000000006100000000000000284000
  0
ACAD_PROXY_OBJECT
  5
68
102
{ACAD_REACTORS
330
47
102
}
330
47
100
AcDbZombieObject
 90
      499
 91
      503
 93
      249
310
90D31272D3022203D2031272D30220000000000000A100000000000000284000
  0
ACAD_PROXY_OBJECT
  5
2F
102
{ACAD_REACTORS
330
2A
102
}
330
2A
100
AcDbZombieObject
 90
      499
 91
      501
 93
      436
310
42CC9915DA5C99599C985B595049028333333333333E33F0000000000000F90107901411070040501600405405064090741402480A0340
1001
ACAD
1000
AcDbSavedByObjectVersion
1070
     0
  0
ACAD_PROXY_OBJECT
  5
32
102
{ACAD_REACTORS
330
2A
102
}
330
2A
100
AcDbZombieObject
 90
      499
 91
      501
 93
      388
310
4150985CDA58D07406404333333333333E33F0000000000000F90107A41107004050150841D405064090741402480A0350
1001
ACAD
1000
AcDbSavedByObjectVersion
1070
     0
  0
ACAD_PROXY_OBJECT
  5
36
102
{ACAD_REACTORS
330
2A
102
}
330
2A
100
AcDbZombieObject
 90
      499
 91
      501
 93
      428
310
42109C9A59DA1D195B90C409028333333333333E33F0000000000000F9010790141107004050150841D405064090741402480A029950
1001
ACAD
1000
AcDbSavedByObjectVersion
1070
     0
  0
ACAD_PROXY_OBJECT
  5
3A
102
{ACAD_REACTORS
330
2A
102
}
330
2A
100
AcDbZombieObject
 90
      499
 91
      501
 93
      452
310
42D0DBDB1BDC90DA185B99D95104090240C333333333333E33F0000000000000F90108901411070040501508421405064090741402480A0350
1001
ACAD
1000
AcDbSavedByObjectVersion
1070
     0
  0
ACAD_PROXY_OBJECT
  5
34
102
{ACAD_REACTORS
330
2A
102
}
330
2A
100
AcDbZombieObject
 90
      499
 91
      501
 93
      500
310
4290DBDB98D95C1D1D585B10940D028333333333333E33F0000000000000F90107902409070040501000000000018199010841D405064090740C02480A0340
1001
ACAD
1000
AcDbSavedByObjectVersion
1070
     0
  0
ACAD_PROXY_OBJECT
  5
35
102
{ACAD_REACTORS
330
2A
102
}
330
2A
100
AcDbZombieObject
 90
      499
 91
      501
 93
      412
310
40D11A5B50B409028333333333333E33F0000000000000F9010790141107004050150841D405064090741402480A02677FFFFFD0
1001
ACAD
1000
AcDbSavedByObjectVersion
1070
     0
  0
ACAD_PROXY_OBJECT
  5
3D
102
{ACAD_REACTORS
330
2A
102
}
330
2A
100
AcDbZombieObject
 90
      499
 91
      501
 93
      452
310
43115919D950DBDB1BDC93D999916409028333333333333E33F0000000000000F9010790141107004050150841D405064090741402480A0350
1001
ACAD
1000
AcDbSavedByObjectVersion
1070
     0
  0
ACAD_PROXY_OBJECT
  5
39
102
{ACAD_REACTORS
330
2A
102
}
330
2A
100
AcDbZombieObject
 90
      499
 91
      501
 93
      444
310
42D19858D95C185D1D195C9B90F409028333333333333E33F0000000000000F9010790141107004050150841D405064090741402480A0350
1001
ACAD
1000
AcDbSavedByObjectVersion
1070
     0
  0
ACAD_PROXY_OBJECT
  5
2B
102
{ACAD_REACTORS
330
2A
102
}
330
2A
100
AcDbZombieObject
 90
      499
 91
      501
 93
      380
310
41119B185D240901404333333333333E33F0000000000000F9010740A907004050150841D405064090741402480A1B50
1001
ACAD
1000
AcDbSavedByObjectVersion
1070
     0
  0
ACAD_PROXY_OBJECT
  5
2C
102
{ACAD_REACTORS
330
2A
102
}
330
2A
100
AcDbZombieObject
 90
      499
 91
      501
 93
      468
310
43519B185D15DA5D1A115919D95CD0140901404333333333333E33F0000000000000F90107409019070040501600405405064090741402480A1B50
1001
ACAD
1000
AcDbSavedByObjectVersion
1070
     0
  0
ACAD_PROXY_OBJECT
  5
2D
102
{ACAD_REACTORS
330
2A
102
}
330
2A
100
AcDbZombieObject
 90
      499
 91
      501
 93
      404
310
41D1DBDD5C985D5910240902404333333333333E33F0000000000000F9010740A9070040501641D405064090741402480A1B50
1001
ACAD
1000
AcDbSavedByObjectVersion
1070
     0
  0
ACAD_PROXY_OBJECT
  5
2E
102
{ACAD_REACTORS
330
2A
102
}
330
2A
100
AcDbZombieObject
 90
      499
 91
      501
 93
      492
310
4411DBDD5C985D5915DA5D1A115919D95CD0340902404333333333333E33F0000000000000F90107409019070040501600405405064090741402480A1B50
1001
ACAD
1000
AcDbSavedByObjectVersion
1070
     0
  0
ACAD_PROXY_OBJECT
  5
31
102
{ACAD_REACTORS
330
2A
102
}
330
2A
100
AcDbZombieObject
 90
      499
 91
      501
 93
      476
310
41921A5919195B90640502408333333333333E33F0000000000000F901079024090700405020000000000001110200405405064090740C02480A0340
1001
ACAD
1000
AcDbSavedByObjectVersion
1070
     0
  0
ACAD_PROXY_OBJECT
  5
3B
102
{ACAD_REACTORS
330
2A
102
}
330
2A
100
AcDbZombieObject
 90
      499
 91
      501
 93
      428
310
42529A5D1D195C93D999914409028333333333333E33F0000000000000F9010790141107004050150A41D405064090741402480A0350
1001
ACAD
1000
AcDbSavedByObjectVersion
1070
     0
  0
ACAD_PROXY_OBJECT
  5
38
102
{ACAD_REACTORS
330
2A
102
}
330
2A
100
AcDbZombieObject
 90
      499
 91
      501
 93
      444
310
42D31A5B995C185D1D195C9B90E409028333333333333E33F0000000000000F9010790141107004050750841D405064090741402483A0350
1001
ACAD
1000
AcDbSavedByObjectVersion
1070
     0
  0
ACAD_PROXY_OBJECT
  5
3C
102
{ACAD_REACTORS
330
2A
102
}
330
2A
100
AcDbZombieObject
 90
      499
 91
      501
 93
      444
310
42D3DD995C9A185B99D3D999915409028333333333333E33F0000000000000F9010790141107004050150941D405064090741402480A0350
1001
ACAD
1000
AcDbSavedByObjectVersion
1070
     0
  0
ACAD_PROXY_OBJECT
  5
33
102
{ACAD_REACTORS
330
2A
102
}
330
2A
100
AcDbZombieObject
 90
      499
 91
      501
 93
      428
310
425499585B1A5CDD1A58D08409038333333333333E33F0000000000000F9010740A907004050150800405405064090740C02480A1B40
1001
ACAD
1000
AcDbSavedByObjectVersion
1070
     0
  0
ACAD_PROXY_OBJECT
  5
42
102
{ACAD_REACTORS
330
2A
102
}
330
2A
100
AcDbZombieObject
 90
      499
 91
      501
 93
      420
310
4194DA1859195911B40902404333333333333E33F0000000000000F9010740A41107004050150800405405064090840C02480A0B40
1001
ACAD
1000
AcDbSavedByObjectVersion
1070
     0
  0
ACAD_PROXY_OBJECT
  5
41
102
{ACAD_REACTORS
330
2A
102
}
330
2A
100
AcDbZombieObject
 90
      499
 91
      501
 93
      516
310
4454DA18591959081DDA5D1A08195919D95CD1A40902404333333333333E33F0000000000000F901074090142907004050250800405405064090740C02480A0B40
1001
ACAD
1000
AcDbSavedByObjectVersion
1070
     0
  0
ACAD_PROXY_OBJECT
  5
3E
102
{ACAD_REACTORS
330
2A
102
}
330
2A
100
AcDbZombieObject
 90
      499
 91
      501
 93
      532
310
4394DA1859195CC81BD98811DC985E5174090240C333333333333E33F0000000000000F901079024090741D01000000000000111010841D405064090740C02480A0340
1001
ACAD
1000
AcDbSavedByObjectVersion
1070
     0
  0
ACAD_PROXY_OBJECT
  5
3F
102
{ACAD_REACTORS
330
2A
102
}
330
2A
100
AcDbZombieObject
 90
      499
 91
      501
 93
      476
310
41D4DAD95D18DA1E51840502408333333333333E33F0000000000000F901079024090741D01000000000000111010B41D405064090741802480A0340
1001
ACAD
1000
AcDbSavedByObjectVersion
1070
     0
  0
ACAD_PROXY_OBJECT
  5
37
102
{ACAD_REACTORS
330
2A
102
}
330
2A
100
AcDbZombieObject
 90
      499
 91
      501
 93
      412
310
41D51A1A58DAD95B90D409028333333333333E33F0000000000000F9010790141107004050150C41D405064090741402480A0350
1001
ACAD
1000
AcDbSavedByObjectVersion
1070
     0
  0
ACAD_PROXY_OBJECT
  5
30
102
{ACAD_REACTORS
330
2A
102
}
330
2A
100
AcDbZombieObject
 90
      499
 91
      501
 93
      420
310
4255DA5C99599C985B595059028333333333333E33F0000000000000F90107901411070040501600405405064090740C02480A0340
1001
ACAD
1000
AcDbSavedByObjectVersion
1070
     0
  0
ACAD_PROXY_OBJECT
  5
40
102
{ACAD_REACTORS
330
2A
102
}
330
2A
100
AcDbZombieObject
 90
      499
 91
      501
 93
      404
310
41560B54985E51940902404000000000000E03F0000000000000F9010740501907004050150841D405064090740C02480A1B40
1001
ACAD
1000
AcDbSavedByObjectVersion
1070
     0
  0
DICTIONARYVAR
  5
1A7
102
{ACAD_REACTORS
330
19C
102
}
330
19C
100
DictionaryVariables
280
     0
  1
1:1
  0
DICTIONARYVAR
  5
1A3
102
{ACAD_REACTORS
330
19C
102
}
330
19C
100
DictionaryVariables
280
     0
  1
3.500000
  0
DICTIONARYVAR
  5
1A4
102
{ACAD_REACTORS
330
19C
102
}
330
19C
100
DictionaryVariables
280
     0
  1
acadiso.lin
  0
DICTIONARYVAR
  5
19E
102
{ACAD_REACTORS
330
19C
102
}
330
19C
100
DictionaryVariables
280
     0
  1
Standard
  0
DICTIONARYVAR
  5
19D
102
{ACAD_REACTORS
330
19C
102
}
330
19C
100
DictionaryVariables
280
     0
  1
Standard
  0
DICTIONARYVAR
  5
1A5
102
{ACAD_REACTORS
330
19C
102
}
330
19C
100
DictionaryVariables
280
     0
  1
2
  0
DICTIONARYVAR
  5
1A6
102
{ACAD_REACTORS
330
19C
102
}
330
19C
100
DictionaryVariables
280
     0
  1
1
  0
DICTIONARYVAR
  5
1A8
102
{ACAD_REACTORS
330
19C
102
}
330
19C
100
DictionaryVariables
280
     0
  1
1
  0
DICTIONARYVAR
  5
1A0
102
{ACAD_REACTORS
330
19C
102
}
330
19C
100
DictionaryVariables
280
     0
  1
80.000000
  0
DICTIONARYVAR
  5
19F
102
{ACAD_REACTORS
330
19C
102
}
330
19C
100
DictionaryVariables
280
     0
  1
5.000000
  0
DICTIONARY
  5
1AB
330
45
100
AcDbDictionary
  3
ACAD_XREC_ROUNDTRIP
360
1AC
1001
ACAD
1000
TREAT_AS_HARD
1070
     1
  0
DICTIONARY
  5
1A9
330
44
100
AcDbDictionary
  3
ACAD_XREC_ROUNDTRIP
360
1AA
1001
ACAD
1000
TREAT_AS_HARD
1070
     1
  0
DICTIONARY
  5
1AD
330
46
100
AcDbDictionary
  3
ACAD_XREC_ROUNDTRIP
360
1AE
1001
ACAD
1000
TREAT_AS_HARD
1070
     1
  0
XRECORD
  5
1AC
102
{ACAD_REACTORS
330
1AB
102
}
330
1AB
100
AcDbXrecord
102
MATERIAL
148
0.0
149
0.0
149
0.0
 93
        0
 94
      127
282
     0
 72
     1
 77
     1
171
     1
175
     1
179
     1
273
     0
  0
XRECORD
  5
1AA
102
{ACAD_REACTORS
330
1A9
102
}
330
1A9
100
AcDbXrecord
102
MATERIAL
148
0.0
149
0.0
149
0.0
 93
        0
 94
      127
282
     0
 72
     1
 77
     1
171
     1
175
     1
179
     1
273
     0
  0
XRECORD
  5
1AE
102
{ACAD_REACTORS
330
1AD
102
}
330
1AD
100
AcDbXrecord
102
MATERIAL
148
0.0
149
0.0
149
0.0
 93
        0
 94
      127
282
     0
 72
     1
 77
     1
171
     1
175
     1
179
     1
273
     0
  0
ENDSEC
  0
EOF
