  0
SECTION
  2
HEADER
  9
$ACADVER
  1
AC1012
  9
$DWGCODEPAGE
  3
ansi_1252
  9
$INSBASE
 10
0.0
 20
0.0
 30
0.0
  9
$EXTMIN
 10
1.000000000000000E+20
 20
1.000000000000000E+20
 30
1.000000000000000E+20
  9
$EXTMAX
 10
-1.000000000000000E+20
 20
-1.000000000000000E+20
 30
-1.000000000000000E+20
  9
$LIMMIN
 10
0.0
 20
0.0
  9
$LIMMAX
 10
420.0
 20
297.0
  9
$ORTHOMODE
 70
     0
  9
$REGENMODE
 70
     1
  9
$FILLMODE
 70
     1
  9
$QTEXTMODE
 70
     0
  9
$MIRRTEXT
 70
     1
  9
$DRAGMODE
 70
     2
  9
$LTSCALE
 40
1.0
  9
$OSMODE
 70
    37
  9
$ATTMODE
 70
     1
  9
$TEXTSIZE
 40
2.5
  9
$TRACEWID
 40
1.0
  9
$TEXTSTYLE
  7
STANDARD
  9
$CLAYER
  8
0
  9
$CELTYPE
  6
BYLAYER
  9
$CECOLOR
 62
   256
  9
$CELTSCALE
 40
1.0
  9
$DELOBJ
 70
     1
  9
$DISPSILH
 70
     0
  9
$DIMSCALE
 40
1.0
  9
$DIMASZ
 40
2.5
  9
$DIMEXO
 40
0.625
  9
$DIMDLI
 40
3.75
  9
$DIMRND
 40
0.0
  9
$DIMDLE
 40
0.0
  9
$DIMEXE
 40
1.25
  9
$DIMTP
 40
0.0
  9
$DIMTM
 40
0.0
  9
$DIMTXT
 40
2.5
  9
$DIMCEN
 40
2.5
  9
$DIMTSZ
 40
0.0
  9
$DIMTOL
 70
     0
  9
$DIMLIM
 70
     0
  9
$DIMTIH
 70
     0
  9
$DIMTOH
 70
     0
  9
$DIMSE1
 70
     0
  9
$DIMSE2
 70
     0
  9
$DIMTAD
 70
     1
  9
$DIMZIN
 70
     8
  9
$DIMBLK
  1

  9
$DIMASO
 70
     1
  9
$DIMSHO
 70
     1
  9
$DIMPOST
  1

  9
$DIMAPOST
  1

  9
$DIMALT
 70
     0
  9
$DIMALTD
 70
     3
  9
$DIMALTF
 40
0.03937007874016
  9
$DIMLFAC
 40
1.0
  9
$DIMTOFL
 70
     1
  9
$DIMTVP
 40
0.0
  9
$DIMTIX
 70
     0
  9
$DIMSOXD
 70
     0
  9
$DIMSAH
 70
     0
  9
$DIMBLK1
  1

  9
$DIMBLK2
  1

  9
$DIMSTYLE
  2
ISO-25
  9
$DIMCLRD
 70
     0
  9
$DIMCLRE
 70
     0
  9
$DIMCLRT
 70
     0
  9
$DIMTFAC
 40
1.0
  9
$DIMGAP
 40
0.625
  9
$DIMJUST
 70
     0
  9
$DIMSD1
 70
     0
  9
$DIMSD2
 70
     0
  9
$DIMTOLJ
 70
     0
  9
$DIMTZIN
 70
     8
  9
$DIMALTZ
 70
     0
  9
$DIMALTTZ
 70
     0
  9
$DIMFIT
 70
     3
  9
$DIMUPT
 70
     0
  9
$DIMUNIT
 70
     2
  9
$DIMDEC
 70
     2
  9
$DIMTDEC
 70
     2
  9
$DIMALTU
 70
     2
  9
$DIMALTTD
 70
     3
  9
$DIMTXSTY
  7
STANDARD
  9
$DIMAUNIT
 70
     0
  9
$LUNITS
 70
     2
  9
$LUPREC
 70
     4
  9
$SKETCHINC
 40
1.0
  9
$FILLETRAD
 40
10.0
  9
$AUNITS
 70
     0
  9
$AUPREC
 70
     0
  9
$MENU
  1
.
  9
$ELEVATION
 40
0.0
  9
$PELEVATION
 40
0.0
  9
$THICKNESS
 40
0.0
  9
$LIMCHECK
 70
     0
  9
$CHAMFERA
 40
0.0
  9
$CHAMFERB
 40
0.0
  9
$CHAMFERC
 40
0.0
  9
$CHAMFERD
 40
0.0
  9
$SKPOLY
 70
     0
  9
$TDCREATE
 40
2458047.65101346
  9
$TDUPDATE
 40
2458047.651016528
  9
$TDINDWG
 40
0.0000000116
  9
$TDUSRTIMER
 40
0.0000000116
  9
$USRTIMER
 70
     1
  9
$ANGBASE
 50
0.0
  9
$ANGDIR
 70
     0
  9
$PDMODE
 70
     0
  9
$PDSIZE
 40
0.0
  9
$PLINEWID
 40
0.0
  9
$COORDS
 70
     1
  9
$SPLFRAME
 70
     0
  9
$SPLINETYPE
 70
     6
  9
$SPLINESEGS
 70
     8
  9
$ATTDIA
 70
     0
  9
$ATTREQ
 70
     1
  9
$HANDLING
 70
     1
  9
$HANDSEED
  5
3A9
  9
$SURFTAB1
 70
     6
  9
$SURFTAB2
 70
     6
  9
$SURFTYPE
 70
     6
  9
$SURFU
 70
     6
  9
$SURFV
 70
     6
  9
$UCSNAME
  2

  9
$UCSORG
 10
0.0
 20
0.0
 30
0.0
  9
$UCSXDIR
 10
1.0
 20
0.0
 30
0.0
  9
$UCSYDIR
 10
0.0
 20
1.0
 30
0.0
  9
$PUCSNAME
  2

  9
$PUCSORG
 10
0.0
 20
0.0
 30
0.0
  9
$PUCSXDIR
 10
1.0
 20
0.0
 30
0.0
  9
$PUCSYDIR
 10
0.0
 20
1.0
 30
0.0
  9
$USERI1
 70
     0
  9
$USERI2
 70
     0
  9
$USERI3
 70
     0
  9
$USERI4
 70
     0
  9
$USERI5
 70
     0
  9
$USERR1
 40
0.0
  9
$USERR2
 40
0.0
  9
$USERR3
 40
0.0
  9
$USERR4
 40
0.0
  9
$USERR5
 40
0.0
  9
$WORLDVIEW
 70
     1
  9
$SHADEDGE
 70
     3
  9
$SHADEDIF
 70
    70
  9
$TILEMODE
 70
     1
  9
$MAXACTVP
 70
    64
  9
$PINSBASE
 10
0.0
 20
0.0
 30
0.0
  9
$PLIMCHECK
 70
     0
  9
$PEXTMIN
 10
1.000000000000000E+20
 20
1.000000000000000E+20
 30
1.000000000000000E+20
  9
$PEXTMAX
 10
-1.000000000000000E+20
 20
-1.000000000000000E+20
 30
-1.000000000000000E+20
  9
$PLIMMIN
 10
0.0
 20
0.0
  9
$PLIMMAX
 10
420.0
 20
297.0
  9
$UNITMODE
 70
     0
  9
$VISRETAIN
 70
     1
  9
$PLINEGEN
 70
     0
  9
$PSLTSCALE
 70
     1
  9
$TREEDEPTH
 70
  3020
  9
$PICKSTYLE
 70
     1
  9
$CMLSTYLE
  2
STANDARD
  9
$CMLJUST
 70
     0
  9
$CMLSCALE
 40
20.0
  9
$SAVEIMAGES
 70
     1
  0
ENDSEC
  0
SECTION
  2
CLASSES
  0
CLASS
  1
ACDBDICTIONARYWDFLT
  2
AcDbDictionaryWithDefault
  3
ObjectDBX Classes
 90
    32768
280
     0
281
     0
  0
CLASS
  1
VISUALSTYLE
  2
AcDbVisualStyle
  3
ObjectDBX Classes
 90
     4095
280
     0
281
     0
  0
CLASS
  1
MATERIAL
  2
AcDbMaterial
  3
ObjectDBX Classes
 90
     1153
280
     0
281
     0
  0
CLASS
  1
SCALE
  2
AcDbScale
  3
ObjectDBX Classes
 90
     1153
280
     0
281
     0
  0
CLASS
  1
TABLESTYLE
  2
AcDbTableStyle
  3
ObjectDBX Classes
 90
     4095
280
     0
281
     0
  0
CLASS
  1
MLEADERSTYLE
  2
AcDbMLeaderStyle
  3
ACDB_MLEADERSTYLE_CLASS
 90
     4095
280
     0
281
     0
  0
CLASS
  1
SUN
  2
AcDbSun
  3
SCENEOE
 90
     1153
280
     0
281
     0
  0
CLASS
  1
DICTIONARYVAR
  2
AcDbDictionaryVar
  3
ObjectDBX Classes
 90
        0
280
     0
281
     0
  0
CLASS
  1
XRECORD
  2
AcDbXrecord
  3
ObjectDBX Classes
 90
    32768
280
     0
281
     0
  0
CLASS
  1
LWPOLYLINE
  2
AcDbPolyline
  3
ObjectDBX Classes
 90
    32768
280
     0
281
     1
  0
CLASS
  1
HATCH
  2
AcDbHatch
  3
ObjectDBX Classes
 90
    32768
280
     0
281
     1
  0
CLASS
  1
ACDBPLACEHOLDER
  2
AcDbPlaceHolder
  3
ObjectDBX Classes
 90
        0
280
     0
281
     0
  0
CLASS
  1
LAYOUT
  2
AcDbLayout
  3
ObjectDBX Classes
 90
        0
280
     0
281
     0
  0
ENDSEC
  0
SECTION
  2
TABLES
  0
TABLE
  2
VPORT
  5
8
330
0
100
AcDbSymbolTable
 70
     1
  0
VPORT
  5
29
330
8
100
AcDbSymbolTableRecord
100
AcDbViewportTableRecord
  2
*ACTIVE
 70
     0
 10
0.0
 20
0.0
 11
1.0
 21
1.0
 12
0.0
 22
0.0
 13
0.0
 23
0.0
 14
10.0
 24
10.0
 15
10.0
 25
10.0
 16
0.0
 26
0.0
 36
1.0
 17
0.0000000000000568
 27
0.0
 37
0.0
 40
822.12
 41
1.0
 42
50.0
 43
0.0
 44
0.0
 50
0.0
 51
0.0
 71
     0
 72
   100
 73
     1
 74
     3
 75
     0
 76
     0
 77
     0
 78
     0
  0
ENDTAB
  0
TABLE
  2
LTYPE
  5
5
330
0
100
AcDbSymbolTable
 70
     1
  0
LTYPE
  5
14
330
5
100
AcDbSymbolTableRecord
100
AcDbLinetypeTableRecord
  2
BYBLOCK
 70
     0
  3

 72
    65
 73
     0
 40
0.0
  0
LTYPE
  5
15
330
5
100
AcDbSymbolTableRecord
100
AcDbLinetypeTableRecord
  2
BYLAYER
 70
     0
  3

 72
    65
 73
     0
 40
0.0
  0
LTYPE
  5
16
330
5
100
AcDbSymbolTableRecord
100
AcDbLinetypeTableRecord
  2
CONTINUOUS
 70
     0
  3
Solid line
 72
    65
 73
     0
 40
0.0
  0
ENDTAB
  0
TABLE
  2
LAYER
  5
2
330
0
100
AcDbSymbolTable
 70
     4
  0
LAYER
  5
10
330
2
100
AcDbSymbolTableRecord
100
AcDbLayerTableRecord
  2
0
 70
     0
 62
     7
  6
CONTINUOUS
  0
LAYER
  5
6E
330
2
100
AcDbSymbolTableRecord
100
AcDbLayerTableRecord
  2
THICK
 70
     0
 62
     7
  6
CONTINUOUS
  0
LAYER
  5
6F
330
2
100
AcDbSymbolTableRecord
100
AcDbLayerTableRecord
  2
HIDDEN
 70
     0
 62
     7
  6
CONTINUOUS
  0
LAYER
  5
70
330
2
100
AcDbSymbolTableRecord
100
AcDbLayerTableRecord
  2
HASHLINES
 70
     0
 62
     7
  6
CONTINUOUS
  0
ENDTAB
  0
TABLE
  2
STYLE
  5
3
330
0
100
AcDbSymbolTable
 70
     1
  0
STYLE
  5
11
330
3
100
AcDbSymbolTableRecord
100
AcDbTextStyleTableRecord
  2
STANDARD
 70
     0
 40
0.0
 41
1.0
 50
0.0
 71
     0
 42
2.5
  3
txt
  4

  0
ENDTAB
  0
TABLE
  2
VIEW
  5
6
330
0
100
AcDbSymbolTable
 70
     0
  0
ENDTAB
  0
TABLE
  2
UCS
  5
7
330
0
100
AcDbSymbolTable
 70
     0
  0
ENDTAB
  0
TABLE
  2
APPID
  5
9
330
0
100
AcDbSymbolTable
 70
     3
  0
APPID
  5
12
330
9
100
AcDbSymbolTableRecord
100
AcDbRegAppTableRecord
  2
ACAD
 70
     0
  0
APPID
  5
71
330
9
100
AcDbSymbolTableRecord
100
AcDbRegAppTableRecord
  2
DBPROPERTIES
 70
     0
  0
APPID
  5
3A8
330
9
100
AcDbSymbolTableRecord
100
AcDbRegAppTableRecord
  2
ACAD_MLEADERVER
 70
     0
  0
ENDTAB
  0
TABLE
  2
DIMSTYLE
  5
A
330
0
100
AcDbSymbolTable
 70
     1
  0
DIMSTYLE
105
27
330
A
100
AcDbSymbolTableRecord
100
AcDbDimStyleTableRecord
  2
ISO-25
 70
     0
  3

  4

  5

  6

  7

 40
1.0
 41
2.5
 42
0.625
 43
3.75
 44
1.25
 45
0.0
 46
0.0
 47
0.0
 48
0.0
140
2.5
141
2.5
142
0.0
143
0.03937007874016
144
1.0
145
0.0
146
1.0
147
0.625
 71
     0
 72
     0
 73
     0
 74
     0
 75
     0
 76
     0
 77
     1
 78
     8
170
     0
171
     3
172
     1
173
     0
174
     0
175
     0
176
     0
177
     0
178
     0
270
     2
271
     2
272
     2
273
     2
274
     3
340
11
275
     0
280
     0
281
     0
282
     0
283
     0
284
     8
285
     0
286
     0
287
     3
288
     0
  0
ENDTAB
  0
TABLE
  2
BLOCK_RECORD
  5
1
330
0
100
AcDbSymbolTable
 70
     0
  0
BLOCK_RECORD
  5
1F
330
1
100
AcDbSymbolTableRecord
100
AcDbBlockTableRecord
  2
*MODEL_SPACE
  0
BLOCK_RECORD
  5
1B
330
1
100
AcDbSymbolTableRecord
100
AcDbBlockTableRecord
  2
*PAPER_SPACE
  0
ENDTAB
  0
ENDSEC
  0
SECTION
  2
BLOCKS
  0
BLOCK
  5
20
330
1F
100
AcDbEntity
  8
0
100
AcDbBlockBegin
  2
*MODEL_SPACE
 70
     0
 10
0.0
 20
0.0
 30
0.0
  3
*MODEL_SPACE
  1

  0
ENDBLK
  5
21
330
1F
100
AcDbEntity
  8
0
100
AcDbBlockEnd
  0
BLOCK
  5
1C
330
1B
100
AcDbEntity
 67
     1
  8
0
100
AcDbBlockBegin
  2
*PAPER_SPACE
 70
     0
 10
0.0
 20
0.0
 30
0.0
  3
*PAPER_SPACE
  1

  0
ENDBLK
  5
1D
330
1B
100
AcDbEntity
 67
     1
  8
0
100
AcDbBlockEnd
  0
ENDSEC
  0
SECTION
  2
ENTITIES
  0
ARC
  5
72
330
1F
100
AcDbEntity
  8
THICK
100
AcDbCircle
 10
0.0
 20
0.0
 30
0.0
 40
392.0
100
AcDbArc
 50
180.0000198478428
 51
270.0000187239684
1001
DBPROPERTIES
1002
{
1000
PbThick
1002
}
  0
ARC
  5
73
330
1F
100
AcDbEntity
  8
THICK
100
AcDbCircle
 10
0.0
 20
0.0
 30
0.0
 40
392.0
100
AcDbArc
 50
270.0000187239684
 51
0.0
1001
DBPROPERTIES
1002
{
1000
PbThick
1002
}
  0
ARC
  5
74
330
1F
100
AcDbEntity
  8
THICK
100
AcDbCircle
 10
0.0
 20
0.0
 30
0.0
 40
392.0
100
AcDbArc
 50
0.0
 51
180.0000198478428
1001
DBPROPERTIES
1002
{
1000
PbThick
1002
}
  0
ARC
  5
75
330
1F
100
AcDbEntity
  8
THICK
100
AcDbCircle
 10
147.3331214605598
 20
355.6936200168453
 30
0.0
 40
6.0
100
AcDbArc
 50
247.5000234049604
 51
67.49998595702374
1001
DBPROPERTIES
1002
{
1000
PbThick
1002
}
  0
ARC
  5
76
330
1F
100
AcDbEntity
  8
THICK
100
AcDbCircle
 10
147.3331214605598
 20
355.6936200168453
 30
0.0
 40
6.0
100
AcDbArc
 50
67.49998595702374
 51
247.5000234049604
1001
DBPROPERTIES
1002
{
1000
PbThick
1002
}
  0
ARC
  5
77
330
1F
100
AcDbEntity
  8
THICK
100
AcDbCircle
 10
272.2361107568208
 20
272.2361107568207
 30
0.0
 40
5.999999999999999
100
AcDbArc
 50
225.0000280859525
 51
44.99999063801582
1001
DBPROPERTIES
1002
{
1000
PbThick
1002
}
  0
ARC
  5
78
330
1F
100
AcDbEntity
  8
THICK
100
AcDbCircle
 10
272.2361107568208
 20
272.2361107568207
 30
0.0
 40
5.999999999999999
100
AcDbArc
 50
44.99999063801582
 51
225.0000280859525
1001
DBPROPERTIES
1002
{
1000
PbThick
1002
}
  0
ARC
  5
79
330
1F
100
AcDbEntity
  8
THICK
100
AcDbCircle
 10
355.6936200168453
 20
147.3331214605596
 30
0.0
 40
5.999999999999999
100
AcDbArc
 50
202.5000327669446
 51
22.49999531900791
1001
DBPROPERTIES
1002
{
1000
PbThick
1002
}
  0
ARC
  5
7A
330
1F
100
AcDbEntity
  8
THICK
100
AcDbCircle
 10
355.6936200168453
 20
147.3331214605596
 30
0.0
 40
5.999999999999999
100
AcDbArc
 50
22.49999531900791
 51
202.5000327669446
1001
DBPROPERTIES
1002
{
1000
PbThick
1002
}
  0
ARC
  5
7B
330
1F
100
AcDbEntity
  8
THICK
100
AcDbCircle
 10
385.0
 20
-0.0000000000000943
 30
0.0
 40
6.0
100
AcDbArc
 50
180.0000198478428
 51
0.0
1001
DBPROPERTIES
1002
{
1000
PbThick
1002
}
  0
ARC
  5
7C
330
1F
100
AcDbEntity
  8
THICK
100
AcDbCircle
 10
385.0
 20
-0.0000000000000943
 30
0.0
 40
6.0
100
AcDbArc
 50
0.0
 51
180.0000198478428
1001
DBPROPERTIES
1002
{
1000
PbThick
1002
}
  0
ARC
  5
7D
330
1F
100
AcDbEntity
  8
THICK
100
AcDbCircle
 10
355.6936200168453
 20
-147.3331214605598
 30
0.0
 40
6.0
100
AcDbArc
 50
157.4999672330554
 51
337.500004680992
1001
DBPROPERTIES
1002
{
1000
PbThick
1002
}
  0
ARC
  5
7E
330
1F
100
AcDbEntity
  8
THICK
100
AcDbCircle
 10
355.6936200168453
 20
-147.3331214605598
 30
0.0
 40
6.0
100
AcDbArc
 50
337.500004680992
 51
157.4999672330554
1001
DBPROPERTIES
1002
{
1000
PbThick
1002
}
  0
ARC
  5
7F
330
1F
100
AcDbEntity
  8
THICK
100
AcDbCircle
 10
272.2361107568208
 20
-272.2361107568208
 30
0.0
 40
6.0
100
AcDbArc
 50
134.9999719140475
 51
315.0000093619842
1001
DBPROPERTIES
1002
{
1000
PbThick
1002
}
  0
ARC
  5
80
330
1F
100
AcDbEntity
  8
THICK
100
AcDbCircle
 10
272.2361107568208
 20
-272.2361107568208
 30
0.0
 40
6.0
100
AcDbArc
 50
315.0000093619842
 51
134.9999719140475
1001
DBPROPERTIES
1002
{
1000
PbThick
1002
}
  0
ARC
  5
81
330
1F
100
AcDbEntity
  8
THICK
100
AcDbCircle
 10
147.3331214605595
 20
-355.6936200168454
 30
0.0
 40
5.999999999999999
100
AcDbArc
 50
112.4999765950396
 51
292.5000140429763
1001
DBPROPERTIES
1002
{
1000
PbThick
1002
}
  0
ARC
  5
82
330
1F
100
AcDbEntity
  8
THICK
100
AcDbCircle
 10
147.3331214605595
 20
-355.6936200168454
 30
0.0
 40
5.999999999999999
100
AcDbArc
 50
292.5000140429763
 51
112.4999765950396
1001
DBPROPERTIES
1002
{
1000
PbThick
1002
}
  0
ARC
  5
83
330
1F
100
AcDbEntity
  8
THICK
100
AcDbCircle
 10
-0.0000000000000707
 20
-385.0
 30
0.0
 40
6.0
100
AcDbArc
 50
89.99998127603165
 51
270.0000187239684
1001
DBPROPERTIES
1002
{
1000
PbThick
1002
}
  0
ARC
  5
84
330
1F
100
AcDbEntity
  8
THICK
100
AcDbCircle
 10
-0.0000000000000707
 20
-385.0
 30
0.0
 40
6.0
100
AcDbArc
 50
270.0000187239684
 51
89.99998127603165
1001
DBPROPERTIES
1002
{
1000
PbThick
1002
}
  0
ARC
  5
85
330
1F
100
AcDbEntity
  8
THICK
100
AcDbCircle
 10
-147.3331214605596
 20
-355.6936200168454
 30
0.0
 40
6.0
100
AcDbArc
 50
67.49998595702374
 51
247.5000234049604
1001
DBPROPERTIES
1002
{
1000
PbThick
1002
}
  0
ARC
  5
86
330
1F
100
AcDbEntity
  8
THICK
100
AcDbCircle
 10
-147.3331214605596
 20
-355.6936200168454
 30
0.0
 40
6.0
100
AcDbArc
 50
247.5000234049604
 51
67.49998595702374
1001
DBPROPERTIES
1002
{
1000
PbThick
1002
}
  0
ARC
  5
87
330
1F
100
AcDbEntity
  8
THICK
100
AcDbCircle
 10
-272.2361107568208
 20
-272.2361107568208
 30
0.0
 40
5.999999999999999
100
AcDbArc
 50
44.99999063801582
 51
225.0000280859525
1001
DBPROPERTIES
1002
{
1000
PbThick
1002
}
  0
ARC
  5
88
330
1F
100
AcDbEntity
  8
THICK
100
AcDbCircle
 10
-272.2361107568208
 20
-272.2361107568208
 30
0.0
 40
5.999999999999999
100
AcDbArc
 50
225.0000280859525
 51
44.99999063801582
1001
DBPROPERTIES
1002
{
1000
PbThick
1002
}
  0
ARC
  5
89
330
1F
100
AcDbEntity
  8
THICK
100
AcDbCircle
 10
-355.6936200168454
 20
-147.3331214605595
 30
0.0
 40
5.999999999999999
100
AcDbArc
 50
22.49999531900791
 51
202.5000327669446
1001
DBPROPERTIES
1002
{
1000
PbThick
1002
}
  0
ARC
  5
8A
330
1F
100
AcDbEntity
  8
THICK
100
AcDbCircle
 10
-355.6936200168454
 20
-147.3331214605595
 30
0.0
 40
5.999999999999999
100
AcDbArc
 50
202.5000327669446
 51
22.49999531900791
1001
DBPROPERTIES
1002
{
1000
PbThick
1002
}
  0
ARC
  5
8B
330
1F
100
AcDbEntity
  8
THICK
100
AcDbCircle
 10
-385.0
 20
0.0000000000000471
 30
0.0
 40
6.0
100
AcDbArc
 50
0.0
 51
180.0000198478428
1001
DBPROPERTIES
1002
{
1000
PbThick
1002
}
  0
ARC
  5
8C
330
1F
100
AcDbEntity
  8
THICK
100
AcDbCircle
 10
-385.0
 20
0.0000000000000471
 30
0.0
 40
6.0
100
AcDbArc
 50
180.0000198478428
 51
0.0
1001
DBPROPERTIES
1002
{
1000
PbThick
1002
}
  0
ARC
  5
8D
330
1F
100
AcDbEntity
  8
THICK
100
AcDbCircle
 10
-355.6936200168454
 20
147.3331214605596
 30
0.0
 40
6.0
100
AcDbArc
 50
337.500004680992
 51
157.4999672330554
1001
DBPROPERTIES
1002
{
1000
PbThick
1002
}
  0
ARC
  5
8E
330
1F
100
AcDbEntity
  8
THICK
100
AcDbCircle
 10
-355.6936200168454
 20
147.3331214605596
 30
0.0
 40
6.0
100
AcDbArc
 50
157.4999672330554
 51
337.500004680992
1001
DBPROPERTIES
1002
{
1000
PbThick
1002
}
  0
ARC
  5
8F
330
1F
100
AcDbEntity
  8
THICK
100
AcDbCircle
 10
-272.2361107568208
 20
272.2361107568208
 30
0.0
 40
5.999999999999999
100
AcDbArc
 50
315.0000093619842
 51
134.9999719140475
1001
DBPROPERTIES
1002
{
1000
PbThick
1002
}
  0
ARC
  5
90
330
1F
100
AcDbEntity
  8
THICK
100
AcDbCircle
 10
-272.2361107568208
 20
272.2361107568208
 30
0.0
 40
5.999999999999999
100
AcDbArc
 50
134.9999719140475
 51
315.0000093619842
1001
DBPROPERTIES
1002
{
1000
PbThick
1002
}
  0
ARC
  5
91
330
1F
100
AcDbEntity
  8
THICK
100
AcDbCircle
 10
-147.3331214605595
 20
355.6936200168454
 30
0.0
 40
5.999999999999999
100
AcDbArc
 50
292.5000140429763
 51
112.4999765950396
1001
DBPROPERTIES
1002
{
1000
PbThick
1002
}
  0
ARC
  5
92
330
1F
100
AcDbEntity
  8
THICK
100
AcDbCircle
 10
-147.3331214605595
 20
355.6936200168454
 30
0.0
 40
5.999999999999999
100
AcDbArc
 50
112.4999765950396
 51
292.5000140429763
1001
DBPROPERTIES
1002
{
1000
PbThick
1002
}
  0
ARC
  5
93
330
1F
100
AcDbEntity
  8
THICK
100
AcDbCircle
 10
0.0000000000000236
 20
385.0
 30
0.0
 40
6.0
100
AcDbArc
 50
270.0000187239684
 51
89.99998127603165
1001
DBPROPERTIES
1002
{
1000
PbThick
1002
}
  0
ARC
  5
94
330
1F
100
AcDbEntity
  8
THICK
100
AcDbCircle
 10
0.0000000000000236
 20
385.0
 30
0.0
 40
6.0
100
AcDbArc
 50
89.99998127603165
 51
270.0000187239684
1001
DBPROPERTIES
1002
{
1000
PbThick
1002
}
  0
ARC
  5
95
330
1F
100
AcDbEntity
  8
THICK
100
AcDbCircle
 10
0.0
 20
0.0
 30
0.0
 40
355.0
100
AcDbArc
 50
270.0000187239684
 51
89.99998127603165
1001
DBPROPERTIES
1002
{
1000
PbThick
1002
}
  0
ARC
  5
96
330
1F
100
AcDbEntity
  8
THICK
100
AcDbCircle
 10
0.0
 20
0.0
 30
0.0
 40
355.0
100
AcDbArc
 50
89.99998127603165
 51
270.0000187239684
1001
DBPROPERTIES
1002
{
1000
PbThick
1002
}
  0
ARC
  5
97
330
1F
100
AcDbEntity
  8
HIDDEN
100
AcDbCircle
 10
0.0
 20
0.0
 30
0.0
 40
392.0
100
AcDbArc
 50
89.99998127603165
 51
179.9999801521572
1001
DBPROPERTIES
1002
{
1000
PbHidd
1002
}
  0
ARC
  5
98
330
1F
100
AcDbEntity
  8
HIDDEN
100
AcDbCircle
 10
0.0
 20
0.0
 30
0.0
 40
392.0
100
AcDbArc
 50
0.0
 51
89.99998127603165
1001
DBPROPERTIES
1002
{
1000
PbHidd
1002
}
  0
ARC
  5
99
330
1F
100
AcDbEntity
  8
THICK
100
AcDbCircle
 10
0.0000000000000007
 20
0.0000000000000013
 30
0.0
 40
403.0
100
AcDbArc
 50
180.0000198478428
 51
270.0000187239684
1001
DBPROPERTIES
1002
{
1000
PbThick
1002
}
  0
ARC
  5
9A
330
1F
100
AcDbEntity
  8
THICK
100
AcDbCircle
 10
0.0000000000000007
 20
0.0000000000000013
 30
0.0
 40
403.0
100
AcDbArc
 50
270.0000187239684
 51
0.0
1001
DBPROPERTIES
1002
{
1000
PbThick
1002
}
  0
ARC
  5
9B
330
1F
100
AcDbEntity
  8
THICK
100
AcDbCircle
 10
0.0000000000000007
 20
0.0000000000000013
 30
0.0
 40
403.0
100
AcDbArc
 50
0.0
 51
89.99998127603165
1001
DBPROPERTIES
1002
{
1000
PbThick
1002
}
  0
ARC
  5
9C
330
1F
100
AcDbEntity
  8
HIDDEN
100
AcDbCircle
 10
0.0
 20
0.0
 30
0.0
 40
357.0
100
AcDbArc
 50
270.0000187239684
 51
89.99998127603165
1001
DBPROPERTIES
1002
{
1000
PbHidd
1002
}
  0
LINE
  5
9D
330
1F
100
AcDbEntity
  8
HIDDEN
100
AcDbLine
 10
323.4166666666666
 20
-146.3784810763599
 30
0.0
 11
323.4166666666666
 21
-146.3784810763599
 31
0.0
1001
DBPROPERTIES
1002
{
1000
PbHidd
1002
}
  0
LINE
  5
9E
330
1F
100
AcDbEntity
  8
HIDDEN
100
AcDbLine
 10
321.5974018689966
 20
-150.3333333333333
 30
0.0
 11
321.5974018689966
 21
-150.3333333333333
 31
0.0
1001
DBPROPERTIES
1002
{
1000
PbHidd
1002
}
  0
LINE
  5
9F
330
1F
100
AcDbEntity
  8
HIDDEN
100
AcDbLine
 10
118.3333333333333
 20
-334.6972097616325
 30
0.0
 11
118.3333333333333
 21
-334.6972097616325
 31
0.0
1001
DBPROPERTIES
1002
{
1000
PbHidd
1002
}
  0
LINE
  5
A0
330
1F
100
AcDbEntity
  8
HIDDEN
100
AcDbLine
 10
114.3333333333333
 20
-336.0846454226805
 30
0.0
 11
114.3333333333333
 21
-336.0846454226805
 31
0.0
1001
DBPROPERTIES
1002
{
1000
PbHidd
1002
}
  0
ARC
  5
A1
330
1F
100
AcDbEntity
  8
THICK
100
AcDbCircle
 10
0.0000000000000007
 20
0.0
 30
0.0
 40
118.3333333333333
100
AcDbArc
 50
0.0
 51
89.99998127603165
1001
DBPROPERTIES
1002
{
1000
PbThick
1002
}
  0
ARC
  5
A2
330
1F
100
AcDbEntity
  8
THICK
100
AcDbCircle
 10
0.0000000000000007
 20
0.0
 30
0.0
 40
118.3333333333333
100
AcDbArc
 50
270.0000187239684
 51
0.0
1001
DBPROPERTIES
1002
{
1000
PbThick
1002
}
  0
ARC
  5
A3
330
1F
100
AcDbEntity
  8
THICK
100
AcDbCircle
 10
0.0
 20
0.0
 30
0.0
 40
107.3333333333333
100
AcDbArc
 50
0.0
 51
89.99998127603165
1001
DBPROPERTIES
1002
{
1000
PbThick
1002
}
  0
ARC
  5
A4
330
1F
100
AcDbEntity
  8
THICK
100
AcDbCircle
 10
0.0000000000000007
 20
0.0
 30
0.0
 40
118.3333333333333
100
AcDbArc
 50
89.99998127603165
 51
180.0000198478428
1001
DBPROPERTIES
1002
{
1000
PbThick
1002
}
  0
ARC
  5
A5
330
1F
100
AcDbEntity
  8
THICK
100
AcDbCircle
 10
0.0
 20
0.0
 30
0.0
 40
107.3333333333333
100
AcDbArc
 50
89.99998127603165
 51
180.0000198478428
1001
DBPROPERTIES
1002
{
1000
PbThick
1002
}
  0
ARC
  5
A6
330
1F
100
AcDbEntity
  8
HIDDEN
100
AcDbCircle
 10
0.0
 20
0.0
 30
0.0
 40
116.3934426229508
100
AcDbArc
 50
89.99998127603165
 51
270.0000187239684
1001
DBPROPERTIES
1002
{
1000
PbHidd
1002
}
  0
LINE
  5
A7
330
1F
100
AcDbEntity
  8
HIDDEN
100
AcDbLine
 10
-3.740192665853366
 20
-116.3333333333333
 30
0.0
 11
-3.740192665853366
 21
-116.3333333333333
 31
0.0
1001
DBPROPERTIES
1002
{
1000
PbHidd
1002
}
  0
ARC
  5
A8
330
1F
100
AcDbEntity
  8
HIDDEN
100
AcDbCircle
 10
0.0
 20
0.0
 30
0.0
 40
94.66666666666667
100
AcDbArc
 50
270.0000187239684
 51
89.99998127603165
1001
DBPROPERTIES
1002
{
1000
PbHidd
1002
}
  0
ARC
  5
A9
330
1F
100
AcDbEntity
  8
HIDDEN
100
AcDbCircle
 10
0.0
 20
0.0
 30
0.0
 40
83.52941176470588
100
AcDbArc
 50
270.0000187239684
 51
89.99998127603165
1001
DBPROPERTIES
1002
{
1000
PbHidd
1002
}
  0
ARC
  5
AA
330
1F
100
AcDbEntity
  8
HIDDEN
100
AcDbCircle
 10
0.0
 20
0.0
 30
0.0
 40
91.66666666666667
100
AcDbArc
 50
89.99998127603165
 51
179.9999801521572
1001
DBPROPERTIES
1002
{
1000
PbHidd
1002
}
  0
ARC
  5
AB
330
1F
100
AcDbEntity
  8
HIDDEN
100
AcDbCircle
 10
0.0
 20
0.0
 30
0.0
 40
91.66666666666667
100
AcDbArc
 50
0.0
 51
89.99998127603165
1001
DBPROPERTIES
1002
{
1000
PbHidd
1002
}
  0
ARC
  5
AC
330
1F
100
AcDbEntity
  8
HIDDEN
100
AcDbCircle
 10
0.0
 20
0.0
 30
0.0
 40
79.52941176470588
100
AcDbArc
 50
89.99998127603165
 51
179.9999801521572
1001
DBPROPERTIES
1002
{
1000
PbHidd
1002
}
  0
ARC
  5
AD
330
1F
100
AcDbEntity
  8
HIDDEN
100
AcDbCircle
 10
0.0
 20
0.0
 30
0.0
 40
79.52941176470588
100
AcDbArc
 50
0.0
 51
89.99998127603165
1001
DBPROPERTIES
1002
{
1000
PbHidd
1002
}
  0
LINE
  5
AE
330
1F
100
AcDbEntity
  8
THICK
100
AcDbLine
 10
88.75
 20
-116.3333333333333
 30
0.0
 11
88.75
 21
-90.74514063910524
 31
0.0
1001
DBPROPERTIES
1002
{
1000
PbThick
1002
}
  0
LINE
  5
AF
330
1F
100
AcDbEntity
  8
HIDDEN
100
AcDbLine
 10
88.75
 20
-90.74514063910524
 30
0.0
 11
88.75
 21
-75.3051856489455
 31
0.0
1001
DBPROPERTIES
1002
{
1000
PbHidd
1002
}
  0
LINE
  5
B0
330
1F
100
AcDbEntity
  8
HIDDEN
100
AcDbLine
 10
-88.75
 20
-75.3051856489455
 30
0.0
 11
-88.75
 21
-116.3333333333333
 31
0.0
1001
DBPROPERTIES
1002
{
1000
PbHidd
1002
}
  0
LINE
  5
B1
330
1F
100
AcDbEntity
  8
HIDDEN
100
AcDbLine
 10
-88.75
 20
-62.11904741936095
 30
0.0
 11
-88.75
 21
-62.11904741936095
 31
0.0
1001
DBPROPERTIES
1002
{
1000
PbHidd
1002
}
  0
LINE
  5
B2
330
1F
100
AcDbEntity
  8
HIDDEN
100
AcDbLine
 10
-89.98218103319051
 20
-61.92388911604056
 30
0.0
 11
-88.74999999999999
 21
-62.11904741936095
 31
0.0
1001
DBPROPERTIES
1002
{
1000
PbHidd
1002
}
  0
LINE
  5
B3
330
1F
100
AcDbEntity
  8
HIDDEN
100
AcDbLine
 10
-89.98218103319053
 20
-61.92388911604054
 30
0.0
 11
-89.98218103319053
 21
-61.92388911604056
 31
0.0
1001
DBPROPERTIES
1002
{
1000
PbHidd
1002
}
  0
LINE
  5
B4
330
1F
100
AcDbEntity
  8
HIDDEN
100
AcDbLine
 10
-86.08130300506967
 20
-62.54172749929876
 30
0.0
 11
-86.08130300506967
 21
-62.54172749929876
 31
0.0
1001
DBPROPERTIES
1002
{
1000
PbHidd
1002
}
  0
LINE
  5
B5
330
1F
100
AcDbEntity
  8
HIDDEN
100
AcDbLine
 10
-86.08130300506966
 20
-62.54172749929876
 30
0.0
 11
-88.74999999999997
 21
-62.11904741936095
 31
0.0
1001
DBPROPERTIES
1002
{
1000
PbHidd
1002
}
  0
ARC
  5
B6
330
1F
100
AcDbEntity
  8
HIDDEN
100
AcDbCircle
 10
0.0
 20
0.0000000000000237
 30
0.0
 40
109.2307692307692
100
AcDbArc
 50
213.8650517038211
 51
214.534953957888
1001
DBPROPERTIES
1002
{
1000
PbHidd
1002
}
  0
LINE
  5
B7
330
1F
100
AcDbEntity
  8
HIDDEN
100
AcDbLine
 10
-90.70002615728089
 20
-60.86761209226231
 30
0.0
 11
-90.70002615728089
 21
-60.86761209226229
 31
0.0
1001
DBPROPERTIES
1002
{
1000
PbHidd
1002
}
  0
LINE
  5
B8
330
1F
100
AcDbEntity
  8
HIDDEN
100
AcDbLine
 10
-89.8384687789341
 20
-57.01322594892905
 30
0.0
 11
-90.70002615728089
 21
-60.86761209226229
 31
0.0
1001
DBPROPERTIES
1002
{
1000
PbHidd
1002
}
  0
LINE
  5
B9
330
1F
100
AcDbEntity
  8
HIDDEN
100
AcDbLine
 10
-89.83846877893411
 20
-57.01322594892908
 30
0.0
 11
-89.83846877893411
 21
-57.01322594892908
 31
0.0
1001
DBPROPERTIES
1002
{
1000
PbHidd
1002
}
  0
LINE
  5
BA
330
1F
100
AcDbEntity
  8
HIDDEN
100
AcDbLine
 10
-93.69285492226734
 20
-56.15166857058227
 30
0.0
 11
-89.83846877893409
 21
-57.01322594892906
 31
0.0
1001
DBPROPERTIES
1002
{
1000
PbHidd
1002
}
  0
LINE
  5
BB
330
1F
100
AcDbEntity
  8
HIDDEN
100
AcDbLine
 10
-93.69285492226737
 20
-56.15166857058227
 30
0.0
 11
-93.69285492226737
 21
-56.15166857058228
 31
0.0
1001
DBPROPERTIES
1002
{
1000
PbHidd
1002
}
  0
ARC
  5
BC
330
1F
100
AcDbEntity
  8
HIDDEN
100
AcDbCircle
 10
0.0
 20
0.0000000000000237
 30
0.0
 40
109.2307692307692
100
AcDbArc
 50
210.2650432854551
 51
210.9349455395221
1001
DBPROPERTIES
1002
{
1000
PbHidd
1002
}
  0
LINE
  5
BD
330
1F
100
AcDbEntity
  8
HIDDEN
100
AcDbLine
 10
-94.3429593598916
 20
-55.05240199994367
 30
0.0
 11
-94.3429593598916
 21
-55.05240199994365
 31
0.0
1001
DBPROPERTIES
1002
{
1000
PbHidd
1002
}
  0
LINE
  5
BE
330
1F
100
AcDbEntity
  8
HIDDEN
100
AcDbLine
 10
-93.24108315982045
 20
-51.25971924260423
 30
0.0
 11
-94.3429593598916
 21
-55.05240199994365
 31
0.0
1001
DBPROPERTIES
1002
{
1000
PbHidd
1002
}
  0
LINE
  5
BF
330
1F
100
AcDbEntity
  8
HIDDEN
100
AcDbLine
 10
-93.24108315982043
 20
-51.25971924260425
 30
0.0
 11
-93.24108315982043
 21
-51.25971924260425
 31
0.0
1001
DBPROPERTIES
1002
{
1000
PbHidd
1002
}
  0
LINE
  5
C0
330
1F
100
AcDbEntity
  8
HIDDEN
100
AcDbLine
 10
-97.03376591715985
 20
-50.15784304253309
 30
0.0
 11
-93.24108315982042
 21
-51.25971924260425
 31
0.0
1001
DBPROPERTIES
1002
{
1000
PbHidd
1002
}
  0
LINE
  5
C1
330
1F
100
AcDbEntity
  8
HIDDEN
100
AcDbLine
 10
-97.03376591715985
 20
-50.15784304253309
 30
0.0
 11
-97.03376591715985
 21
-50.1578430425331
 31
0.0
1001
DBPROPERTIES
1002
{
1000
PbHidd
1002
}
  0
ARC
  5
C2
330
1F
100
AcDbEntity
  8
HIDDEN
100
AcDbCircle
 10
0.0
 20
0.0000000000000237
 30
0.0
 40
109.2307692307692
100
AcDbArc
 50
206.6650348670891
 51
207.3349371211561
1001
DBPROPERTIES
1002
{
1000
PbHidd
1002
}
  0
LINE
  5
C3
330
1F
100
AcDbEntity
  8
HIDDEN
100
AcDbLine
 10
-97.61356400310706
 20
-49.01992522798132
 30
0.0
 11
-97.61356400310706
 21
-49.0199252279813
 31
0.0
1001
DBPROPERTIES
1002
{
1000
PbHidd
1002
}
  0
LINE
  5
C4
330
1F
100
AcDbEntity
  8
HIDDEN
100
AcDbLine
 10
-96.27571758327385
 20
-45.30391384276697
 30
0.0
 11
-97.61356400310704
 21
-49.0199252279813
 31
0.0
1001
DBPROPERTIES
1002
{
1000
PbHidd
1002
}
  0
LINE
  5
C5
330
1F
100
AcDbEntity
  8
HIDDEN
100
AcDbLine
 10
-96.27571758327385
 20
-45.30391384276699
 30
0.0
 11
-96.27571758327385
 21
-45.30391384276699
 31
0.0
1001
DBPROPERTIES
1002
{
1000
PbHidd
1002
}
  0
LINE
  5
C6
330
1F
100
AcDbEntity
  8
HIDDEN
100
AcDbLine
 10
-99.99172896848813
 20
-43.96606742293378
 30
0.0
 11
-96.27571758327383
 21
-45.30391384276699
 31
0.0
1001
DBPROPERTIES
1002
{
1000
PbHidd
1002
}
  0
LINE
  5
C7
330
1F
100
AcDbEntity
  8
HIDDEN
100
AcDbLine
 10
-99.99172896848816
 20
-43.96606742293378
 30
0.0
 11
-99.99172896848816
 21
-43.96606742293379
 31
0.0
1001
DBPROPERTIES
1002
{
1000
PbHidd
1002
}
  0
ARC
  5
C8
330
1F
100
AcDbEntity
  8
HIDDEN
100
AcDbCircle
 10
0.0
 20
0.0000000000000237
 30
0.0
 40
109.2307692307692
100
AcDbArc
 50
203.0650264487231
 51
203.7349287027901
1001
DBPROPERTIES
1002
{
1000
PbHidd
1002
}
  0
LINE
  5
C9
330
1F
100
AcDbEntity
  8
HIDDEN
100
AcDbLine
 10
-100.4989325045977
 20
-42.79398920621769
 30
0.0
 11
-100.4989325045977
 21
-42.79398920621767
 31
0.0
1001
DBPROPERTIES
1002
{
1000
PbHidd
1002
}
  0
LINE
  5
CA
330
1F
100
AcDbEntity
  8
HIDDEN
100
AcDbLine
 10
-98.93039573361762
 20
-39.16931459238178
 30
0.0
 11
-100.4989325045977
 21
-42.79398920621767
 31
0.0
1001
DBPROPERTIES
1002
{
1000
PbHidd
1002
}
  0
LINE
  5
CB
330
1F
100
AcDbEntity
  8
HIDDEN
100
AcDbLine
 10
-98.93039573361763
 20
-39.1693145923818
 30
0.0
 11
-98.93039573361763
 21
-39.1693145923818
 31
0.0
1001
DBPROPERTIES
1002
{
1000
PbHidd
1002
}
  0
LINE
  5
CC
330
1F
100
AcDbEntity
  8
HIDDEN
100
AcDbLine
 10
-102.5550703474535
 20
-37.60077782140172
 30
0.0
 11
-98.93039573361762
 21
-39.16931459238179
 31
0.0
1001
DBPROPERTIES
1002
{
1000
PbHidd
1002
}
  0
LINE
  5
CD
330
1F
100
AcDbEntity
  8
HIDDEN
100
AcDbLine
 10
-102.5550703474535
 20
-37.60077782140171
 30
0.0
 11
-102.5550703474535
 21
-37.60077782140172
 31
0.0
1001
DBPROPERTIES
1002
{
1000
PbHidd
1002
}
  0
ARC
  5
CE
330
1F
100
AcDbEntity
  8
HIDDEN
100
AcDbCircle
 10
0.0
 20
0.0000000000000237
 30
0.0
 40
109.2307692307692
100
AcDbArc
 50
199.4650753261366
 51
200.1349775802036
1001
DBPROPERTIES
1002
{
1000
PbHidd
1002
}
  0
LINE
  5
CF
330
1F
100
AcDbEntity
  8
HIDDEN
100
AcDbLine
 10
-102.9876776330875
 20
-36.39916485977115
 30
0.0
 11
-102.9876776330875
 21
-36.39916485977114
 31
0.0
1001
DBPROPERTIES
1002
{
1000
PbHidd
1002
}
  0
LINE
  5
D0
330
1F
100
AcDbEntity
  8
HIDDEN
100
AcDbLine
 10
-101.1946408089994
 20
-32.88013195205816
 30
0.0
 11
-102.9876776330875
 21
-36.39916485977114
 31
0.0
1001
DBPROPERTIES
1002
{
1000
PbHidd
1002
}
  0
LINE
  5
D1
330
1F
100
AcDbEntity
  8
HIDDEN
100
AcDbLine
 10
-101.1946408089994
 20
-32.88013195205816
 30
0.0
 11
-101.1946408089994
 21
-32.88013195205816
 31
0.0
1001
DBPROPERTIES
1002
{
1000
PbHidd
1002
}
  0
LINE
  5
D2
330
1F
100
AcDbEntity
  8
HIDDEN
100
AcDbLine
 10
-104.7136737167123
 20
-31.08709512797001
 30
0.0
 11
-101.1946408089994
 21
-32.88013195205815
 31
0.0
1001
DBPROPERTIES
1002
{
1000
PbHidd
1002
}
  0
LINE
  5
D3
330
1F
100
AcDbEntity
  8
HIDDEN
100
AcDbLine
 10
-104.7136737167124
 20
-31.08709512797002
 30
0.0
 11
-104.7136737167124
 21
-31.08709512797003
 31
0.0
1001
DBPROPERTIES
1002
{
1000
PbHidd
1002
}
  0
ARC
  5
D4
330
1F
100
AcDbEntity
  8
HIDDEN
100
AcDbCircle
 10
0.0
 20
0.0000000000000237
 30
0.0
 40
109.2307692307692
100
AcDbArc
 50
195.8650669077707
 51
196.5349691618376
1001
DBPROPERTIES
1002
{
1000
PbHidd
1002
}
  0
LINE
  5
D5
330
1F
100
AcDbEntity
  8
HIDDEN
100
AcDbLine
 10
-105.069977448554
 20
-29.86068963881969
 30
0.0
 11
-105.069977448554
 21
-29.86068963881967
 31
0.0
1001
DBPROPERTIES
1002
{
1000
PbHidd
1002
}
  0
LINE
  5
D6
330
1F
100
AcDbEntity
  8
HIDDEN
100
AcDbLine
 10
-103.0595168685418
 20
-26.46118645242314
 30
0.0
 11
-105.069977448554
 21
-29.86068963881968
 31
0.0
1001
DBPROPERTIES
1002
{
1000
PbHidd
1002
}
  0
LINE
  5
D7
330
1F
100
AcDbEntity
  8
HIDDEN
100
AcDbLine
 10
-103.0595168685418
 20
-26.46118645242315
 30
0.0
 11
-103.0595168685418
 21
-26.46118645242315
 31
0.0
1001
DBPROPERTIES
1002
{
1000
PbHidd
1002
}
  0
LINE
  5
D8
330
1F
100
AcDbEntity
  8
HIDDEN
100
AcDbLine
 10
-106.4590200549383
 20
-24.450725872411
 30
0.0
 11
-103.0595168685418
 21
-26.46118645242315
 31
0.0
1001
DBPROPERTIES
1002
{
1000
PbHidd
1002
}
  0
LINE
  5
D9
330
1F
100
AcDbEntity
  8
HIDDEN
100
AcDbLine
 10
-106.4590200549384
 20
-24.45072587241098
 30
0.0
 11
-106.4590200549384
 21
-24.450725872411
 31
0.0
1001
DBPROPERTIES
1002
{
1000
PbHidd
1002
}
  0
ARC
  5
DA
330
1F
100
AcDbEntity
  8
HIDDEN
100
AcDbCircle
 10
0.0
 20
0.0000000000000237
 30
0.0
 40
109.2307692307692
100
AcDbArc
 50
192.2650584894047
 51
192.9349607434716
1001
DBPROPERTIES
1002
{
1000
PbHidd
1002
}
  0
LINE
  5
DB
330
1F
100
AcDbEntity
  8
HIDDEN
100
AcDbLine
 10
-106.7376140649377
 20
-23.20436791791528
 30
0.0
 11
-106.7376140649377
 21
-23.20436791791526
 31
0.0
1001
DBPROPERTIES
1002
{
1000
PbHidd
1002
}
  0
LINE
  5
DC
330
1F
100
AcDbEntity
  8
HIDDEN
100
AcDbLine
 10
-104.5176640984187
 20
-19.93781073882661
 30
0.0
 11
-106.7376140649377
 21
-23.20436791791526
 31
0.0
1001
DBPROPERTIES
1002
{
1000
PbHidd
1002
}
  0
LINE
  5
DD
330
1F
100
AcDbEntity
  8
HIDDEN
100
AcDbLine
 10
-104.5176640984188
 20
-19.93781073882661
 30
0.0
 11
-104.5176640984188
 21
-19.93781073882661
 31
0.0
1001
DBPROPERTIES
1002
{
1000
PbHidd
1002
}
  0
LINE
  5
DE
330
1F
100
AcDbEntity
  8
HIDDEN
100
AcDbLine
 10
-107.7842212775074
 20
-17.71786077230766
 30
0.0
 11
-104.5176640984187
 21
-19.9378107388266
 31
0.0
1001
DBPROPERTIES
1002
{
1000
PbHidd
1002
}
  0
LINE
  5
DF
330
1F
100
AcDbEntity
  8
HIDDEN
100
AcDbLine
 10
-107.7842212775074
 20
-17.71786077230765
 30
0.0
 11
-107.7842212775074
 21
-17.71786077230766
 31
0.0
1001
DBPROPERTIES
1002
{
1000
PbHidd
1002
}
  0
ARC
  5
E0
330
1F
100
AcDbEntity
  8
HIDDEN
100
AcDbCircle
 10
0.0
 20
0.0000000000000237
 30
0.0
 40
109.2307692307692
100
AcDbArc
 50
188.6650500710387
 51
189.3349523251056
1001
DBPROPERTIES
1002
{
1000
PbHidd
1002
}
  0
LINE
  5
E1
330
1F
100
AcDbEntity
  8
HIDDEN
100
AcDbLine
 10
-107.9840060823844
 20
-16.45646915790613
 30
0.0
 11
-107.9840060823844
 21
-16.45646915790611
 31
0.0
1001
DBPROPERTIES
1002
{
1000
PbHidd
1002
}
  0
LINE
  5
E2
330
1F
100
AcDbEntity
  8
HIDDEN
100
AcDbLine
 10
-105.5633278576779
 20
-13.3357495949632
 30
0.0
 11
-107.9840060823844
 21
-16.45646915790612
 31
0.0
1001
DBPROPERTIES
1002
{
1000
PbHidd
1002
}
  0
LINE
  5
E3
330
1F
100
AcDbEntity
  8
HIDDEN
100
AcDbLine
 10
-105.5633278576779
 20
-13.3357495949632
 30
0.0
 11
-105.5633278576779
 21
-13.3357495949632
 31
0.0
1001
DBPROPERTIES
1002
{
1000
PbHidd
1002
}
  0
LINE
  5
E4
330
1F
100
AcDbEntity
  8
HIDDEN
100
AcDbLine
 10
-108.6840474206208
 20
-10.91507137025668
 30
0.0
 11
-105.5633278576779
 21
-13.3357495949632
 31
0.0
1001
DBPROPERTIES
1002
{
1000
PbHidd
1002
}
  0
LINE
  5
E5
330
1F
100
AcDbEntity
  8
HIDDEN
100
AcDbLine
 10
-108.6840474206209
 20
-10.91507137025666
 30
0.0
 11
-108.6840474206209
 21
-10.91507137025668
 31
0.0
1001
DBPROPERTIES
1002
{
1000
PbHidd
1002
}
  0
ARC
  5
E6
330
1F
100
AcDbEntity
  8
HIDDEN
100
AcDbCircle
 10
0.0
 20
0.0000000000000237
 30
0.0
 40
109.2307692307692
100
AcDbArc
 50
185.0650416526727
 51
185.7349439067397
1001
DBPROPERTIES
1002
{
1000
PbHidd
1002
}
  0
LINE
  5
E7
330
1F
100
AcDbEntity
  8
HIDDEN
100
AcDbLine
 10
-108.8042345610238
 20
-9.643624232376311
 30
0.0
 11
-108.8042345610238
 21
-9.643624232376295
 31
0.0
1001
DBPROPERTIES
1002
{
1000
PbHidd
1002
}
  0
LINE
  5
E8
330
1F
100
AcDbEntity
  8
HIDDEN
100
AcDbLine
 10
-106.1923813891799
 20
-6.681058339972914
 30
0.0
 11
-108.8042345610238
 21
-9.643624232376325
 31
0.0
1001
DBPROPERTIES
1002
{
1000
PbHidd
1002
}
  0
LINE
  5
E9
330
1F
100
AcDbEntity
  8
HIDDEN
100
AcDbLine
 10
-106.1923813891799
 20
-6.681058339972918
 30
0.0
 11
-106.1923813891799
 21
-6.681058339972918
 31
0.0
1001
DBPROPERTIES
1002
{
1000
PbHidd
1002
}
  0
LINE
  5
EA
330
1F
100
AcDbEntity
  8
HIDDEN
100
AcDbLine
 10
-109.1549472815833
 20
-4.069205168129045
 30
0.0
 11
-106.1923813891799
 21
-6.681058339972921
 31
0.0
1001
DBPROPERTIES
1002
{
1000
PbHidd
1002
}
  0
LINE
  5
EB
330
1F
100
AcDbEntity
  8
HIDDEN
100
AcDbLine
 10
-109.1549472815833
 20
-4.069205168129036
 30
0.0
 11
-109.1549472815833
 21
-4.069205168129051
 31
0.0
1001
DBPROPERTIES
1002
{
1000
PbHidd
1002
}
  0
ARC
  5
EC
330
1F
100
AcDbEntity
  8
HIDDEN
100
AcDbCircle
 10
0.0
 20
0.0000000000000237
 30
0.0
 40
109.2307692307692
100
AcDbArc
 50
181.4650332343067
 51
182.1349354883736
1001
DBPROPERTIES
1002
{
1000
PbHidd
1002
}
  0
LINE
  5
ED
330
1F
100
AcDbEntity
  8
HIDDEN
100
AcDbLine
 10
-109.1950624337772
 20
-2.792720327754211
 30
0.0
 11
-109.1950624337772
 21
-2.792720327754195
 31
0.0
1001
DBPROPERTIES
1002
{
1000
PbHidd
1002
}
  0
LINE
  5
EE
330
1F
100
AcDbEntity
  8
HIDDEN
100
AcDbLine
 10
-106.402342106023
 20
-0.0000000000000107
 30
0.0
 11
-109.1950624337772
 21
-2.792720327754207
 31
0.0
1001
DBPROPERTIES
1002
{
1000
PbHidd
1002
}
  0
LINE
  5
EF
330
1F
100
AcDbEntity
  8
HIDDEN
100
AcDbLine
 10
-106.402342106023
 20
-0.0000000000000106
 30
0.0
 11
-106.402342106023
 21
-0.0000000000000106
 31
0.0
1001
DBPROPERTIES
1002
{
1000
PbHidd
1002
}
  0
LINE
  5
F0
330
1F
100
AcDbEntity
  8
HIDDEN
100
AcDbLine
 10
-109.1950624337772
 20
2.792720327754175
 30
0.0
 11
-106.402342106023
 21
-0.0000000000000142
 31
0.0
1001
DBPROPERTIES
1002
{
1000
PbHidd
1002
}
  0
LINE
  5
F1
330
1F
100
AcDbEntity
  8
HIDDEN
100
AcDbLine
 10
-109.1950624337772
 20
2.792720327754191
 30
0.0
 11
-109.1950624337772
 21
2.792720327754175
 31
0.0
1001
DBPROPERTIES
1002
{
1000
PbHidd
1002
}
  0
ARC
  5
F2
330
1F
100
AcDbEntity
  8
HIDDEN
100
AcDbCircle
 10
0.0
 20
0.0000000000000237
 30
0.0
 40
109.2307692307692
100
AcDbArc
 50
177.8650645116263
 51
178.5349667656933
1001
DBPROPERTIES
1002
{
1000
PbHidd
1002
}
  0
LINE
  5
F3
330
1F
100
AcDbEntity
  8
HIDDEN
100
AcDbLine
 10
-109.1549472815833
 20
4.069205168129032
 30
0.0
 11
-109.1549472815833
 21
4.069205168129047
 31
0.0
1001
DBPROPERTIES
1002
{
1000
PbHidd
1002
}
  0
LINE
  5
F4
330
1F
100
AcDbEntity
  8
HIDDEN
100
AcDbLine
 10
-106.1923813891799
 20
6.681058339972925
 30
0.0
 11
-109.1549472815833
 21
4.069205168129045
 31
0.0
1001
DBPROPERTIES
1002
{
1000
PbHidd
1002
}
  0
LINE
  5
F5
330
1F
100
AcDbEntity
  8
HIDDEN
100
AcDbLine
 10
-106.1923813891799
 20
6.681058339972921
 30
0.0
 11
-106.1923813891799
 21
6.681058339972921
 31
0.0
1001
DBPROPERTIES
1002
{
1000
PbHidd
1002
}
  0
LINE
  5
F6
330
1F
100
AcDbEntity
  8
HIDDEN
100
AcDbLine
 10
-108.8042345610238
 20
9.643624232376315
 30
0.0
 11
-106.1923813891799
 21
6.68105833997291
 31
0.0
1001
DBPROPERTIES
1002
{
1000
PbHidd
1002
}
  0
LINE
  5
F7
330
1F
100
AcDbEntity
  8
HIDDEN
100
AcDbLine
 10
-108.8042345610238
 20
9.643624232376341
 30
0.0
 11
-108.8042345610238
 21
9.643624232376325
 31
0.0
1001
DBPROPERTIES
1002
{
1000
PbHidd
1002
}
  0
ARC
  5
F8
330
1F
100
AcDbEntity
  8
HIDDEN
100
AcDbCircle
 10
0.0
 20
0.0000000000000237
 30
0.0
 40
109.2307692307692
100
AcDbArc
 50
174.2650560932604
 51
174.9349583473273
1001
DBPROPERTIES
1002
{
1000
PbHidd
1002
}
  0
LINE
  5
F9
330
1F
100
AcDbEntity
  8
HIDDEN
100
AcDbLine
 10
-108.6840474206209
 20
10.91507137025668
 30
0.0
 11
-108.6840474206209
 21
10.91507137025669
 31
0.0
1001
DBPROPERTIES
1002
{
1000
PbHidd
1002
}
  0
LINE
  5
FA
330
1F
100
AcDbEntity
  8
HIDDEN
100
AcDbLine
 10
-105.5633278576779
 20
13.33574959496319
 30
0.0
 11
-108.6840474206208
 21
10.91507137025667
 31
0.0
1001
DBPROPERTIES
1002
{
1000
PbHidd
1002
}
  0
LINE
  5
FB
330
1F
100
AcDbEntity
  8
HIDDEN
100
AcDbLine
 10
-105.5633278576779
 20
13.3357495949632
 30
0.0
 11
-105.5633278576779
 21
13.3357495949632
 31
0.0
1001
DBPROPERTIES
1002
{
1000
PbHidd
1002
}
  0
LINE
  5
FC
330
1F
100
AcDbEntity
  8
HIDDEN
100
AcDbLine
 10
-107.9840060823844
 20
16.45646915790611
 30
0.0
 11
-105.5633278576779
 21
13.33574959496319
 31
0.0
1001
DBPROPERTIES
1002
{
1000
PbHidd
1002
}
  0
LINE
  5
FD
330
1F
100
AcDbEntity
  8
HIDDEN
100
AcDbLine
 10
-107.9840060823845
 20
16.45646915790613
 30
0.0
 11
-107.9840060823845
 21
16.45646915790612
 31
0.0
1001
DBPROPERTIES
1002
{
1000
PbHidd
1002
}
  0
ARC
  5
FE
330
1F
100
AcDbEntity
  8
HIDDEN
100
AcDbCircle
 10
0.0
 20
0.0000000000000237
 30
0.0
 40
109.2307692307692
100
AcDbArc
 50
170.6650476748944
 51
171.3349499289613
1001
DBPROPERTIES
1002
{
1000
PbHidd
1002
}
  0
LINE
  5
FF
330
1F
100
AcDbEntity
  8
HIDDEN
100
AcDbLine
 10
-107.7842212775074
 20
17.71786077230762
 30
0.0
 11
-107.7842212775074
 21
17.71786077230764
 31
0.0
1001
DBPROPERTIES
1002
{
1000
PbHidd
1002
}
  0
LINE
  5
100
330
1F
100
AcDbEntity
  8
HIDDEN
100
AcDbLine
 10
-104.5176640984187
 20
19.93781073882657
 30
0.0
 11
-107.7842212775074
 21
17.71786077230762
 31
0.0
1001
DBPROPERTIES
1002
{
1000
PbHidd
1002
}
  0
LINE
  5
101
330
1F
100
AcDbEntity
  8
HIDDEN
100
AcDbLine
 10
-104.5176640984188
 20
19.93781073882659
 30
0.0
 11
-104.5176640984188
 21
19.93781073882659
 31
0.0
1001
DBPROPERTIES
1002
{
1000
PbHidd
1002
}
  0
LINE
  5
102
330
1F
100
AcDbEntity
  8
HIDDEN
100
AcDbLine
 10
-106.7376140649377
 20
23.20436791791523
 30
0.0
 11
-104.5176640984187
 21
19.93781073882658
 31
0.0
1001
DBPROPERTIES
1002
{
1000
PbHidd
1002
}
  0
LINE
  5
103
330
1F
100
AcDbEntity
  8
HIDDEN
100
AcDbLine
 10
-106.7376140649377
 20
23.20436791791526
 30
0.0
 11
-106.7376140649377
 21
23.20436791791524
 31
0.0
1001
DBPROPERTIES
1002
{
1000
PbHidd
1002
}
  0
ARC
  5
104
330
1F
100
AcDbEntity
  8
HIDDEN
100
AcDbCircle
 10
0.0
 20
0.0000000000000237
 30
0.0
 40
109.2307692307692
100
AcDbArc
 50
167.0650392565284
 51
167.7349415105953
1001
DBPROPERTIES
1002
{
1000
PbHidd
1002
}
  0
LINE
  5
105
330
1F
100
AcDbEntity
  8
HIDDEN
100
AcDbLine
 10
-106.4590200549384
 20
24.45072587241098
 30
0.0
 11
-106.4590200549384
 21
24.450725872411
 31
0.0
1001
DBPROPERTIES
1002
{
1000
PbHidd
1002
}
  0
LINE
  5
106
330
1F
100
AcDbEntity
  8
HIDDEN
100
AcDbLine
 10
-103.0595168685418
 20
26.46118645242315
 30
0.0
 11
-106.4590200549383
 21
24.45072587241099
 31
0.0
1001
DBPROPERTIES
1002
{
1000
PbHidd
1002
}
  0
LINE
  5
107
330
1F
100
AcDbEntity
  8
HIDDEN
100
AcDbLine
 10
-103.0595168685418
 20
26.46118645242315
 30
0.0
 11
-103.0595168685418
 21
26.46118645242315
 31
0.0
1001
DBPROPERTIES
1002
{
1000
PbHidd
1002
}
  0
LINE
  5
108
330
1F
100
AcDbEntity
  8
HIDDEN
100
AcDbLine
 10
-105.069977448554
 20
29.86068963881969
 30
0.0
 11
-103.0595168685418
 21
26.46118645242314
 31
0.0
1001
DBPROPERTIES
1002
{
1000
PbHidd
1002
}
  0
LINE
  5
109
330
1F
100
AcDbEntity
  8
HIDDEN
100
AcDbLine
 10
-105.069977448554
 20
29.86068963881971
 30
0.0
 11
-105.069977448554
 21
29.86068963881969
 31
0.0
1001
DBPROPERTIES
1002
{
1000
PbHidd
1002
}
  0
ARC
  5
10A
330
1F
100
AcDbEntity
  8
HIDDEN
100
AcDbCircle
 10
0.0
 20
0.0000000000000237
 30
0.0
 40
109.2307692307692
100
AcDbArc
 50
163.4650308381624
 51
164.1349330922293
1001
DBPROPERTIES
1002
{
1000
PbHidd
1002
}
  0
LINE
  5
10B
330
1F
100
AcDbEntity
  8
HIDDEN
100
AcDbLine
 10
-104.7136737167124
 20
31.08709512797
 30
0.0
 11
-104.7136737167124
 21
31.08709512797001
 31
0.0
1001
DBPROPERTIES
1002
{
1000
PbHidd
1002
}
  0
LINE
  5
10C
330
1F
100
AcDbEntity
  8
HIDDEN
100
AcDbLine
 10
-101.1946408089994
 20
32.88013195205816
 30
0.0
 11
-104.7136737167124
 21
31.08709512797001
 31
0.0
1001
DBPROPERTIES
1002
{
1000
PbHidd
1002
}
  0
LINE
  5
10D
330
1F
100
AcDbEntity
  8
HIDDEN
100
AcDbLine
 10
-101.1946408089994
 20
32.88013195205816
 30
0.0
 11
-101.1946408089994
 21
32.88013195205816
 31
0.0
1001
DBPROPERTIES
1002
{
1000
PbHidd
1002
}
  0
LINE
  5
10E
330
1F
100
AcDbEntity
  8
HIDDEN
100
AcDbLine
 10
-102.9876776330875
 20
36.39916485977117
 30
0.0
 11
-101.1946408089994
 21
32.88013195205815
 31
0.0
1001
DBPROPERTIES
1002
{
1000
PbHidd
1002
}
  0
LINE
  5
10F
330
1F
100
AcDbEntity
  8
HIDDEN
100
AcDbLine
 10
-102.9876776330875
 20
36.39916485977121
 30
0.0
 11
-102.9876776330875
 21
36.3991648597712
 31
0.0
1001
DBPROPERTIES
1002
{
1000
PbHidd
1002
}
  0
ARC
  5
110
330
1F
100
AcDbEntity
  8
HIDDEN
100
AcDbCircle
 10
0.0
 20
0.0000000000000237
 30
0.0
 40
109.2307692307692
100
AcDbArc
 50
159.8650224197964
 51
160.5349246738634
1001
DBPROPERTIES
1002
{
1000
PbHidd
1002
}
  0
LINE
  5
111
330
1F
100
AcDbEntity
  8
HIDDEN
100
AcDbLine
 10
-102.5550703474536
 20
37.60077782140172
 30
0.0
 11
-102.5550703474536
 21
37.60077782140173
 31
0.0
1001
DBPROPERTIES
1002
{
1000
PbHidd
1002
}
  0
LINE
  5
112
330
1F
100
AcDbEntity
  8
HIDDEN
100
AcDbLine
 10
-98.9303957336176
 20
39.16931459238178
 30
0.0
 11
-102.5550703474535
 21
37.60077782140171
 31
0.0
1001
DBPROPERTIES
1002
{
1000
PbHidd
1002
}
  0
LINE
  5
113
330
1F
100
AcDbEntity
  8
HIDDEN
100
AcDbLine
 10
-98.93039573361763
 20
39.1693145923818
 30
0.0
 11
-98.93039573361763
 21
39.1693145923818
 31
0.0
1001
DBPROPERTIES
1002
{
1000
PbHidd
1002
}
  0
LINE
  5
114
330
1F
100
AcDbEntity
  8
HIDDEN
100
AcDbLine
 10
-100.4989325045977
 20
42.79398920621769
 30
0.0
 11
-98.9303957336176
 21
39.16931459238179
 31
0.0
1001
DBPROPERTIES
1002
{
1000
PbHidd
1002
}
  0
LINE
  5
115
330
1F
100
AcDbEntity
  8
HIDDEN
100
AcDbLine
 10
-100.4989325045977
 20
42.79398920621772
 30
0.0
 11
-100.4989325045977
 21
42.7939892062177
 31
0.0
1001
DBPROPERTIES
1002
{
1000
PbHidd
1002
}
  0
ARC
  5
116
330
1F
100
AcDbEntity
  8
HIDDEN
100
AcDbCircle
 10
0.0
 20
0.0000000000000237
 30
0.0
 40
109.2307692307692
100
AcDbArc
 50
156.2650712972099
 51
156.9349735512769
1001
DBPROPERTIES
1002
{
1000
PbHidd
1002
}
  0
LINE
  5
117
330
1F
100
AcDbEntity
  8
HIDDEN
100
AcDbLine
 10
-99.99172896848819
 20
43.96606742293378
 30
0.0
 11
-99.99172896848819
 21
43.9660674229338
 31
0.0
1001
DBPROPERTIES
1002
{
1000
PbHidd
1002
}
  0
LINE
  5
118
330
1F
100
AcDbEntity
  8
HIDDEN
100
AcDbLine
 10
-96.27571758327386
 20
45.303913842767
 30
0.0
 11
-99.99172896848816
 21
43.96606742293379
 31
0.0
1001
DBPROPERTIES
1002
{
1000
PbHidd
1002
}
  0
LINE
  5
119
330
1F
100
AcDbEntity
  8
HIDDEN
100
AcDbLine
 10
-96.27571758327387
 20
45.303913842767
 30
0.0
 11
-96.27571758327387
 21
45.303913842767
 31
0.0
1001
DBPROPERTIES
1002
{
1000
PbHidd
1002
}
  0
LINE
  5
11A
330
1F
100
AcDbEntity
  8
HIDDEN
100
AcDbLine
 10
-97.61356400310706
 20
49.01992522798133
 30
0.0
 11
-96.27571758327385
 21
45.30391384276699
 31
0.0
1001
DBPROPERTIES
1002
{
1000
PbHidd
1002
}
  0
LINE
  5
11B
330
1F
100
AcDbEntity
  8
HIDDEN
100
AcDbLine
 10
-97.61356400310707
 20
49.01992522798136
 30
0.0
 11
-97.61356400310707
 21
49.01992522798135
 31
0.0
1001
DBPROPERTIES
1002
{
1000
PbHidd
1002
}
  0
ARC
  5
11C
330
1F
100
AcDbEntity
  8
HIDDEN
100
AcDbCircle
 10
0.0
 20
0.0000000000000237
 30
0.0
 40
109.2307692307692
100
AcDbArc
 50
152.6650628788439
 51
153.3349651329109
1001
DBPROPERTIES
1002
{
1000
PbHidd
1002
}
  0
LINE
  5
11D
330
1F
100
AcDbEntity
  8
HIDDEN
100
AcDbLine
 10
-97.03376591715988
 20
50.15784304253307
 30
0.0
 11
-97.03376591715988
 21
50.15784304253309
 31
0.0
1001
DBPROPERTIES
1002
{
1000
PbHidd
1002
}
  0
LINE
  5
11E
330
1F
100
AcDbEntity
  8
HIDDEN
100
AcDbLine
 10
-93.24108315982046
 20
51.25971924260423
 30
0.0
 11
-97.03376591715988
 21
50.15784304253307
 31
0.0
1001
DBPROPERTIES
1002
{
1000
PbHidd
1002
}
  0
LINE
  5
11F
330
1F
100
AcDbEntity
  8
HIDDEN
100
AcDbLine
 10
-93.24108315982046
 20
51.25971924260423
 30
0.0
 11
-93.24108315982046
 21
51.25971924260423
 31
0.0
1001
DBPROPERTIES
1002
{
1000
PbHidd
1002
}
  0
LINE
  5
120
330
1F
100
AcDbEntity
  8
HIDDEN
100
AcDbLine
 10
-94.34295935989162
 20
55.05240199994368
 30
0.0
 11
-93.24108315982046
 21
51.25971924260423
 31
0.0
1001
DBPROPERTIES
1002
{
1000
PbHidd
1002
}
  0
LINE
  5
121
330
1F
100
AcDbEntity
  8
HIDDEN
100
AcDbLine
 10
-94.34295935989162
 20
55.0524019999437
 30
0.0
 11
-94.34295935989162
 21
55.05240199994369
 31
0.0
1001
DBPROPERTIES
1002
{
1000
PbHidd
1002
}
  0
ARC
  5
122
330
1F
100
AcDbEntity
  8
HIDDEN
100
AcDbCircle
 10
0.0
 20
0.0000000000000237
 30
0.0
 40
109.2307692307692
100
AcDbArc
 50
149.065054460478
 51
149.7349567145449
1001
DBPROPERTIES
1002
{
1000
PbHidd
1002
}
  0
LINE
  5
123
330
1F
100
AcDbEntity
  8
HIDDEN
100
AcDbLine
 10
-93.69285492226739
 20
56.15166857058227
 30
0.0
 11
-93.69285492226739
 21
56.15166857058229
 31
0.0
1001
DBPROPERTIES
1002
{
1000
PbHidd
1002
}
  0
LINE
  5
124
330
1F
100
AcDbEntity
  8
HIDDEN
100
AcDbLine
 10
-89.83846877893413
 20
57.01322594892906
 30
0.0
 11
-93.69285492226737
 21
56.15166857058227
 31
0.0
1001
DBPROPERTIES
1002
{
1000
PbHidd
1002
}
  0
LINE
  5
125
330
1F
100
AcDbEntity
  8
HIDDEN
100
AcDbLine
 10
-89.83846877893414
 20
57.01322594892907
 30
0.0
 11
-89.83846877893414
 21
57.01322594892907
 31
0.0
1001
DBPROPERTIES
1002
{
1000
PbHidd
1002
}
  0
LINE
  5
126
330
1F
100
AcDbEntity
  8
HIDDEN
100
AcDbLine
 10
-90.70002615728092
 20
60.86761209226228
 30
0.0
 11
-89.83846877893414
 21
57.01322594892905
 31
0.0
1001
DBPROPERTIES
1002
{
1000
PbHidd
1002
}
  0
LINE
  5
127
330
1F
100
AcDbEntity
  8
HIDDEN
100
AcDbLine
 10
-90.70002615728094
 20
60.86761209226231
 30
0.0
 11
-90.70002615728094
 21
60.86761209226229
 31
0.0
1001
DBPROPERTIES
1002
{
1000
PbHidd
1002
}
  0
ARC
  5
128
330
1F
100
AcDbEntity
  8
HIDDEN
100
AcDbCircle
 10
0.0
 20
0.0000000000000237
 30
0.0
 40
109.2307692307692
100
AcDbArc
 50
145.465046042112
 51
146.1349482961789
1001
DBPROPERTIES
1002
{
1000
PbHidd
1002
}
  0
LINE
  5
129
330
1F
100
AcDbEntity
  8
HIDDEN
100
AcDbLine
 10
-89.98218103319056
 20
61.92388911604055
 30
0.0
 11
-89.98218103319056
 21
61.92388911604056
 31
0.0
1001
DBPROPERTIES
1002
{
1000
PbHidd
1002
}
  0
LINE
  5
12A
330
1F
100
AcDbEntity
  8
HIDDEN
100
AcDbLine
 10
-86.08130300506966
 20
62.54172749929877
 30
0.0
 11
-89.98218103319053
 21
61.92388911604056
 31
0.0
1001
DBPROPERTIES
1002
{
1000
PbHidd
1002
}
  0
LINE
  5
12B
330
1F
100
AcDbEntity
  8
HIDDEN
100
AcDbLine
 10
-86.08130300506967
 20
62.54172749929877
 30
0.0
 11
-86.08130300506967
 21
62.54172749929877
 31
0.0
1001
DBPROPERTIES
1002
{
1000
PbHidd
1002
}
  0
LINE
  5
12C
330
1F
100
AcDbEntity
  8
HIDDEN
100
AcDbLine
 10
-86.69914138832787
 20
66.44260552741963
 30
0.0
 11
-86.08130300506967
 21
62.54172749929876
 31
0.0
1001
DBPROPERTIES
1002
{
1000
PbHidd
1002
}
  0
LINE
  5
12D
330
1F
100
AcDbEntity
  8
HIDDEN
100
AcDbLine
 10
-86.69914138832789
 20
66.44260552741966
 30
0.0
 11
-86.69914138832789
 21
66.44260552741964
 31
0.0
1001
DBPROPERTIES
1002
{
1000
PbHidd
1002
}
  0
ARC
  5
12E
330
1F
100
AcDbEntity
  8
HIDDEN
100
AcDbCircle
 10
0.0
 20
0.0000000000000237
 30
0.0
 40
109.2307692307692
100
AcDbArc
 50
141.865037623746
 51
142.5349398778129
1001
DBPROPERTIES
1002
{
1000
PbHidd
1002
}
  0
LINE
  5
12F
330
1F
100
AcDbEntity
  8
HIDDEN
100
AcDbLine
 10
-85.91638858452387
 20
67.45172436149177
 30
0.0
 11
-85.91638858452387
 21
67.45172436149178
 31
0.0
1001
DBPROPERTIES
1002
{
1000
PbHidd
1002
}
  0
LINE
  5
130
330
1F
100
AcDbEntity
  8
HIDDEN
100
AcDbLine
 10
-81.98441365505069
 20
67.82340542382617
 30
0.0
 11
-85.91638858452384
 21
67.45172436149177
 31
0.0
1001
DBPROPERTIES
1002
{
1000
PbHidd
1002
}
  0
LINE
  5
131
330
1F
100
AcDbEntity
  8
HIDDEN
100
AcDbLine
 10
-81.98441365505072
 20
67.82340542382619
 30
0.0
 11
-81.98441365505072
 21
67.82340542382619
 31
0.0
1001
DBPROPERTIES
1002
{
1000
PbHidd
1002
}
  0
LINE
  5
132
330
1F
100
AcDbEntity
  8
HIDDEN
100
AcDbLine
 10
-82.3560947173851
 20
71.75538035329929
 30
0.0
 11
-81.9844136550507
 21
67.82340542382616
 31
0.0
1001
DBPROPERTIES
1002
{
1000
PbHidd
1002
}
  0
LINE
  5
133
330
1F
100
AcDbEntity
  8
HIDDEN
100
AcDbLine
 10
-82.35609471738512
 20
71.75538035329933
 30
0.0
 11
-82.35609471738512
 21
71.75538035329932
 31
0.0
1001
DBPROPERTIES
1002
{
1000
PbHidd
1002
}
  0
ARC
  5
134
330
1F
100
AcDbEntity
  8
HIDDEN
100
AcDbCircle
 10
0.0
 20
0.0000000000000237
 30
0.0
 40
109.2307692307692
100
AcDbArc
 50
138.26502920538
 51
138.9349314594469
1001
DBPROPERTIES
1002
{
1000
PbHidd
1002
}
  0
LINE
  5
135
330
1F
100
AcDbEntity
  8
HIDDEN
100
AcDbLine
 10
-81.5115234015783
 20
72.71335846664982
 30
0.0
 11
-81.5115234015783
 21
72.71335846664984
 31
0.0
1001
DBPROPERTIES
1002
{
1000
PbHidd
1002
}
  0
LINE
  5
136
330
1F
100
AcDbEntity
  8
HIDDEN
100
AcDbLine
 10
-77.56396927945107
 20
72.83741535271231
 30
0.0
 11
-81.51152340157827
 21
72.71335846664981
 31
0.0
1001
DBPROPERTIES
1002
{
1000
PbHidd
1002
}
  0
LINE
  5
137
330
1F
100
AcDbEntity
  8
HIDDEN
100
AcDbLine
 10
-77.56396927945109
 20
72.83741535271231
 30
0.0
 11
-77.56396927945109
 21
72.83741535271231
 31
0.0
1001
DBPROPERTIES
1002
{
1000
PbHidd
1002
}
  0
LINE
  5
138
330
1F
100
AcDbEntity
  8
HIDDEN
100
AcDbLine
 10
-77.68802616551358
 20
76.78496947483954
 30
0.0
 11
-77.56396927945107
 21
72.8374153527123
 31
0.0
1001
DBPROPERTIES
1002
{
1000
PbHidd
1002
}
  0
LINE
  5
139
330
1F
100
AcDbEntity
  8
HIDDEN
100
AcDbLine
 10
-77.68802616551358
 20
76.78496947483957
 30
0.0
 11
-77.68802616551358
 21
76.78496947483956
 31
0.0
1001
DBPROPERTIES
1002
{
1000
PbHidd
1002
}
  0
ARC
  5
13A
330
1F
100
AcDbEntity
  8
HIDDEN
100
AcDbCircle
 10
0.0
 20
0.0000000000000237
 30
0.0
 40
109.2307692307692
100
AcDbArc
 50
134.6650780827935
 51
135.334923041081
1001
DBPROPERTIES
1002
{
1000
PbHidd
1002
}
  0
LINE
  5
13B
330
1F
100
AcDbEntity
  8
HIDDEN
100
AcDbLine
 10
-76.78496947483956
 20
77.68802616551358
 30
0.0
 11
-76.78496947483956
 21
77.68802616551359
 31
0.0
1001
DBPROPERTIES
1002
{
1000
PbHidd
1002
}
  0
LINE
  5
13C
330
1F
100
AcDbEntity
  8
HIDDEN
100
AcDbLine
 10
-72.83741535271233
 20
77.56396927945109
 30
0.0
 11
-76.78496947483956
 21
77.68802616551359
 31
0.0
1001
DBPROPERTIES
1002
{
1000
PbHidd
1002
}
  0
LINE
  5
13D
330
1F
100
AcDbEntity
  8
HIDDEN
100
AcDbLine
 10
-72.83741535271233
 20
77.56396927945109
 30
0.0
 11
-72.83741535271233
 21
77.56396927945109
 31
0.0
1001
DBPROPERTIES
1002
{
1000
PbHidd
1002
}
  0
LINE
  5
13E
330
1F
100
AcDbEntity
  8
HIDDEN
100
AcDbLine
 10
-72.71335846664982
 20
81.51152340157833
 30
0.0
 11
-72.83741535271233
 21
77.5639692794511
 31
0.0
1001
DBPROPERTIES
1002
{
1000
PbHidd
1002
}
  0
LINE
  5
13F
330
1F
100
AcDbEntity
  8
HIDDEN
100
AcDbLine
 10
-72.71335846664982
 20
81.51152340157833
 30
0.0
 11
-72.71335846664982
 21
81.51152340157832
 31
0.0
1001
DBPROPERTIES
1002
{
1000
PbHidd
1002
}
  0
ARC
  5
140
330
1F
100
AcDbEntity
  8
HIDDEN
100
AcDbCircle
 10
0.0
 20
0.0000000000000237
 30
0.0
 40
109.2307692307692
100
AcDbArc
 50
131.0650696644275
 51
131.7349719184945
1001
DBPROPERTIES
1002
{
1000
PbHidd
1002
}
  0
LINE
  5
141
330
1F
100
AcDbEntity
  8
HIDDEN
100
AcDbLine
 10
-71.75538035329936
 20
82.3560947173851
 30
0.0
 11
-71.75538035329936
 21
82.35609471738512
 31
0.0
1001
DBPROPERTIES
1002
{
1000
PbHidd
1002
}
  0
LINE
  5
142
330
1F
100
AcDbEntity
  8
HIDDEN
100
AcDbLine
 10
-67.82340542382619
 20
81.98441365505066
 30
0.0
 11
-71.75538035329933
 21
82.35609471738508
 31
0.0
1001
DBPROPERTIES
1002
{
1000
PbHidd
1002
}
  0
LINE
  5
143
330
1F
100
AcDbEntity
  8
HIDDEN
100
AcDbLine
 10
-67.82340542382622
 20
81.98441365505069
 30
0.0
 11
-67.82340542382622
 21
81.98441365505069
 31
0.0
1001
DBPROPERTIES
1002
{
1000
PbHidd
1002
}
  0
LINE
  5
144
330
1F
100
AcDbEntity
  8
HIDDEN
100
AcDbLine
 10
-67.45172436149177
 20
85.91638858452382
 30
0.0
 11
-67.82340542382619
 21
81.98441365505066
 31
0.0
1001
DBPROPERTIES
1002
{
1000
PbHidd
1002
}
  0
LINE
  5
145
330
1F
100
AcDbEntity
  8
HIDDEN
100
AcDbLine
 10
-67.45172436149178
 20
85.91638858452386
 30
0.0
 11
-67.45172436149178
 21
85.91638858452384
 31
0.0
1001
DBPROPERTIES
1002
{
1000
PbHidd
1002
}
  0
ARC
  5
146
330
1F
100
AcDbEntity
  8
HIDDEN
100
AcDbCircle
 10
0.0
 20
0.0000000000000237
 30
0.0
 40
109.2307692307692
100
AcDbArc
 50
127.4650612460615
 51
128.1349635001285
1001
DBPROPERTIES
1002
{
1000
PbHidd
1002
}
  0
LINE
  5
147
330
1F
100
AcDbEntity
  8
HIDDEN
100
AcDbLine
 10
-66.44260552741966
 20
86.69914138832787
 30
0.0
 11
-66.44260552741966
 21
86.69914138832789
 31
0.0
1001
DBPROPERTIES
1002
{
1000
PbHidd
1002
}
  0
LINE
  5
148
330
1F
100
AcDbEntity
  8
HIDDEN
100
AcDbLine
 10
-62.54172749929877
 20
86.08130300506969
 30
0.0
 11
-66.44260552741964
 21
86.69914138832789
 31
0.0
1001
DBPROPERTIES
1002
{
1000
PbHidd
1002
}
  0
LINE
  5
149
330
1F
100
AcDbEntity
  8
HIDDEN
100
AcDbLine
 10
-62.54172749929879
 20
86.08130300506967
 30
0.0
 11
-62.54172749929879
 21
86.08130300506967
 31
0.0
1001
DBPROPERTIES
1002
{
1000
PbHidd
1002
}
  0
LINE
  5
14A
330
1F
100
AcDbEntity
  8
HIDDEN
100
AcDbLine
 10
-61.92388911604058
 20
89.98218103319053
 30
0.0
 11
-62.54172749929878
 21
86.08130300506966
 31
0.0
1001
DBPROPERTIES
1002
{
1000
PbHidd
1002
}
  0
LINE
  5
14B
330
1F
100
AcDbEntity
  8
HIDDEN
100
AcDbLine
 10
-61.92388911604059
 20
89.98218103319056
 30
0.0
 11
-61.92388911604059
 21
89.98218103319054
 31
0.0
1001
DBPROPERTIES
1002
{
1000
PbHidd
1002
}
  0
ARC
  5
14C
330
1F
100
AcDbEntity
  8
HIDDEN
100
AcDbCircle
 10
0.0
 20
0.0000000000000237
 30
0.0
 40
109.2307692307692
100
AcDbArc
 50
123.8650528276955
 51
124.5349550817625
1001
DBPROPERTIES
1002
{
1000
PbHidd
1002
}
  0
LINE
  5
14D
330
1F
100
AcDbEntity
  8
HIDDEN
100
AcDbLine
 10
-60.86761209226231
 20
90.70002615728094
 30
0.0
 11
-60.86761209226231
 21
90.70002615728096
 31
0.0
1001
DBPROPERTIES
1002
{
1000
PbHidd
1002
}
  0
LINE
  5
14E
330
1F
100
AcDbEntity
  8
HIDDEN
100
AcDbLine
 10
-57.01322594892905
 20
89.83846877893414
 30
0.0
 11
-60.86761209226231
 21
90.70002615728093
 31
0.0
1001
DBPROPERTIES
1002
{
1000
PbHidd
1002
}
  0
LINE
  5
14F
330
1F
100
AcDbEntity
  8
HIDDEN
100
AcDbLine
 10
-57.01322594892905
 20
89.83846877893414
 30
0.0
 11
-57.01322594892905
 21
89.83846877893414
 31
0.0
1001
DBPROPERTIES
1002
{
1000
PbHidd
1002
}
  0
LINE
  5
150
330
1F
100
AcDbEntity
  8
HIDDEN
100
AcDbLine
 10
-56.15166857058227
 20
93.6928549222674
 30
0.0
 11
-57.01322594892906
 21
89.83846877893413
 31
0.0
1001
DBPROPERTIES
1002
{
1000
PbHidd
1002
}
  0
LINE
  5
151
330
1F
100
AcDbEntity
  8
HIDDEN
100
AcDbLine
 10
-56.15166857058226
 20
93.69285492226743
 30
0.0
 11
-56.15166857058226
 21
93.69285492226741
 31
0.0
1001
DBPROPERTIES
1002
{
1000
PbHidd
1002
}
  0
ARC
  5
152
330
1F
100
AcDbEntity
  8
HIDDEN
100
AcDbCircle
 10
0.0
 20
0.0000000000000237
 30
0.0
 40
109.2307692307692
100
AcDbArc
 50
120.2650444093296
 51
120.9349466633965
1001
DBPROPERTIES
1002
{
1000
PbHidd
1002
}
  0
LINE
  5
153
330
1F
100
AcDbEntity
  8
HIDDEN
100
AcDbLine
 10
-55.05240199994372
 20
94.34295935989161
 30
0.0
 11
-55.05240199994372
 21
94.34295935989162
 31
0.0
1001
DBPROPERTIES
1002
{
1000
PbHidd
1002
}
  0
LINE
  5
154
330
1F
100
AcDbEntity
  8
HIDDEN
100
AcDbLine
 10
-51.25971924260422
 20
93.24108315982042
 30
0.0
 11
-55.0524019999437
 21
94.3429593598916
 31
0.0
1001
DBPROPERTIES
1002
{
1000
PbHidd
1002
}
  0
LINE
  5
155
330
1F
100
AcDbEntity
  8
HIDDEN
100
AcDbLine
 10
-51.25971924260424
 20
93.24108315982043
 30
0.0
 11
-51.25971924260424
 21
93.24108315982043
 31
0.0
1001
DBPROPERTIES
1002
{
1000
PbHidd
1002
}
  0
LINE
  5
156
330
1F
100
AcDbEntity
  8
HIDDEN
100
AcDbLine
 10
-50.15784304253305
 20
97.03376591715987
 30
0.0
 11
-51.25971924260422
 21
93.2410831598204
 31
0.0
1001
DBPROPERTIES
1002
{
1000
PbHidd
1002
}
  0
LINE
  5
157
330
1F
100
AcDbEntity
  8
HIDDEN
100
AcDbLine
 10
-50.15784304253307
 20
97.03376591715991
 30
0.0
 11
-50.15784304253307
 21
97.0337659171599
 31
0.0
1001
DBPROPERTIES
1002
{
1000
PbHidd
1002
}
  0
ARC
  5
158
330
1F
100
AcDbEntity
  8
HIDDEN
100
AcDbCircle
 10
0.0
 20
0.0000000000000237
 30
0.0
 40
109.2307692307692
100
AcDbArc
 50
116.6650359909636
 51
117.3349382450305
1001
DBPROPERTIES
1002
{
1000
PbHidd
1002
}
  0
LINE
  5
159
330
1F
100
AcDbEntity
  8
HIDDEN
100
AcDbLine
 10
-49.01992522798137
 20
97.61356400310707
 30
0.0
 11
-49.01992522798137
 21
97.61356400310709
 31
0.0
1001
DBPROPERTIES
1002
{
1000
PbHidd
1002
}
  0
LINE
  5
15A
330
1F
100
AcDbEntity
  8
HIDDEN
100
AcDbLine
 10
-45.30391384276697
 20
96.27571758327385
 30
0.0
 11
-49.01992522798135
 21
97.61356400310707
 31
0.0
1001
DBPROPERTIES
1002
{
1000
PbHidd
1002
}
  0
LINE
  5
15B
330
1F
100
AcDbEntity
  8
HIDDEN
100
AcDbLine
 10
-45.30391384276699
 20
96.27571758327385
 30
0.0
 11
-45.30391384276699
 21
96.27571758327385
 31
0.0
1001
DBPROPERTIES
1002
{
1000
PbHidd
1002
}
  0
LINE
  5
15C
330
1F
100
AcDbEntity
  8
HIDDEN
100
AcDbLine
 10
-43.96606742293376
 20
99.99172896848822
 30
0.0
 11
-45.30391384276699
 21
96.27571758327383
 31
0.0
1001
DBPROPERTIES
1002
{
1000
PbHidd
1002
}
  0
LINE
  5
15D
330
1F
100
AcDbEntity
  8
HIDDEN
100
AcDbLine
 10
-43.96606742293375
 20
99.99172896848825
 30
0.0
 11
-43.96606742293375
 21
99.99172896848823
 31
0.0
1001
DBPROPERTIES
1002
{
1000
PbHidd
1002
}
  0
ARC
  5
15E
330
1F
100
AcDbEntity
  8
HIDDEN
100
AcDbCircle
 10
0.0
 20
0.0000000000000237
 30
0.0
 40
109.2307692307692
100
AcDbArc
 50
113.0650275725976
 51
113.7349298266645
1001
DBPROPERTIES
1002
{
1000
PbHidd
1002
}
  0
LINE
  5
15F
330
1F
100
AcDbEntity
  8
HIDDEN
100
AcDbLine
 10
-42.79398920621771
 20
100.4989325045977
 30
0.0
 11
-42.79398920621771
 21
100.4989325045977
 31
0.0
1001
DBPROPERTIES
1002
{
1000
PbHidd
1002
}
  0
LINE
  5
160
330
1F
100
AcDbEntity
  8
HIDDEN
100
AcDbLine
 10
-39.16931459238178
 20
98.93039573361762
 30
0.0
 11
-42.79398920621771
 21
100.4989325045977
 31
0.0
1001
DBPROPERTIES
1002
{
1000
PbHidd
1002
}
  0
LINE
  5
161
330
1F
100
AcDbEntity
  8
HIDDEN
100
AcDbLine
 10
-39.1693145923818
 20
98.93039573361763
 30
0.0
 11
-39.1693145923818
 21
98.93039573361763
 31
0.0
1001
DBPROPERTIES
1002
{
1000
PbHidd
1002
}
  0
LINE
  5
162
330
1F
100
AcDbEntity
  8
HIDDEN
100
AcDbLine
 10
-37.60077782140171
 20
102.5550703474536
 30
0.0
 11
-39.16931459238179
 21
98.93039573361762
 31
0.0
1001
DBPROPERTIES
1002
{
1000
PbHidd
1002
}
  0
LINE
  5
163
330
1F
100
AcDbEntity
  8
HIDDEN
100
AcDbLine
 10
-37.60077782140171
 20
102.5550703474536
 30
0.0
 11
-37.60077782140171
 21
102.5550703474536
 31
0.0
1001
DBPROPERTIES
1002
{
1000
PbHidd
1002
}
  0
ARC
  5
164
330
1F
100
AcDbEntity
  8
HIDDEN
100
AcDbCircle
 10
0.0
 20
0.0000000000000237
 30
0.0
 40
109.2307692307692
100
AcDbArc
 50
109.4650764500111
 51
110.1349787040781
1001
DBPROPERTIES
1002
{
1000
PbHidd
1002
}
  0
LINE
  5
165
330
1F
100
AcDbEntity
  8
HIDDEN
100
AcDbLine
 10
-36.3991648597712
 20
102.9876776330876
 30
0.0
 11
-36.3991648597712
 21
102.9876776330876
 31
0.0
1001
DBPROPERTIES
1002
{
1000
PbHidd
1002
}
  0
LINE
  5
166
330
1F
100
AcDbEntity
  8
HIDDEN
100
AcDbLine
 10
-32.88013195205813
 20
101.1946408089993
 30
0.0
 11
-36.39916485977118
 21
102.9876776330875
 31
0.0
1001
DBPROPERTIES
1002
{
1000
PbHidd
1002
}
  0
LINE
  5
167
330
1F
100
AcDbEntity
  8
HIDDEN
100
AcDbLine
 10
-32.88013195205814
 20
101.1946408089994
 30
0.0
 11
-32.88013195205814
 21
101.1946408089994
 31
0.0
1001
DBPROPERTIES
1002
{
1000
PbHidd
1002
}
  0
LINE
  5
168
330
1F
100
AcDbEntity
  8
HIDDEN
100
AcDbLine
 10
-31.08709512796996
 20
104.7136737167124
 30
0.0
 11
-32.88013195205814
 21
101.1946408089994
 31
0.0
1001
DBPROPERTIES
1002
{
1000
PbHidd
1002
}
  0
LINE
  5
169
330
1F
100
AcDbEntity
  8
HIDDEN
100
AcDbLine
 10
-31.08709512796997
 20
104.7136737167124
 30
0.0
 11
-31.08709512796997
 21
104.7136737167124
 31
0.0
1001
DBPROPERTIES
1002
{
1000
PbHidd
1002
}
  0
ARC
  5
16A
330
1F
100
AcDbEntity
  8
HIDDEN
100
AcDbCircle
 10
0.0
 20
0.0000000000000237
 30
0.0
 40
109.2307692307692
100
AcDbArc
 50
105.8650680316451
 51
106.5349702857121
1001
DBPROPERTIES
1002
{
1000
PbHidd
1002
}
  0
LINE
  5
16B
330
1F
100
AcDbEntity
  8
HIDDEN
100
AcDbLine
 10
-29.86068963881971
 20
105.069977448554
 30
0.0
 11
-29.86068963881971
 21
105.069977448554
 31
0.0
1001
DBPROPERTIES
1002
{
1000
PbHidd
1002
}
  0
LINE
  5
16C
330
1F
100
AcDbEntity
  8
HIDDEN
100
AcDbLine
 10
-26.46118645242314
 20
103.0595168685418
 30
0.0
 11
-29.8606896388197
 21
105.069977448554
 31
0.0
1001
DBPROPERTIES
1002
{
1000
PbHidd
1002
}
  0
LINE
  5
16D
330
1F
100
AcDbEntity
  8
HIDDEN
100
AcDbLine
 10
-26.46118645242314
 20
103.0595168685418
 30
0.0
 11
-26.46118645242314
 21
103.0595168685418
 31
0.0
1001
DBPROPERTIES
1002
{
1000
PbHidd
1002
}
  0
LINE
  5
16E
330
1F
100
AcDbEntity
  8
HIDDEN
100
AcDbLine
 10
-24.45072587241097
 20
106.4590200549384
 30
0.0
 11
-26.46118645242315
 21
103.0595168685418
 31
0.0
1001
DBPROPERTIES
1002
{
1000
PbHidd
1002
}
  0
LINE
  5
16F
330
1F
100
AcDbEntity
  8
HIDDEN
100
AcDbLine
 10
-24.45072587241096
 20
106.4590200549384
 30
0.0
 11
-24.45072587241096
 21
106.4590200549384
 31
0.0
1001
DBPROPERTIES
1002
{
1000
PbHidd
1002
}
  0
ARC
  5
170
330
1F
100
AcDbEntity
  8
HIDDEN
100
AcDbCircle
 10
0.0
 20
0.0000000000000237
 30
0.0
 40
109.2307692307692
100
AcDbArc
 50
102.2650596132791
 51
102.9349618673461
1001
DBPROPERTIES
1002
{
1000
PbHidd
1002
}
  0
LINE
  5
171
330
1F
100
AcDbEntity
  8
HIDDEN
100
AcDbLine
 10
-23.2043679179153
 20
106.7376140649377
 30
0.0
 11
-23.2043679179153
 21
106.7376140649377
 31
0.0
1001
DBPROPERTIES
1002
{
1000
PbHidd
1002
}
  0
LINE
  5
172
330
1F
100
AcDbEntity
  8
HIDDEN
100
AcDbLine
 10
-19.93781073882658
 20
104.5176640984187
 30
0.0
 11
-23.20436791791529
 21
106.7376140649377
 31
0.0
1001
DBPROPERTIES
1002
{
1000
PbHidd
1002
}
  0
LINE
  5
173
330
1F
100
AcDbEntity
  8
HIDDEN
100
AcDbLine
 10
-19.93781073882659
 20
104.5176640984188
 30
0.0
 11
-19.93781073882659
 21
104.5176640984188
 31
0.0
1001
DBPROPERTIES
1002
{
1000
PbHidd
1002
}
  0
LINE
  5
174
330
1F
100
AcDbEntity
  8
HIDDEN
100
AcDbLine
 10
-17.71786077230762
 20
107.7842212775074
 30
0.0
 11
-19.93781073882658
 21
104.5176640984187
 31
0.0
1001
DBPROPERTIES
1002
{
1000
PbHidd
1002
}
  0
LINE
  5
175
330
1F
100
AcDbEntity
  8
HIDDEN
100
AcDbLine
 10
-17.71786077230761
 20
107.7842212775075
 30
0.0
 11
-17.71786077230761
 21
107.7842212775074
 31
0.0
1001
DBPROPERTIES
1002
{
1000
PbHidd
1002
}
  0
ARC
  5
176
330
1F
100
AcDbEntity
  8
HIDDEN
100
AcDbCircle
 10
0.0
 20
0.0000000000000237
 30
0.0
 40
109.2307692307692
100
AcDbArc
 50
98.66505119491315
 51
99.3349534489801
1001
DBPROPERTIES
1002
{
1000
PbHidd
1002
}
  0
LINE
  5
177
330
1F
100
AcDbEntity
  8
HIDDEN
100
AcDbLine
 10
-16.45646915790614
 20
107.9840060823845
 30
0.0
 11
-16.45646915790614
 21
107.9840060823845
 31
0.0
1001
DBPROPERTIES
1002
{
1000
PbHidd
1002
}
  0
LINE
  5
178
330
1F
100
AcDbEntity
  8
HIDDEN
100
AcDbLine
 10
-13.33574959496318
 20
105.5633278576779
 30
0.0
 11
-16.45646915790613
 21
107.9840060823845
 31
0.0
1001
DBPROPERTIES
1002
{
1000
PbHidd
1002
}
  0
LINE
  5
179
330
1F
100
AcDbEntity
  8
HIDDEN
100
AcDbLine
 10
-13.33574959496318
 20
105.5633278576779
 30
0.0
 11
-13.33574959496318
 21
105.5633278576779
 31
0.0
1001
DBPROPERTIES
1002
{
1000
PbHidd
1002
}
  0
LINE
  5
17A
330
1F
100
AcDbEntity
  8
HIDDEN
100
AcDbLine
 10
-10.91507137025663
 20
108.6840474206209
 30
0.0
 11
-13.33574959496318
 21
105.5633278576779
 31
0.0
1001
DBPROPERTIES
1002
{
1000
PbHidd
1002
}
  0
LINE
  5
17B
330
1F
100
AcDbEntity
  8
HIDDEN
100
AcDbLine
 10
-10.91507137025664
 20
108.6840474206209
 30
0.0
 11
-10.91507137025664
 21
108.6840474206209
 31
0.0
1001
DBPROPERTIES
1002
{
1000
PbHidd
1002
}
  0
ARC
  5
17C
330
1F
100
AcDbEntity
  8
HIDDEN
100
AcDbCircle
 10
0.0
 20
0.0000000000000237
 30
0.0
 40
109.2307692307692
100
AcDbArc
 50
95.06504277654716
 51
95.73494503061411
1001
DBPROPERTIES
1002
{
1000
PbHidd
1002
}
  0
LINE
  5
17D
330
1F
100
AcDbEntity
  8
HIDDEN
100
AcDbLine
 10
-9.643624232376347
 20
108.8042345610238
 30
0.0
 11
-9.643624232376347
 21
108.8042345610238
 31
0.0
1001
DBPROPERTIES
1002
{
1000
PbHidd
1002
}
  0
LINE
  5
17E
330
1F
100
AcDbEntity
  8
HIDDEN
100
AcDbLine
 10
-6.681058339972907
 20
106.1923813891799
 30
0.0
 11
-9.643624232376343
 21
108.8042345610238
 31
0.0
1001
DBPROPERTIES
1002
{
1000
PbHidd
1002
}
  0
LINE
  5
17F
330
1F
100
AcDbEntity
  8
HIDDEN
100
AcDbLine
 10
-6.681058339972915
 20
106.1923813891799
 30
0.0
 11
-6.681058339972915
 21
106.1923813891799
 31
0.0
1001
DBPROPERTIES
1002
{
1000
PbHidd
1002
}
  0
LINE
  5
180
330
1F
100
AcDbEntity
  8
HIDDEN
100
AcDbLine
 10
-4.069205168129013
 20
109.1549472815833
 30
0.0
 11
-6.681058339972925
 21
106.1923813891799
 31
0.0
1001
DBPROPERTIES
1002
{
1000
PbHidd
1002
}
  0
LINE
  5
181
330
1F
100
AcDbEntity
  8
HIDDEN
100
AcDbLine
 10
-4.069205168129002
 20
109.1549472815833
 30
0.0
 11
-4.069205168129002
 21
109.1549472815833
 31
0.0
1001
DBPROPERTIES
1002
{
1000
PbHidd
1002
}
  0
ARC
  5
182
330
1F
100
AcDbEntity
  8
HIDDEN
100
AcDbCircle
 10
0.0
 20
0.0000000000000237
 30
0.0
 40
109.2307692307692
100
AcDbArc
 50
91.46503435818117
 51
92.13493661224813
1001
DBPROPERTIES
1002
{
1000
PbHidd
1002
}
  0
LINE
  5
183
330
1F
100
AcDbEntity
  8
HIDDEN
100
AcDbLine
 10
-2.792720327754218
 20
109.1950624337773
 30
0.0
 11
-2.792720327754218
 21
109.1950624337773
 31
0.0
1001
DBPROPERTIES
1002
{
1000
PbHidd
1002
}
  0
LINE
  5
184
330
1F
100
AcDbEntity
  8
HIDDEN
100
AcDbLine
 10
0.0000000000000071
 20
106.402342106023
 30
0.0
 11
-2.792720327754207
 21
109.1950624337773
 31
0.0
1001
DBPROPERTIES
1002
{
1000
PbHidd
1002
}
  0
LINE
  5
185
330
1F
100
AcDbEntity
  8
HIDDEN
100
AcDbLine
 10
0.0000000000000065
 20
106.402342106023
 30
0.0
 11
0.0000000000000065
 21
106.402342106023
 31
0.0
1001
DBPROPERTIES
1002
{
1000
PbHidd
1002
}
  0
LINE
  5
186
330
1F
100
AcDbEntity
  8
HIDDEN
100
AcDbLine
 10
2.792720327754214
 20
109.1950624337773
 30
0.0
 11
0.0
 21
106.402342106023
 31
0.0
1001
DBPROPERTIES
1002
{
1000
PbHidd
1002
}
  0
LINE
  5
187
330
1F
100
AcDbEntity
  8
HIDDEN
100
AcDbLine
 10
2.792720327754231
 20
109.1950624337773
 30
0.0
 11
2.792720327754231
 21
109.1950624337773
 31
0.0
1001
DBPROPERTIES
1002
{
1000
PbHidd
1002
}
  0
ARC
  5
188
330
1F
100
AcDbEntity
  8
HIDDEN
100
AcDbCircle
 10
0.0
 20
0.0
 30
0.0
 40
94.66666666666667
100
AcDbArc
 50
89.99998127603165
 51
270.0000187239684
1001
DBPROPERTIES
1002
{
1000
PbHidd
1002
}
  0
LINE
  5
189
330
1F
100
AcDbEntity
  8
HIDDEN
100
AcDbLine
 10
-88.75
 20
-62.11904741936095
 30
0.0
 11
-88.75
 21
-75.3051856489455
 31
0.0
1001
DBPROPERTIES
1002
{
1000
PbHidd
1002
}
  0
LINE
  5
18A
330
1F
100
AcDbEntity
  8
HIDDEN
100
AcDbLine
 10
-88.75000000000001
 20
-116.3333333333333
 30
0.0
 11
-88.75000000000001
 21
-116.3333333333333
 31
0.0
1001
DBPROPERTIES
1002
{
1000
PbHidd
1002
}
  0
LINE
  5
18B
330
1F
100
AcDbEntity
  8
HIDDEN
100
AcDbLine
 10
86.08130300506966
 20
-62.54172749929879
 30
0.0
 11
86.69914138832786
 21
-66.44260552741962
 31
0.0
1001
DBPROPERTIES
1002
{
1000
PbHidd
1002
}
  0
LINE
  5
18C
330
1F
100
AcDbEntity
  8
HIDDEN
100
AcDbLine
 10
88.74999999999994
 20
-62.11904741936098
 30
0.0
 11
86.0813030050696
 21
-62.54172749929879
 31
0.0
1001
DBPROPERTIES
1002
{
1000
PbHidd
1002
}
  0
LINE
  5
18D
330
1F
100
AcDbEntity
  8
HIDDEN
100
AcDbLine
 10
-3.740192665853366
 20
-116.3333333333333
 30
0.0
 11
3.74019266585335
 21
-116.3333333333333
 31
0.0
1001
DBPROPERTIES
1002
{
1000
PbHidd
1002
}
  0
LINE
  5
18E
330
1F
100
AcDbEntity
  8
HIDDEN
100
AcDbLine
 10
-86.69914138832787
 20
-66.44260552741956
 30
0.0
 11
-86.08130300506967
 21
-62.54172749929876
 31
0.0
1001
DBPROPERTIES
1002
{
1000
PbHidd
1002
}
  0
ARC
  5
18F
330
1F
100
AcDbEntity
  8
HIDDEN
100
AcDbCircle
 10
0.0
 20
0.0000000000000384
 30
0.0
 40
109.2307692307692
100
AcDbArc
 50
217.4650601221871
 51
218.134962376254
1001
DBPROPERTIES
1002
{
1000
PbHidd
1002
}
  0
LINE
  5
190
330
1F
100
AcDbEntity
  8
HIDDEN
100
AcDbLine
 10
-81.98441365505073
 20
-67.8234054238262
 30
0.0
 11
-85.91638858452379
 21
-67.4517243614918
 31
0.0
1001
DBPROPERTIES
1002
{
1000
PbHidd
1002
}
  0
LINE
  5
191
330
1F
100
AcDbEntity
  8
HIDDEN
100
AcDbLine
 10
-82.35609471738512
 20
-71.75538035329926
 30
0.0
 11
-81.98441365505072
 21
-67.82340542382622
 31
0.0
1001
DBPROPERTIES
1002
{
1000
PbHidd
1002
}
  0
ARC
  5
192
330
1F
100
AcDbEntity
  8
HIDDEN
100
AcDbCircle
 10
0.0
 20
0.0000000000000384
 30
0.0
 40
109.2307692307692
100
AcDbArc
 50
221.0650685405531
 51
221.73497079462
1001
DBPROPERTIES
1002
{
1000
PbHidd
1002
}
  0
LINE
  5
193
330
1F
100
AcDbEntity
  8
HIDDEN
100
AcDbLine
 10
-77.56396927945102
 20
-72.83741535271233
 30
0.0
 11
-81.51152340157822
 21
-72.71335846664984
 31
0.0
1001
DBPROPERTIES
1002
{
1000
PbHidd
1002
}
  0
LINE
  5
194
330
1F
100
AcDbEntity
  8
HIDDEN
100
AcDbLine
 10
-77.68802616551355
 20
-76.7849694748395
 30
0.0
 11
-77.56396927945106
 21
-72.83741535271233
 31
0.0
1001
DBPROPERTIES
1002
{
1000
PbHidd
1002
}
  0
ARC
  5
195
330
1F
100
AcDbEntity
  8
HIDDEN
100
AcDbCircle
 10
0.0
 20
0.0000000000000384
 30
0.0
 40
109.2307692307692
100
AcDbArc
 50
224.665076958919
 51
225.3349219172065
1001
DBPROPERTIES
1002
{
1000
PbHidd
1002
}
  0
LINE
  5
196
330
1F
100
AcDbEntity
  8
HIDDEN
100
AcDbLine
 10
-72.83741535271228
 20
-77.56396927945107
 30
0.0
 11
-76.78496947483947
 21
-77.68802616551358
 31
0.0
1001
DBPROPERTIES
1002
{
1000
PbHidd
1002
}
  0
LINE
  5
197
330
1F
100
AcDbEntity
  8
HIDDEN
100
AcDbLine
 10
-72.71335846664984
 20
-81.51152340157822
 30
0.0
 11
-72.83741535271233
 21
-77.56396927945109
 31
0.0
1001
DBPROPERTIES
1002
{
1000
PbHidd
1002
}
  0
ARC
  5
198
330
1F
100
AcDbEntity
  8
HIDDEN
100
AcDbCircle
 10
0.0
 20
0.0000000000000384
 30
0.0
 40
109.2307692307692
100
AcDbArc
 50
228.2650280815055
 51
228.9349303355725
1001
DBPROPERTIES
1002
{
1000
PbHidd
1002
}
  0
LINE
  5
199
330
1F
100
AcDbEntity
  8
HIDDEN
100
AcDbLine
 10
-67.82340542382616
 20
-81.9844136550507
 30
0.0
 11
-71.75538035329922
 21
-82.3560947173851
 31
0.0
1001
DBPROPERTIES
1002
{
1000
PbHidd
1002
}
  0
LINE
  5
19A
330
1F
100
AcDbEntity
  8
HIDDEN
100
AcDbLine
 10
-67.45172436149178
 20
-85.91638858452376
 30
0.0
 11
-67.82340542382619
 21
-81.98441365505072
 31
0.0
1001
DBPROPERTIES
1002
{
1000
PbHidd
1002
}
  0
ARC
  5
19B
330
1F
100
AcDbEntity
  8
HIDDEN
100
AcDbCircle
 10
0.0
 20
0.0000000000000384
 30
0.0
 40
109.2307692307692
100
AcDbArc
 50
231.8650364998715
 51
232.5349387539385
1001
DBPROPERTIES
1002
{
1000
PbHidd
1002
}
  0
LINE
  5
19C
330
1F
100
AcDbEntity
  8
HIDDEN
100
AcDbLine
 10
-62.54172749929877
 20
-86.08130300506964
 30
0.0
 11
-66.44260552741962
 21
-86.69914138832785
 31
0.0
1001
DBPROPERTIES
1002
{
1000
PbHidd
1002
}
  0
LINE
  5
19D
330
1F
100
AcDbEntity
  8
HIDDEN
100
AcDbLine
 10
-61.92388911604061
 20
-89.98218103319046
 30
0.0
 11
-62.5417274992988
 21
-86.08130300506966
 31
0.0
1001
DBPROPERTIES
1002
{
1000
PbHidd
1002
}
  0
ARC
  5
19E
330
1F
100
AcDbEntity
  8
HIDDEN
100
AcDbCircle
 10
0.0
 20
0.0000000000000384
 30
0.0
 40
109.2307692307692
100
AcDbArc
 50
235.4650449182375
 51
236.1349471723045
1001
DBPROPERTIES
1002
{
1000
PbHidd
1002
}
  0
LINE
  5
19F
330
1F
100
AcDbEntity
  8
HIDDEN
100
AcDbLine
 10
-57.01322594892905
 20
-89.83846877893416
 30
0.0
 11
-60.86761209226225
 21
-90.70002615728093
 31
0.0
1001
DBPROPERTIES
1002
{
1000
PbHidd
1002
}
  0
LINE
  5
1A0
330
1F
100
AcDbEntity
  8
HIDDEN
100
AcDbLine
 10
-56.1516685705823
 20
-93.69285492226733
 30
0.0
 11
-57.01322594892907
 21
-89.83846877893414
 31
0.0
1001
DBPROPERTIES
1002
{
1000
PbHidd
1002
}
  0
ARC
  5
1A1
330
1F
100
AcDbEntity
  8
HIDDEN
100
AcDbCircle
 10
0.0
 20
0.0000000000000384
 30
0.0
 40
109.2307692307692
100
AcDbArc
 50
239.0650533366034
 51
239.7349555906704
1001
DBPROPERTIES
1002
{
1000
PbHidd
1002
}
  0
LINE
  5
1A2
330
1F
100
AcDbEntity
  8
HIDDEN
100
AcDbLine
 10
-51.25971924260421
 20
-93.24108315982042
 30
0.0
 11
-55.05240199994363
 21
-94.34295935989158
 31
0.0
1001
DBPROPERTIES
1002
{
1000
PbHidd
1002
}
  0
LINE
  5
1A3
330
1F
100
AcDbEntity
  8
HIDDEN
100
AcDbLine
 10
-50.1578430425331
 20
-97.0337659171598
 30
0.0
 11
-51.25971924260424
 21
-93.24108315982043
 31
0.0
1001
DBPROPERTIES
1002
{
1000
PbHidd
1002
}
  0
ARC
  5
1A4
330
1F
100
AcDbEntity
  8
HIDDEN
100
AcDbCircle
 10
0.0
 20
0.0000000000000384
 30
0.0
 40
109.2307692307692
100
AcDbArc
 50
242.6650617549694
 51
243.3349640090364
1001
DBPROPERTIES
1002
{
1000
PbHidd
1002
}
  0
LINE
  5
1A5
330
1F
100
AcDbEntity
  8
HIDDEN
100
AcDbLine
 10
-45.30391384276695
 20
-96.27571758327386
 30
0.0
 11
-49.01992522798125
 21
-97.61356400310706
 31
0.0
1001
DBPROPERTIES
1002
{
1000
PbHidd
1002
}
  0
LINE
  5
1A6
330
1F
100
AcDbEntity
  8
HIDDEN
100
AcDbLine
 10
-43.96606742293379
 20
-99.99172896848813
 30
0.0
 11
-45.30391384276697
 21
-96.27571758327387
 31
0.0
1001
DBPROPERTIES
1002
{
1000
PbHidd
1002
}
  0
ARC
  5
1A7
330
1F
100
AcDbEntity
  8
HIDDEN
100
AcDbCircle
 10
0.0
 20
0.0000000000000384
 30
0.0
 40
109.2307692307692
100
AcDbArc
 50
246.2650701733355
 51
246.9349724274024
1001
DBPROPERTIES
1002
{
1000
PbHidd
1002
}
  0
LINE
  5
1A8
330
1F
100
AcDbEntity
  8
HIDDEN
100
AcDbLine
 10
-39.16931459238177
 20
-98.93039573361762
 30
0.0
 11
-42.79398920621764
 21
-100.4989325045977
 31
0.0
1001
DBPROPERTIES
1002
{
1000
PbHidd
1002
}
  0
LINE
  5
1A9
330
1F
100
AcDbEntity
  8
HIDDEN
100
AcDbLine
 10
-37.60077782140173
 20
-102.5550703474535
 30
0.0
 11
-39.16931459238179
 21
-98.93039573361763
 31
0.0
1001
DBPROPERTIES
1002
{
1000
PbHidd
1002
}
  0
ARC
  5
1AA
330
1F
100
AcDbEntity
  8
HIDDEN
100
AcDbCircle
 10
0.0
 20
0.0000000000000384
 30
0.0
 40
109.2307692307692
100
AcDbArc
 50
249.8650212959219
 51
250.5349235499889
1001
DBPROPERTIES
1002
{
1000
PbHidd
1002
}
  0
LINE
  5
1AB
330
1F
100
AcDbEntity
  8
HIDDEN
100
AcDbLine
 10
-32.88013195205811
 20
-101.1946408089994
 30
0.0
 11
-36.39916485977106
 21
-102.9876776330875
 31
0.0
1001
DBPROPERTIES
1002
{
1000
PbHidd
1002
}
  0
LINE
  5
1AC
330
1F
100
AcDbEntity
  8
HIDDEN
100
AcDbLine
 10
-31.08709512797001
 20
-104.7136737167124
 30
0.0
 11
-32.88013195205814
 21
-101.1946408089994
 31
0.0
1001
DBPROPERTIES
1002
{
1000
PbHidd
1002
}
  0
ARC
  5
1AD
330
1F
100
AcDbEntity
  8
HIDDEN
100
AcDbCircle
 10
0.0
 20
0.0000000000000384
 30
0.0
 40
109.2307692307692
100
AcDbArc
 50
253.4650297142879
 51
254.1349319683549
1001
DBPROPERTIES
1002
{
1000
PbHidd
1002
}
  0
LINE
  5
1AE
330
1F
100
AcDbEntity
  8
HIDDEN
100
AcDbLine
 10
-26.46118645242315
 20
-103.0595168685418
 30
0.0
 11
-29.86068963881964
 21
-105.069977448554
 31
0.0
1001
DBPROPERTIES
1002
{
1000
PbHidd
1002
}
  0
LINE
  5
1AF
330
1F
100
AcDbEntity
  8
HIDDEN
100
AcDbLine
 10
-24.45072587241102
 20
-106.4590200549383
 30
0.0
 11
-26.46118645242316
 21
-103.0595168685418
 31
0.0
1001
DBPROPERTIES
1002
{
1000
PbHidd
1002
}
  0
ARC
  5
1B0
330
1F
100
AcDbEntity
  8
HIDDEN
100
AcDbCircle
 10
0.0
 20
0.0000000000000384
 30
0.0
 40
109.2307692307692
100
AcDbArc
 50
257.0650381326539
 51
257.7349403867208
1001
DBPROPERTIES
1002
{
1000
PbHidd
1002
}
  0
LINE
  5
1B1
330
1F
100
AcDbEntity
  8
HIDDEN
100
AcDbLine
 10
-19.93781073882659
 20
-104.5176640984187
 30
0.0
 11
-23.20436791791521
 21
-106.7376140649377
 31
0.0
1001
DBPROPERTIES
1002
{
1000
PbHidd
1002
}
  0
LINE
  5
1B2
330
1F
100
AcDbEntity
  8
HIDDEN
100
AcDbLine
 10
-17.71786077230767
 20
-107.7842212775074
 30
0.0
 11
-19.93781073882659
 21
-104.5176640984187
 31
0.0
1001
DBPROPERTIES
1002
{
1000
PbHidd
1002
}
  0
ARC
  5
1B3
330
1F
100
AcDbEntity
  8
HIDDEN
100
AcDbCircle
 10
0.0
 20
0.0000000000000384
 30
0.0
 40
109.2307692307692
100
AcDbArc
 50
260.6650465510199
 51
261.3349488050869
1001
DBPROPERTIES
1002
{
1000
PbHidd
1002
}
  0
LINE
  5
1B4
330
1F
100
AcDbEntity
  8
HIDDEN
100
AcDbLine
 10
-13.33574959496317
 20
-105.5633278576779
 30
0.0
 11
-16.45646915790605
 21
-107.9840060823844
 31
0.0
1001
DBPROPERTIES
1002
{
1000
PbHidd
1002
}
  0
LINE
  5
1B5
330
1F
100
AcDbEntity
  8
HIDDEN
100
AcDbLine
 10
-10.91507137025669
 20
-108.6840474206208
 30
0.0
 11
-13.33574959496319
 21
-105.5633278576779
 31
0.0
1001
DBPROPERTIES
1002
{
1000
PbHidd
1002
}
  0
ARC
  5
1B6
330
1F
100
AcDbEntity
  8
HIDDEN
100
AcDbCircle
 10
0.0
 20
0.0000000000000384
 30
0.0
 40
109.2307692307692
100
AcDbArc
 50
264.2650549693859
 51
264.9349572234528
1001
DBPROPERTIES
1002
{
1000
PbHidd
1002
}
  0
LINE
  5
1B7
330
1F
100
AcDbEntity
  8
HIDDEN
100
AcDbLine
 10
-6.681058339972888
 20
-106.1923813891799
 30
0.0
 11
-9.643624232376265
 21
-108.8042345610237
 31
0.0
1001
DBPROPERTIES
1002
{
1000
PbHidd
1002
}
  0
LINE
  5
1B8
330
1F
100
AcDbEntity
  8
HIDDEN
100
AcDbLine
 10
-4.06920516812905
 20
-109.1549472815833
 30
0.0
 11
-6.681058339972911
 21
-106.1923813891799
 31
0.0
1001
DBPROPERTIES
1002
{
1000
PbHidd
1002
}
  0
ARC
  5
1B9
330
1F
100
AcDbEntity
  8
HIDDEN
100
AcDbCircle
 10
0.0
 20
0.0000000000000384
 30
0.0
 40
109.2307692307692
100
AcDbArc
 50
267.8650633877519
 51
268.5349656418189
1001
DBPROPERTIES
1002
{
1000
PbHidd
1002
}
  0
LINE
  5
1BA
330
1F
100
AcDbEntity
  8
HIDDEN
100
AcDbLine
 10
0.0000000000000302
 20
-106.402342106023
 30
0.0
 11
-2.792720327754129
 21
-109.1950624337772
 31
0.0
1001
DBPROPERTIES
1002
{
1000
PbHidd
1002
}
  0
LINE
  5
1BB
330
1F
100
AcDbEntity
  8
HIDDEN
100
AcDbLine
 10
2.792720327754205
 20
-109.1950624337772
 30
0.0
 11
0.0000000000000249
 21
-106.402342106023
 31
0.0
1001
DBPROPERTIES
1002
{
1000
PbHidd
1002
}
  0
ARC
  5
1BC
330
1F
100
AcDbEntity
  8
HIDDEN
100
AcDbCircle
 10
0.0
 20
0.0000000000000384
 30
0.0
 40
109.2307692307692
100
AcDbArc
 50
271.4650718061179
 51
272.1349740601848
1001
DBPROPERTIES
1002
{
1000
PbHidd
1002
}
  0
LINE
  5
1BD
330
1F
100
AcDbEntity
  8
HIDDEN
100
AcDbLine
 10
6.681058339972919
 20
-106.1923813891799
 30
0.0
 11
4.069205168129068
 21
-109.1549472815833
 31
0.0
1001
DBPROPERTIES
1002
{
1000
PbHidd
1002
}
  0
LINE
  5
1BE
330
1F
100
AcDbEntity
  8
HIDDEN
100
AcDbLine
 10
9.643624232376267
 20
-108.8042345610237
 30
0.0
 11
6.6810583399729
 21
-106.1923813891799
 31
0.0
1001
DBPROPERTIES
1002
{
1000
PbHidd
1002
}
  0
ARC
  5
1BF
330
1F
100
AcDbEntity
  8
HIDDEN
100
AcDbCircle
 10
0.0
 20
0.0000000000000384
 30
0.0
 40
109.2307692307692
100
AcDbArc
 50
275.0650229287043
 51
275.7349251827713
1001
DBPROPERTIES
1002
{
1000
PbHidd
1002
}
  0
LINE
  5
1C0
330
1F
100
AcDbEntity
  8
HIDDEN
100
AcDbLine
 10
13.33574959496319
 20
-105.5633278576779
 30
0.0
 11
10.9150713702567
 21
-108.6840474206208
 31
0.0
1001
DBPROPERTIES
1002
{
1000
PbHidd
1002
}
  0
LINE
  5
1C1
330
1F
100
AcDbEntity
  8
HIDDEN
100
AcDbLine
 10
16.45646915790606
 20
-107.9840060823844
 30
0.0
 11
13.33574959496317
 21
-105.5633278576779
 31
0.0
1001
DBPROPERTIES
1002
{
1000
PbHidd
1002
}
  0
ARC
  5
1C2
330
1F
100
AcDbEntity
  8
HIDDEN
100
AcDbCircle
 10
0.0
 20
0.0000000000000384
 30
0.0
 40
109.2307692307692
100
AcDbArc
 50
278.6650313470703
 51
279.3349336011373
1001
DBPROPERTIES
1002
{
1000
PbHidd
1002
}
  0
LINE
  5
1C3
330
1F
100
AcDbEntity
  8
HIDDEN
100
AcDbLine
 10
19.9378107388266
 20
-104.5176640984188
 30
0.0
 11
17.71786077230769
 21
-107.7842212775074
 31
0.0
1001
DBPROPERTIES
1002
{
1000
PbHidd
1002
}
  0
LINE
  5
1C4
330
1F
100
AcDbEntity
  8
HIDDEN
100
AcDbLine
 10
23.20436791791523
 20
-106.7376140649377
 30
0.0
 11
19.93781073882661
 21
-104.5176640984187
 31
0.0
1001
DBPROPERTIES
1002
{
1000
PbHidd
1002
}
  0
ARC
  5
1C5
330
1F
100
AcDbEntity
  8
HIDDEN
100
AcDbCircle
 10
0.0
 20
0.0000000000000384
 30
0.0
 40
109.2307692307692
100
AcDbArc
 50
282.2650397654363
 51
282.9349420195033
1001
DBPROPERTIES
1002
{
1000
PbHidd
1002
}
  0
LINE
  5
1C6
330
1F
100
AcDbEntity
  8
HIDDEN
100
AcDbLine
 10
26.46118645242317
 20
-103.0595168685418
 30
0.0
 11
24.45072587241104
 21
-106.4590200549383
 31
0.0
1001
DBPROPERTIES
1002
{
1000
PbHidd
1002
}
  0
LINE
  5
1C7
330
1F
100
AcDbEntity
  8
HIDDEN
100
AcDbLine
 10
29.86068963881966
 20
-105.069977448554
 30
0.0
 11
26.46118645242316
 21
-103.0595168685418
 31
0.0
1001
DBPROPERTIES
1002
{
1000
PbHidd
1002
}
  0
ARC
  5
1C8
330
1F
100
AcDbEntity
  8
HIDDEN
100
AcDbCircle
 10
0.0
 20
0.0000000000000384
 30
0.0
 40
109.2307692307692
100
AcDbArc
 50
285.8650481838023
 51
286.5349504378693
1001
DBPROPERTIES
1002
{
1000
PbHidd
1002
}
  0
LINE
  5
1C9
330
1F
100
AcDbEntity
  8
HIDDEN
100
AcDbLine
 10
32.88013195205818
 20
-101.1946408089994
 30
0.0
 11
31.08709512797006
 21
-104.7136737167123
 31
0.0
1001
DBPROPERTIES
1002
{
1000
PbHidd
1002
}
  0
LINE
  5
1CA
330
1F
100
AcDbEntity
  8
HIDDEN
100
AcDbLine
 10
36.39916485977113
 20
-102.9876776330875
 30
0.0
 11
32.88013195205816
 21
-101.1946408089994
 31
0.0
1001
DBPROPERTIES
1002
{
1000
PbHidd
1002
}
  0
ARC
  5
1CB
330
1F
100
AcDbEntity
  8
HIDDEN
100
AcDbCircle
 10
0.0
 20
0.0000000000000384
 30
0.0
 40
109.2307692307692
100
AcDbArc
 50
289.4650566021683
 51
290.1349588562352
1001
DBPROPERTIES
1002
{
1000
PbHidd
1002
}
  0
LINE
  5
1CC
330
1F
100
AcDbEntity
  8
HIDDEN
100
AcDbLine
 10
39.16931459238183
 20
-98.93039573361759
 30
0.0
 11
37.60077782140178
 21
-102.5550703474535
 31
0.0
1001
DBPROPERTIES
1002
{
1000
PbHidd
1002
}
  0
LINE
  5
1CD
330
1F
100
AcDbEntity
  8
HIDDEN
100
AcDbLine
 10
42.79398920621769
 20
-100.4989325045976
 30
0.0
 11
39.1693145923818
 21
-98.93039573361759
 31
0.0
1001
DBPROPERTIES
1002
{
1000
PbHidd
1002
}
  0
ARC
  5
1CE
330
1F
100
AcDbEntity
  8
HIDDEN
100
AcDbCircle
 10
0.0
 20
0.0000000000000384
 30
0.0
 40
109.2307692307692
100
AcDbArc
 50
293.0650650205342
 51
293.7349672746012
1001
DBPROPERTIES
1002
{
1000
PbHidd
1002
}
  0
LINE
  5
1CF
330
1F
100
AcDbEntity
  8
HIDDEN
100
AcDbLine
 10
45.303913842767
 20
-96.27571758327385
 30
0.0
 11
43.9660674229338
 21
-99.99172896848813
 31
0.0
1001
DBPROPERTIES
1002
{
1000
PbHidd
1002
}
  0
LINE
  5
1D0
330
1F
100
AcDbEntity
  8
HIDDEN
100
AcDbLine
 10
49.01992522798126
 20
-97.61356400310703
 30
0.0
 11
45.30391384276696
 21
-96.27571758327385
 31
0.0
1001
DBPROPERTIES
1002
{
1000
PbHidd
1002
}
  0
ARC
  5
1D1
330
1F
100
AcDbEntity
  8
HIDDEN
100
AcDbCircle
 10
0.0
 20
0.0000000000000384
 30
0.0
 40
109.2307692307692
100
AcDbArc
 50
296.6650734389003
 51
297.3349756929672
1001
DBPROPERTIES
1002
{
1000
PbHidd
1002
}
  0
LINE
  5
1D2
330
1F
100
AcDbEntity
  8
HIDDEN
100
AcDbLine
 10
51.25971924260424
 20
-93.24108315982043
 30
0.0
 11
50.1578430425331
 21
-97.03376591715981
 31
0.0
1001
DBPROPERTIES
1002
{
1000
PbHidd
1002
}
  0
LINE
  5
1D3
330
1F
100
AcDbEntity
  8
HIDDEN
100
AcDbLine
 10
55.05240199994363
 20
-94.34295935989158
 30
0.0
 11
51.25971924260422
 21
-93.24108315982043
 31
0.0
1001
DBPROPERTIES
1002
{
1000
PbHidd
1002
}
  0
ARC
  5
1D4
330
1F
100
AcDbEntity
  8
HIDDEN
100
AcDbCircle
 10
0.0
 20
0.0000000000000384
 30
0.0
 40
109.2307692307692
100
AcDbArc
 50
300.2650245614868
 51
300.9349268155537
1001
DBPROPERTIES
1002
{
1000
PbHidd
1002
}
  0
LINE
  5
1D5
330
1F
100
AcDbEntity
  8
HIDDEN
100
AcDbLine
 10
57.01322594892908
 20
-89.83846877893411
 30
0.0
 11
56.1516685705823
 21
-93.6928549222673
 31
0.0
1001
DBPROPERTIES
1002
{
1000
PbHidd
1002
}
  0
LINE
  5
1D6
330
1F
100
AcDbEntity
  8
HIDDEN
100
AcDbLine
 10
60.86761209226225
 20
-90.70002615728089
 30
0.0
 11
57.01322594892905
 21
-89.83846877893411
 31
0.0
1001
DBPROPERTIES
1002
{
1000
PbHidd
1002
}
  0
ARC
  5
1D7
330
1F
100
AcDbEntity
  8
HIDDEN
100
AcDbCircle
 10
0.0
 20
0.0000000000000384
 30
0.0
 40
109.2307692307692
100
AcDbArc
 50
303.8650329798527
 51
304.5349352339197
1001
DBPROPERTIES
1002
{
1000
PbHidd
1002
}
  0
LINE
  5
1D8
330
1F
100
AcDbEntity
  8
HIDDEN
100
AcDbLine
 10
62.54172749929882
 20
-86.08130300506966
 30
0.0
 11
61.92388911604063
 21
-89.98218103319046
 31
0.0
1001
DBPROPERTIES
1002
{
1000
PbHidd
1002
}
  0
LINE
  5
1D9
330
1F
100
AcDbEntity
  8
HIDDEN
100
AcDbLine
 10
66.44260552741962
 20
-86.69914138832785
 30
0.0
 11
62.5417274992988
 21
-86.08130300506966
 31
0.0
1001
DBPROPERTIES
1002
{
1000
PbHidd
1002
}
  0
ARC
  5
1DA
330
1F
100
AcDbEntity
  8
HIDDEN
100
AcDbCircle
 10
0.0
 20
0.0000000000000384
 30
0.0
 40
109.2307692307692
100
AcDbArc
 50
307.4650413982187
 51
308.1349436522856
1001
DBPROPERTIES
1002
{
1000
PbHidd
1002
}
  0
LINE
  5
1DB
330
1F
100
AcDbEntity
  8
HIDDEN
100
AcDbLine
 10
67.82340542382623
 20
-81.98441365505069
 30
0.0
 11
67.45172436149183
 21
-85.91638858452374
 31
0.0
1001
DBPROPERTIES
1002
{
1000
PbHidd
1002
}
  0
LINE
  5
1DC
330
1F
100
AcDbEntity
  8
HIDDEN
100
AcDbLine
 10
71.75538035329927
 20
-82.35609471738509
 30
0.0
 11
67.82340542382622
 21
-81.98441365505069
 31
0.0
1001
DBPROPERTIES
1002
{
1000
PbHidd
1002
}
  0
ARC
  5
1DD
330
1F
100
AcDbEntity
  8
HIDDEN
100
AcDbCircle
 10
0.0
 20
0.0000000000000384
 30
0.0
 40
109.2307692307692
100
AcDbArc
 50
311.0650498165847
 51
311.7349520706517
1001
DBPROPERTIES
1002
{
1000
PbHidd
1002
}
  0
LINE
  5
1DE
330
1F
100
AcDbEntity
  8
HIDDEN
100
AcDbLine
 10
72.83741535271233
 20
-77.56396927945109
 30
0.0
 11
72.71335846664984
 21
-81.51152340157824
 31
0.0
1001
DBPROPERTIES
1002
{
1000
PbHidd
1002
}
  0
LINE
  5
1DF
330
1F
100
AcDbEntity
  8
HIDDEN
100
AcDbLine
 10
76.7849694748395
 20
-77.68802616551359
 30
0.0
 11
72.83741535271233
 21
-77.56396927945109
 31
0.0
1001
DBPROPERTIES
1002
{
1000
PbHidd
1002
}
  0
ARC
  5
1E0
330
1F
100
AcDbEntity
  8
HIDDEN
100
AcDbCircle
 10
0.0
 20
0.0000000000000384
 30
0.0
 40
109.2307692307692
100
AcDbArc
 50
314.6650582349507
 51
315.3349604890176
1001
DBPROPERTIES
1002
{
1000
PbHidd
1002
}
  0
LINE
  5
1E1
330
1F
100
AcDbEntity
  8
HIDDEN
100
AcDbLine
 10
77.56396927945109
 20
-72.83741535271231
 30
0.0
 11
77.68802616551358
 21
-76.78496947483947
 31
0.0
1001
DBPROPERTIES
1002
{
1000
PbHidd
1002
}
  0
LINE
  5
1E2
330
1F
100
AcDbEntity
  8
HIDDEN
100
AcDbLine
 10
81.51152340157822
 20
-72.71335846664982
 30
0.0
 11
77.56396927945104
 21
-72.83741535271233
 31
0.0
1001
DBPROPERTIES
1002
{
1000
PbHidd
1002
}
  0
ARC
  5
1E3
330
1F
100
AcDbEntity
  8
HIDDEN
100
AcDbCircle
 10
0.0
 20
0.0000000000000384
 30
0.0
 40
109.2307692307692
100
AcDbArc
 50
318.2650666533167
 51
318.9349689073837
1001
DBPROPERTIES
1002
{
1000
PbHidd
1002
}
  0
LINE
  5
1E4
330
1F
100
AcDbEntity
  8
HIDDEN
100
AcDbLine
 10
81.98441365505072
 20
-67.82340542382619
 30
0.0
 11
82.35609471738512
 21
-71.75538035329923
 31
0.0
1001
DBPROPERTIES
1002
{
1000
PbHidd
1002
}
  0
LINE
  5
1E5
330
1F
100
AcDbEntity
  8
HIDDEN
100
AcDbLine
 10
85.91638858452373
 20
-67.45172436149178
 30
0.0
 11
81.98441365505067
 21
-67.82340542382619
 31
0.0
1001
DBPROPERTIES
1002
{
1000
PbHidd
1002
}
  0
ARC
  5
1E6
330
1F
100
AcDbEntity
  8
HIDDEN
100
AcDbCircle
 10
0.0
 20
0.0000000000000384
 30
0.0
 40
109.2307692307692
100
AcDbArc
 50
321.8650750716827
 51
322.5349773257496
1001
DBPROPERTIES
1002
{
1000
PbHidd
1002
}
  0
LINE
  5
1E7
330
1F
100
AcDbEntity
  8
HIDDEN
100
AcDbLine
 10
88.75
 20
-62.11904741936097
 30
0.0
 11
88.75
 21
-62.11904741936097
 31
0.0
1001
DBPROPERTIES
1002
{
1000
PbHidd
1002
}
  0
LINE
  5
1E8
330
1F
100
AcDbEntity
  8
HIDDEN
100
AcDbLine
 10
88.75
 20
-75.3051856489455
 30
0.0
 11
88.75
 21
-62.11904741936097
 31
0.0
1001
DBPROPERTIES
1002
{
1000
PbHidd
1002
}
  0
LINE
  5
1E9
330
1F
100
AcDbEntity
  8
HIDDEN
100
AcDbLine
 10
88.74999999999999
 20
-116.3333333333333
 30
0.0
 11
88.74999999999999
 21
-116.3333333333333
 31
0.0
1001
DBPROPERTIES
1002
{
1000
PbHidd
1002
}
  0
LINE
  5
1EA
330
1F
100
AcDbEntity
  8
HIDDEN
100
AcDbLine
 10
89.98218103319051
 20
-61.92388911604059
 30
0.0
 11
89.98218103319051
 21
-61.92388911604058
 31
0.0
1001
DBPROPERTIES
1002
{
1000
PbHidd
1002
}
  0
LINE
  5
1EB
330
1F
100
AcDbEntity
  8
HIDDEN
100
AcDbLine
 10
88.74999999999997
 20
-62.11904741936096
 30
0.0
 11
89.98218103319047
 21
-61.92388911604057
 31
0.0
1001
DBPROPERTIES
1002
{
1000
PbHidd
1002
}
  0
LINE
  5
1EC
330
1F
100
AcDbEntity
  8
HIDDEN
100
AcDbLine
 10
86.08130300506966
 20
-62.5417274992988
 30
0.0
 11
86.08130300506966
 21
-62.5417274992988
 31
0.0
1001
DBPROPERTIES
1002
{
1000
PbHidd
1002
}
  0
LINE
  5
1ED
330
1F
100
AcDbEntity
  8
HIDDEN
100
AcDbLine
 10
86.69914138832785
 20
-66.44260552741962
 30
0.0
 11
86.69914138832785
 21
-66.44260552741962
 31
0.0
1001
DBPROPERTIES
1002
{
1000
PbHidd
1002
}
  0
LINE
  5
1EE
330
1F
100
AcDbEntity
  8
HIDDEN
100
AcDbLine
 10
85.91638858452379
 20
-67.45172436149177
 30
0.0
 11
85.91638858452379
 21
-67.45172436149177
 31
0.0
1001
DBPROPERTIES
1002
{
1000
PbHidd
1002
}
  0
LINE
  5
1EF
330
1F
100
AcDbEntity
  8
HIDDEN
100
AcDbLine
 10
81.98441365505072
 20
-67.82340542382619
 30
0.0
 11
81.98441365505072
 21
-67.82340542382619
 31
0.0
1001
DBPROPERTIES
1002
{
1000
PbHidd
1002
}
  0
LINE
  5
1F0
330
1F
100
AcDbEntity
  8
HIDDEN
100
AcDbLine
 10
82.35609471738512
 20
-71.75538035329924
 30
0.0
 11
82.35609471738512
 21
-71.75538035329924
 31
0.0
1001
DBPROPERTIES
1002
{
1000
PbHidd
1002
}
  0
LINE
  5
1F1
330
1F
100
AcDbEntity
  8
HIDDEN
100
AcDbLine
 10
81.51152340157827
 20
-72.71335846664981
 30
0.0
 11
81.51152340157827
 21
-72.71335846664981
 31
0.0
1001
DBPROPERTIES
1002
{
1000
PbHidd
1002
}
  0
LINE
  5
1F2
330
1F
100
AcDbEntity
  8
HIDDEN
100
AcDbLine
 10
77.56396927945109
 20
-72.83741535271231
 30
0.0
 11
77.56396927945109
 21
-72.83741535271231
 31
0.0
1001
DBPROPERTIES
1002
{
1000
PbHidd
1002
}
  0
LINE
  5
1F3
330
1F
100
AcDbEntity
  8
HIDDEN
100
AcDbLine
 10
77.68802616551358
 20
-76.78496947483949
 30
0.0
 11
77.68802616551358
 21
-76.78496947483949
 31
0.0
1001
DBPROPERTIES
1002
{
1000
PbHidd
1002
}
  0
LINE
  5
1F4
330
1F
100
AcDbEntity
  8
HIDDEN
100
AcDbLine
 10
76.7849694748395
 20
-77.68802616551356
 30
0.0
 11
76.7849694748395
 21
-77.68802616551356
 31
0.0
1001
DBPROPERTIES
1002
{
1000
PbHidd
1002
}
  0
LINE
  5
1F5
330
1F
100
AcDbEntity
  8
HIDDEN
100
AcDbLine
 10
72.83741535271233
 20
-77.56396927945109
 30
0.0
 11
72.83741535271233
 21
-77.56396927945109
 31
0.0
1001
DBPROPERTIES
1002
{
1000
PbHidd
1002
}
  0
LINE
  5
1F6
330
1F
100
AcDbEntity
  8
HIDDEN
100
AcDbLine
 10
72.71335846664982
 20
-81.51152340157824
 30
0.0
 11
72.71335846664982
 21
-81.51152340157824
 31
0.0
1001
DBPROPERTIES
1002
{
1000
PbHidd
1002
}
  0
LINE
  5
1F7
330
1F
100
AcDbEntity
  8
HIDDEN
100
AcDbLine
 10
71.7553803532993
 20
-82.35609471738506
 30
0.0
 11
71.7553803532993
 21
-82.35609471738506
 31
0.0
1001
DBPROPERTIES
1002
{
1000
PbHidd
1002
}
  0
LINE
  5
1F8
330
1F
100
AcDbEntity
  8
HIDDEN
100
AcDbLine
 10
67.82340542382623
 20
-81.98441365505069
 30
0.0
 11
67.82340542382623
 21
-81.98441365505069
 31
0.0
1001
DBPROPERTIES
1002
{
1000
PbHidd
1002
}
  0
LINE
  5
1F9
330
1F
100
AcDbEntity
  8
HIDDEN
100
AcDbLine
 10
67.45172436149183
 20
-85.91638858452374
 30
0.0
 11
67.45172436149183
 21
-85.91638858452374
 31
0.0
1001
DBPROPERTIES
1002
{
1000
PbHidd
1002
}
  0
LINE
  5
1FA
330
1F
100
AcDbEntity
  8
HIDDEN
100
AcDbLine
 10
66.44260552741963
 20
-86.69914138832783
 30
0.0
 11
66.44260552741963
 21
-86.69914138832783
 31
0.0
1001
DBPROPERTIES
1002
{
1000
PbHidd
1002
}
  0
LINE
  5
1FB
330
1F
100
AcDbEntity
  8
HIDDEN
100
AcDbLine
 10
62.54172749929881
 20
-86.08130300506966
 30
0.0
 11
62.54172749929881
 21
-86.08130300506966
 31
0.0
1001
DBPROPERTIES
1002
{
1000
PbHidd
1002
}
  0
LINE
  5
1FC
330
1F
100
AcDbEntity
  8
HIDDEN
100
AcDbLine
 10
61.92388911604061
 20
-89.98218103319046
 30
0.0
 11
61.92388911604061
 21
-89.98218103319046
 31
0.0
1001
DBPROPERTIES
1002
{
1000
PbHidd
1002
}
  0
LINE
  5
1FD
330
1F
100
AcDbEntity
  8
HIDDEN
100
AcDbLine
 10
60.86761209226228
 20
-90.70002615728089
 30
0.0
 11
60.86761209226228
 21
-90.70002615728089
 31
0.0
1001
DBPROPERTIES
1002
{
1000
PbHidd
1002
}
  0
LINE
  5
1FE
330
1F
100
AcDbEntity
  8
HIDDEN
100
AcDbLine
 10
57.01322594892908
 20
-89.83846877893411
 30
0.0
 11
57.01322594892908
 21
-89.83846877893411
 31
0.0
1001
DBPROPERTIES
1002
{
1000
PbHidd
1002
}
  0
LINE
  5
1FF
330
1F
100
AcDbEntity
  8
HIDDEN
100
AcDbLine
 10
56.15166857058229
 20
-93.69285492226732
 30
0.0
 11
56.15166857058229
 21
-93.69285492226732
 31
0.0
1001
DBPROPERTIES
1002
{
1000
PbHidd
1002
}
  0
LINE
  5
200
330
1F
100
AcDbEntity
  8
HIDDEN
100
AcDbLine
 10
55.05240199994366
 20
-94.34295935989157
 30
0.0
 11
55.05240199994366
 21
-94.34295935989157
 31
0.0
1001
DBPROPERTIES
1002
{
1000
PbHidd
1002
}
  0
LINE
  5
201
330
1F
100
AcDbEntity
  8
HIDDEN
100
AcDbLine
 10
51.25971924260424
 20
-93.24108315982043
 30
0.0
 11
51.25971924260424
 21
-93.24108315982043
 31
0.0
1001
DBPROPERTIES
1002
{
1000
PbHidd
1002
}
  0
LINE
  5
202
330
1F
100
AcDbEntity
  8
HIDDEN
100
AcDbLine
 10
50.15784304253308
 20
-97.03376591715981
 30
0.0
 11
50.15784304253308
 21
-97.03376591715981
 31
0.0
1001
DBPROPERTIES
1002
{
1000
PbHidd
1002
}
  0
LINE
  5
203
330
1F
100
AcDbEntity
  8
HIDDEN
100
AcDbLine
 10
49.01992522798129
 20
-97.61356400310704
 30
0.0
 11
49.01992522798129
 21
-97.61356400310704
 31
0.0
1001
DBPROPERTIES
1002
{
1000
PbHidd
1002
}
  0
LINE
  5
204
330
1F
100
AcDbEntity
  8
HIDDEN
100
AcDbLine
 10
45.30391384276699
 20
-96.27571758327385
 30
0.0
 11
45.30391384276699
 21
-96.27571758327385
 31
0.0
1001
DBPROPERTIES
1002
{
1000
PbHidd
1002
}
  0
LINE
  5
205
330
1F
100
AcDbEntity
  8
HIDDEN
100
AcDbLine
 10
43.96606742293379
 20
-99.99172896848815
 30
0.0
 11
43.96606742293379
 21
-99.99172896848815
 31
0.0
1001
DBPROPERTIES
1002
{
1000
PbHidd
1002
}
  0
LINE
  5
206
330
1F
100
AcDbEntity
  8
HIDDEN
100
AcDbLine
 10
42.79398920621773
 20
-100.4989325045976
 30
0.0
 11
42.79398920621773
 21
-100.4989325045976
 31
0.0
1001
DBPROPERTIES
1002
{
1000
PbHidd
1002
}
  0
LINE
  5
207
330
1F
100
AcDbEntity
  8
HIDDEN
100
AcDbLine
 10
39.16931459238183
 20
-98.9303957336176
 30
0.0
 11
39.16931459238183
 21
-98.9303957336176
 31
0.0
1001
DBPROPERTIES
1002
{
1000
PbHidd
1002
}
  0
LINE
  5
208
330
1F
100
AcDbEntity
  8
HIDDEN
100
AcDbLine
 10
37.60077782140177
 20
-102.5550703474535
 30
0.0
 11
37.60077782140177
 21
-102.5550703474535
 31
0.0
1001
DBPROPERTIES
1002
{
1000
PbHidd
1002
}
  0
LINE
  5
209
330
1F
100
AcDbEntity
  8
HIDDEN
100
AcDbLine
 10
36.39916485977117
 20
-102.9876776330875
 30
0.0
 11
36.39916485977117
 21
-102.9876776330875
 31
0.0
1001
DBPROPERTIES
1002
{
1000
PbHidd
1002
}
  0
LINE
  5
20A
330
1F
100
AcDbEntity
  8
HIDDEN
100
AcDbLine
 10
32.88013195205817
 20
-101.1946408089994
 30
0.0
 11
32.88013195205817
 21
-101.1946408089994
 31
0.0
1001
DBPROPERTIES
1002
{
1000
PbHidd
1002
}
  0
LINE
  5
20B
330
1F
100
AcDbEntity
  8
HIDDEN
100
AcDbLine
 10
31.08709512797006
 20
-104.7136737167123
 30
0.0
 11
31.08709512797006
 21
-104.7136737167123
 31
0.0
1001
DBPROPERTIES
1002
{
1000
PbHidd
1002
}
  0
LINE
  5
20C
330
1F
100
AcDbEntity
  8
HIDDEN
100
AcDbLine
 10
29.86068963881966
 20
-105.069977448554
 30
0.0
 11
29.86068963881966
 21
-105.069977448554
 31
0.0
1001
DBPROPERTIES
1002
{
1000
PbHidd
1002
}
  0
LINE
  5
20D
330
1F
100
AcDbEntity
  8
HIDDEN
100
AcDbLine
 10
26.46118645242316
 20
-103.0595168685418
 30
0.0
 11
26.46118645242316
 21
-103.0595168685418
 31
0.0
1001
DBPROPERTIES
1002
{
1000
PbHidd
1002
}
  0
LINE
  5
20E
330
1F
100
AcDbEntity
  8
HIDDEN
100
AcDbLine
 10
24.45072587241103
 20
-106.4590200549383
 30
0.0
 11
24.45072587241103
 21
-106.4590200549383
 31
0.0
1001
DBPROPERTIES
1002
{
1000
PbHidd
1002
}
  0
LINE
  5
20F
330
1F
100
AcDbEntity
  8
HIDDEN
100
AcDbLine
 10
23.20436791791524
 20
-106.7376140649377
 30
0.0
 11
23.20436791791524
 21
-106.7376140649377
 31
0.0
1001
DBPROPERTIES
1002
{
1000
PbHidd
1002
}
  0
LINE
  5
210
330
1F
100
AcDbEntity
  8
HIDDEN
100
AcDbLine
 10
19.93781073882661
 20
-104.5176640984188
 30
0.0
 11
19.93781073882661
 21
-104.5176640984188
 31
0.0
1001
DBPROPERTIES
1002
{
1000
PbHidd
1002
}
  0
LINE
  5
211
330
1F
100
AcDbEntity
  8
HIDDEN
100
AcDbLine
 10
17.71786077230767
 20
-107.7842212775074
 30
0.0
 11
17.71786077230767
 21
-107.7842212775074
 31
0.0
1001
DBPROPERTIES
1002
{
1000
PbHidd
1002
}
  0
LINE
  5
212
330
1F
100
AcDbEntity
  8
HIDDEN
100
AcDbLine
 10
16.45646915790608
 20
-107.9840060823844
 30
0.0
 11
16.45646915790608
 21
-107.9840060823844
 31
0.0
1001
DBPROPERTIES
1002
{
1000
PbHidd
1002
}
  0
LINE
  5
213
330
1F
100
AcDbEntity
  8
HIDDEN
100
AcDbLine
 10
13.33574959496318
 20
-105.5633278576779
 30
0.0
 11
13.33574959496318
 21
-105.5633278576779
 31
0.0
1001
DBPROPERTIES
1002
{
1000
PbHidd
1002
}
  0
LINE
  5
214
330
1F
100
AcDbEntity
  8
HIDDEN
100
AcDbLine
 10
10.91507137025668
 20
-108.6840474206208
 30
0.0
 11
10.91507137025668
 21
-108.6840474206208
 31
0.0
1001
DBPROPERTIES
1002
{
1000
PbHidd
1002
}
  0
LINE
  5
215
330
1F
100
AcDbEntity
  8
HIDDEN
100
AcDbLine
 10
9.64362423237629
 20
-108.8042345610237
 30
0.0
 11
9.64362423237629
 21
-108.8042345610237
 31
0.0
1001
DBPROPERTIES
1002
{
1000
PbHidd
1002
}
  0
LINE
  5
216
330
1F
100
AcDbEntity
  8
HIDDEN
100
AcDbLine
 10
6.681058339972912
 20
-106.1923813891799
 30
0.0
 11
6.681058339972912
 21
-106.1923813891799
 31
0.0
1001
DBPROPERTIES
1002
{
1000
PbHidd
1002
}
  0
LINE
  5
217
330
1F
100
AcDbEntity
  8
HIDDEN
100
AcDbLine
 10
4.069205168129052
 20
-109.1549472815833
 30
0.0
 11
4.069205168129052
 21
-109.1549472815833
 31
0.0
1001
DBPROPERTIES
1002
{
1000
PbHidd
1002
}
  0
LINE
  5
218
330
1F
100
AcDbEntity
  8
HIDDEN
100
AcDbLine
 10
2.792720327754218
 20
-109.1950624337772
 30
0.0
 11
2.792720327754218
 21
-109.1950624337772
 31
0.0
1001
DBPROPERTIES
1002
{
1000
PbHidd
1002
}
  0
LINE
  5
219
330
1F
100
AcDbEntity
  8
HIDDEN
100
AcDbLine
 10
0.0000000000000277
 20
-106.402342106023
 30
0.0
 11
0.0000000000000277
 21
-106.402342106023
 31
0.0
1001
DBPROPERTIES
1002
{
1000
PbHidd
1002
}
  0
LINE
  5
21A
330
1F
100
AcDbEntity
  8
HIDDEN
100
AcDbLine
 10
-2.792720327754132
 20
-109.1950624337772
 30
0.0
 11
-2.792720327754132
 21
-109.1950624337772
 31
0.0
1001
DBPROPERTIES
1002
{
1000
PbHidd
1002
}
  0
LINE
  5
21B
330
1F
100
AcDbEntity
  8
HIDDEN
100
AcDbLine
 10
-4.069205168129052
 20
-109.1549472815833
 30
0.0
 11
-4.069205168129052
 21
-109.1549472815833
 31
0.0
1001
DBPROPERTIES
1002
{
1000
PbHidd
1002
}
  0
LINE
  5
21C
330
1F
100
AcDbEntity
  8
HIDDEN
100
AcDbLine
 10
-6.681058339972903
 20
-106.1923813891799
 30
0.0
 11
-6.681058339972903
 21
-106.1923813891799
 31
0.0
1001
DBPROPERTIES
1002
{
1000
PbHidd
1002
}
  0
LINE
  5
21D
330
1F
100
AcDbEntity
  8
HIDDEN
100
AcDbLine
 10
-9.643624232376283
 20
-108.8042345610238
 30
0.0
 11
-9.643624232376283
 21
-108.8042345610238
 31
0.0
1001
DBPROPERTIES
1002
{
1000
PbHidd
1002
}
  0
LINE
  5
21E
330
1F
100
AcDbEntity
  8
HIDDEN
100
AcDbLine
 10
-10.91507137025668
 20
-108.6840474206208
 30
0.0
 11
-10.91507137025668
 21
-108.6840474206208
 31
0.0
1001
DBPROPERTIES
1002
{
1000
PbHidd
1002
}
  0
LINE
  5
21F
330
1F
100
AcDbEntity
  8
HIDDEN
100
AcDbLine
 10
-13.33574959496318
 20
-105.5633278576779
 30
0.0
 11
-13.33574959496318
 21
-105.5633278576779
 31
0.0
1001
DBPROPERTIES
1002
{
1000
PbHidd
1002
}
  0
LINE
  5
220
330
1F
100
AcDbEntity
  8
HIDDEN
100
AcDbLine
 10
-16.45646915790607
 20
-107.9840060823844
 30
0.0
 11
-16.45646915790607
 21
-107.9840060823844
 31
0.0
1001
DBPROPERTIES
1002
{
1000
PbHidd
1002
}
  0
LINE
  5
221
330
1F
100
AcDbEntity
  8
HIDDEN
100
AcDbLine
 10
-17.71786077230765
 20
-107.7842212775074
 30
0.0
 11
-17.71786077230765
 21
-107.7842212775074
 31
0.0
1001
DBPROPERTIES
1002
{
1000
PbHidd
1002
}
  0
LINE
  5
222
330
1F
100
AcDbEntity
  8
HIDDEN
100
AcDbLine
 10
-19.9378107388266
 20
-104.5176640984188
 30
0.0
 11
-19.9378107388266
 21
-104.5176640984188
 31
0.0
1001
DBPROPERTIES
1002
{
1000
PbHidd
1002
}
  0
LINE
  5
223
330
1F
100
AcDbEntity
  8
HIDDEN
100
AcDbLine
 10
-23.20436791791521
 20
-106.7376140649377
 30
0.0
 11
-23.20436791791521
 21
-106.7376140649377
 31
0.0
1001
DBPROPERTIES
1002
{
1000
PbHidd
1002
}
  0
LINE
  5
224
330
1F
100
AcDbEntity
  8
HIDDEN
100
AcDbLine
 10
-24.45072587241101
 20
-106.4590200549383
 30
0.0
 11
-24.45072587241101
 21
-106.4590200549383
 31
0.0
1001
DBPROPERTIES
1002
{
1000
PbHidd
1002
}
  0
LINE
  5
225
330
1F
100
AcDbEntity
  8
HIDDEN
100
AcDbLine
 10
-26.46118645242316
 20
-103.0595168685418
 30
0.0
 11
-26.46118645242316
 21
-103.0595168685418
 31
0.0
1001
DBPROPERTIES
1002
{
1000
PbHidd
1002
}
  0
LINE
  5
226
330
1F
100
AcDbEntity
  8
HIDDEN
100
AcDbLine
 10
-29.86068963881966
 20
-105.069977448554
 30
0.0
 11
-29.86068963881966
 21
-105.069977448554
 31
0.0
1001
DBPROPERTIES
1002
{
1000
PbHidd
1002
}
  0
LINE
  5
227
330
1F
100
AcDbEntity
  8
HIDDEN
100
AcDbLine
 10
-31.08709512796999
 20
-104.7136737167124
 30
0.0
 11
-31.08709512796999
 21
-104.7136737167124
 31
0.0
1001
DBPROPERTIES
1002
{
1000
PbHidd
1002
}
  0
LINE
  5
228
330
1F
100
AcDbEntity
  8
HIDDEN
100
AcDbLine
 10
-32.88013195205813
 20
-101.1946408089994
 30
0.0
 11
-32.88013195205813
 21
-101.1946408089994
 31
0.0
1001
DBPROPERTIES
1002
{
1000
PbHidd
1002
}
  0
LINE
  5
229
330
1F
100
AcDbEntity
  8
HIDDEN
100
AcDbLine
 10
-36.3991648597711
 20
-102.9876776330875
 30
0.0
 11
-36.3991648597711
 21
-102.9876776330875
 31
0.0
1001
DBPROPERTIES
1002
{
1000
PbHidd
1002
}
  0
LINE
  5
22A
330
1F
100
AcDbEntity
  8
HIDDEN
100
AcDbLine
 10
-37.60077782140173
 20
-102.5550703474535
 30
0.0
 11
-37.60077782140173
 21
-102.5550703474535
 31
0.0
1001
DBPROPERTIES
1002
{
1000
PbHidd
1002
}
  0
LINE
  5
22B
330
1F
100
AcDbEntity
  8
HIDDEN
100
AcDbLine
 10
-39.16931459238179
 20
-98.93039573361763
 30
0.0
 11
-39.16931459238179
 21
-98.93039573361763
 31
0.0
1001
DBPROPERTIES
1002
{
1000
PbHidd
1002
}
  0
LINE
  5
22C
330
1F
100
AcDbEntity
  8
HIDDEN
100
AcDbLine
 10
-42.79398920621767
 20
-100.4989325045977
 30
0.0
 11
-42.79398920621767
 21
-100.4989325045977
 31
0.0
1001
DBPROPERTIES
1002
{
1000
PbHidd
1002
}
  0
LINE
  5
22D
330
1F
100
AcDbEntity
  8
HIDDEN
100
AcDbLine
 10
-43.9660674229338
 20
-99.99172896848815
 30
0.0
 11
-43.9660674229338
 21
-99.99172896848815
 31
0.0
1001
DBPROPERTIES
1002
{
1000
PbHidd
1002
}
  0
LINE
  5
22E
330
1F
100
AcDbEntity
  8
HIDDEN
100
AcDbLine
 10
-45.30391384276697
 20
-96.27571758327387
 30
0.0
 11
-45.30391384276697
 21
-96.27571758327387
 31
0.0
1001
DBPROPERTIES
1002
{
1000
PbHidd
1002
}
  0
LINE
  5
22F
330
1F
100
AcDbEntity
  8
HIDDEN
100
AcDbLine
 10
-49.01992522798129
 20
-97.61356400310704
 30
0.0
 11
-49.01992522798129
 21
-97.61356400310704
 31
0.0
1001
DBPROPERTIES
1002
{
1000
PbHidd
1002
}
  0
LINE
  5
230
330
1F
100
AcDbEntity
  8
HIDDEN
100
AcDbLine
 10
-50.15784304253308
 20
-97.03376591715981
 30
0.0
 11
-50.15784304253308
 21
-97.03376591715981
 31
0.0
1001
DBPROPERTIES
1002
{
1000
PbHidd
1002
}
  0
LINE
  5
231
330
1F
100
AcDbEntity
  8
HIDDEN
100
AcDbLine
 10
-51.25971924260424
 20
-93.24108315982043
 30
0.0
 11
-51.25971924260424
 21
-93.24108315982043
 31
0.0
1001
DBPROPERTIES
1002
{
1000
PbHidd
1002
}
  0
LINE
  5
232
330
1F
100
AcDbEntity
  8
HIDDEN
100
AcDbLine
 10
-55.05240199994368
 20
-94.34295935989157
 30
0.0
 11
-55.05240199994368
 21
-94.34295935989157
 31
0.0
1001
DBPROPERTIES
1002
{
1000
PbHidd
1002
}
  0
LINE
  5
233
330
1F
100
AcDbEntity
  8
HIDDEN
100
AcDbLine
 10
-56.15166857058229
 20
-93.69285492226733
 30
0.0
 11
-56.15166857058229
 21
-93.69285492226733
 31
0.0
1001
DBPROPERTIES
1002
{
1000
PbHidd
1002
}
  0
LINE
  5
234
330
1F
100
AcDbEntity
  8
HIDDEN
100
AcDbLine
 10
-57.01322594892907
 20
-89.83846877893414
 30
0.0
 11
-57.01322594892907
 21
-89.83846877893414
 31
0.0
1001
DBPROPERTIES
1002
{
1000
PbHidd
1002
}
  0
LINE
  5
235
330
1F
100
AcDbEntity
  8
HIDDEN
100
AcDbLine
 10
-60.86761209226227
 20
-90.70002615728092
 30
0.0
 11
-60.86761209226227
 21
-90.70002615728092
 31
0.0
1001
DBPROPERTIES
1002
{
1000
PbHidd
1002
}
  0
LINE
  5
236
330
1F
100
AcDbEntity
  8
HIDDEN
100
AcDbLine
 10
-61.9238891160406
 20
-89.98218103319046
 30
0.0
 11
-61.9238891160406
 21
-89.98218103319046
 31
0.0
1001
DBPROPERTIES
1002
{
1000
PbHidd
1002
}
  0
LINE
  5
237
330
1F
100
AcDbEntity
  8
HIDDEN
100
AcDbLine
 10
-62.5417274992988
 20
-86.08130300506966
 30
0.0
 11
-62.5417274992988
 21
-86.08130300506966
 31
0.0
1001
DBPROPERTIES
1002
{
1000
PbHidd
1002
}
  0
LINE
  5
238
330
1F
100
AcDbEntity
  8
HIDDEN
100
AcDbLine
 10
-66.44260552741964
 20
-86.69914138832785
 30
0.0
 11
-66.44260552741964
 21
-86.69914138832785
 31
0.0
1001
DBPROPERTIES
1002
{
1000
PbHidd
1002
}
  0
LINE
  5
239
330
1F
100
AcDbEntity
  8
HIDDEN
100
AcDbLine
 10
-67.45172436149177
 20
-85.91638858452377
 30
0.0
 11
-67.45172436149177
 21
-85.91638858452377
 31
0.0
1001
DBPROPERTIES
1002
{
1000
PbHidd
1002
}
  0
LINE
  5
23A
330
1F
100
AcDbEntity
  8
HIDDEN
100
AcDbLine
 10
-67.82340542382619
 20
-81.98441365505072
 30
0.0
 11
-67.82340542382619
 21
-81.98441365505072
 31
0.0
1001
DBPROPERTIES
1002
{
1000
PbHidd
1002
}
  0
LINE
  5
23B
330
1F
100
AcDbEntity
  8
HIDDEN
100
AcDbLine
 10
-71.75538035329926
 20
-82.35609471738509
 30
0.0
 11
-71.75538035329926
 21
-82.35609471738509
 31
0.0
1001
DBPROPERTIES
1002
{
1000
PbHidd
1002
}
  0
LINE
  5
23C
330
1F
100
AcDbEntity
  8
HIDDEN
100
AcDbLine
 10
-72.71335846664982
 20
-81.51152340157822
 30
0.0
 11
-72.71335846664982
 21
-81.51152340157822
 31
0.0
1001
DBPROPERTIES
1002
{
1000
PbHidd
1002
}
  0
LINE
  5
23D
330
1F
100
AcDbEntity
  8
HIDDEN
100
AcDbLine
 10
-72.83741535271231
 20
-77.56396927945109
 30
0.0
 11
-72.83741535271231
 21
-77.56396927945109
 31
0.0
1001
DBPROPERTIES
1002
{
1000
PbHidd
1002
}
  0
LINE
  5
23E
330
1F
100
AcDbEntity
  8
HIDDEN
100
AcDbLine
 10
-76.7849694748395
 20
-77.68802616551356
 30
0.0
 11
-76.7849694748395
 21
-77.68802616551356
 31
0.0
1001
DBPROPERTIES
1002
{
1000
PbHidd
1002
}
  0
LINE
  5
23F
330
1F
100
AcDbEntity
  8
HIDDEN
100
AcDbLine
 10
-77.68802616551356
 20
-76.7849694748395
 30
0.0
 11
-77.68802616551356
 21
-76.7849694748395
 31
0.0
1001
DBPROPERTIES
1002
{
1000
PbHidd
1002
}
  0
LINE
  5
240
330
1F
100
AcDbEntity
  8
HIDDEN
100
AcDbLine
 10
-77.56396927945106
 20
-72.83741535271233
 30
0.0
 11
-77.56396927945106
 21
-72.83741535271233
 31
0.0
1001
DBPROPERTIES
1002
{
1000
PbHidd
1002
}
  0
LINE
  5
241
330
1F
100
AcDbEntity
  8
HIDDEN
100
AcDbLine
 10
-81.51152340157824
 20
-72.71335846664982
 30
0.0
 11
-81.51152340157824
 21
-72.71335846664982
 31
0.0
1001
DBPROPERTIES
1002
{
1000
PbHidd
1002
}
  0
LINE
  5
242
330
1F
100
AcDbEntity
  8
HIDDEN
100
AcDbLine
 10
-82.35609471738512
 20
-71.75538035329926
 30
0.0
 11
-82.35609471738512
 21
-71.75538035329926
 31
0.0
1001
DBPROPERTIES
1002
{
1000
PbHidd
1002
}
  0
LINE
  5
243
330
1F
100
AcDbEntity
  8
HIDDEN
100
AcDbLine
 10
-81.98441365505072
 20
-67.82340542382622
 30
0.0
 11
-81.98441365505072
 21
-67.82340542382622
 31
0.0
1001
DBPROPERTIES
1002
{
1000
PbHidd
1002
}
  0
LINE
  5
244
330
1F
100
AcDbEntity
  8
HIDDEN
100
AcDbLine
 10
-85.91638858452379
 20
-67.45172436149177
 30
0.0
 11
-85.91638858452379
 21
-67.45172436149177
 31
0.0
1001
DBPROPERTIES
1002
{
1000
PbHidd
1002
}
  0
LINE
  5
245
330
1F
100
AcDbEntity
  8
HIDDEN
100
AcDbLine
 10
-86.69914138832787
 20
-66.44260552741957
 30
0.0
 11
-86.69914138832787
 21
-66.44260552741957
 31
0.0
1001
DBPROPERTIES
1002
{
1000
PbHidd
1002
}
  0
LINE
  5
246
330
1F
100
AcDbEntity
  8
HIDDEN
100
AcDbLine
 10
6.681058339972916
 20
106.1923813891799
 30
0.0
 11
6.681058339972916
 21
106.1923813891799
 31
0.0
1001
DBPROPERTIES
1002
{
1000
PbHidd
1002
}
  0
LINE
  5
247
330
1F
100
AcDbEntity
  8
HIDDEN
100
AcDbLine
 10
9.64362423237635
 20
108.8042345610238
 30
0.0
 11
6.681058339972907
 21
106.1923813891799
 31
0.0
1001
DBPROPERTIES
1002
{
1000
PbHidd
1002
}
  0
LINE
  5
248
330
1F
100
AcDbEntity
  8
HIDDEN
100
AcDbLine
 10
9.64362423237636
 20
108.8042345610238
 30
0.0
 11
9.64362423237636
 21
108.8042345610238
 31
0.0
1001
DBPROPERTIES
1002
{
1000
PbHidd
1002
}
  0
LINE
  5
249
330
1F
100
AcDbEntity
  8
HIDDEN
100
AcDbLine
 10
4.069205168129017
 20
109.1549472815833
 30
0.0
 11
4.069205168129017
 21
109.1549472815833
 31
0.0
1001
DBPROPERTIES
1002
{
1000
PbHidd
1002
}
  0
LINE
  5
24A
330
1F
100
AcDbEntity
  8
HIDDEN
100
AcDbLine
 10
6.681058339972921
 20
106.1923813891799
 30
0.0
 11
4.06920516812902
 21
109.1549472815833
 31
0.0
1001
DBPROPERTIES
1002
{
1000
PbHidd
1002
}
  0
ARC
  5
24B
330
1F
100
AcDbEntity
  8
HIDDEN
100
AcDbCircle
 10
0.0
 20
0.0000000000000237
 30
0.0
 40
109.2307692307692
100
AcDbArc
 50
84.26507481722871
 51
84.93497707129566
1001
DBPROPERTIES
1002
{
1000
PbHidd
1002
}
  0
LINE
  5
24C
330
1F
100
AcDbEntity
  8
HIDDEN
100
AcDbLine
 10
10.91507137025658
 20
108.6840474206209
 30
0.0
 11
10.91507137025658
 21
108.6840474206209
 31
0.0
1001
DBPROPERTIES
1002
{
1000
PbHidd
1002
}
  0
LINE
  5
24D
330
1F
100
AcDbEntity
  8
HIDDEN
100
AcDbLine
 10
13.33574959496315
 20
105.5633278576779
 30
0.0
 11
13.33574959496315
 21
105.5633278576779
 31
0.0
1001
DBPROPERTIES
1002
{
1000
PbHidd
1002
}
  0
LINE
  5
24E
330
1F
100
AcDbEntity
  8
HIDDEN
100
AcDbLine
 10
16.45646915790611
 20
107.9840060823845
 30
0.0
 11
13.33574959496314
 21
105.5633278576779
 31
0.0
1001
DBPROPERTIES
1002
{
1000
PbHidd
1002
}
  0
LINE
  5
24F
330
1F
100
AcDbEntity
  8
HIDDEN
100
AcDbLine
 10
16.45646915790612
 20
107.9840060823845
 30
0.0
 11
16.45646915790612
 21
107.9840060823845
 31
0.0
1001
DBPROPERTIES
1002
{
1000
PbHidd
1002
}
  0
LINE
  5
250
330
1F
100
AcDbEntity
  8
HIDDEN
100
AcDbLine
 10
13.33574959496315
 20
105.5633278576779
 30
0.0
 11
10.91507137025659
 21
108.6840474206209
 31
0.0
1001
DBPROPERTIES
1002
{
1000
PbHidd
1002
}
  0
ARC
  5
251
330
1F
100
AcDbEntity
  8
HIDDEN
100
AcDbCircle
 10
0.0
 20
0.0000000000000237
 30
0.0
 40
109.2307692307692
100
AcDbArc
 50
80.66506639886272
 51
81.33496865292967
1001
DBPROPERTIES
1002
{
1000
PbHidd
1002
}
  0
LINE
  5
252
330
1F
100
AcDbEntity
  8
HIDDEN
100
AcDbLine
 10
17.71786077230762
 20
107.7842212775074
 30
0.0
 11
17.71786077230762
 21
107.7842212775075
 31
0.0
1001
DBPROPERTIES
1002
{
1000
PbHidd
1002
}
  0
LINE
  5
253
330
1F
100
AcDbEntity
  8
HIDDEN
100
AcDbLine
 10
19.93781073882661
 20
104.5176640984188
 30
0.0
 11
19.93781073882661
 21
104.5176640984188
 31
0.0
1001
DBPROPERTIES
1002
{
1000
PbHidd
1002
}
  0
LINE
  5
254
330
1F
100
AcDbEntity
  8
HIDDEN
100
AcDbLine
 10
23.20436791791528
 20
106.7376140649377
 30
0.0
 11
19.93781073882661
 21
104.5176640984187
 31
0.0
1001
DBPROPERTIES
1002
{
1000
PbHidd
1002
}
  0
LINE
  5
255
330
1F
100
AcDbEntity
  8
HIDDEN
100
AcDbLine
 10
23.20436791791529
 20
106.7376140649377
 30
0.0
 11
23.20436791791529
 21
106.7376140649377
 31
0.0
1001
DBPROPERTIES
1002
{
1000
PbHidd
1002
}
  0
LINE
  5
256
330
1F
100
AcDbEntity
  8
HIDDEN
100
AcDbLine
 10
19.9378107388266
 20
104.5176640984187
 30
0.0
 11
17.71786077230764
 21
107.7842212775074
 31
0.0
1001
DBPROPERTIES
1002
{
1000
PbHidd
1002
}
  0
ARC
  5
257
330
1F
100
AcDbEntity
  8
HIDDEN
100
AcDbCircle
 10
0.0
 20
0.0000000000000237
 30
0.0
 40
109.2307692307692
100
AcDbArc
 50
77.06505798049673
 51
77.73496023456369
1001
DBPROPERTIES
1002
{
1000
PbHidd
1002
}
  0
LINE
  5
258
330
1F
100
AcDbEntity
  8
HIDDEN
100
AcDbLine
 10
24.45072587241093
 20
106.4590200549384
 30
0.0
 11
24.45072587241093
 21
106.4590200549384
 31
0.0
1001
DBPROPERTIES
1002
{
1000
PbHidd
1002
}
  0
LINE
  5
259
330
1F
100
AcDbEntity
  8
HIDDEN
100
AcDbLine
 10
26.46118645242312
 20
103.0595168685418
 30
0.0
 11
26.46118645242312
 21
103.0595168685418
 31
0.0
1001
DBPROPERTIES
1002
{
1000
PbHidd
1002
}
  0
LINE
  5
25A
330
1F
100
AcDbEntity
  8
HIDDEN
100
AcDbLine
 10
29.86068963881968
 20
105.069977448554
 30
0.0
 11
26.46118645242311
 21
103.0595168685418
 31
0.0
1001
DBPROPERTIES
1002
{
1000
PbHidd
1002
}
  0
LINE
  5
25B
330
1F
100
AcDbEntity
  8
HIDDEN
100
AcDbLine
 10
29.8606896388197
 20
105.069977448554
 30
0.0
 11
29.8606896388197
 21
105.069977448554
 31
0.0
1001
DBPROPERTIES
1002
{
1000
PbHidd
1002
}
  0
LINE
  5
25C
330
1F
100
AcDbEntity
  8
HIDDEN
100
AcDbLine
 10
26.46118645242312
 20
103.0595168685418
 30
0.0
 11
24.45072587241093
 21
106.4590200549384
 31
0.0
1001
DBPROPERTIES
1002
{
1000
PbHidd
1002
}
  0
ARC
  5
25D
330
1F
100
AcDbEntity
  8
HIDDEN
100
AcDbCircle
 10
0.0
 20
0.0000000000000237
 30
0.0
 40
109.2307692307692
100
AcDbArc
 50
73.46504956213074
 51
74.1349518161977
1001
DBPROPERTIES
1002
{
1000
PbHidd
1002
}
  0
LINE
  5
25E
330
1F
100
AcDbEntity
  8
HIDDEN
100
AcDbLine
 10
31.08709512796992
 20
104.7136737167124
 30
0.0
 11
31.08709512796992
 21
104.7136737167124
 31
0.0
1001
DBPROPERTIES
1002
{
1000
PbHidd
1002
}
  0
LINE
  5
25F
330
1F
100
AcDbEntity
  8
HIDDEN
100
AcDbLine
 10
32.88013195205809
 20
101.1946408089994
 30
0.0
 11
32.88013195205809
 21
101.1946408089994
 31
0.0
1001
DBPROPERTIES
1002
{
1000
PbHidd
1002
}
  0
LINE
  5
260
330
1F
100
AcDbEntity
  8
HIDDEN
100
AcDbLine
 10
36.39916485977112
 20
102.9876776330875
 30
0.0
 11
32.88013195205807
 21
101.1946408089994
 31
0.0
1001
DBPROPERTIES
1002
{
1000
PbHidd
1002
}
  0
LINE
  5
261
330
1F
100
AcDbEntity
  8
HIDDEN
100
AcDbLine
 10
36.39916485977113
 20
102.9876776330876
 30
0.0
 11
36.39916485977113
 21
102.9876776330876
 31
0.0
1001
DBPROPERTIES
1002
{
1000
PbHidd
1002
}
  0
LINE
  5
262
330
1F
100
AcDbEntity
  8
HIDDEN
100
AcDbLine
 10
32.88013195205809
 20
101.1946408089994
 30
0.0
 11
31.08709512796992
 21
104.7136737167124
 31
0.0
1001
DBPROPERTIES
1002
{
1000
PbHidd
1002
}
  0
ARC
  5
263
330
1F
100
AcDbEntity
  8
HIDDEN
100
AcDbCircle
 10
0.0
 20
0.0000000000000237
 30
0.0
 40
109.2307692307692
100
AcDbArc
 50
69.86504114376476
 51
70.53494339783171
1001
DBPROPERTIES
1002
{
1000
PbHidd
1002
}
  0
LINE
  5
264
330
1F
100
AcDbEntity
  8
HIDDEN
100
AcDbLine
 10
37.60077782140171
 20
102.5550703474536
 30
0.0
 11
37.60077782140171
 21
102.5550703474536
 31
0.0
1001
DBPROPERTIES
1002
{
1000
PbHidd
1002
}
  0
LINE
  5
265
330
1F
100
AcDbEntity
  8
HIDDEN
100
AcDbLine
 10
39.1693145923818
 20
98.93039573361763
 30
0.0
 11
39.1693145923818
 21
98.93039573361763
 31
0.0
1001
DBPROPERTIES
1002
{
1000
PbHidd
1002
}
  0
LINE
  5
266
330
1F
100
AcDbEntity
  8
HIDDEN
100
AcDbLine
 10
42.79398920621774
 20
100.4989325045977
 30
0.0
 11
39.16931459238179
 21
98.9303957336176
 31
0.0
1001
DBPROPERTIES
1002
{
1000
PbHidd
1002
}
  0
LINE
  5
267
330
1F
100
AcDbEntity
  8
HIDDEN
100
AcDbLine
 10
42.79398920621776
 20
100.4989325045977
 30
0.0
 11
42.79398920621776
 21
100.4989325045977
 31
0.0
1001
DBPROPERTIES
1002
{
1000
PbHidd
1002
}
  0
LINE
  5
268
330
1F
100
AcDbEntity
  8
HIDDEN
100
AcDbLine
 10
39.16931459238178
 20
98.9303957336176
 30
0.0
 11
37.60077782140169
 21
102.5550703474536
 31
0.0
1001
DBPROPERTIES
1002
{
1000
PbHidd
1002
}
  0
ARC
  5
269
330
1F
100
AcDbEntity
  8
HIDDEN
100
AcDbCircle
 10
0.0
 20
0.0000000000000237
 30
0.0
 40
109.2307692307692
100
AcDbArc
 50
66.26503272539877
 51
66.93493497946572
1001
DBPROPERTIES
1002
{
1000
PbHidd
1002
}
  0
LINE
  5
26A
330
1F
100
AcDbEntity
  8
HIDDEN
100
AcDbLine
 10
43.96606742293373
 20
99.99172896848825
 30
0.0
 11
43.96606742293373
 21
99.99172896848826
 31
0.0
1001
DBPROPERTIES
1002
{
1000
PbHidd
1002
}
  0
LINE
  5
26B
330
1F
100
AcDbEntity
  8
HIDDEN
100
AcDbLine
 10
45.30391384276695
 20
96.27571758327387
 30
0.0
 11
45.30391384276695
 21
96.27571758327387
 31
0.0
1001
DBPROPERTIES
1002
{
1000
PbHidd
1002
}
  0
LINE
  5
26C
330
1F
100
AcDbEntity
  8
HIDDEN
100
AcDbLine
 10
49.01992522798132
 20
97.61356400310709
 30
0.0
 11
45.30391384276692
 21
96.27571758327385
 31
0.0
1001
DBPROPERTIES
1002
{
1000
PbHidd
1002
}
  0
LINE
  5
26D
330
1F
100
AcDbEntity
  8
HIDDEN
100
AcDbLine
 10
49.01992522798135
 20
97.61356400310711
 30
0.0
 11
49.01992522798135
 21
97.6135640031071
 31
0.0
1001
DBPROPERTIES
1002
{
1000
PbHidd
1002
}
  0
LINE
  5
26E
330
1F
100
AcDbEntity
  8
HIDDEN
100
AcDbLine
 10
45.30391384276695
 20
96.27571758327383
 30
0.0
 11
43.96606742293372
 21
99.9917289684882
 31
0.0
1001
DBPROPERTIES
1002
{
1000
PbHidd
1002
}
  0
ARC
  5
26F
330
1F
100
AcDbEntity
  8
HIDDEN
100
AcDbCircle
 10
0.0
 20
0.0000000000000237
 30
0.0
 40
109.2307692307692
100
AcDbArc
 50
62.66502430703277
 51
63.33492656109973
1001
DBPROPERTIES
1002
{
1000
PbHidd
1002
}
  0
LINE
  5
270
330
1F
100
AcDbEntity
  8
HIDDEN
100
AcDbLine
 10
50.15784304253308
 20
97.0337659171599
 30
0.0
 11
50.15784304253308
 21
97.03376591715991
 31
0.0
1001
DBPROPERTIES
1002
{
1000
PbHidd
1002
}
  0
LINE
  5
271
330
1F
100
AcDbEntity
  8
HIDDEN
100
AcDbLine
 10
51.25971924260426
 20
93.24108315982043
 30
0.0
 11
51.25971924260426
 21
93.24108315982043
 31
0.0
1001
DBPROPERTIES
1002
{
1000
PbHidd
1002
}
  0
LINE
  5
272
330
1F
100
AcDbEntity
  8
HIDDEN
100
AcDbLine
 10
55.0524019999437
 20
94.34295935989158
 30
0.0
 11
51.25971924260422
 21
93.2410831598204
 31
0.0
1001
DBPROPERTIES
1002
{
1000
PbHidd
1002
}
  0
LINE
  5
273
330
1F
100
AcDbEntity
  8
HIDDEN
100
AcDbLine
 10
55.05240199994373
 20
94.34295935989162
 30
0.0
 11
55.05240199994373
 21
94.34295935989161
 31
0.0
1001
DBPROPERTIES
1002
{
1000
PbHidd
1002
}
  0
LINE
  5
274
330
1F
100
AcDbEntity
  8
HIDDEN
100
AcDbLine
 10
51.25971924260424
 20
93.24108315982039
 30
0.0
 11
50.15784304253307
 21
97.03376591715985
 31
0.0
1001
DBPROPERTIES
1002
{
1000
PbHidd
1002
}
  0
ARC
  5
275
330
1F
100
AcDbEntity
  8
HIDDEN
100
AcDbCircle
 10
0.0
 20
0.0000000000000237
 30
0.0
 40
109.2307692307692
100
AcDbArc
 50
59.06507318444631
 51
59.73497543851327
1001
DBPROPERTIES
1002
{
1000
PbHidd
1002
}
  0
LINE
  5
276
330
1F
100
AcDbEntity
  8
HIDDEN
100
AcDbLine
 10
56.15166857058225
 20
93.69285492226743
 30
0.0
 11
56.15166857058225
 21
93.69285492226744
 31
0.0
1001
DBPROPERTIES
1002
{
1000
PbHidd
1002
}
  0
LINE
  5
277
330
1F
100
AcDbEntity
  8
HIDDEN
100
AcDbLine
 10
57.01322594892904
 20
89.83846877893417
 30
0.0
 11
57.01322594892904
 21
89.83846877893417
 31
0.0
1001
DBPROPERTIES
1002
{
1000
PbHidd
1002
}
  0
LINE
  5
278
330
1F
100
AcDbEntity
  8
HIDDEN
100
AcDbLine
 10
60.86761209226228
 20
90.70002615728094
 30
0.0
 11
57.01322594892902
 21
89.83846877893416
 31
0.0
1001
DBPROPERTIES
1002
{
1000
PbHidd
1002
}
  0
LINE
  5
279
330
1F
100
AcDbEntity
  8
HIDDEN
100
AcDbLine
 10
60.86761209226229
 20
90.70002615728097
 30
0.0
 11
60.86761209226229
 21
90.70002615728096
 31
0.0
1001
DBPROPERTIES
1002
{
1000
PbHidd
1002
}
  0
LINE
  5
27A
330
1F
100
AcDbEntity
  8
HIDDEN
100
AcDbLine
 10
57.01322594892903
 20
89.83846877893414
 30
0.0
 11
56.15166857058223
 21
93.6928549222674
 31
0.0
1001
DBPROPERTIES
1002
{
1000
PbHidd
1002
}
  0
ARC
  5
27B
330
1F
100
AcDbEntity
  8
HIDDEN
100
AcDbCircle
 10
0.0
 20
0.0000000000000237
 30
0.0
 40
109.2307692307692
100
AcDbArc
 50
55.46506476608031
 51
56.13496702014726
1001
DBPROPERTIES
1002
{
1000
PbHidd
1002
}
  0
LINE
  5
27C
330
1F
100
AcDbEntity
  8
HIDDEN
100
AcDbLine
 10
61.9238891160405
 20
89.9821810331906
 30
0.0
 11
61.9238891160405
 21
89.98218103319061
 31
0.0
1001
DBPROPERTIES
1002
{
1000
PbHidd
1002
}
  0
LINE
  5
27D
330
1F
100
AcDbEntity
  8
HIDDEN
100
AcDbLine
 10
62.54172749929873
 20
86.0813030050697
 30
0.0
 11
62.54172749929873
 21
86.0813030050697
 31
0.0
1001
DBPROPERTIES
1002
{
1000
PbHidd
1002
}
  0
LINE
  5
27E
330
1F
100
AcDbEntity
  8
HIDDEN
100
AcDbLine
 10
66.4426055274196
 20
86.69914138832789
 30
0.0
 11
62.54172749929869
 21
86.08130300506967
 31
0.0
1001
DBPROPERTIES
1002
{
1000
PbHidd
1002
}
  0
LINE
  5
27F
330
1F
100
AcDbEntity
  8
HIDDEN
100
AcDbLine
 10
66.44260552741963
 20
86.69914138832792
 30
0.0
 11
66.44260552741963
 21
86.6991413883279
 31
0.0
1001
DBPROPERTIES
1002
{
1000
PbHidd
1002
}
  0
LINE
  5
280
330
1F
100
AcDbEntity
  8
HIDDEN
100
AcDbLine
 10
62.5417274992987
 20
86.08130300506966
 30
0.0
 11
61.92388911604049
 21
89.98218103319056
 31
0.0
1001
DBPROPERTIES
1002
{
1000
PbHidd
1002
}
  0
ARC
  5
281
330
1F
100
AcDbEntity
  8
HIDDEN
100
AcDbCircle
 10
0.0
 20
0.0000000000000237
 30
0.0
 40
109.2307692307692
100
AcDbArc
 50
51.86505634771432
 51
52.53495860178128
1001
DBPROPERTIES
1002
{
1000
PbHidd
1002
}
  0
LINE
  5
282
330
1F
100
AcDbEntity
  8
HIDDEN
100
AcDbLine
 10
67.45172436149177
 20
85.91638858452386
 30
0.0
 11
67.45172436149177
 21
85.91638858452387
 31
0.0
1001
DBPROPERTIES
1002
{
1000
PbHidd
1002
}
  0
LINE
  5
283
330
1F
100
AcDbEntity
  8
HIDDEN
100
AcDbLine
 10
67.82340542382619
 20
81.98441365505072
 30
0.0
 11
67.82340542382619
 21
81.98441365505072
 31
0.0
1001
DBPROPERTIES
1002
{
1000
PbHidd
1002
}
  0
LINE
  5
284
330
1F
100
AcDbEntity
  8
HIDDEN
100
AcDbLine
 10
71.75538035329932
 20
82.3560947173851
 30
0.0
 11
67.82340542382616
 21
81.9844136550507
 31
0.0
1001
DBPROPERTIES
1002
{
1000
PbHidd
1002
}
  0
LINE
  5
285
330
1F
100
AcDbEntity
  8
HIDDEN
100
AcDbLine
 10
71.75538035329934
 20
82.35609471738513
 30
0.0
 11
71.75538035329934
 21
82.35609471738512
 31
0.0
1001
DBPROPERTIES
1002
{
1000
PbHidd
1002
}
  0
LINE
  5
286
330
1F
100
AcDbEntity
  8
HIDDEN
100
AcDbLine
 10
67.82340542382617
 20
81.98441365505069
 30
0.0
 11
67.45172436149177
 21
85.91638858452382
 31
0.0
1001
DBPROPERTIES
1002
{
1000
PbHidd
1002
}
  0
ARC
  5
287
330
1F
100
AcDbEntity
  8
HIDDEN
100
AcDbCircle
 10
0.0
 20
0.0000000000000237
 30
0.0
 40
109.2307692307692
100
AcDbArc
 50
48.26504792934833
 51
48.93495018341529
1001
DBPROPERTIES
1002
{
1000
PbHidd
1002
}
  0
LINE
  5
288
330
1F
100
AcDbEntity
  8
HIDDEN
100
AcDbLine
 10
72.71335846664978
 20
81.51152340157834
 30
0.0
 11
72.71335846664978
 21
81.51152340157836
 31
0.0
1001
DBPROPERTIES
1002
{
1000
PbHidd
1002
}
  0
LINE
  5
289
330
1F
100
AcDbEntity
  8
HIDDEN
100
AcDbLine
 10
72.83741535271228
 20
77.5639692794511
 30
0.0
 11
72.83741535271228
 21
77.5639692794511
 31
0.0
1001
DBPROPERTIES
1002
{
1000
PbHidd
1002
}
  0
LINE
  5
28A
330
1F
100
AcDbEntity
  8
HIDDEN
100
AcDbLine
 10
76.78496947483951
 20
77.68802616551359
 30
0.0
 11
72.83741535271227
 21
77.56396927945109
 31
0.0
1001
DBPROPERTIES
1002
{
1000
PbHidd
1002
}
  0
LINE
  5
28B
330
1F
100
AcDbEntity
  8
HIDDEN
100
AcDbLine
 10
76.78496947483953
 20
77.68802616551362
 30
0.0
 11
76.78496947483953
 21
77.6880261655136
 31
0.0
1001
DBPROPERTIES
1002
{
1000
PbHidd
1002
}
  0
LINE
  5
28C
330
1F
100
AcDbEntity
  8
HIDDEN
100
AcDbLine
 10
72.83741535271228
 20
77.56396927945107
 30
0.0
 11
72.71335846664978
 21
81.51152340157832
 31
0.0
1001
DBPROPERTIES
1002
{
1000
PbHidd
1002
}
  0
ARC
  5
28D
330
1F
100
AcDbEntity
  8
HIDDEN
100
AcDbCircle
 10
0.0
 20
0.0000000000000237
 30
0.0
 40
109.2307692307692
100
AcDbArc
 50
44.66503951098235
 51
45.33494176504931
1001
DBPROPERTIES
1002
{
1000
PbHidd
1002
}
  0
LINE
  5
28E
330
1F
100
AcDbEntity
  8
HIDDEN
100
AcDbLine
 10
77.68802616551358
 20
76.78496947483956
 30
0.0
 11
77.68802616551358
 21
76.78496947483957
 31
0.0
1001
DBPROPERTIES
1002
{
1000
PbHidd
1002
}
  0
LINE
  5
28F
330
1F
100
AcDbEntity
  8
HIDDEN
100
AcDbLine
 10
77.56396927945109
 20
72.83741535271231
 30
0.0
 11
77.56396927945109
 21
72.83741535271231
 31
0.0
1001
DBPROPERTIES
1002
{
1000
PbHidd
1002
}
  0
LINE
  5
290
330
1F
100
AcDbEntity
  8
HIDDEN
100
AcDbLine
 10
81.51152340157829
 20
72.71335846664981
 30
0.0
 11
77.56396927945107
 21
72.8374153527123
 31
0.0
1001
DBPROPERTIES
1002
{
1000
PbHidd
1002
}
  0
LINE
  5
291
330
1F
100
AcDbEntity
  8
HIDDEN
100
AcDbLine
 10
81.5115234015783
 20
72.71335846664984
 30
0.0
 11
81.5115234015783
 21
72.71335846664982
 31
0.0
1001
DBPROPERTIES
1002
{
1000
PbHidd
1002
}
  0
LINE
  5
292
330
1F
100
AcDbEntity
  8
HIDDEN
100
AcDbLine
 10
77.56396927945109
 20
72.8374153527123
 30
0.0
 11
77.68802616551358
 21
76.78496947483953
 31
0.0
1001
DBPROPERTIES
1002
{
1000
PbHidd
1002
}
  0
ARC
  5
293
330
1F
100
AcDbEntity
  8
HIDDEN
100
AcDbCircle
 10
0.0
 20
0.0000000000000237
 30
0.0
 40
109.2307692307692
100
AcDbArc
 50
41.06503109261636
 51
41.73493334668332
1001
DBPROPERTIES
1002
{
1000
PbHidd
1002
}
  0
LINE
  5
294
330
1F
100
AcDbEntity
  8
HIDDEN
100
AcDbLine
 10
82.35609471738509
 20
71.75538035329937
 30
0.0
 11
82.35609471738509
 21
71.75538035329939
 31
0.0
1001
DBPROPERTIES
1002
{
1000
PbHidd
1002
}
  0
LINE
  5
295
330
1F
100
AcDbEntity
  8
HIDDEN
100
AcDbLine
 10
81.98441365505069
 20
67.82340542382623
 30
0.0
 11
81.98441365505069
 21
67.82340542382623
 31
0.0
1001
DBPROPERTIES
1002
{
1000
PbHidd
1002
}
  0
LINE
  5
296
330
1F
100
AcDbEntity
  8
HIDDEN
100
AcDbLine
 10
85.91638858452382
 20
67.45172436149183
 30
0.0
 11
81.98441365505069
 21
67.82340542382623
 31
0.0
1001
DBPROPERTIES
1002
{
1000
PbHidd
1002
}
  0
LINE
  5
297
330
1F
100
AcDbEntity
  8
HIDDEN
100
AcDbLine
 10
85.91638858452382
 20
67.45172436149184
 30
0.0
 11
85.91638858452382
 21
67.45172436149183
 31
0.0
1001
DBPROPERTIES
1002
{
1000
PbHidd
1002
}
  0
LINE
  5
298
330
1F
100
AcDbEntity
  8
HIDDEN
100
AcDbLine
 10
81.98441365505069
 20
67.82340542382622
 30
0.0
 11
82.35609471738509
 21
71.75538035329936
 31
0.0
1001
DBPROPERTIES
1002
{
1000
PbHidd
1002
}
  0
ARC
  5
299
330
1F
100
AcDbEntity
  8
HIDDEN
100
AcDbCircle
 10
0.0
 20
0.0000000000000237
 30
0.0
 40
109.2307692307692
100
AcDbArc
 50
37.46502267425038
 51
38.13492492831733
1001
DBPROPERTIES
1002
{
1000
PbHidd
1002
}
  0
LINE
  5
29A
330
1F
100
AcDbEntity
  8
HIDDEN
100
AcDbLine
 10
86.69914138832783
 20
66.44260552741972
 30
0.0
 11
86.69914138832783
 21
66.44260552741973
 31
0.0
1001
DBPROPERTIES
1002
{
1000
PbHidd
1002
}
  0
LINE
  5
29B
330
1F
100
AcDbEntity
  8
HIDDEN
100
AcDbLine
 10
86.08130300506963
 20
62.54172749929883
 30
0.0
 11
86.08130300506963
 21
62.54172749929883
 31
0.0
1001
DBPROPERTIES
1002
{
1000
PbHidd
1002
}
  0
LINE
  5
29C
330
1F
100
AcDbEntity
  8
HIDDEN
100
AcDbLine
 10
89.9821810331905
 20
61.92388911604061
 30
0.0
 11
86.0813030050696
 21
62.54172749929882
 31
0.0
1001
DBPROPERTIES
1002
{
1000
PbHidd
1002
}
  0
LINE
  5
29D
330
1F
100
AcDbEntity
  8
HIDDEN
100
AcDbLine
 10
89.98218103319051
 20
61.92388911604063
 30
0.0
 11
89.98218103319051
 21
61.92388911604061
 31
0.0
1001
DBPROPERTIES
1002
{
1000
PbHidd
1002
}
  0
LINE
  5
29E
330
1F
100
AcDbEntity
  8
HIDDEN
100
AcDbLine
 10
86.0813030050696
 20
62.54172749929882
 30
0.0
 11
86.6991413883278
 21
66.44260552741969
 31
0.0
1001
DBPROPERTIES
1002
{
1000
PbHidd
1002
}
  0
ARC
  5
29F
330
1F
100
AcDbEntity
  8
HIDDEN
100
AcDbCircle
 10
0.0
 20
0.0000000000000237
 30
0.0
 40
109.2307692307692
100
AcDbArc
 50
33.8650715516639
 51
34.53497380573086
1001
DBPROPERTIES
1002
{
1000
PbHidd
1002
}
  0
LINE
  5
2A0
330
1F
100
AcDbEntity
  8
HIDDEN
100
AcDbLine
 10
90.70002615728092
 20
60.86761209226234
 30
0.0
 11
90.70002615728092
 21
60.86761209226236
 31
0.0
1001
DBPROPERTIES
1002
{
1000
PbHidd
1002
}
  0
LINE
  5
2A1
330
1F
100
AcDbEntity
  8
HIDDEN
100
AcDbLine
 10
89.83846877893411
 20
57.01322594892908
 30
0.0
 11
89.83846877893411
 21
57.01322594892908
 31
0.0
1001
DBPROPERTIES
1002
{
1000
PbHidd
1002
}
  0
LINE
  5
2A2
330
1F
100
AcDbEntity
  8
HIDDEN
100
AcDbLine
 10
93.69285492226737
 20
56.15166857058227
 30
0.0
 11
89.83846877893409
 21
57.01322594892906
 31
0.0
1001
DBPROPERTIES
1002
{
1000
PbHidd
1002
}
  0
LINE
  5
2A3
330
1F
100
AcDbEntity
  8
HIDDEN
100
AcDbLine
 10
93.6928549222674
 20
56.15166857058227
 30
0.0
 11
93.6928549222674
 21
56.15166857058226
 31
0.0
1001
DBPROPERTIES
1002
{
1000
PbHidd
1002
}
  0
LINE
  5
2A4
330
1F
100
AcDbEntity
  8
HIDDEN
100
AcDbLine
 10
89.8384687789341
 20
57.01322594892905
 30
0.0
 11
90.70002615728089
 21
60.86761209226232
 31
0.0
1001
DBPROPERTIES
1002
{
1000
PbHidd
1002
}
  0
ARC
  5
2A5
330
1F
100
AcDbEntity
  8
HIDDEN
100
AcDbCircle
 10
0.0
 20
0.0000000000000237
 30
0.0
 40
109.2307692307692
100
AcDbArc
 50
30.2650631332979
 51
30.93496538736487
1001
DBPROPERTIES
1002
{
1000
PbHidd
1002
}
  0
LINE
  5
2A6
330
1F
100
AcDbEntity
  8
HIDDEN
100
AcDbLine
 10
94.3429593598916
 20
55.05240199994373
 30
0.0
 11
94.3429593598916
 21
55.05240199994375
 31
0.0
1001
DBPROPERTIES
1002
{
1000
PbHidd
1002
}
  0
LINE
  5
2A7
330
1F
100
AcDbEntity
  8
HIDDEN
100
AcDbLine
 10
93.2410831598204
 20
51.25971924260428
 30
0.0
 11
93.2410831598204
 21
51.25971924260428
 31
0.0
1001
DBPROPERTIES
1002
{
1000
PbHidd
1002
}
  0
LINE
  5
2A8
330
1F
100
AcDbEntity
  8
HIDDEN
100
AcDbLine
 10
97.03376591715984
 20
50.1578430425331
 30
0.0
 11
93.24108315982039
 21
51.25971924260426
 31
0.0
1001
DBPROPERTIES
1002
{
1000
PbHidd
1002
}
  0
LINE
  5
2A9
330
1F
100
AcDbEntity
  8
HIDDEN
100
AcDbLine
 10
97.03376591715985
 20
50.15784304253311
 30
0.0
 11
97.03376591715985
 21
50.1578430425331
 31
0.0
1001
DBPROPERTIES
1002
{
1000
PbHidd
1002
}
  0
LINE
  5
2AA
330
1F
100
AcDbEntity
  8
HIDDEN
100
AcDbLine
 10
93.2410831598204
 20
51.25971924260427
 30
0.0
 11
94.34295935989157
 21
55.05240199994372
 31
0.0
1001
DBPROPERTIES
1002
{
1000
PbHidd
1002
}
  0
ARC
  5
2AB
330
1F
100
AcDbEntity
  8
HIDDEN
100
AcDbCircle
 10
0.0
 20
0.0000000000000237
 30
0.0
 40
109.2307692307692
100
AcDbArc
 50
26.66505471493192
 51
27.33495696899888
1001
DBPROPERTIES
1002
{
1000
PbHidd
1002
}
  0
LINE
  5
2AC
330
1F
100
AcDbEntity
  8
HIDDEN
100
AcDbLine
 10
97.61356400310709
 20
49.01992522798133
 30
0.0
 11
97.61356400310709
 21
49.01992522798134
 31
0.0
1001
DBPROPERTIES
1002
{
1000
PbHidd
1002
}
  0
LINE
  5
2AD
330
1F
100
AcDbEntity
  8
HIDDEN
100
AcDbLine
 10
96.27571758327387
 20
45.30391384276697
 30
0.0
 11
96.27571758327387
 21
45.30391384276697
 31
0.0
1001
DBPROPERTIES
1002
{
1000
PbHidd
1002
}
  0
LINE
  5
2AE
330
1F
100
AcDbEntity
  8
HIDDEN
100
AcDbLine
 10
99.9917289684882
 20
43.96606742293376
 30
0.0
 11
96.27571758327386
 21
45.30391384276697
 31
0.0
1001
DBPROPERTIES
1002
{
1000
PbHidd
1002
}
  0
LINE
  5
2AF
330
1F
100
AcDbEntity
  8
HIDDEN
100
AcDbLine
 10
99.99172896848822
 20
43.96606742293376
 30
0.0
 11
99.99172896848822
 21
43.96606742293375
 31
0.0
1001
DBPROPERTIES
1002
{
1000
PbHidd
1002
}
  0
LINE
  5
2B0
330
1F
100
AcDbEntity
  8
HIDDEN
100
AcDbLine
 10
96.27571758327386
 20
45.30391384276696
 30
0.0
 11
97.61356400310707
 21
49.01992522798132
 31
0.0
1001
DBPROPERTIES
1002
{
1000
PbHidd
1002
}
  0
ARC
  5
2B1
330
1F
100
AcDbEntity
  8
HIDDEN
100
AcDbCircle
 10
0.0
 20
0.0000000000000237
 30
0.0
 40
109.2307692307692
100
AcDbArc
 50
23.06504629656594
 51
23.73494855063289
1001
DBPROPERTIES
1002
{
1000
PbHidd
1002
}
  0
LINE
  5
2B2
330
1F
100
AcDbEntity
  8
HIDDEN
100
AcDbLine
 10
100.4989325045977
 20
42.79398920621776
 30
0.0
 11
100.4989325045977
 21
42.79398920621777
 31
0.0
1001
DBPROPERTIES
1002
{
1000
PbHidd
1002
}
  0
LINE
  5
2B3
330
1F
100
AcDbEntity
  8
HIDDEN
100
AcDbLine
 10
98.9303957336176
 20
39.16931459238183
 30
0.0
 11
98.9303957336176
 21
39.16931459238183
 31
0.0
1001
DBPROPERTIES
1002
{
1000
PbHidd
1002
}
  0
LINE
  5
2B4
330
1F
100
AcDbEntity
  8
HIDDEN
100
AcDbLine
 10
102.5550703474535
 20
37.60077782140173
 30
0.0
 11
98.93039573361756
 21
39.16931459238182
 31
0.0
1001
DBPROPERTIES
1002
{
1000
PbHidd
1002
}
  0
LINE
  5
2B5
330
1F
100
AcDbEntity
  8
HIDDEN
100
AcDbLine
 10
102.5550703474536
 20
37.60077782140174
 30
0.0
 11
102.5550703474536
 21
37.60077782140173
 31
0.0
1001
DBPROPERTIES
1002
{
1000
PbHidd
1002
}
  0
LINE
  5
2B6
330
1F
100
AcDbEntity
  8
HIDDEN
100
AcDbLine
 10
98.93039573361757
 20
39.16931459238182
 30
0.0
 11
100.4989325045976
 21
42.79398920621774
 31
0.0
1001
DBPROPERTIES
1002
{
1000
PbHidd
1002
}
  0
ARC
  5
2B7
330
1F
100
AcDbEntity
  8
HIDDEN
100
AcDbCircle
 10
0.0
 20
0.0000000000000237
 30
0.0
 40
109.2307692307692
100
AcDbArc
 50
19.46503787819994
 51
20.1349401322669
1001
DBPROPERTIES
1002
{
1000
PbHidd
1002
}
  0
LINE
  5
2B8
330
1F
100
AcDbEntity
  8
HIDDEN
100
AcDbLine
 10
102.9876776330876
 20
36.3991648597711
 30
0.0
 11
102.9876776330876
 21
36.39916485977112
 31
0.0
1001
DBPROPERTIES
1002
{
1000
PbHidd
1002
}
  0
LINE
  5
2B9
330
1F
100
AcDbEntity
  8
HIDDEN
100
AcDbLine
 10
101.1946408089994
 20
32.88013195205813
 30
0.0
 11
101.1946408089994
 21
32.88013195205813
 31
0.0
1001
DBPROPERTIES
1002
{
1000
PbHidd
1002
}
  0
LINE
  5
2BA
330
1F
100
AcDbEntity
  8
HIDDEN
100
AcDbLine
 10
104.7136737167124
 20
31.08709512796997
 30
0.0
 11
101.1946408089994
 21
32.88013195205813
 31
0.0
1001
DBPROPERTIES
1002
{
1000
PbHidd
1002
}
  0
LINE
  5
2BB
330
1F
100
AcDbEntity
  8
HIDDEN
100
AcDbLine
 10
104.7136737167124
 20
31.08709512796998
 30
0.0
 11
104.7136737167124
 21
31.08709512796997
 31
0.0
1001
DBPROPERTIES
1002
{
1000
PbHidd
1002
}
  0
LINE
  5
2BC
330
1F
100
AcDbEntity
  8
HIDDEN
100
AcDbLine
 10
101.1946408089994
 20
32.88013195205811
 30
0.0
 11
102.9876776330875
 21
36.3991648597711
 31
0.0
1001
DBPROPERTIES
1002
{
1000
PbHidd
1002
}
  0
ARC
  5
2BD
330
1F
100
AcDbEntity
  8
HIDDEN
100
AcDbCircle
 10
0.0
 20
0.0000000000000237
 30
0.0
 40
109.2307692307692
100
AcDbArc
 50
15.86502945983396
 51
16.53493171390091
1001
DBPROPERTIES
1002
{
1000
PbHidd
1002
}
  0
LINE
  5
2BE
330
1F
100
AcDbEntity
  8
HIDDEN
100
AcDbLine
 10
105.069977448554
 20
29.86068963881969
 30
0.0
 11
105.069977448554
 21
29.86068963881971
 31
0.0
1001
DBPROPERTIES
1002
{
1000
PbHidd
1002
}
  0
LINE
  5
2BF
330
1F
100
AcDbEntity
  8
HIDDEN
100
AcDbLine
 10
103.0595168685418
 20
26.46118645242315
 30
0.0
 11
103.0595168685418
 21
26.46118645242315
 31
0.0
1001
DBPROPERTIES
1002
{
1000
PbHidd
1002
}
  0
LINE
  5
2C0
330
1F
100
AcDbEntity
  8
HIDDEN
100
AcDbLine
 10
106.4590200549383
 20
24.450725872411
 30
0.0
 11
103.0595168685418
 21
26.46118645242315
 31
0.0
1001
DBPROPERTIES
1002
{
1000
PbHidd
1002
}
  0
LINE
  5
2C1
330
1F
100
AcDbEntity
  8
HIDDEN
100
AcDbLine
 10
106.4590200549384
 20
24.45072587241102
 30
0.0
 11
106.4590200549384
 21
24.45072587241101
 31
0.0
1001
DBPROPERTIES
1002
{
1000
PbHidd
1002
}
  0
LINE
  5
2C2
330
1F
100
AcDbEntity
  8
HIDDEN
100
AcDbLine
 10
103.0595168685418
 20
26.46118645242315
 30
0.0
 11
105.069977448554
 21
29.86068963881969
 31
0.0
1001
DBPROPERTIES
1002
{
1000
PbHidd
1002
}
  0
ARC
  5
2C3
330
1F
100
AcDbEntity
  8
HIDDEN
100
AcDbCircle
 10
0.0
 20
0.0000000000000237
 30
0.0
 40
109.2307692307692
100
AcDbArc
 50
12.26507833724748
 51
12.93492329553493
1001
DBPROPERTIES
1002
{
1000
PbHidd
1002
}
  0
LINE
  5
2C4
330
1F
100
AcDbEntity
  8
HIDDEN
100
AcDbLine
 10
106.7376140649377
 20
23.20436791791531
 30
0.0
 11
106.7376140649377
 21
23.20436791791532
 31
0.0
1001
DBPROPERTIES
1002
{
1000
PbHidd
1002
}
  0
LINE
  5
2C5
330
1F
100
AcDbEntity
  8
HIDDEN
100
AcDbLine
 10
104.5176640984188
 20
19.93781073882664
 30
0.0
 11
104.5176640984188
 21
19.93781073882664
 31
0.0
1001
DBPROPERTIES
1002
{
1000
PbHidd
1002
}
  0
LINE
  5
2C6
330
1F
100
AcDbEntity
  8
HIDDEN
100
AcDbLine
 10
107.7842212775074
 20
17.7178607723077
 30
0.0
 11
104.5176640984187
 21
19.93781073882663
 31
0.0
1001
DBPROPERTIES
1002
{
1000
PbHidd
1002
}
  0
LINE
  5
2C7
330
1F
100
AcDbEntity
  8
HIDDEN
100
AcDbLine
 10
107.7842212775074
 20
17.71786077230771
 30
0.0
 11
107.7842212775074
 21
17.7178607723077
 31
0.0
1001
DBPROPERTIES
1002
{
1000
PbHidd
1002
}
  0
LINE
  5
2C8
330
1F
100
AcDbEntity
  8
HIDDEN
100
AcDbLine
 10
104.5176640984187
 20
19.93781073882665
 30
0.0
 11
106.7376140649377
 21
23.20436791791531
 31
0.0
1001
DBPROPERTIES
1002
{
1000
PbHidd
1002
}
  0
ARC
  5
2C9
330
1F
100
AcDbEntity
  8
HIDDEN
100
AcDbCircle
 10
0.0
 20
0.0000000000000237
 30
0.0
 40
109.2307692307692
100
AcDbArc
 50
8.66506991888149
 51
9.33497217294845
1001
DBPROPERTIES
1002
{
1000
PbHidd
1002
}
  0
LINE
  5
2CA
330
1F
100
AcDbEntity
  8
HIDDEN
100
AcDbLine
 10
107.9840060823845
 20
16.4564691579061
 30
0.0
 11
107.9840060823845
 21
16.45646915790611
 31
0.0
1001
DBPROPERTIES
1002
{
1000
PbHidd
1002
}
  0
LINE
  5
2CB
330
1F
100
AcDbEntity
  8
HIDDEN
100
AcDbLine
 10
105.5633278576779
 20
13.33574959496318
 30
0.0
 11
105.5633278576779
 21
13.33574959496318
 31
0.0
1001
DBPROPERTIES
1002
{
1000
PbHidd
1002
}
  0
LINE
  5
2CC
330
1F
100
AcDbEntity
  8
HIDDEN
100
AcDbLine
 10
108.6840474206208
 20
10.91507137025665
 30
0.0
 11
105.5633278576779
 21
13.33574959496318
 31
0.0
1001
DBPROPERTIES
1002
{
1000
PbHidd
1002
}
  0
LINE
  5
2CD
330
1F
100
AcDbEntity
  8
HIDDEN
100
AcDbLine
 10
108.6840474206209
 20
10.91507137025666
 30
0.0
 11
108.6840474206209
 21
10.91507137025664
 31
0.0
1001
DBPROPERTIES
1002
{
1000
PbHidd
1002
}
  0
LINE
  5
2CE
330
1F
100
AcDbEntity
  8
HIDDEN
100
AcDbLine
 10
105.5633278576779
 20
13.33574959496316
 30
0.0
 11
107.9840060823844
 21
16.45646915790609
 31
0.0
1001
DBPROPERTIES
1002
{
1000
PbHidd
1002
}
  0
ARC
  5
2CF
330
1F
100
AcDbEntity
  8
HIDDEN
100
AcDbCircle
 10
0.0
 20
0.0000000000000237
 30
0.0
 40
109.2307692307692
100
AcDbArc
 50
5.065061500515503
 51
5.734963754582461
1001
DBPROPERTIES
1002
{
1000
PbHidd
1002
}
  0
LINE
  5
2D0
330
1F
100
AcDbEntity
  8
HIDDEN
100
AcDbLine
 10
108.8042345610238
 20
9.64362423237636
 30
0.0
 11
108.8042345610238
 21
9.643624232376377
 31
0.0
1001
DBPROPERTIES
1002
{
1000
PbHidd
1002
}
  0
LINE
  5
2D1
330
1F
100
AcDbEntity
  8
HIDDEN
100
AcDbLine
 10
106.1923813891799
 20
6.681058339972953
 30
0.0
 11
106.1923813891799
 21
6.681058339972953
 31
0.0
1001
DBPROPERTIES
1002
{
1000
PbHidd
1002
}
  0
LINE
  5
2D2
330
1F
100
AcDbEntity
  8
HIDDEN
100
AcDbLine
 10
109.1549472815833
 20
4.069205168129074
 30
0.0
 11
106.1923813891799
 21
6.68105833997296
 31
0.0
1001
DBPROPERTIES
1002
{
1000
PbHidd
1002
}
  0
LINE
  5
2D3
330
1F
100
AcDbEntity
  8
HIDDEN
100
AcDbLine
 10
109.1549472815833
 20
4.069205168129068
 30
0.0
 11
109.1549472815833
 21
4.069205168129053
 31
0.0
1001
DBPROPERTIES
1002
{
1000
PbHidd
1002
}
  0
LINE
  5
2D4
330
1F
100
AcDbEntity
  8
HIDDEN
100
AcDbLine
 10
106.1923813891799
 20
6.681058339972953
 30
0.0
 11
108.8042345610238
 21
9.643624232376364
 31
0.0
1001
DBPROPERTIES
1002
{
1000
PbHidd
1002
}
  0
ARC
  5
2D5
330
1F
100
AcDbEntity
  8
HIDDEN
100
AcDbCircle
 10
0.0
 20
0.0000000000000237
 30
0.0
 40
109.2307692307692
100
AcDbArc
 50
1.465053082149515
 51
2.134955336216473
1001
DBPROPERTIES
1002
{
1000
PbHidd
1002
}
  0
LINE
  5
2D6
330
1F
100
AcDbEntity
  8
HIDDEN
100
AcDbLine
 10
109.1950624337772
 20
2.792720327754169
 30
0.0
 11
109.1950624337772
 21
2.792720327754184
 31
0.0
1001
DBPROPERTIES
1002
{
1000
PbHidd
1002
}
  0
LINE
  5
2D7
330
1F
100
AcDbEntity
  8
HIDDEN
100
AcDbLine
 10
106.402342106023
 20
-0.0000000000000261
 30
0.0
 11
106.402342106023
 21
-0.0000000000000261
 31
0.0
1001
DBPROPERTIES
1002
{
1000
PbHidd
1002
}
  0
LINE
  5
2D8
330
1F
100
AcDbEntity
  8
HIDDEN
100
AcDbLine
 10
109.1950624337772
 20
-2.792720327754214
 30
0.0
 11
106.402342106023
 21
-0.0000000000000178
 31
0.0
1001
DBPROPERTIES
1002
{
1000
PbHidd
1002
}
  0
LINE
  5
2D9
330
1F
100
AcDbEntity
  8
HIDDEN
100
AcDbLine
 10
109.1950624337772
 20
-2.792720327754208
 30
0.0
 11
109.1950624337772
 21
-2.792720327754224
 31
0.0
1001
DBPROPERTIES
1002
{
1000
PbHidd
1002
}
  0
LINE
  5
2DA
330
1F
100
AcDbEntity
  8
HIDDEN
100
AcDbLine
 10
106.402342106023
 20
-0.0000000000000249
 30
0.0
 11
109.1950624337772
 21
2.792720327754168
 31
0.0
1001
DBPROPERTIES
1002
{
1000
PbHidd
1002
}
  0
ARC
  5
2DB
330
1F
100
AcDbEntity
  8
HIDDEN
100
AcDbCircle
 10
0.0
 20
0.0000000000000237
 30
0.0
 40
109.2307692307692
100
AcDbArc
 50
357.8650446637835
 51
358.5349469178505
1001
DBPROPERTIES
1002
{
1000
PbHidd
1002
}
  0
LINE
  5
2DC
330
1F
100
AcDbEntity
  8
HIDDEN
100
AcDbLine
 10
109.1549472815833
 20
-4.06920516812903
 30
0.0
 11
109.1549472815833
 21
-4.069205168129015
 31
0.0
1001
DBPROPERTIES
1002
{
1000
PbHidd
1002
}
  0
LINE
  5
2DD
330
1F
100
AcDbEntity
  8
HIDDEN
100
AcDbLine
 10
106.1923813891799
 20
-6.68105833997291
 30
0.0
 11
106.1923813891799
 21
-6.68105833997291
 31
0.0
1001
DBPROPERTIES
1002
{
1000
PbHidd
1002
}
  0
LINE
  5
2DE
330
1F
100
AcDbEntity
  8
HIDDEN
100
AcDbLine
 10
108.8042345610238
 20
-9.643624232376311
 30
0.0
 11
106.1923813891799
 21
-6.6810583399729
 31
0.0
1001
DBPROPERTIES
1002
{
1000
PbHidd
1002
}
  0
LINE
  5
2DF
330
1F
100
AcDbEntity
  8
HIDDEN
100
AcDbLine
 10
108.8042345610238
 20
-9.64362423237631
 30
0.0
 11
108.8042345610238
 21
-9.643624232376325
 31
0.0
1001
DBPROPERTIES
1002
{
1000
PbHidd
1002
}
  0
LINE
  5
2E0
330
1F
100
AcDbEntity
  8
HIDDEN
100
AcDbLine
 10
106.1923813891799
 20
-6.68105833997291
 30
0.0
 11
109.1549472815833
 21
-4.069205168129024
 31
0.0
1001
DBPROPERTIES
1002
{
1000
PbHidd
1002
}
  0
ARC
  5
2E1
330
1F
100
AcDbEntity
  8
HIDDEN
100
AcDbCircle
 10
0.0
 20
0.0000000000000237
 30
0.0
 40
109.2307692307692
100
AcDbArc
 50
354.2650362454175
 51
354.9349384994845
1001
DBPROPERTIES
1002
{
1000
PbHidd
1002
}
  0
LINE
  5
2E2
330
1F
100
AcDbEntity
  8
HIDDEN
100
AcDbLine
 10
108.6840474206209
 20
-10.91507137025662
 30
0.0
 11
108.6840474206209
 21
-10.9150713702566
 31
0.0
1001
DBPROPERTIES
1002
{
1000
PbHidd
1002
}
  0
LINE
  5
2E3
330
1F
100
AcDbEntity
  8
HIDDEN
100
AcDbLine
 10
105.5633278576779
 20
-13.33574959496314
 30
0.0
 11
105.5633278576779
 21
-13.33574959496314
 31
0.0
1001
DBPROPERTIES
1002
{
1000
PbHidd
1002
}
  0
LINE
  5
2E4
330
1F
100
AcDbEntity
  8
HIDDEN
100
AcDbLine
 10
107.9840060823844
 20
-16.45646915790606
 30
0.0
 11
105.5633278576779
 21
-13.33574959496313
 31
0.0
1001
DBPROPERTIES
1002
{
1000
PbHidd
1002
}
  0
LINE
  5
2E5
330
1F
100
AcDbEntity
  8
HIDDEN
100
AcDbLine
 10
107.9840060823845
 20
-16.45646915790606
 30
0.0
 11
107.9840060823845
 21
-16.45646915790608
 31
0.0
1001
DBPROPERTIES
1002
{
1000
PbHidd
1002
}
  0
LINE
  5
2E6
330
1F
100
AcDbEntity
  8
HIDDEN
100
AcDbLine
 10
105.5633278576779
 20
-13.33574959496314
 30
0.0
 11
108.6840474206208
 21
-10.91507137025662
 31
0.0
1001
DBPROPERTIES
1002
{
1000
PbHidd
1002
}
  0
ARC
  5
2E7
330
1F
100
AcDbEntity
  8
HIDDEN
100
AcDbCircle
 10
0.0
 20
0.0000000000000237
 30
0.0
 40
109.2307692307692
100
AcDbArc
 50
350.6650278270516
 51
351.3349300811186
1001
DBPROPERTIES
1002
{
1000
PbHidd
1002
}
  0
LINE
  5
2E8
330
1F
100
AcDbEntity
  8
HIDDEN
100
AcDbLine
 10
107.7842212775074
 20
-17.71786077230765
 30
0.0
 11
107.7842212775074
 21
-17.71786077230763
 31
0.0
1001
DBPROPERTIES
1002
{
1000
PbHidd
1002
}
  0
LINE
  5
2E9
330
1F
100
AcDbEntity
  8
HIDDEN
100
AcDbLine
 10
104.5176640984188
 20
-19.9378107388266
 30
0.0
 11
104.5176640984188
 21
-19.9378107388266
 31
0.0
1001
DBPROPERTIES
1002
{
1000
PbHidd
1002
}
  0
LINE
  5
2EA
330
1F
100
AcDbEntity
  8
HIDDEN
100
AcDbLine
 10
106.7376140649377
 20
-23.20436791791524
 30
0.0
 11
104.5176640984187
 21
-19.93781073882659
 31
0.0
1001
DBPROPERTIES
1002
{
1000
PbHidd
1002
}
  0
LINE
  5
2EB
330
1F
100
AcDbEntity
  8
HIDDEN
100
AcDbLine
 10
106.7376140649377
 20
-23.20436791791524
 30
0.0
 11
106.7376140649377
 21
-23.20436791791526
 31
0.0
1001
DBPROPERTIES
1002
{
1000
PbHidd
1002
}
  0
LINE
  5
2EC
330
1F
100
AcDbEntity
  8
HIDDEN
100
AcDbLine
 10
104.5176640984187
 20
-19.9378107388266
 30
0.0
 11
107.7842212775074
 21
-17.71786077230765
 31
0.0
1001
DBPROPERTIES
1002
{
1000
PbHidd
1002
}
  0
ARC
  5
2ED
330
1F
100
AcDbEntity
  8
HIDDEN
100
AcDbCircle
 10
0.0
 20
0.0000000000000237
 30
0.0
 40
109.2307692307692
100
AcDbArc
 50
347.0650767044651
 51
347.7349216627525
1001
DBPROPERTIES
1002
{
1000
PbHidd
1002
}
  0
LINE
  5
2EE
330
1F
100
AcDbEntity
  8
HIDDEN
100
AcDbLine
 10
106.4590200549384
 20
-24.45072587241097
 30
0.0
 11
106.4590200549384
 21
-24.45072587241096
 31
0.0
1001
DBPROPERTIES
1002
{
1000
PbHidd
1002
}
  0
LINE
  5
2EF
330
1F
100
AcDbEntity
  8
HIDDEN
100
AcDbLine
 10
103.0595168685418
 20
-26.46118645242311
 30
0.0
 11
103.0595168685418
 21
-26.46118645242311
 31
0.0
1001
DBPROPERTIES
1002
{
1000
PbHidd
1002
}
  0
LINE
  5
2F0
330
1F
100
AcDbEntity
  8
HIDDEN
100
AcDbLine
 10
105.069977448554
 20
-29.86068963881964
 30
0.0
 11
103.0595168685418
 21
-26.4611864524231
 31
0.0
1001
DBPROPERTIES
1002
{
1000
PbHidd
1002
}
  0
LINE
  5
2F1
330
1F
100
AcDbEntity
  8
HIDDEN
100
AcDbLine
 10
105.069977448554
 20
-29.86068963881965
 30
0.0
 11
105.069977448554
 21
-29.86068963881966
 31
0.0
1001
DBPROPERTIES
1002
{
1000
PbHidd
1002
}
  0
LINE
  5
2F2
330
1F
100
AcDbEntity
  8
HIDDEN
100
AcDbLine
 10
103.0595168685418
 20
-26.46118645242311
 30
0.0
 11
106.4590200549383
 21
-24.45072587241096
 31
0.0
1001
DBPROPERTIES
1002
{
1000
PbHidd
1002
}
  0
ARC
  5
2F3
330
1F
100
AcDbEntity
  8
HIDDEN
100
AcDbCircle
 10
0.0
 20
0.0000000000000237
 30
0.0
 40
109.2307692307692
100
AcDbArc
 50
343.4650682860991
 51
344.134970540166
1001
DBPROPERTIES
1002
{
1000
PbHidd
1002
}
  0
LINE
  5
2F4
330
1F
100
AcDbEntity
  8
HIDDEN
100
AcDbLine
 10
104.7136737167124
 20
-31.08709512797004
 30
0.0
 11
104.7136737167124
 21
-31.08709512797003
 31
0.0
1001
DBPROPERTIES
1002
{
1000
PbHidd
1002
}
  0
LINE
  5
2F5
330
1F
100
AcDbEntity
  8
HIDDEN
100
AcDbLine
 10
101.1946408089994
 20
-32.88013195205818
 30
0.0
 11
101.1946408089994
 21
-32.88013195205818
 31
0.0
1001
DBPROPERTIES
1002
{
1000
PbHidd
1002
}
  0
LINE
  5
2F6
330
1F
100
AcDbEntity
  8
HIDDEN
100
AcDbLine
 10
102.9876776330875
 20
-36.39916485977115
 30
0.0
 11
101.1946408089994
 21
-32.88013195205817
 31
0.0
1001
DBPROPERTIES
1002
{
1000
PbHidd
1002
}
  0
LINE
  5
2F7
330
1F
100
AcDbEntity
  8
HIDDEN
100
AcDbLine
 10
102.9876776330875
 20
-36.39916485977115
 30
0.0
 11
102.9876776330875
 21
-36.39916485977117
 31
0.0
1001
DBPROPERTIES
1002
{
1000
PbHidd
1002
}
  0
LINE
  5
2F8
330
1F
100
AcDbEntity
  8
HIDDEN
100
AcDbLine
 10
101.1946408089994
 20
-32.88013195205816
 30
0.0
 11
104.7136737167123
 21
-31.08709512797002
 31
0.0
1001
DBPROPERTIES
1002
{
1000
PbHidd
1002
}
  0
ARC
  5
2F9
330
1F
100
AcDbEntity
  8
HIDDEN
100
AcDbCircle
 10
0.0
 20
0.0000000000000237
 30
0.0
 40
109.2307692307692
100
AcDbArc
 50
339.8650598677331
 51
340.5349621218
1001
DBPROPERTIES
1002
{
1000
PbHidd
1002
}
  0
LINE
  5
2FA
330
1F
100
AcDbEntity
  8
HIDDEN
100
AcDbLine
 10
102.5550703474535
 20
-37.60077782140176
 30
0.0
 11
102.5550703474535
 21
-37.60077782140174
 31
0.0
1001
DBPROPERTIES
1002
{
1000
PbHidd
1002
}
  0
LINE
  5
2FB
330
1F
100
AcDbEntity
  8
HIDDEN
100
AcDbLine
 10
98.93039573361763
 20
-39.1693145923818
 30
0.0
 11
98.93039573361763
 21
-39.1693145923818
 31
0.0
1001
DBPROPERTIES
1002
{
1000
PbHidd
1002
}
  0
LINE
  5
2FC
330
1F
100
AcDbEntity
  8
HIDDEN
100
AcDbLine
 10
100.4989325045977
 20
-42.79398920621771
 30
0.0
 11
98.9303957336176
 21
-39.16931459238179
 31
0.0
1001
DBPROPERTIES
1002
{
1000
PbHidd
1002
}
  0
LINE
  5
2FD
330
1F
100
AcDbEntity
  8
HIDDEN
100
AcDbLine
 10
100.4989325045977
 20
-42.79398920621772
 30
0.0
 11
100.4989325045977
 21
-42.79398920621773
 31
0.0
1001
DBPROPERTIES
1002
{
1000
PbHidd
1002
}
  0
LINE
  5
2FE
330
1F
100
AcDbEntity
  8
HIDDEN
100
AcDbLine
 10
98.9303957336176
 20
-39.16931459238178
 30
0.0
 11
102.5550703474535
 21
-37.60077782140173
 31
0.0
1001
DBPROPERTIES
1002
{
1000
PbHidd
1002
}
  0
ARC
  5
2FF
330
1F
100
AcDbEntity
  8
HIDDEN
100
AcDbCircle
 10
0.0
 20
0.0000000000000237
 30
0.0
 40
109.2307692307692
100
AcDbArc
 50
336.2650514493671
 51
336.934953703434
1001
DBPROPERTIES
1002
{
1000
PbHidd
1002
}
  0
LINE
  5
300
330
1F
100
AcDbEntity
  8
HIDDEN
100
AcDbLine
 10
99.99172896848822
 20
-43.96606742293375
 30
0.0
 11
99.99172896848822
 21
-43.96606742293373
 31
0.0
1001
DBPROPERTIES
1002
{
1000
PbHidd
1002
}
  0
LINE
  5
301
330
1F
100
AcDbEntity
  8
HIDDEN
100
AcDbLine
 10
96.2757175832739
 20
-45.30391384276694
 30
0.0
 11
96.2757175832739
 21
-45.30391384276694
 31
0.0
1001
DBPROPERTIES
1002
{
1000
PbHidd
1002
}
  0
LINE
  5
302
330
1F
100
AcDbEntity
  8
HIDDEN
100
AcDbLine
 10
97.61356400310709
 20
-49.01992522798125
 30
0.0
 11
96.27571758327389
 21
-45.30391384276694
 31
0.0
1001
DBPROPERTIES
1002
{
1000
PbHidd
1002
}
  0
LINE
  5
303
330
1F
100
AcDbEntity
  8
HIDDEN
100
AcDbLine
 10
97.61356400310709
 20
-49.01992522798125
 30
0.0
 11
97.61356400310709
 21
-49.01992522798126
 31
0.0
1001
DBPROPERTIES
1002
{
1000
PbHidd
1002
}
  0
LINE
  5
304
330
1F
100
AcDbEntity
  8
HIDDEN
100
AcDbLine
 10
96.27571758327389
 20
-45.30391384276695
 30
0.0
 11
99.9917289684882
 21
-43.96606742293374
 31
0.0
1001
DBPROPERTIES
1002
{
1000
PbHidd
1002
}
  0
ARC
  5
305
330
1F
100
AcDbEntity
  8
HIDDEN
100
AcDbCircle
 10
0.0
 20
0.0000000000000237
 30
0.0
 40
109.2307692307692
100
AcDbArc
 50
332.6650430310011
 51
333.3349452850681
1001
DBPROPERTIES
1002
{
1000
PbHidd
1002
}
  0
LINE
  5
306
330
1F
100
AcDbEntity
  8
HIDDEN
100
AcDbLine
 10
97.03376591715985
 20
-50.15784304253309
 30
0.0
 11
97.03376591715985
 21
-50.15784304253307
 31
0.0
1001
DBPROPERTIES
1002
{
1000
PbHidd
1002
}
  0
LINE
  5
307
330
1F
100
AcDbEntity
  8
HIDDEN
100
AcDbLine
 10
93.24108315982043
 20
-51.25971924260424
 30
0.0
 11
93.24108315982043
 21
-51.25971924260424
 31
0.0
1001
DBPROPERTIES
1002
{
1000
PbHidd
1002
}
  0
LINE
  5
308
330
1F
100
AcDbEntity
  8
HIDDEN
100
AcDbLine
 10
94.34295935989157
 20
-55.05240199994363
 30
0.0
 11
93.2410831598204
 21
-51.25971924260421
 31
0.0
1001
DBPROPERTIES
1002
{
1000
PbHidd
1002
}
  0
LINE
  5
309
330
1F
100
AcDbEntity
  8
HIDDEN
100
AcDbLine
 10
94.34295935989158
 20
-55.05240199994365
 30
0.0
 11
94.34295935989158
 21
-55.05240199994367
 31
0.0
1001
DBPROPERTIES
1002
{
1000
PbHidd
1002
}
  0
LINE
  5
30A
330
1F
100
AcDbEntity
  8
HIDDEN
100
AcDbLine
 10
93.24108315982039
 20
-51.25971924260423
 30
0.0
 11
97.0337659171598
 21
-50.15784304253308
 31
0.0
1001
DBPROPERTIES
1002
{
1000
PbHidd
1002
}
  0
ARC
  5
30B
330
1F
100
AcDbEntity
  8
HIDDEN
100
AcDbCircle
 10
0.0
 20
0.0000000000000237
 30
0.0
 40
109.2307692307692
100
AcDbArc
 50
329.0650346126351
 51
329.7349368667021
1001
DBPROPERTIES
1002
{
1000
PbHidd
1002
}
  0
LINE
  5
30C
330
1F
100
AcDbEntity
  8
HIDDEN
100
AcDbLine
 10
93.69285492226737
 20
-56.15166857058226
 30
0.0
 11
93.69285492226737
 21
-56.15166857058225
 31
0.0
1001
DBPROPERTIES
1002
{
1000
PbHidd
1002
}
  0
LINE
  5
30D
330
1F
100
AcDbEntity
  8
HIDDEN
100
AcDbLine
 10
89.83846877893417
 20
-57.01322594892904
 30
0.0
 11
89.83846877893417
 21
-57.01322594892904
 31
0.0
1001
DBPROPERTIES
1002
{
1000
PbHidd
1002
}
  0
LINE
  5
30E
330
1F
100
AcDbEntity
  8
HIDDEN
100
AcDbLine
 10
90.70002615728093
 20
-60.86761209226225
 30
0.0
 11
89.83846877893416
 21
-57.01322594892902
 31
0.0
1001
DBPROPERTIES
1002
{
1000
PbHidd
1002
}
  0
LINE
  5
30F
330
1F
100
AcDbEntity
  8
HIDDEN
100
AcDbLine
 10
90.70002615728093
 20
-60.86761209226225
 30
0.0
 11
90.70002615728093
 21
-60.86761209226226
 31
0.0
1001
DBPROPERTIES
1002
{
1000
PbHidd
1002
}
  0
LINE
  5
310
330
1F
100
AcDbEntity
  8
HIDDEN
100
AcDbLine
 10
89.83846877893414
 20
-57.01322594892903
 30
0.0
 11
93.69285492226734
 21
-56.15166857058225
 31
0.0
1001
DBPROPERTIES
1002
{
1000
PbHidd
1002
}
  0
ARC
  5
311
330
1F
100
AcDbEntity
  8
HIDDEN
100
AcDbCircle
 10
0.0
 20
0.0000000000000237
 30
0.0
 40
109.2307692307692
100
AcDbArc
 50
325.4650261942691
 51
326.1349284483361
1001
DBPROPERTIES
1002
{
1000
PbHidd
1002
}
  0
ARC
  5
312
330
1F
100
AcDbEntity
  8
HIDDEN
100
AcDbCircle
 10
0.0
 20
0.0000000000000237
 30
0.0
 40
109.2307692307692
100
AcDbArc
 50
87.86502593981518
 51
88.53492819388214
1001
DBPROPERTIES
1002
{
1000
PbHidd
1002
}
  0
ARC
  5
313
330
1F
100
AcDbEntity
  8
HIDDEN
100
AcDbCircle
 10
0.0
 20
0.0
 30
0.0
 40
79.52941176470588
100
AcDbArc
 50
179.9999801521572
 51
0.0
1001
DBPROPERTIES
1002
{
1000
PbHidd
1002
}
  0
ARC
  5
314
330
1F
100
AcDbEntity
  8
HIDDEN
100
AcDbCircle
 10
0.0
 20
0.0
 30
0.0
 40
91.66666666666667
100
AcDbArc
 50
179.9999801521572
 51
0.0
1001
DBPROPERTIES
1002
{
1000
PbHidd
1002
}
  0
ARC
  5
315
330
1F
100
AcDbEntity
  8
HIDDEN
100
AcDbCircle
 10
0.0
 20
0.0
 30
0.0
 40
83.52941176470588
100
AcDbArc
 50
89.99998127603165
 51
270.0000187239684
1001
DBPROPERTIES
1002
{
1000
PbHidd
1002
}
  0
LINE
  5
316
330
1F
100
AcDbEntity
  8
HIDDEN
100
AcDbLine
 10
3.740192665853352
 20
-116.3333333333333
 30
0.0
 11
3.740192665853352
 21
-116.3333333333333
 31
0.0
1001
DBPROPERTIES
1002
{
1000
PbHidd
1002
}
  0
LINE
  5
317
330
1F
100
AcDbEntity
  8
THICK
100
AcDbLine
 10
118.3333333333333
 20
-116.3333333333333
 30
0.0
 11
69.46539570523463
 21
-116.3333333333333
 31
0.0
1001
DBPROPERTIES
1002
{
1000
PbThick
1002
}
  0
LINE
  5
318
330
1F
100
AcDbEntity
  8
HIDDEN
100
AcDbLine
 10
69.46539570523463
 20
-116.3333333333333
 30
0.0
 11
3.740192665853352
 21
-116.3333333333333
 31
0.0
1001
DBPROPERTIES
1002
{
1000
PbHidd
1002
}
  0
LINE
  5
319
330
1F
100
AcDbEntity
  8
HIDDEN
100
AcDbLine
 10
118.3333333333333
 20
-116.3333333333333
 30
0.0
 11
118.3333333333333
 21
-116.3333333333333
 31
0.0
1001
DBPROPERTIES
1002
{
1000
PbHidd
1002
}
  0
LINE
  5
31A
330
1F
100
AcDbEntity
  8
HIDDEN
100
AcDbLine
 10
-118.3333333333333
 20
-116.3333333333333
 30
0.0
 11
-118.3333333333333
 21
-116.3333333333333
 31
0.0
1001
DBPROPERTIES
1002
{
1000
PbHidd
1002
}
  0
LINE
  5
31B
330
1F
100
AcDbEntity
  8
HIDDEN
100
AcDbLine
 10
-3.740192665853366
 20
-116.3333333333333
 30
0.0
 11
-21.66410241236249
 21
-116.3333333333333
 31
0.0
1001
DBPROPERTIES
1002
{
1000
PbHidd
1002
}
  0
LINE
  5
31C
330
1F
100
AcDbEntity
  8
THICK
100
AcDbLine
 10
-21.66410241236249
 20
-116.3333333333333
 30
0.0
 11
-39.26101265769525
 21
-116.3333333333333
 31
0.0
1001
DBPROPERTIES
1002
{
1000
PbThick
1002
}
  0
LINE
  5
31D
330
1F
100
AcDbEntity
  8
HIDDEN
100
AcDbLine
 10
-39.26101265769525
 20
-116.3333333333333
 30
0.0
 11
-118.3333333333333
 21
-116.3333333333333
 31
0.0
1001
DBPROPERTIES
1002
{
1000
PbHidd
1002
}
  0
LINE
  5
31E
330
1F
100
AcDbEntity
  8
HIDDEN
100
AcDbLine
 10
-323.4166666666666
 20
-146.3784810763599
 30
0.0
 11
-323.4166666666666
 21
-146.3784810763599
 31
0.0
1001
DBPROPERTIES
1002
{
1000
PbHidd
1002
}
  0
LINE
  5
31F
330
1F
100
AcDbEntity
  8
THICK
100
AcDbLine
 10
-323.4166666666666
 20
-146.3333333333333
 30
0.0
 11
-323.4166666666666
 21
-146.3784810763599
 31
0.0
1001
DBPROPERTIES
1002
{
1000
PbThick
1002
}
  0
LINE
  5
320
330
1F
100
AcDbEntity
  8
HIDDEN
100
AcDbLine
 10
-323.4166666666666
 20
-146.3333333333333
 30
0.0
 11
-323.4166666666666
 21
-146.3333333333333
 31
0.0
1001
DBPROPERTIES
1002
{
1000
PbHidd
1002
}
  0
LINE
  5
321
330
1F
100
AcDbEntity
  8
THICK
100
AcDbLine
 10
323.4166666666666
 20
-146.3784810763599
 30
0.0
 11
323.4166666666666
 21
-146.3333333333333
 31
0.0
1001
DBPROPERTIES
1002
{
1000
PbThick
1002
}
  0
LINE
  5
322
330
1F
100
AcDbEntity
  8
HIDDEN
100
AcDbLine
 10
323.4166666666666
 20
-146.3333333333333
 30
0.0
 11
323.4166666666666
 21
-146.3333333333333
 31
0.0
1001
DBPROPERTIES
1002
{
1000
PbHidd
1002
}
  0
LINE
  5
323
330
1F
100
AcDbEntity
  8
HIDDEN
100
AcDbLine
 10
-118.3333333333333
 20
-334.6972097616325
 30
0.0
 11
-118.3333333333333
 21
-334.6972097616325
 31
0.0
1001
DBPROPERTIES
1002
{
1000
PbHidd
1002
}
  0
LINE
  5
324
330
1F
100
AcDbEntity
  8
HIDDEN
100
AcDbLine
 10
-118.3333333333333
 20
-150.3333333333333
 30
0.0
 11
-118.3333333333333
 21
-215.4868872675301
 31
0.0
1001
DBPROPERTIES
1002
{
1000
PbHidd
1002
}
  0
LINE
  5
325
330
1F
100
AcDbEntity
  8
THICK
100
AcDbLine
 10
-118.3333333333333
 20
-215.4868872675301
 30
0.0
 11
-118.3333333333334
 21
-334.6972097616325
 31
0.0
1001
DBPROPERTIES
1002
{
1000
PbThick
1002
}
  0
LINE
  5
326
330
1F
100
AcDbEntity
  8
HIDDEN
100
AcDbLine
 10
-118.3333333333333
 20
-150.3333333333333
 30
0.0
 11
-118.3333333333333
 21
-150.3333333333333
 31
0.0
1001
DBPROPERTIES
1002
{
1000
PbHidd
1002
}
  0
LINE
  5
327
330
1F
100
AcDbEntity
  8
THICK
100
AcDbLine
 10
114.3333333333333
 20
-120.3333333333333
 30
0.0
 11
114.3333333333333
 21
-336.0846454226805
 31
0.0
1001
DBPROPERTIES
1002
{
1000
PbThick
1002
}
  0
LINE
  5
328
330
1F
100
AcDbEntity
  8
HIDDEN
100
AcDbLine
 10
114.3333333333333
 20
-120.3333333333333
 30
0.0
 11
114.3333333333333
 21
-120.3333333333333
 31
0.0
1001
DBPROPERTIES
1002
{
1000
PbHidd
1002
}
  0
LINE
  5
329
330
1F
100
AcDbEntity
  8
THICK
100
AcDbLine
 10
-321.5974018689966
 20
-150.3333333333333
 30
0.0
 11
-175.2074047503472
 21
-150.3333333333333
 31
0.0
1001
DBPROPERTIES
1002
{
1000
PbThick
1002
}
  0
LINE
  5
32A
330
1F
100
AcDbEntity
  8
HIDDEN
100
AcDbLine
 10
-175.2074047503472
 20
-150.3333333333333
 30
0.0
 11
-118.3333333333333
 21
-150.3333333333333
 31
0.0
1001
DBPROPERTIES
1002
{
1000
PbHidd
1002
}
  0
LINE
  5
32B
330
1F
100
AcDbEntity
  8
HIDDEN
100
AcDbLine
 10
-321.5974018689966
 20
-150.3333333333333
 30
0.0
 11
-321.5974018689966
 21
-150.3333333333333
 31
0.0
1001
DBPROPERTIES
1002
{
1000
PbHidd
1002
}
  0
LINE
  5
32C
330
1F
100
AcDbEntity
  8
HIDDEN
100
AcDbLine
 10
-118.3333333333333
 20
-146.3333333333333
 30
0.0
 11
-172.0175111948176
 21
-146.3333333333333
 31
0.0
1001
DBPROPERTIES
1002
{
1000
PbHidd
1002
}
  0
LINE
  5
32D
330
1F
100
AcDbEntity
  8
THICK
100
AcDbLine
 10
-172.0175111948176
 20
-146.3333333333333
 30
0.0
 11
-323.4166666666666
 21
-146.3333333333333
 31
0.0
1001
DBPROPERTIES
1002
{
1000
PbThick
1002
}
  0
LINE
  5
32E
330
1F
100
AcDbEntity
  8
HIDDEN
100
AcDbLine
 10
-118.3333333333333
 20
-146.3333333333333
 30
0.0
 11
-118.3333333333333
 21
-146.3333333333333
 31
0.0
1001
DBPROPERTIES
1002
{
1000
PbHidd
1002
}
  0
LINE
  5
32F
330
1F
100
AcDbEntity
  8
HIDDEN
100
AcDbLine
 10
-118.3333333333333
 20
-116.3333333333333
 30
0.0
 11
-118.3333333333333
 21
-146.3333333333333
 31
0.0
1001
DBPROPERTIES
1002
{
1000
PbHidd
1002
}
  0
LINE
  5
330
330
1F
100
AcDbEntity
  8
THICK
100
AcDbLine
 10
118.3333333333333
 20
-150.3333333333333
 30
0.0
 11
212.4861571126399
 21
-150.3333333333333
 31
0.0
1001
DBPROPERTIES
1002
{
1000
PbThick
1002
}
  0
LINE
  5
331
330
1F
100
AcDbEntity
  8
HIDDEN
100
AcDbLine
 10
212.4861571126399
 20
-150.3333333333333
 30
0.0
 11
284.6512118798133
 21
-150.3333333333333
 31
0.0
1001
DBPROPERTIES
1002
{
1000
PbHidd
1002
}
  0
LINE
  5
332
330
1F
100
AcDbEntity
  8
THICK
100
AcDbLine
 10
284.6512118798133
 20
-150.3333333333333
 30
0.0
 11
321.5974018689966
 21
-150.3333333333333
 31
0.0
1001
DBPROPERTIES
1002
{
1000
PbThick
1002
}
  0
LINE
  5
333
330
1F
100
AcDbEntity
  8
HIDDEN
100
AcDbLine
 10
118.3333333333333
 20
-150.3333333333333
 30
0.0
 11
118.3333333333333
 21
-150.3333333333333
 31
0.0
1001
DBPROPERTIES
1002
{
1000
PbHidd
1002
}
  0
LINE
  5
334
330
1F
100
AcDbEntity
  8
HIDDEN
100
AcDbLine
 10
118.3333333333333
 20
-146.3333333333333
 30
0.0
 11
118.3333333333333
 21
-146.3333333333333
 31
0.0
1001
DBPROPERTIES
1002
{
1000
PbHidd
1002
}
  0
LINE
  5
335
330
1F
100
AcDbEntity
  8
THICK
100
AcDbLine
 10
323.4166666666666
 20
-146.3333333333333
 30
0.0
 11
287.1232840681221
 21
-146.3333333333333
 31
0.0
1001
DBPROPERTIES
1002
{
1000
PbThick
1002
}
  0
LINE
  5
336
330
1F
100
AcDbEntity
  8
HIDDEN
100
AcDbLine
 10
287.1232840681221
 20
-146.3333333333333
 30
0.0
 11
204.1800715263506
 21
-146.3333333333333
 31
0.0
1001
DBPROPERTIES
1002
{
1000
PbHidd
1002
}
  0
LINE
  5
337
330
1F
100
AcDbEntity
  8
THICK
100
AcDbLine
 10
204.1800715263506
 20
-146.3333333333333
 30
0.0
 11
118.3333333333333
 21
-146.3333333333333
 31
0.0
1001
DBPROPERTIES
1002
{
1000
PbThick
1002
}
  0
LINE
  5
338
330
1F
100
AcDbEntity
  8
THICK
100
AcDbLine
 10
-114.3333333333333
 20
-336.0846454226805
 30
0.0
 11
-114.3333333333333
 21
-210.4710459168792
 31
0.0
1001
DBPROPERTIES
1002
{
1000
PbThick
1002
}
  0
LINE
  5
339
330
1F
100
AcDbEntity
  8
HIDDEN
100
AcDbLine
 10
-114.3333333333333
 20
-210.4710459168792
 30
0.0
 11
-114.3333333333333
 21
-120.3333333333333
 31
0.0
1001
DBPROPERTIES
1002
{
1000
PbHidd
1002
}
  0
LINE
  5
33A
330
1F
100
AcDbEntity
  8
HIDDEN
100
AcDbLine
 10
-114.3333333333333
 20
-120.3333333333333
 30
0.0
 11
-42.45090621322488
 21
-120.3333333333333
 31
0.0
1001
DBPROPERTIES
1002
{
1000
PbHidd
1002
}
  0
LINE
  5
33B
330
1F
100
AcDbEntity
  8
THICK
100
AcDbLine
 10
-42.45090621322488
 20
-120.3333333333333
 30
0.0
 11
-16.89835613209399
 21
-120.3333333333333
 31
0.0
1001
DBPROPERTIES
1002
{
1000
PbThick
1002
}
  0
LINE
  5
33C
330
1F
100
AcDbEntity
  8
HIDDEN
100
AcDbLine
 10
-16.89835613209399
 20
-120.3333333333333
 30
0.0
 11
70.37836960279523
 21
-120.3333333333333
 31
0.0
1001
DBPROPERTIES
1002
{
1000
PbHidd
1002
}
  0
LINE
  5
33D
330
1F
100
AcDbEntity
  8
THICK
100
AcDbLine
 10
70.37836960279523
 20
-120.3333333333333
 30
0.0
 11
114.3333333333333
 21
-120.3333333333333
 31
0.0
1001
DBPROPERTIES
1002
{
1000
PbThick
1002
}
  0
LINE
  5
33E
330
1F
100
AcDbEntity
  8
THICK
100
AcDbLine
 10
118.3333333333333
 20
-334.6972097616325
 30
0.0
 11
118.3333333333333
 21
-150.3333333333333
 31
0.0
1001
DBPROPERTIES
1002
{
1000
PbThick
1002
}
  0
LINE
  5
33F
330
1F
100
AcDbEntity
  8
THICK
100
AcDbLine
 10
118.3333333333333
 20
-146.3333333333333
 30
0.0
 11
118.3333333333333
 21
-116.3333333333333
 31
0.0
1001
DBPROPERTIES
1002
{
1000
PbThick
1002
}
  0
LINE
  5
340
330
1F
100
AcDbEntity
  8
HIDDEN
100
AcDbLine
 10
-114.3333333333333
 20
-336.0846454226805
 30
0.0
 11
-114.3333333333333
 21
-336.0846454226805
 31
0.0
1001
DBPROPERTIES
1002
{
1000
PbHidd
1002
}
  0
LINE
  5
341
330
1F
100
AcDbEntity
  8
HIDDEN
100
AcDbLine
 10
-114.3333333333333
 20
-120.3333333333333
 30
0.0
 11
-114.3333333333333
 21
-120.3333333333333
 31
0.0
1001
DBPROPERTIES
1002
{
1000
PbHidd
1002
}
  0
ARC
  5
342
330
1F
100
AcDbEntity
  8
HIDDEN
100
AcDbCircle
 10
0.0
 20
0.0
 30
0.0
 40
116.3934426229508
100
AcDbArc
 50
270.0000187239684
 51
89.99998127603165
1001
DBPROPERTIES
1002
{
1000
PbHidd
1002
}
  0
LINE
  5
343
330
1F
100
AcDbEntity
  8
THICK
100
AcDbLine
 10
-100.945309009299
 20
61.74805557096442
 30
0.0
 11
-225.35994379324
 21
217.7590730148171
 31
0.0
1001
DBPROPERTIES
1002
{
1000
PbThick
1002
}
  0
LINE
  5
344
330
1F
100
AcDbEntity
  8
THICK
100
AcDbLine
 10
-159.9407398717774
 20
269.9291472640548
 30
0.0
 11
-34.85950427060114
 21
113.0822388343356
 31
0.0
1001
DBPROPERTIES
1002
{
1000
PbThick
1002
}
  0
ELLIPSE
  5
345
330
1F
100
AcDbEntity
  8
THICK
100
AcDbEllipse
 10
-102.5183283829249
 20
130.8221401199765
 30
0.0
 11
-97.38910705033416
 21
122.1220775615063
 31
0.0
210
0.0
220
0.0
230
1.0
 40
0.7071067811865475
 41
0.0
 42
0.3884862281828485
1001
DBPROPERTIES
1002
{
1000
PbThick
1002
}
  0
ELLIPSE
  5
346
330
1F
100
AcDbEntity
  8
THICK
100
AcDbEllipse
 10
-102.5183283829249
 20
130.8221401199765
 30
0.0
 11
-97.38910705033416
 21
122.1220775615063
 31
0.0
210
0.0
220
0.0
230
1.0
 40
0.7071067811865475
 41
-0.3884862281828485
 42
0.0
1001
DBPROPERTIES
1002
{
1000
PbThick
1002
}
  0
LINE
  5
347
330
1F
100
AcDbEntity
  8
HIDDEN
100
AcDbLine
 10
-36.30491921089767
 20
112.6265093966246
 30
0.0
 11
-161.046416557774
 21
269.0473995302649
 31
0.0
1001
DBPROPERTIES
1002
{
1000
PbHidd
1002
}
  0
LINE
  5
348
330
1F
100
AcDbEntity
  8
HIDDEN
100
AcDbLine
 10
-161.0464165577739
 20
269.0473995302649
 30
0.0
 11
-159.9407398717774
 21
269.9291472640548
 31
0.0
1001
DBPROPERTIES
1002
{
1000
PbHidd
1002
}
  0
LINE
  5
349
330
1F
100
AcDbEntity
  8
THICK
100
AcDbLine
 10
-101.7241231323602
 20
60.4564351473868
 30
0.0
 11
-226.4656204792365
 21
216.8773252810271
 31
0.0
1001
DBPROPERTIES
1002
{
1000
PbThick
1002
}
  0
LINE
  5
34A
330
1F
100
AcDbEntity
  8
THICK
100
AcDbLine
 10
-226.4656204792365
 20
216.8773252810271
 30
0.0
 11
-225.35994379324
 21
217.759073014817
 31
0.0
1001
DBPROPERTIES
1002
{
1000
PbThick
1002
}
  0
ELLIPSE
  5
34B
330
1F
100
AcDbEntity
  8
HIDDEN
100
AcDbEllipse
 10
-103.6240050689215
 20
129.9403923861866
 30
0.0
 11
97.38910705033416
 21
-122.1220775615063
 31
0.0
210
0.0
220
0.0
230
1.0
 40
0.7071067811865475
 41
2.753106425406944
 42
3.141592653589793
1001
DBPROPERTIES
1002
{
1000
PbHidd
1002
}
  0
ELLIPSE
  5
34C
330
1F
100
AcDbEntity
  8
THICK
100
AcDbEllipse
 10
-103.6240050689215
 20
129.9403923861866
 30
0.0
 11
97.38910705033416
 21
-122.1220775615063
 31
0.0
210
0.0
220
0.0
230
1.0
 40
0.7071067811865475
 41
-3.141592653589793
 42
-2.753106425406945
1001
DBPROPERTIES
1002
{
1000
PbThick
1002
}
  0
LINE
  5
34D
330
1F
100
AcDbEntity
  8
THICK
100
AcDbLine
 10
111.3176851549934
 20
293.3447763045475
 30
0.0
 11
66.67670901808161
 21
97.75988058654653
 31
0.0
1001
DBPROPERTIES
1002
{
1000
PbThick
1002
}
  0
ELLIPSE
  5
34E
330
1F
100
AcDbEntity
  8
THICK
100
AcDbEllipse
 10
38.36173549928311
 20
161.7183268819061
 30
0.0
 11
34.75776988397634
 21
152.2837398828008
 31
0.0
210
0.0
220
0.0
230
1.0
 40
0.7071067811865476
 41
0.0
 42
0.3884862281828484
1001
DBPROPERTIES
1002
{
1000
PbThick
1002
}
  0
ELLIPSE
  5
34F
330
1F
100
AcDbEntity
  8
THICK
100
AcDbEllipse
 10
38.36173549928311
 20
161.7183268819061
 30
0.0
 11
34.75776988397634
 21
152.2837398828008
 31
0.0
210
0.0
220
0.0
230
1.0
 40
0.7071067811865476
 41
-0.3884862281828486
 42
0.0
1001
DBPROPERTIES
1002
{
1000
PbThick
1002
}
  0
LINE
  5
350
330
1F
100
AcDbEntity
  8
THICK
100
AcDbLine
 10
-14.66179688621109
 20
117.4215035240362
 30
0.0
 11
29.74127217349579
 21
311.9640602317302
 31
0.0
1001
DBPROPERTIES
1002
{
1000
PbThick
1002
}
  0
LINE
  5
351
330
1F
100
AcDbEntity
  8
HIDDEN
100
AcDbLine
 10
65.41920392146257
 20
98.60580883528038
 30
0.0
 11
109.9389288792497
 21
293.6594684272604
 31
0.0
1001
DBPROPERTIES
1002
{
1000
PbHidd
1002
}
  0
LINE
  5
352
330
1F
100
AcDbEntity
  8
HIDDEN
100
AcDbLine
 10
109.9389288792498
 20
293.6594684272606
 30
0.0
 11
111.3176851549934
 21
293.3447763045477
 31
0.0
1001
DBPROPERTIES
1002
{
1000
PbHidd
1002
}
  0
LINE
  5
353
330
1F
100
AcDbEntity
  8
THICK
100
AcDbLine
 10
-16.15720906003498
 20
117.2250927624631
 30
0.0
 11
28.36251589775217
 21
312.2787523544432
 31
0.0
1001
DBPROPERTIES
1002
{
1000
PbThick
1002
}
  0
LINE
  5
354
330
1F
100
AcDbEntity
  8
THICK
100
AcDbLine
 10
28.36251589775224
 20
312.2787523544434
 30
0.0
 11
29.74127217349585
 21
311.9640602317305
 31
0.0
1001
DBPROPERTIES
1002
{
1000
PbThick
1002
}
  0
ELLIPSE
  5
355
330
1F
100
AcDbEntity
  8
HIDDEN
100
AcDbEllipse
 10
36.98297922353949
 20
162.0330190046191
 30
0.0
 11
-34.75776988397634
 21
-152.2837398828008
 31
0.0
210
0.0
220
0.0
230
1.0
 40
0.7071067811865476
 41
2.753106425406945
 42
3.141592653589793
1001
DBPROPERTIES
1002
{
1000
PbHidd
1002
}
  0
ELLIPSE
  5
356
330
1F
100
AcDbEntity
  8
THICK
100
AcDbEllipse
 10
36.98297922353949
 20
162.0330190046191
 30
0.0
 11
-34.75776988397634
 21
-152.2837398828008
 31
0.0
210
0.0
220
0.0
230
1.0
 40
0.7071067811865476
 41
3.141592653589793
 42
3.530078881772642
1001
DBPROPERTIES
1002
{
1000
PbThick
1002
}
  0
LINE
  5
357
330
1F
100
AcDbEntity
  8
THICK
100
AcDbLine
 10
82.66234733834548
 20
84.6741643613475
 30
0.0
 11
262.4467035821989
 21
171.2537471870381
 31
0.0
1001
DBPROPERTIES
1002
{
1000
PbThick
1002
}
  0
LINE
  5
358
330
1F
100
AcDbEntity
  8
THICK
100
AcDbLine
 10
298.7516227930966
 20
95.86580564477899
 30
0.0
 11
118.0040004591533
 21
8.822338318943146
 31
0.0
1001
DBPROPERTIES
1002
{
1000
PbThick
1002
}
  0
ELLIPSE
  5
359
330
1F
100
AcDbEntity
  8
THICK
100
AcDbEllipse
 10
150.3546301137353
 20
70.83731504907458
 30
0.0
 11
140.7313371663579
 21
67.77264005016254
 31
0.0
210
0.0
220
0.0
230
1.0
 40
0.7071067811865476
 41
0.0
 42
0.3884862281828484
1001
DBPROPERTIES
1002
{
1000
PbThick
1002
}
  0
ELLIPSE
  5
35A
330
1F
100
AcDbEntity
  8
THICK
100
AcDbEllipse
 10
150.3546301137353
 20
70.83731504907458
 30
0.0
 11
140.7313371663579
 21
67.77264005016254
 31
0.0
210
0.0
220
0.0
230
1.0
 40
0.7071067811865476
 41
-0.3884862281828487
 42
0.0
1001
DBPROPERTIES
1002
{
1000
PbThick
1002
}
  0
LINE
  5
35B
330
1F
100
AcDbEntity
  8
HIDDEN
100
AcDbLine
 10
117.8813321923952
 20
10.33292302903369
 30
0.0
 11
298.1380185247434
 21
97.13996803704254
 31
0.0
1001
DBPROPERTIES
1002
{
1000
PbHidd
1002
}
  0
LINE
  5
35C
330
1F
100
AcDbEntity
  8
HIDDEN
100
AcDbLine
 10
298.1380185247436
 20
97.13996803704259
 30
0.0
 11
298.7516227930968
 21
95.86580564477906
 31
0.0
1001
DBPROPERTIES
1002
{
1000
PbHidd
1002
}
  0
LINE
  5
35D
330
1F
100
AcDbEntity
  8
THICK
100
AcDbLine
 10
81.57641298149751
 20
85.72086457129282
 30
0.0
 11
261.8330993138458
 21
172.5279095793017
 31
0.0
1001
DBPROPERTIES
1002
{
1000
PbThick
1002
}
  0
LINE
  5
35E
330
1F
100
AcDbEntity
  8
THICK
100
AcDbLine
 10
261.8330993138459
 20
172.5279095793017
 30
0.0
 11
262.4467035821991
 21
171.2537471870382
 31
0.0
1001
DBPROPERTIES
1002
{
1000
PbThick
1002
}
  0
ELLIPSE
  5
35F
330
1F
100
AcDbEntity
  8
HIDDEN
100
AcDbEllipse
 10
149.741025845382
 20
72.11147744133811
 30
0.0
 11
-140.7313371663579
 21
-67.77264005016254
 31
0.0
210
0.0
220
0.0
230
1.0
 40
0.7071067811865476
 41
2.753106425406945
 42
3.141592653589793
1001
DBPROPERTIES
1002
{
1000
PbHidd
1002
}
  0
ELLIPSE
  5
360
330
1F
100
AcDbEntity
  8
THICK
100
AcDbEllipse
 10
149.741025845382
 20
72.11147744133811
 30
0.0
 11
-140.7313371663579
 21
-67.77264005016254
 31
0.0
210
0.0
220
0.0
230
1.0
 40
0.7071067811865476
 41
-3.141592653589793
 42
-2.753106425406945
1001
DBPROPERTIES
1002
{
1000
PbThick
1002
}
  0
LINE
  5
361
330
1F
100
AcDbEntity
  8
THICK
100
AcDbLine
 10
117.7400580125367
 20
-11.83454760361545
 30
0.0
 11
297.5244142563902
 21
-98.41413042930611
 31
0.0
1001
DBPROPERTIES
1002
{
1000
PbThick
1002
}
  0
LINE
  5
362
330
1F
100
AcDbEntity
  8
THICK
100
AcDbLine
 10
261.2194950454925
 20
-173.8020719715653
 30
0.0
 11
80.47187271154927
 21
-86.75860464572938
 31
0.0
1001
DBPROPERTIES
1002
{
1000
PbThick
1002
}
  0
ELLIPSE
  5
363
330
1F
100
AcDbEntity
  8
THICK
100
AcDbEllipse
 10
149.1274215770288
 20
-73.38563983360172
 30
0.0
 11
140.7313371663579
 21
-67.77264005016259
 31
0.0
210
0.0
220
0.0
230
1.0
 40
0.7071067811865476
 41
0.0
 42
0.3884862281828486
1001
DBPROPERTIES
1002
{
1000
PbThick
1002
}
  0
ELLIPSE
  5
364
330
1F
100
AcDbEntity
  8
THICK
100
AcDbEllipse
 10
149.1274215770288
 20
-73.38563983360172
 30
0.0
 11
140.7313371663579
 21
-67.77264005016259
 31
0.0
210
0.0
220
0.0
230
1.0
 40
0.7071067811865476
 41
-0.3884862281828484
 42
0.0
1001
DBPROPERTIES
1002
{
1000
PbThick
1002
}
  0
LINE
  5
365
330
1F
100
AcDbEntity
  8
HIDDEN
100
AcDbLine
 10
81.57641298149747
 20
-85.72086457129285
 30
0.0
 11
261.8330993138457
 21
-172.5279095793017
 31
0.0
1001
DBPROPERTIES
1002
{
1000
PbHidd
1002
}
  0
LINE
  5
366
330
1F
100
AcDbEntity
  8
HIDDEN
100
AcDbLine
 10
261.8330993138459
 20
-172.5279095793018
 30
0.0
 11
261.2194950454927
 21
-173.8020719715654
 31
0.0
1001
DBPROPERTIES
1002
{
1000
PbHidd
1002
}
  0
LINE
  5
367
330
1F
100
AcDbEntity
  8
THICK
100
AcDbLine
 10
117.8813321923952
 20
-10.33292302903373
 30
0.0
 11
298.1380185247434
 21
-97.13996803704259
 31
0.0
1001
DBPROPERTIES
1002
{
1000
PbThick
1002
}
  0
LINE
  5
368
330
1F
100
AcDbEntity
  8
THICK
100
AcDbLine
 10
298.1380185247436
 20
-97.13996803704272
 30
0.0
 11
297.5244142563904
 21
-98.41413042930625
 31
0.0
1001
DBPROPERTIES
1002
{
1000
PbThick
1002
}
  0
ELLIPSE
  5
369
330
1F
100
AcDbEntity
  8
HIDDEN
100
AcDbEllipse
 10
149.741025845382
 20
-72.11147744133818
 30
0.0
 11
-140.7313371663579
 21
67.77264005016259
 31
0.0
210
0.0
220
0.0
230
1.0
 40
0.7071067811865476
 41
2.753106425406945
 42
3.141592653589793
1001
DBPROPERTIES
1002
{
1000
PbHidd
1002
}
  0
ELLIPSE
  5
36A
330
1F
100
AcDbEntity
  8
THICK
100
AcDbEllipse
 10
149.741025845382
 20
-72.11147744133818
 30
0.0
 11
-140.7313371663579
 21
67.77264005016259
 31
0.0
210
0.0
220
0.0
230
1.0
 40
0.7071067811865476
 41
3.141592653589793
 42
3.530078881772642
1001
DBPROPERTIES
1002
{
1000
PbThick
1002
}
  0
LINE
  5
36B
330
1F
100
AcDbEntity
  8
THICK
100
AcDbLine
 10
26.98375962200846
 20
-312.5934444771561
 30
0.0
 11
-17.65721651490321
 21
-117.0085487591552
 31
0.0
1001
DBPROPERTIES
1002
{
1000
PbThick
1002
}
  0
ELLIPSE
  5
36C
330
1F
100
AcDbEntity
  8
THICK
100
AcDbEllipse
 10
35.6042229477958
 20
-162.347711127332
 30
0.0
 11
34.75776988397629
 21
-152.2837398828008
 31
0.0
210
0.0
220
0.0
230
1.0
 40
0.7071067811865477
 41
0.0
 42
0.3884862281828486
1001
DBPROPERTIES
1002
{
1000
PbThick
1002
}
  0
ELLIPSE
  5
36D
330
1F
100
AcDbEntity
  8
THICK
100
AcDbEllipse
 10
35.6042229477958
 20
-162.347711127332
 30
0.0
 11
34.75776988397629
 21
-152.2837398828008
 31
0.0
210
0.0
220
0.0
230
1.0
 40
0.7071067811865477
 41
-0.3884862281828487
 42
0.0
1001
DBPROPERTIES
1002
{
1000
PbThick
1002
}
  0
LINE
  5
36E
330
1F
100
AcDbEntity
  8
THICK
100
AcDbLine
 10
64.1571035437992
 20
-99.43160384227939
 30
0.0
 11
108.560172603506
 21
-293.9741605499734
 31
0.0
1001
DBPROPERTIES
1002
{
1000
PbThick
1002
}
  0
LINE
  5
36F
330
1F
100
AcDbEntity
  8
HIDDEN
100
AcDbLine
 10
-16.15720906003502
 20
-117.2250927624631
 30
0.0
 11
28.36251589775208
 21
-312.2787523544432
 31
0.0
1001
DBPROPERTIES
1002
{
1000
PbHidd
1002
}
  0
LINE
  5
370
330
1F
100
AcDbEntity
  8
HIDDEN
100
AcDbLine
 10
28.36251589775212
 20
-312.2787523544434
 30
0.0
 11
26.9837596220085
 21
-312.5934444771563
 31
0.0
1001
DBPROPERTIES
1002
{
1000
PbHidd
1002
}
  0
LINE
  5
371
330
1F
100
AcDbEntity
  8
THICK
100
AcDbLine
 10
65.41920392146254
 20
-98.60580883528038
 30
0.0
 11
109.9389288792496
 21
-293.6594684272605
 31
0.0
1001
DBPROPERTIES
1002
{
1000
PbThick
1002
}
  0
LINE
  5
372
330
1F
100
AcDbEntity
  8
THICK
100
AcDbLine
 10
109.9389288792497
 20
-293.6594684272606
 30
0.0
 11
108.5601726035061
 21
-293.9741605499735
 31
0.0
1001
DBPROPERTIES
1002
{
1000
PbThick
1002
}
  0
ELLIPSE
  5
373
330
1F
100
AcDbEntity
  8
HIDDEN
100
AcDbEllipse
 10
36.98297922353942
 20
-162.0330190046191
 30
0.0
 11
-34.75776988397629
 21
152.2837398828008
 31
0.0
210
0.0
220
0.0
230
1.0
 40
0.7071067811865477
 41
2.753106425406945
 42
3.141592653589793
1001
DBPROPERTIES
1002
{
1000
PbHidd
1002
}
  0
ELLIPSE
  5
374
330
1F
100
AcDbEntity
  8
THICK
100
AcDbEllipse
 10
36.98297922353942
 20
-162.0330190046191
 30
0.0
 11
-34.75776988397629
 21
152.2837398828008
 31
0.0
210
0.0
220
0.0
230
1.0
 40
0.7071067811865477
 41
3.141592653589793
 42
3.530078881772642
1001
DBPROPERTIES
1002
{
1000
PbThick
1002
}
  0
LINE
  5
375
330
1F
100
AcDbEntity
  8
THICK
100
AcDbLine
 10
-37.73745845982957
 20
-112.1546343526223
 30
0.0
 11
-162.1520932437706
 21
-268.1656517964749
 31
0.0
1001
DBPROPERTIES
1002
{
1000
PbThick
1002
}
  0
LINE
  5
376
330
1F
100
AcDbEntity
  8
THICK
100
AcDbLine
 10
-227.5712971652331
 20
-215.9955775472371
 30
0.0
 11
-102.4900615640568
 21
-59.1486691175179
 31
0.0
1001
DBPROPERTIES
1002
{
1000
PbThick
1002
}
  0
ELLIPSE
  5
377
330
1F
100
AcDbEntity
  8
THICK
100
AcDbEllipse
 10
-104.7296817549181
 20
-129.0586446523966
 30
0.0
 11
-97.3891070503342
 21
-122.1220775615062
 31
0.0
210
0.0
220
0.0
230
1.0
 40
0.7071067811865476
 41
0.0
 42
0.3884862281828483
1001
DBPROPERTIES
1002
{
1000
PbThick
1002
}
  0
ELLIPSE
  5
378
330
1F
100
AcDbEntity
  8
THICK
100
AcDbEllipse
 10
-104.7296817549181
 20
-129.0586446523966
 30
0.0
 11
-97.3891070503342
 21
-122.1220775615062
 31
0.0
210
0.0
220
0.0
230
1.0
 40
0.7071067811865476
 41
-0.3884862281828486
 42
0.0
1001
DBPROPERTIES
1002
{
1000
PbThick
1002
}
  0
LINE
  5
379
330
1F
100
AcDbEntity
  8
HIDDEN
100
AcDbLine
 10
-101.7241231323603
 20
-60.45643514738678
 30
0.0
 11
-226.4656204792366
 21
-216.8773252810271
 31
0.0
1001
DBPROPERTIES
1002
{
1000
PbHidd
1002
}
  0
LINE
  5
37A
330
1F
100
AcDbEntity
  8
HIDDEN
100
AcDbLine
 10
-226.4656204792366
 20
-216.8773252810271
 30
0.0
 11
-227.5712971652331
 21
-215.9955775472371
 31
0.0
1001
DBPROPERTIES
1002
{
1000
PbHidd
1002
}
  0
LINE
  5
37B
330
1F
100
AcDbEntity
  8
THICK
100
AcDbLine
 10
-36.30491921089771
 20
-112.6265093966246
 30
0.0
 11
-161.046416557774
 21
-269.0473995302648
 31
0.0
1001
DBPROPERTIES
1002
{
1000
PbThick
1002
}
  0
LINE
  5
37C
330
1F
100
AcDbEntity
  8
THICK
100
AcDbLine
 10
-161.0464165577741
 20
-269.0473995302649
 30
0.0
 11
-162.1520932437706
 21
-268.1656517964749
 31
0.0
1001
DBPROPERTIES
1002
{
1000
PbThick
1002
}
  0
ELLIPSE
  5
37D
330
1F
100
AcDbEntity
  8
HIDDEN
100
AcDbEllipse
 10
-103.6240050689215
 20
-129.9403923861865
 30
0.0
 11
97.3891070503342
 21
122.1220775615062
 31
0.0
210
0.0
220
0.0
230
1.0
 40
0.7071067811865476
 41
2.753106425406945
 42
3.141592653589793
1001
DBPROPERTIES
1002
{
1000
PbHidd
1002
}
  0
ELLIPSE
  5
37E
330
1F
100
AcDbEntity
  8
THICK
100
AcDbEllipse
 10
-103.6240050689215
 20
-129.9403923861865
 30
0.0
 11
97.3891070503342
 21
122.1220775615062
 31
0.0
210
0.0
220
0.0
230
1.0
 40
0.7071067811865476
 41
3.141592653589793
 42
3.530078881772642
1001
DBPROPERTIES
1002
{
1000
PbThick
1002
}
  0
LINE
  5
37F
330
1F
100
AcDbEntity
  8
THICK
100
AcDbLine
 10
-111.2149445393419
 20
-40.42293765783096
 30
0.0
 11
-310.7605255785809
 21
-40.42293765783096
 31
0.0
1001
DBPROPERTIES
1002
{
1000
PbThick
1002
}
  0
LINE
  5
380
330
1F
100
AcDbEntity
  8
THICK
100
AcDbLine
 10
-310.7605255785809
 20
43.25136478257718
 30
0.0
 11
-110.1457998392232
 21
43.25136478257716
 31
0.0
1001
DBPROPERTIES
1002
{
1000
PbThick
1002
}
  0
ELLIPSE
  5
381
330
1F
100
AcDbEntity
  8
THICK
100
AcDbEllipse
 10
-166.2
 20
1.414213562373112
 30
0.0
 11
-156.2
 21
9.564175623352766E-15
 31
0.0
210
0.0
220
0.0
230
1.0
 40
0.7071067811865476
 41
0.0
 42
0.3884862281828486
1001
DBPROPERTIES
1002
{
1000
PbThick
1002
}
  0
ELLIPSE
  5
382
330
1F
100
AcDbEntity
  8
THICK
100
AcDbEllipse
 10
-166.2
 20
1.414213562373112
 30
0.0
 11
-156.2
 21
9.564175623352766E-15
 31
0.0
210
0.0
220
0.0
230
1.0
 40
0.7071067811865476
 41
-0.3884862281828486
 42
0.0
1001
DBPROPERTIES
1002
{
1000
PbThick
1002
}
  0
LINE
  5
383
330
1F
100
AcDbEntity
  8
HIDDEN
100
AcDbLine
 10
-110.6906976920624
 20
41.83715122020407
 30
0.0
 11
-310.7605255785809
 21
41.83715122020409
 31
0.0
1001
DBPROPERTIES
1002
{
1000
PbHidd
1002
}
  0
LINE
  5
384
330
1F
100
AcDbEntity
  8
HIDDEN
100
AcDbLine
 10
-310.7605255785809
 20
41.83715122020409
 30
0.0
 11
-310.7605255785809
 21
43.25136478257718
 31
0.0
1001
DBPROPERTIES
1002
{
1000
PbHidd
1002
}
  0
LINE
  5
385
330
1F
100
AcDbEntity
  8
THICK
100
AcDbLine
 10
-110.6906976920624
 20
-41.83715122020406
 30
0.0
 11
-310.7605255785809
 21
-41.83715122020406
 31
0.0
1001
DBPROPERTIES
1002
{
1000
PbThick
1002
}
  0
LINE
  5
386
330
1F
100
AcDbEntity
  8
THICK
100
AcDbLine
 10
-310.7605255785809
 20
-41.83715122020404
 30
0.0
 11
-310.7605255785809
 21
-40.42293765783095
 31
0.0
1001
DBPROPERTIES
1002
{
1000
PbThick
1002
}
  0
ELLIPSE
  5
387
330
1F
100
AcDbEntity
  8
HIDDEN
100
AcDbEllipse
 10
-166.2
 20
0.0000000000000169
 30
0.0
 11
156.2
 21
-9.564175623352766E-15
 31
0.0
210
0.0
220
0.0
230
1.0
 40
0.7071067811865476
 41
2.753106425406945
 42
3.141592653589793
1001
DBPROPERTIES
1002
{
1000
PbHidd
1002
}
  0
ELLIPSE
  5
388
330
1F
100
AcDbEntity
  8
THICK
100
AcDbEllipse
 10
-166.2
 20
0.0000000000000169
 30
0.0
 11
156.2
 21
-9.564175623352766E-15
 31
0.0
210
0.0
220
0.0
230
1.0
 40
0.7071067811865476
 41
3.141592653589793
 42
3.530078881772642
1001
DBPROPERTIES
1002
{
1000
PbThick
1002
}
  0
ARC
  5
389
330
1F
100
AcDbEntity
  8
THICK
100
AcDbCircle
 10
0.0
 20
0.0
 30
0.0
 40
107.3333333333333
100
AcDbArc
 50
180.0000198478428
 51
0.0
1001
DBPROPERTIES
1002
{
1000
PbThick
1002
}
  0
ARC
  5
38A
330
1F
100
AcDbEntity
  8
THICK
100
AcDbCircle
 10
0.0000000000000007
 20
0.0
 30
0.0
 40
118.3333333333333
100
AcDbArc
 50
180.0000198478428
 51
270.0000187239684
1001
DBPROPERTIES
1002
{
1000
PbThick
1002
}
  0
ARC
  5
38B
330
1F
100
AcDbEntity
  8
HIDDEN
100
AcDbCircle
 10
0.0
 20
0.0
 30
0.0
 40
357.0
100
AcDbArc
 50
89.99998127603165
 51
270.0000187239684
1001
DBPROPERTIES
1002
{
1000
PbHidd
1002
}
  0
ARC
  5
38C
330
1F
100
AcDbEntity
  8
THICK
100
AcDbCircle
 10
0.0000000000000007
 20
0.0000000000000013
 30
0.0
 40
403.0
100
AcDbArc
 50
89.99998127603165
 51
180.0000198478428
1001
DBPROPERTIES
1002
{
1000
PbThick
1002
}
  0
ARC
  5
38D
330
1F
100
AcDbEntity
  8
HIDDEN
100
AcDbCircle
 10
0.0
 20
0.0
 30
0.0
 40
392.0
100
AcDbArc
 50
179.9999801521572
 51
0.0
1001
DBPROPERTIES
1002
{
1000
PbHidd
1002
}
  0
LINE
  5
38E
330
1F
100
AcDbEntity
  8
THICK
100
AcDbLine
 10
-199.9074372190188
 20
252.9442162573869
 30
0.0
 11
-201.0131107596871
 21
252.0624710319125
 31
0.0
1001
DBPROPERTIES
1002
{
1000
PbThick
1002
}
  0
LINE
  5
38F
330
1F
100
AcDbEntity
  8
THICK
100
AcDbLine
 10
73.11950590279254
 20
314.0020666461269
 30
0.0
 11
71.74074594185659
 21
314.3167596099609
 31
0.0
1001
DBPROPERTIES
1002
{
1000
PbThick
1002
}
  0
LINE
  5
390
330
1F
100
AcDbEntity
  8
THICK
100
AcDbLine
 10
291.0859677323051
 20
138.6099541602092
 30
0.0
 11
290.4723604682142
 21
139.8841227731862
 31
0.0
1001
DBPROPERTIES
1002
{
1000
PbThick
1002
}
  0
LINE
  5
391
330
1F
100
AcDbEntity
  8
THICK
100
AcDbLine
 10
289.8587590591185
 20
-141.1582792281403
 30
0.0
 11
290.4723604682142
 21
-139.8841227731863
 31
0.0
1001
DBPROPERTIES
1002
{
1000
PbThick
1002
}
  0
LINE
  5
392
330
1F
100
AcDbEntity
  8
THICK
100
AcDbLine
 10
70.36199291700116
 20
-314.6314509906798
 30
0.0
 11
71.7407459418565
 21
-314.3167596099609
 31
0.0
1001
DBPROPERTIES
1002
{
1000
PbThick
1002
}
  0
LINE
  5
393
330
1F
100
AcDbEntity
  8
THICK
100
AcDbLine
 10
-202.1187889639027
 20
-251.1807220873833
 30
0.0
 11
-201.0131107596872
 21
-252.0624710319125
 31
0.0
1001
DBPROPERTIES
1002
{
1000
PbThick
1002
}
  0
LINE
  5
394
330
1F
100
AcDbEntity
  8
THICK
100
AcDbLine
 10
-322.4
 20
1.41421431303027
 30
0.0
 11
-322.4
 21
0.0000000000000265
 31
0.0
1001
DBPROPERTIES
1002
{
1000
PbThick
1002
}
  0
ENDSEC
  0
SECTION
  2
OBJECTS
  0
DICTIONARY
  5
C
330
0
100
AcDbDictionary
  3
ACAD_GROUP
350
D
  3
ACAD_LAYOUT
350
1A
  3
ACAD_MATERIAL
350
43
  3
ACAD_MLEADERSTYLE
350
6B
  3
ACAD_MLINESTYLE
350
17
  3
ACAD_PLOTSETTINGS
350
19
  3
ACAD_SCALELIST
350
47
  3
ACAD_VISUALSTYLE
350
2A
  3
ACDBVARIABLEDICTIONARY
350
395
1001
ACAD
1000
TREAT_AS_HARD
1070
     0
  0
DICTIONARY
  5
D
102
{ACAD_REACTORS
330
C
102
}
330
C
100
AcDbDictionary
1001
ACAD
1000
TREAT_AS_HARD
1070
     0
  0
DICTIONARY
  5
1A
102
{ACAD_REACTORS
330
C
102
}
330
C
100
AcDbDictionary
1001
ACAD
1000
TREAT_AS_HARD
1070
     0
  0
DICTIONARY
  5
43
102
{ACAD_REACTORS
330
C
102
}
330
C
100
AcDbDictionary
  3
BYBLOCK
350
45
  3
BYLAYER
350
44
  3
GLOBAL
350
46
1001
ACAD
1000
TREAT_AS_HARD
1070
     0
  0
DICTIONARY
  5
6B
102
{ACAD_REACTORS
330
C
102
}
330
C
100
AcDbDictionary
  3
STANDARD
350
6C
1001
ACAD
1000
TREAT_AS_HARD
1070
     0
  0
DICTIONARY
  5
17
102
{ACAD_REACTORS
330
C
102
}
330
C
100
AcDbDictionary
  3
STANDARD
350
18
1001
ACAD
1000
TREAT_AS_HARD
1070
     0
  0
DICTIONARY
  5
19
102
{ACAD_REACTORS
330
C
102
}
330
C
100
AcDbDictionary
1001
ACAD
1000
TREAT_AS_HARD
1070
     0
  0
DICTIONARY
  5
47
102
{ACAD_REACTORS
330
C
102
}
330
C
100
AcDbDictionary
  3
A0
350
48
  3
A1
350
49
  3
A2
350
4A
  3
A3
350
4B
  3
A4
350
4C
  3
A5
350
4D
  3
A6
350
4E
  3
A7
350
4F
  3
A8
350
50
  3
A9
350
51
  3
B0
350
52
  3
B1
350
53
  3
B2
350
54
  3
B3
350
55
  3
B4
350
56
  3
B5
350
57
  3
B6
350
58
  3
B7
350
59
  3
B8
350
5A
  3
B9
350
5B
  3
C0
350
5C
  3
C1
350
5D
  3
C2
350
5E
  3
C3
350
5F
  3
C4
350
60
  3
C5
350
61
  3
C6
350
62
  3
C7
350
63
  3
C8
350
64
  3
C9
350
65
  3
D0
350
66
  3
D1
350
67
  3
D2
350
68
1001
ACAD
1000
TREAT_AS_HARD
1070
     0
  0
DICTIONARY
  5
2A
102
{ACAD_REACTORS
330
C
102
}
330
C
100
AcDbDictionary
  3
2DWIREFRAME
350
2F
  3
BASIC
350
32
  3
BRIGHTEN
350
36
  3
COLORCHANGE
350
3A
  3
CONCEPTUAL
350
34
  3
DIM
350
35
  3
EDGECOLOROFF
350
3D
  3
FACEPATTERN
350
39
  3
FLAT
350
2B
  3
FLATWITHEDGES
350
2C
  3
GOURAUD
350
2D
  3
GOURAUDWITHEDGES
350
2E
  3
HIDDEN
350
31
  3
JITTEROFF
350
3B
  3
LINEPATTERN
350
38
  3
OVERHANGOFF
350
3C
  3
REALISTIC
350
33
  3
SHADED
350
42
  3
SHADED_WITH_EDGES
350
41
  3
SHADES_OF_GRAY
350
3E
  3
SKETCHY
350
3F
  3
THICKEN
350
37
  3
WIREFRAME
350
30
  3
X-RAY
350
40
1001
ACAD
1000
TREAT_AS_HARD
1070
     0
  0
DICTIONARY
  5
395
102
{ACAD_REACTORS
330
C
102
}
330
C
100
AcDbDictionary
  3
CANNOSCALE
350
3A0
  3
CENTEREXE
350
39C
  3
CENTERLTYPEFILE
350
39D
  3
CMLEADERSTYLE
350
397
  3
CTABLESTYLE
350
396
  3
DIMASSOC
350
39E
  3
HIDETEXT
350
39F
  3
MSLTSCALE
350
3A1
  3
PSOLHEIGHT
350
399
  3
PSOLWIDTH
350
398
1001
ACAD
1000
TREAT_AS_HARD
1070
     0
  0
MATERIAL
  5
45
102
{ACAD_REACTORS
330
43
102
}
102
{ACAD_XDICTIONARY
360
3A4
102
}
330
43
100
AcDbMaterial
  1
BYBLOCK
  0
MATERIAL
  5
44
102
{ACAD_REACTORS
330
43
102
}
102
{ACAD_XDICTIONARY
360
3A2
102
}
330
43
100
AcDbMaterial
  1
BYLAYER
  0
MATERIAL
  5
46
102
{ACAD_REACTORS
330
43
102
}
102
{ACAD_XDICTIONARY
360
3A6
102
}
330
43
100
AcDbMaterial
  1
GLOBAL
  0
ACAD_PROXY_OBJECT
  5
6C
102
{ACAD_REACTORS
330
6B
102
}
330
6B
100
AcDbZombieObject
 90
      499
 91
      505
 93
      610
310
40901902A4063FBFFFFFE0000000000000020400000000000020404214DD185B99185C990000000000000104090141901A00000000000004100000000000000041025764000000000000039000
340
14
340
0
340
11
340
0
 94
        0
1001
ACAD_MLEADERVER
1070
     2
  0
MLINESTYLE
  5
18
102
{ACAD_REACTORS
330
17
102
}
330
17
100
AcDbMlineStyle
  2
Standard
 70
     0
  3

 62
   256
 51
90.0
 52
90.0
 71
     2
 49
0.5
 62
   256
  6
BYLAYER
 49
-0.5
 62
   256
  6
BYLAYER
  0
ACAD_PROXY_OBJECT
  5
48
102
{ACAD_REACTORS
330
47
102
}
330
47
100
AcDbZombieObject
 90
      499
 91
      503
 93
       41
310
903313A31580
  0
ACAD_PROXY_OBJECT
  5
49
102
{ACAD_REACTORS
330
47
102
}
330
47
100
AcDbZombieObject
 90
      499
 91
      503
 93
      105
310
903313A324000000000000004000
  0
ACAD_PROXY_OBJECT
  5
4A
102
{ACAD_REACTORS
330
47
102
}
330
47
100
AcDbZombieObject
 90
      499
 91
      503
 93
      105
310
903313A344000000000000104000
  0
ACAD_PROXY_OBJECT
  5
4B
102
{ACAD_REACTORS
330
47
102
}
330
47
100
AcDbZombieObject
 90
      499
 91
      503
 93
      105
310
903313A354000000000000144000
  0
ACAD_PROXY_OBJECT
  5
4C
102
{ACAD_REACTORS
330
47
102
}
330
47
100
AcDbZombieObject
 90
      499
 91
      503
 93
      105
310
903313A384000000000000204000
  0
ACAD_PROXY_OBJECT
  5
4D
102
{ACAD_REACTORS
330
47
102
}
330
47
100
AcDbZombieObject
 90
      499
 91
      503
 93
      113
310
904313A31304000000000000244000
  0
ACAD_PROXY_OBJECT
  5
4E
102
{ACAD_REACTORS
330
47
102
}
330
47
100
AcDbZombieObject
 90
      499
 91
      503
 93
      113
310
904313A31364000000000000304000
  0
ACAD_PROXY_OBJECT
  5
4F
102
{ACAD_REACTORS
330
47
102
}
330
47
100
AcDbZombieObject
 90
      499
 91
      503
 93
      113
310
904313A32304000000000000344000
  0
ACAD_PROXY_OBJECT
  5
50
102
{ACAD_REACTORS
330
47
102
}
330
47
100
AcDbZombieObject
 90
      499
 91
      503
 93
      113
310
904313A333040000000000003E4000
  0
ACAD_PROXY_OBJECT
  5
51
102
{ACAD_REACTORS
330
47
102
}
330
47
100
AcDbZombieObject
 90
      499
 91
      503
 93
      113
310
904313A34304000000000000444000
  0
ACAD_PROXY_OBJECT
  5
52
102
{ACAD_REACTORS
330
47
102
}
330
47
100
AcDbZombieObject
 90
      499
 91
      503
 93
      113
310
904313A35304000000000000494000
  0
ACAD_PROXY_OBJECT
  5
53
102
{ACAD_REACTORS
330
47
102
}
330
47
100
AcDbZombieObject
 90
      499
 91
      503
 93
      121
310
905313A3130304000000000000594000
  0
ACAD_PROXY_OBJECT
  5
54
102
{ACAD_REACTORS
330
47
102
}
330
47
100
AcDbZombieObject
 90
      499
 91
      503
 93
      105
310
903323A310000000000000010100
  0
ACAD_PROXY_OBJECT
  5
55
102
{ACAD_REACTORS
330
47
102
}
330
47
100
AcDbZombieObject
 90
      499
 91
      503
 93
      105
310
903343A310000000000000410100
  0
ACAD_PROXY_OBJECT
  5
56
102
{ACAD_REACTORS
330
47
102
}
330
47
100
AcDbZombieObject
 90
      499
 91
      503
 93
      105
310
903383A310000000000000810100
  0
ACAD_PROXY_OBJECT
  5
57
102
{ACAD_REACTORS
330
47
102
}
330
47
100
AcDbZombieObject
 90
      499
 91
      503
 93
      113
310
90431303A310000000000000910100
  0
ACAD_PROXY_OBJECT
  5
58
102
{ACAD_REACTORS
330
47
102
}
330
47
100
AcDbZombieObject
 90
      499
 91
      503
 93
      121
310
9053130303A310000000000001650100
  0
ACAD_PROXY_OBJECT
  5
59
102
{ACAD_REACTORS
330
47
102
}
330
47
100
AcDbZombieObject
 90
      499
 91
      503
 93
      257
310
90E312F31323822203D2031272D3022000000000000200FC000000000000284000
  0
ACAD_PROXY_OBJECT
  5
5A
102
{ACAD_REACTORS
330
47
102
}
330
47
100
AcDbZombieObject
 90
      499
 91
      503
 93
      249
310
90D312F363422203D2031272D3022000000000000240FC000000000000284000
  0
ACAD_PROXY_OBJECT
  5
5B
102
{ACAD_REACTORS
330
47
102
}
330
47
100
AcDbZombieObject
 90
      499
 91
      503
 93
      249
310
90D312F333222203D2031272D3022000000000000280FC000000000000284000
  0
ACAD_PROXY_OBJECT
  5
5C
102
{ACAD_REACTORS
330
47
102
}
330
47
100
AcDbZombieObject
 90
      499
 91
      503
 93
      249
310
90D312F313622203D2031272D30220000000000002C0FC000000000000284000
  0
ACAD_PROXY_OBJECT
  5
5D
102
{ACAD_REACTORS
330
47
102
}
330
47
100
AcDbZombieObject
 90
      499
 91
      503
 93
      249
310
90D332F333222203D2031272D30220000000000002E0FC000000000000284000
  0
ACAD_PROXY_OBJECT
  5
5E
102
{ACAD_REACTORS
330
47
102
}
330
47
100
AcDbZombieObject
 90
      499
 91
      503
 93
      241
310
90C312F3822203D2031272D3022000000000000300FC000000000000284000
  0
ACAD_PROXY_OBJECT
  5
5F
102
{ACAD_REACTORS
330
47
102
}
330
47
100
AcDbZombieObject
 90
      499
 91
      503
 93
      249
310
90D332F313622203D2031272D3022000000000000320FC000000000000284000
  0
ACAD_PROXY_OBJECT
  5
60
102
{ACAD_REACTORS
330
47
102
}
330
47
100
AcDbZombieObject
 90
      499
 91
      503
 93
      241
310
90C312F3422203D2031272D3022000000000000340FC000000000000284000
  0
ACAD_PROXY_OBJECT
  5
61
102
{ACAD_REACTORS
330
47
102
}
330
47
100
AcDbZombieObject
 90
      499
 91
      503
 93
      241
310
90C332F3822203D2031272D3022000000000000360FC000000000000284000
  0
ACAD_PROXY_OBJECT
  5
62
102
{ACAD_REACTORS
330
47
102
}
330
47
100
AcDbZombieObject
 90
      499
 91
      503
 93
      241
310
90C312F3222203D2031272D3022000000000000380FC000000000000284000
  0
ACAD_PROXY_OBJECT
  5
63
102
{ACAD_REACTORS
330
47
102
}
330
47
100
AcDbZombieObject
 90
      499
 91
      503
 93
      241
310
90C332F3422203D2031272D30220000000000003A0FC000000000000284000
  0
ACAD_PROXY_OBJECT
  5
64
102
{ACAD_REACTORS
330
47
102
}
330
47
100
AcDbZombieObject
 90
      499
 91
      503
 93
      161
310
90A3122203D2031272D30224000000000000284000
  0
ACAD_PROXY_OBJECT
  5
65
102
{ACAD_REACTORS
330
47
102
}
330
47
100
AcDbZombieObject
 90
      499
 91
      503
 93
      257
310
90E312D312F3222203D2031272D30220000000000003E0FC000000000000284000
  0
ACAD_PROXY_OBJECT
  5
66
102
{ACAD_REACTORS
330
47
102
}
330
47
100
AcDbZombieObject
 90
      499
 91
      503
 93
      225
310
90A3322203D2031272D302200000000000002100000000000000284000
  0
ACAD_PROXY_OBJECT
  5
67
102
{ACAD_REACTORS
330
47
102
}
330
47
100
AcDbZombieObject
 90
      499
 91
      503
 93
      225
310
90A3622203D2031272D302200000000000006100000000000000284000
  0
ACAD_PROXY_OBJECT
  5
68
102
{ACAD_REACTORS
330
47
102
}
330
47
100
AcDbZombieObject
 90
      499
 91
      503
 93
      249
310
90D31272D3022203D2031272D30220000000000000A100000000000000284000
  0
ACAD_PROXY_OBJECT
  5
2F
102
{ACAD_REACTORS
330
2A
102
}
330
2A
100
AcDbZombieObject
 90
      499
 91
      501
 93
      436
310
42CC9915DA5C99599C985B595049028333333333333E33F0000000000000F90107901411070040501600405405064090741402480A0340
1001
ACAD
1000
AcDbSavedByObjectVersion
1070
     0
  0
ACAD_PROXY_OBJECT
  5
32
102
{ACAD_REACTORS
330
2A
102
}
330
2A
100
AcDbZombieObject
 90
      499
 91
      501
 93
      388
310
4150985CDA58D07406404333333333333E33F0000000000000F90107A41107004050150841D405064090741402480A0350
1001
ACAD
1000
AcDbSavedByObjectVersion
1070
     0
  0
ACAD_PROXY_OBJECT
  5
36
102
{ACAD_REACTORS
330
2A
102
}
330
2A
100
AcDbZombieObject
 90
      499
 91
      501
 93
      428
310
42109C9A59DA1D195B90C409028333333333333E33F0000000000000F9010790141107004050150841D405064090741402480A029950
1001
ACAD
1000
AcDbSavedByObjectVersion
1070
     0
  0
ACAD_PROXY_OBJECT
  5
3A
102
{ACAD_REACTORS
330
2A
102
}
330
2A
100
AcDbZombieObject
 90
      499
 91
      501
 93
      452
310
42D0DBDB1BDC90DA185B99D95104090240C333333333333E33F0000000000000F90108901411070040501508421405064090741402480A0350
1001
ACAD
1000
AcDbSavedByObjectVersion
1070
     0
  0
ACAD_PROXY_OBJECT
  5
34
102
{ACAD_REACTORS
330
2A
102
}
330
2A
100
AcDbZombieObject
 90
      499
 91
      501
 93
      500
310
4290DBDB98D95C1D1D585B10940D028333333333333E33F0000000000000F90107902409070040501000000000018199010841D405064090740C02480A0340
1001
ACAD
1000
AcDbSavedByObjectVersion
1070
     0
  0
ACAD_PROXY_OBJECT
  5
35
102
{ACAD_REACTORS
330
2A
102
}
330
2A
100
AcDbZombieObject
 90
      499
 91
      501
 93
      412
310
40D11A5B50B409028333333333333E33F0000000000000F9010790141107004050150841D405064090741402480A02677FFFFFD0
1001
ACAD
1000
AcDbSavedByObjectVersion
1070
     0
  0
ACAD_PROXY_OBJECT
  5
3D
102
{ACAD_REACTORS
330
2A
102
}
330
2A
100
AcDbZombieObject
 90
      499
 91
      501
 93
      452
310
43115919D950DBDB1BDC93D999916409028333333333333E33F0000000000000F9010790141107004050150841D405064090741402480A0350
1001
ACAD
1000
AcDbSavedByObjectVersion
1070
     0
  0
ACAD_PROXY_OBJECT
  5
39
102
{ACAD_REACTORS
330
2A
102
}
330
2A
100
AcDbZombieObject
 90
      499
 91
      501
 93
      444
310
42D19858D95C185D1D195C9B90F409028333333333333E33F0000000000000F9010790141107004050150841D405064090741402480A0350
1001
ACAD
1000
AcDbSavedByObjectVersion
1070
     0
  0
ACAD_PROXY_OBJECT
  5
2B
102
{ACAD_REACTORS
330
2A
102
}
330
2A
100
AcDbZombieObject
 90
      499
 91
      501
 93
      380
310
41119B185D240901404333333333333E33F0000000000000F9010740A907004050150841D405064090741402480A1B50
1001
ACAD
1000
AcDbSavedByObjectVersion
1070
     0
  0
ACAD_PROXY_OBJECT
  5
2C
102
{ACAD_REACTORS
330
2A
102
}
330
2A
100
AcDbZombieObject
 90
      499
 91
      501
 93
      468
310
43519B185D15DA5D1A115919D95CD0140901404333333333333E33F0000000000000F90107409019070040501600405405064090741402480A1B50
1001
ACAD
1000
AcDbSavedByObjectVersion
1070
     0
  0
ACAD_PROXY_OBJECT
  5
2D
102
{ACAD_REACTORS
330
2A
102
}
330
2A
100
AcDbZombieObject
 90
      499
 91
      501
 93
      404
310
41D1DBDD5C985D5910240902404333333333333E33F0000000000000F9010740A9070040501641D405064090741402480A1B50
1001
ACAD
1000
AcDbSavedByObjectVersion
1070
     0
  0
ACAD_PROXY_OBJECT
  5
2E
102
{ACAD_REACTORS
330
2A
102
}
330
2A
100
AcDbZombieObject
 90
      499
 91
      501
 93
      492
310
4411DBDD5C985D5915DA5D1A115919D95CD0340902404333333333333E33F0000000000000F90107409019070040501600405405064090741402480A1B50
1001
ACAD
1000
AcDbSavedByObjectVersion
1070
     0
  0
ACAD_PROXY_OBJECT
  5
31
102
{ACAD_REACTORS
330
2A
102
}
330
2A
100
AcDbZombieObject
 90
      499
 91
      501
 93
      476
310
41921A5919195B90640502408333333333333E33F0000000000000F901079024090700405020000000000001110200405405064090740C02480A0340
1001
ACAD
1000
AcDbSavedByObjectVersion
1070
     0
  0
ACAD_PROXY_OBJECT
  5
3B
102
{ACAD_REACTORS
330
2A
102
}
330
2A
100
AcDbZombieObject
 90
      499
 91
      501
 93
      428
310
42529A5D1D195C93D999914409028333333333333E33F0000000000000F9010790141107004050150A41D405064090741402480A0350
1001
ACAD
1000
AcDbSavedByObjectVersion
1070
     0
  0
ACAD_PROXY_OBJECT
  5
38
102
{ACAD_REACTORS
330
2A
102
}
330
2A
100
AcDbZombieObject
 90
      499
 91
      501
 93
      444
310
42D31A5B995C185D1D195C9B90E409028333333333333E33F0000000000000F9010790141107004050750841D405064090741402483A0350
1001
ACAD
1000
AcDbSavedByObjectVersion
1070
     0
  0
ACAD_PROXY_OBJECT
  5
3C
102
{ACAD_REACTORS
330
2A
102
}
330
2A
100
AcDbZombieObject
 90
      499
 91
      501
 93
      444
310
42D3DD995C9A185B99D3D999915409028333333333333E33F0000000000000F9010790141107004050150941D405064090741402480A0350
1001
ACAD
1000
AcDbSavedByObjectVersion
1070
     0
  0
ACAD_PROXY_OBJECT
  5
33
102
{ACAD_REACTORS
330
2A
102
}
330
2A
100
AcDbZombieObject
 90
      499
 91
      501
 93
      428
310
425499585B1A5CDD1A58D08409038333333333333E33F0000000000000F9010740A907004050150800405405064090740C02480A1B40
1001
ACAD
1000
AcDbSavedByObjectVersion
1070
     0
  0
ACAD_PROXY_OBJECT
  5
42
102
{ACAD_REACTORS
330
2A
102
}
330
2A
100
AcDbZombieObject
 90
      499
 91
      501
 93
      420
310
4194DA1859195911B40902404333333333333E33F0000000000000F9010740A41107004050150800405405064090840C02480A0B40
1001
ACAD
1000
AcDbSavedByObjectVersion
1070
     0
  0
ACAD_PROXY_OBJECT
  5
41
102
{ACAD_REACTORS
330
2A
102
}
330
2A
100
AcDbZombieObject
 90
      499
 91
      501
 93
      516
310
4454DA18591959081DDA5D1A08195919D95CD1A40902404333333333333E33F0000000000000F901074090142907004050250800405405064090740C02480A0B40
1001
ACAD
1000
AcDbSavedByObjectVersion
1070
     0
  0
ACAD_PROXY_OBJECT
  5
3E
102
{ACAD_REACTORS
330
2A
102
}
330
2A
100
AcDbZombieObject
 90
      499
 91
      501
 93
      532
310
4394DA1859195CC81BD98811DC985E5174090240C333333333333E33F0000000000000F901079024090741D01000000000000111010841D405064090740C02480A0340
1001
ACAD
1000
AcDbSavedByObjectVersion
1070
     0
  0
ACAD_PROXY_OBJECT
  5
3F
102
{ACAD_REACTORS
330
2A
102
}
330
2A
100
AcDbZombieObject
 90
      499
 91
      501
 93
      476
310
41D4DAD95D18DA1E51840502408333333333333E33F0000000000000F901079024090741D01000000000000111010B41D405064090741802480A0340
1001
ACAD
1000
AcDbSavedByObjectVersion
1070
     0
  0
ACAD_PROXY_OBJECT
  5
37
102
{ACAD_REACTORS
330
2A
102
}
330
2A
100
AcDbZombieObject
 90
      499
 91
      501
 93
      412
310
41D51A1A58DAD95B90D409028333333333333E33F0000000000000F9010790141107004050150C41D405064090741402480A0350
1001
ACAD
1000
AcDbSavedByObjectVersion
1070
     0
  0
ACAD_PROXY_OBJECT
  5
30
102
{ACAD_REACTORS
330
2A
102
}
330
2A
100
AcDbZombieObject
 90
      499
 91
      501
 93
      420
310
4255DA5C99599C985B595059028333333333333E33F0000000000000F90107901411070040501600405405064090740C02480A0340
1001
ACAD
1000
AcDbSavedByObjectVersion
1070
     0
  0
ACAD_PROXY_OBJECT
  5
40
102
{ACAD_REACTORS
330
2A
102
}
330
2A
100
AcDbZombieObject
 90
      499
 91
      501
 93
      404
310
41560B54985E51940902404000000000000E03F0000000000000F9010740501907004050150841D405064090740C02480A1B40
1001
ACAD
1000
AcDbSavedByObjectVersion
1070
     0
  0
DICTIONARYVAR
  5
3A0
102
{ACAD_REACTORS
330
395
102
}
330
395
100
DictionaryVariables
280
     0
  1
1:1
  0
DICTIONARYVAR
  5
39C
102
{ACAD_REACTORS
330
395
102
}
330
395
100
DictionaryVariables
280
     0
  1
3.500000
  0
DICTIONARYVAR
  5
39D
102
{ACAD_REACTORS
330
395
102
}
330
395
100
DictionaryVariables
280
     0
  1
acadiso.lin
  0
DICTIONARYVAR
  5
397
102
{ACAD_REACTORS
330
395
102
}
330
395
100
DictionaryVariables
280
     0
  1
Standard
  0
DICTIONARYVAR
  5
396
102
{ACAD_REACTORS
330
395
102
}
330
395
100
DictionaryVariables
280
     0
  1
Standard
  0
DICTIONARYVAR
  5
39E
102
{ACAD_REACTORS
330
395
102
}
330
395
100
DictionaryVariables
280
     0
  1
2
  0
DICTIONARYVAR
  5
39F
102
{ACAD_REACTORS
330
395
102
}
330
395
100
DictionaryVariables
280
     0
  1
1
  0
DICTIONARYVAR
  5
3A1
102
{ACAD_REACTORS
330
395
102
}
330
395
100
DictionaryVariables
280
     0
  1
1
  0
DICTIONARYVAR
  5
399
102
{ACAD_REACTORS
330
395
102
}
330
395
100
DictionaryVariables
280
     0
  1
80.000000
  0
DICTIONARYVAR
  5
398
102
{ACAD_REACTORS
330
395
102
}
330
395
100
DictionaryVariables
280
     0
  1
5.000000
  0
DICTIONARY
  5
3A4
330
45
100
AcDbDictionary
  3
ACAD_XREC_ROUNDTRIP
360
3A5
1001
ACAD
1000
TREAT_AS_HARD
1070
     1
  0
DICTIONARY
  5
3A2
330
44
100
AcDbDictionary
  3
ACAD_XREC_ROUNDTRIP
360
3A3
1001
ACAD
1000
TREAT_AS_HARD
1070
     1
  0
DICTIONARY
  5
3A6
330
46
100
AcDbDictionary
  3
ACAD_XREC_ROUNDTRIP
360
3A7
1001
ACAD
1000
TREAT_AS_HARD
1070
     1
  0
XRECORD
  5
3A5
102
{ACAD_REACTORS
330
3A4
102
}
330
3A4
100
AcDbXrecord
102
MATERIAL
148
0.0
149
0.0
149
0.0
 93
        0
 94
      127
282
     0
 72
     1
 77
     1
171
     1
175
     1
179
     1
273
     0
  0
XRECORD
  5
3A3
102
{ACAD_REACTORS
330
3A2
102
}
330
3A2
100
AcDbXrecord
102
MATERIAL
148
0.0
149
0.0
149
0.0
 93
        0
 94
      127
282
     0
 72
     1
 77
     1
171
     1
175
     1
179
     1
273
     0
  0
XRECORD
  5
3A7
102
{ACAD_REACTORS
330
3A6
102
}
330
3A6
100
AcDbXrecord
102
MATERIAL
148
0.0
149
0.0
149
0.0
 93
        0
 94
      127
282
     0
 72
     1
 77
     1
171
     1
175
     1
179
     1
273
     0
  0
ENDSEC
  0
EOF
