  0
SECTION
  2
HEADER
  9
$ACADVER
  1
AC1012
  9
$DWGCODEPAGE
  3
ansi_1252
  9
$INSBASE
 10
0.0
 20
0.0
 30
0.0
  9
$EXTMIN
 10
1.000000000000000E+20
 20
1.000000000000000E+20
 30
1.000000000000000E+20
  9
$EXTMAX
 10
-1.000000000000000E+20
 20
-1.000000000000000E+20
 30
-1.000000000000000E+20
  9
$LIMMIN
 10
0.0
 20
0.0
  9
$LIMMAX
 10
420.0
 20
297.0
  9
$ORTHOMODE
 70
     0
  9
$REGENMODE
 70
     1
  9
$FILLMODE
 70
     1
  9
$QTEXTMODE
 70
     0
  9
$MIRRTEXT
 70
     1
  9
$DRAGMODE
 70
     2
  9
$LTSCALE
 40
1.0
  9
$OSMODE
 70
    37
  9
$ATTMODE
 70
     1
  9
$TEXTSIZE
 40
2.5
  9
$TRACEWID
 40
1.0
  9
$TEXTSTYLE
  7
STANDARD
  9
$CLAYER
  8
0
  9
$CELTYPE
  6
BYLAYER
  9
$CECOLOR
 62
   256
  9
$CELTSCALE
 40
1.0
  9
$DELOBJ
 70
     1
  9
$DISPSILH
 70
     0
  9
$DIMSCALE
 40
1.0
  9
$DIMASZ
 40
2.5
  9
$DIMEXO
 40
0.625
  9
$DIMDLI
 40
3.75
  9
$DIMRND
 40
0.0
  9
$DIMDLE
 40
0.0
  9
$DIMEXE
 40
1.25
  9
$DIMTP
 40
0.0
  9
$DIMTM
 40
0.0
  9
$DIMTXT
 40
2.5
  9
$DIMCEN
 40
2.5
  9
$DIMTSZ
 40
0.0
  9
$DIMTOL
 70
     0
  9
$DIMLIM
 70
     0
  9
$DIMTIH
 70
     0
  9
$DIMTOH
 70
     0
  9
$DIMSE1
 70
     0
  9
$DIMSE2
 70
     0
  9
$DIMTAD
 70
     1
  9
$DIMZIN
 70
     8
  9
$DIMBLK
  1

  9
$DIMASO
 70
     1
  9
$DIMSHO
 70
     1
  9
$DIMPOST
  1

  9
$DIMAPOST
  1

  9
$DIMALT
 70
     0
  9
$DIMALTD
 70
     3
  9
$DIMALTF
 40
0.03937007874016
  9
$DIMLFAC
 40
1.0
  9
$DIMTOFL
 70
     1
  9
$DIMTVP
 40
0.0
  9
$DIMTIX
 70
     0
  9
$DIMSOXD
 70
     0
  9
$DIMSAH
 70
     0
  9
$DIMBLK1
  1

  9
$DIMBLK2
  1

  9
$DIMSTYLE
  2
ISO-25
  9
$DIMCLRD
 70
     0
  9
$DIMCLRE
 70
     0
  9
$DIMCLRT
 70
     0
  9
$DIMTFAC
 40
1.0
  9
$DIMGAP
 40
0.625
  9
$DIMJUST
 70
     0
  9
$DIMSD1
 70
     0
  9
$DIMSD2
 70
     0
  9
$DIMTOLJ
 70
     0
  9
$DIMTZIN
 70
     8
  9
$DIMALTZ
 70
     0
  9
$DIMALTTZ
 70
     0
  9
$DIMFIT
 70
     3
  9
$DIMUPT
 70
     0
  9
$DIMUNIT
 70
     2
  9
$DIMDEC
 70
     2
  9
$DIMTDEC
 70
     2
  9
$DIMALTU
 70
     2
  9
$DIMALTTD
 70
     3
  9
$DIMTXSTY
  7
STANDARD
  9
$DIMAUNIT
 70
     0
  9
$LUNITS
 70
     2
  9
$LUPREC
 70
     4
  9
$SKETCHINC
 40
1.0
  9
$FILLETRAD
 40
10.0
  9
$AUNITS
 70
     0
  9
$AUPREC
 70
     0
  9
$MENU
  1
.
  9
$ELEVATION
 40
0.0
  9
$PELEVATION
 40
0.0
  9
$THICKNESS
 40
0.0
  9
$LIMCHECK
 70
     0
  9
$CHAMFERA
 40
0.0
  9
$CHAMFERB
 40
0.0
  9
$CHAMFERC
 40
0.0
  9
$CHAMFERD
 40
0.0
  9
$SKPOLY
 70
     0
  9
$TDCREATE
 40
2457975.6178461
  9
$TDUPDATE
 40
2457975.617847002
  9
$TDINDWG
 40
0.0000000116
  9
$TDUSRTIMER
 40
0.0000000116
  9
$USRTIMER
 70
     1
  9
$ANGBASE
 50
0.0
  9
$ANGDIR
 70
     0
  9
$PDMODE
 70
     0
  9
$PDSIZE
 40
0.0
  9
$PLINEWID
 40
0.0
  9
$COORDS
 70
     1
  9
$SPLFRAME
 70
     0
  9
$SPLINETYPE
 70
     6
  9
$SPLINESEGS
 70
     8
  9
$ATTDIA
 70
     0
  9
$ATTREQ
 70
     1
  9
$HANDLING
 70
     1
  9
$HANDSEED
  5
1B9
  9
$SURFTAB1
 70
     6
  9
$SURFTAB2
 70
     6
  9
$SURFTYPE
 70
     6
  9
$SURFU
 70
     6
  9
$SURFV
 70
     6
  9
$UCSNAME
  2

  9
$UCSORG
 10
0.0
 20
0.0
 30
0.0
  9
$UCSXDIR
 10
1.0
 20
0.0
 30
0.0
  9
$UCSYDIR
 10
0.0
 20
1.0
 30
0.0
  9
$PUCSNAME
  2

  9
$PUCSORG
 10
0.0
 20
0.0
 30
0.0
  9
$PUCSXDIR
 10
1.0
 20
0.0
 30
0.0
  9
$PUCSYDIR
 10
0.0
 20
1.0
 30
0.0
  9
$USERI1
 70
     0
  9
$USERI2
 70
     0
  9
$USERI3
 70
     0
  9
$USERI4
 70
     0
  9
$USERI5
 70
     0
  9
$USERR1
 40
0.0
  9
$USERR2
 40
0.0
  9
$USERR3
 40
0.0
  9
$USERR4
 40
0.0
  9
$USERR5
 40
0.0
  9
$WORLDVIEW
 70
     1
  9
$SHADEDGE
 70
     3
  9
$SHADEDIF
 70
    70
  9
$TILEMODE
 70
     1
  9
$MAXACTVP
 70
    64
  9
$PINSBASE
 10
0.0
 20
0.0
 30
0.0
  9
$PLIMCHECK
 70
     0
  9
$PEXTMIN
 10
1.000000000000000E+20
 20
1.000000000000000E+20
 30
1.000000000000000E+20
  9
$PEXTMAX
 10
-1.000000000000000E+20
 20
-1.000000000000000E+20
 30
-1.000000000000000E+20
  9
$PLIMMIN
 10
0.0
 20
0.0
  9
$PLIMMAX
 10
420.0
 20
297.0
  9
$UNITMODE
 70
     0
  9
$VISRETAIN
 70
     1
  9
$PLINEGEN
 70
     0
  9
$PSLTSCALE
 70
     1
  9
$TREEDEPTH
 70
  3020
  9
$PICKSTYLE
 70
     1
  9
$CMLSTYLE
  2
STANDARD
  9
$CMLJUST
 70
     0
  9
$CMLSCALE
 40
20.0
  9
$SAVEIMAGES
 70
     1
  0
ENDSEC
  0
SECTION
  2
CLASSES
  0
CLASS
  1
ACDBDICTIONARYWDFLT
  2
AcDbDictionaryWithDefault
  3
ObjectDBX Classes
 90
    32768
280
     0
281
     0
  0
CLASS
  1
VISUALSTYLE
  2
AcDbVisualStyle
  3
ObjectDBX Classes
 90
     4095
280
     0
281
     0
  0
CLASS
  1
MATERIAL
  2
AcDbMaterial
  3
ObjectDBX Classes
 90
     1153
280
     0
281
     0
  0
CLASS
  1
SCALE
  2
AcDbScale
  3
ObjectDBX Classes
 90
     1153
280
     0
281
     0
  0
CLASS
  1
TABLESTYLE
  2
AcDbTableStyle
  3
ObjectDBX Classes
 90
     4095
280
     0
281
     0
  0
CLASS
  1
MLEADERSTYLE
  2
AcDbMLeaderStyle
  3
ACDB_MLEADERSTYLE_CLASS
 90
     4095
280
     0
281
     0
  0
CLASS
  1
SUN
  2
AcDbSun
  3
SCENEOE
 90
     1153
280
     0
281
     0
  0
CLASS
  1
DICTIONARYVAR
  2
AcDbDictionaryVar
  3
ObjectDBX Classes
 90
        0
280
     0
281
     0
  0
CLASS
  1
XRECORD
  2
AcDbXrecord
  3
ObjectDBX Classes
 90
    32768
280
     0
281
     0
  0
CLASS
  1
LWPOLYLINE
  2
AcDbPolyline
  3
ObjectDBX Classes
 90
    32768
280
     0
281
     1
  0
CLASS
  1
HATCH
  2
AcDbHatch
  3
ObjectDBX Classes
 90
    32768
280
     0
281
     1
  0
CLASS
  1
ACDBPLACEHOLDER
  2
AcDbPlaceHolder
  3
ObjectDBX Classes
 90
        0
280
     0
281
     0
  0
CLASS
  1
LAYOUT
  2
AcDbLayout
  3
ObjectDBX Classes
 90
        0
280
     0
281
     0
  0
ENDSEC
  0
SECTION
  2
TABLES
  0
TABLE
  2
VPORT
  5
8
330
0
100
AcDbSymbolTable
 70
     1
  0
VPORT
  5
29
330
8
100
AcDbSymbolTableRecord
100
AcDbViewportTableRecord
  2
*ACTIVE
 70
     0
 10
0.0
 20
0.0
 11
1.0
 21
1.0
 12
0.0
 22
0.0
 13
0.0
 23
0.0
 14
10.0
 24
10.0
 15
10.0
 25
10.0
 16
0.0
 26
0.0
 36
1.0
 17
0.0000000000000568
 27
0.0
 37
0.0
 40
1275.0
 41
1.0
 42
50.0
 43
0.0
 44
0.0
 50
0.0
 51
0.0
 71
     0
 72
   100
 73
     1
 74
     3
 75
     0
 76
     0
 77
     0
 78
     0
  0
ENDTAB
  0
TABLE
  2
LTYPE
  5
5
330
0
100
AcDbSymbolTable
 70
     1
  0
LTYPE
  5
14
330
5
100
AcDbSymbolTableRecord
100
AcDbLinetypeTableRecord
  2
BYBLOCK
 70
     0
  3

 72
    65
 73
     0
 40
0.0
  0
LTYPE
  5
15
330
5
100
AcDbSymbolTableRecord
100
AcDbLinetypeTableRecord
  2
BYLAYER
 70
     0
  3

 72
    65
 73
     0
 40
0.0
  0
LTYPE
  5
16
330
5
100
AcDbSymbolTableRecord
100
AcDbLinetypeTableRecord
  2
CONTINUOUS
 70
     0
  3
Solid line
 72
    65
 73
     0
 40
0.0
  0
ENDTAB
  0
TABLE
  2
LAYER
  5
2
330
0
100
AcDbSymbolTable
 70
     4
  0
LAYER
  5
10
330
2
100
AcDbSymbolTableRecord
100
AcDbLayerTableRecord
  2
0
 70
     0
 62
     7
  6
CONTINUOUS
  0
LAYER
  5
6E
330
2
100
AcDbSymbolTableRecord
100
AcDbLayerTableRecord
  2
THICK
 70
     0
 62
     7
  6
CONTINUOUS
  0
LAYER
  5
6F
330
2
100
AcDbSymbolTableRecord
100
AcDbLayerTableRecord
  2
HIDDEN
 70
     0
 62
     7
  6
CONTINUOUS
  0
LAYER
  5
70
330
2
100
AcDbSymbolTableRecord
100
AcDbLayerTableRecord
  2
HASHLINES
 70
     0
 62
     7
  6
CONTINUOUS
  0
ENDTAB
  0
TABLE
  2
STYLE
  5
3
330
0
100
AcDbSymbolTable
 70
     1
  0
STYLE
  5
11
330
3
100
AcDbSymbolTableRecord
100
AcDbTextStyleTableRecord
  2
STANDARD
 70
     0
 40
0.0
 41
1.0
 50
0.0
 71
     0
 42
2.5
  3
txt
  4

  0
ENDTAB
  0
TABLE
  2
VIEW
  5
6
330
0
100
AcDbSymbolTable
 70
     0
  0
ENDTAB
  0
TABLE
  2
UCS
  5
7
330
0
100
AcDbSymbolTable
 70
     0
  0
ENDTAB
  0
TABLE
  2
APPID
  5
9
330
0
100
AcDbSymbolTable
 70
     3
  0
APPID
  5
12
330
9
100
AcDbSymbolTableRecord
100
AcDbRegAppTableRecord
  2
ACAD
 70
     0
  0
APPID
  5
71
330
9
100
AcDbSymbolTableRecord
100
AcDbRegAppTableRecord
  2
DBPROPERTIES
 70
     0
  0
APPID
  5
1B8
330
9
100
AcDbSymbolTableRecord
100
AcDbRegAppTableRecord
  2
ACAD_MLEADERVER
 70
     0
  0
ENDTAB
  0
TABLE
  2
DIMSTYLE
  5
A
330
0
100
AcDbSymbolTable
 70
     1
  0
DIMSTYLE
105
27
330
A
100
AcDbSymbolTableRecord
100
AcDbDimStyleTableRecord
  2
ISO-25
 70
     0
  3

  4

  5

  6

  7

 40
1.0
 41
2.5
 42
0.625
 43
3.75
 44
1.25
 45
0.0
 46
0.0
 47
0.0
 48
0.0
140
2.5
141
2.5
142
0.0
143
0.03937007874016
144
1.0
145
0.0
146
1.0
147
0.625
 71
     0
 72
     0
 73
     0
 74
     0
 75
     0
 76
     0
 77
     1
 78
     8
170
     0
171
     3
172
     1
173
     0
174
     0
175
     0
176
     0
177
     0
178
     0
270
     2
271
     2
272
     2
273
     2
274
     3
340
11
275
     0
280
     0
281
     0
282
     0
283
     0
284
     8
285
     0
286
     0
287
     3
288
     0
  0
ENDTAB
  0
TABLE
  2
BLOCK_RECORD
  5
1
330
0
100
AcDbSymbolTable
 70
     0
  0
BLOCK_RECORD
  5
1F
330
1
100
AcDbSymbolTableRecord
100
AcDbBlockTableRecord
  2
*MODEL_SPACE
  0
BLOCK_RECORD
  5
1B
330
1
100
AcDbSymbolTableRecord
100
AcDbBlockTableRecord
  2
*PAPER_SPACE
  0
ENDTAB
  0
ENDSEC
  0
SECTION
  2
BLOCKS
  0
BLOCK
  5
20
330
1F
100
AcDbEntity
  8
0
100
AcDbBlockBegin
  2
*MODEL_SPACE
 70
     0
 10
0.0
 20
0.0
 30
0.0
  3
*MODEL_SPACE
  1

  0
ENDBLK
  5
21
330
1F
100
AcDbEntity
  8
0
100
AcDbBlockEnd
  0
BLOCK
  5
1C
330
1B
100
AcDbEntity
 67
     1
  8
0
100
AcDbBlockBegin
  2
*PAPER_SPACE
 70
     0
 10
0.0
 20
0.0
 30
0.0
  3
*PAPER_SPACE
  1

  0
ENDBLK
  5
1D
330
1B
100
AcDbEntity
 67
     1
  8
0
100
AcDbBlockEnd
  0
ENDSEC
  0
SECTION
  2
ENTITIES
  0
ARC
  5
72
330
1F
100
AcDbEntity
  8
HIDDEN
100
AcDbCircle
 10
0.0000000000000057
 20
0.0
 30
0.0
 40
570.9099238294607
100
AcDbArc
 50
180.0000198478428
 51
0.0
1001
DBPROPERTIES
1002
{
1000
PbHidd
1002
}
  0
ARC
  5
73
330
1F
100
AcDbEntity
  8
HIDDEN
100
AcDbCircle
 10
0.0000000000000057
 20
0.0
 30
0.0
 40
570.9099238294607
100
AcDbArc
 50
0.0
 51
180.0000198478428
1001
DBPROPERTIES
1002
{
1000
PbHidd
1002
}
  0
ARC
  5
74
330
1F
100
AcDbEntity
  8
HIDDEN
100
AcDbCircle
 10
0.0000000000000044
 20
0.0
 30
0.0
 40
500.0
100
AcDbArc
 50
89.99998127603165
 51
179.9999801521572
1001
DBPROPERTIES
1002
{
1000
PbHidd
1002
}
  0
ARC
  5
75
330
1F
100
AcDbEntity
  8
HIDDEN
100
AcDbCircle
 10
0.0000000000000044
 20
0.0
 30
0.0
 40
500.0
100
AcDbArc
 50
179.9999801521572
 51
270.0000187239684
1001
DBPROPERTIES
1002
{
1000
PbHidd
1002
}
  0
ARC
  5
76
330
1F
100
AcDbEntity
  8
HIDDEN
100
AcDbCircle
 10
0.0000000000000044
 20
0.0
 30
0.0
 40
500.0
100
AcDbArc
 50
0.0
 51
89.99998127603165
1001
DBPROPERTIES
1002
{
1000
PbHidd
1002
}
  0
ARC
  5
77
330
1F
100
AcDbEntity
  8
THICK
100
AcDbCircle
 10
0.0
 20
0.0
 30
0.0
 40
490.0
100
AcDbArc
 50
144.107479842329
 51
180.0000198478428
1001
DBPROPERTIES
1002
{
1000
PbThick
1002
}
  0
ARC
  5
78
330
1F
100
AcDbEntity
  8
HIDDEN
100
AcDbCircle
 10
0.0
 20
0.0
 30
0.0
 40
490.0
100
AcDbArc
 50
143.6339875204329
 51
144.107479842329
1001
DBPROPERTIES
1002
{
1000
PbHidd
1002
}
  0
ARC
  5
79
330
1F
100
AcDbEntity
  8
THICK
100
AcDbCircle
 10
0.0
 20
0.0
 30
0.0
 40
490.0
100
AcDbArc
 50
36.36603232740995
 51
143.6339875204329
1001
DBPROPERTIES
1002
{
1000
PbThick
1002
}
  0
ARC
  5
7A
330
1F
100
AcDbEntity
  8
HIDDEN
100
AcDbCircle
 10
0.0
 20
0.0
 30
0.0
 40
490.0
100
AcDbArc
 50
35.89248270973431
 51
36.36603232740995
1001
DBPROPERTIES
1002
{
1000
PbHidd
1002
}
  0
ARC
  5
7B
330
1F
100
AcDbEntity
  8
THICK
100
AcDbCircle
 10
0.0
 20
0.0
 30
0.0
 40
490.0
100
AcDbArc
 50
0.0
 51
35.89248270973431
1001
DBPROPERTIES
1002
{
1000
PbThick
1002
}
  0
ARC
  5
7C
330
1F
100
AcDbEntity
  8
THICK
100
AcDbCircle
 10
-500.0
 20
-500.0
 30
0.0
 40
9.0
100
AcDbArc
 50
180.0000198478428
 51
0.0
1001
DBPROPERTIES
1002
{
1000
PbThick
1002
}
  0
ARC
  5
7D
330
1F
100
AcDbEntity
  8
THICK
100
AcDbCircle
 10
-500.0
 20
500.0
 30
0.0
 40
9.0
100
AcDbArc
 50
180.0000198478428
 51
0.0
1001
DBPROPERTIES
1002
{
1000
PbThick
1002
}
  0
ARC
  5
7E
330
1F
100
AcDbEntity
  8
THICK
100
AcDbCircle
 10
500.0
 20
-500.0
 30
0.0
 40
9.0
100
AcDbArc
 50
180.0000198478428
 51
0.0
1001
DBPROPERTIES
1002
{
1000
PbThick
1002
}
  0
ARC
  5
7F
330
1F
100
AcDbEntity
  8
THICK
100
AcDbCircle
 10
500.0
 20
500.0
 30
0.0
 40
9.0
100
AcDbArc
 50
180.0000198478428
 51
0.0
1001
DBPROPERTIES
1002
{
1000
PbThick
1002
}
  0
ARC
  5
80
330
1F
100
AcDbEntity
  8
THICK
100
AcDbCircle
 10
-0.0000000000000019
 20
0.0
 30
0.0
 40
91.35000000000001
100
AcDbArc
 50
270.0000187239684
 51
89.99998127603165
1001
DBPROPERTIES
1002
{
1000
PbThick
1002
}
  0
ARC
  5
81
330
1F
100
AcDbEntity
  8
THICK
100
AcDbCircle
 10
0.0
 20
0.0
 30
0.0
 40
86.27499999999999
100
AcDbArc
 50
270.0000187239684
 51
89.99998127603165
1001
DBPROPERTIES
1002
{
1000
PbThick
1002
}
  0
ARC
  5
82
330
1F
100
AcDbEntity
  8
THICK
100
AcDbCircle
 10
-0.0000000000000019
 20
0.0
 30
0.0
 40
101.5
100
AcDbArc
 50
270.0000187239684
 51
89.99998127603165
1001
DBPROPERTIES
1002
{
1000
PbThick
1002
}
  0
ARC
  5
83
330
1F
100
AcDbEntity
  8
HIDDEN
100
AcDbCircle
 10
-0.0000000000000049
 20
0.0
 30
0.0
 40
99.50000000000001
100
AcDbArc
 50
270.0000187239684
 51
89.99998127603165
1001
DBPROPERTIES
1002
{
1000
PbHidd
1002
}
  0
LINE
  5
84
330
1F
100
AcDbEntity
  8
HIDDEN
100
AcDbLine
 10
52.96750985273901
 20
-84.23
 30
0.0
 11
52.967509852739
 21
-84.23
 31
0.0
1001
DBPROPERTIES
1002
{
1000
PbHidd
1002
}
  0
LINE
  5
85
330
1F
100
AcDbEntity
  8
HIDDEN
100
AcDbLine
 10
50.75
 20
85.58438817915335
 30
0.0
 11
50.75000000000001
 21
85.58438817915335
 31
0.0
1001
DBPROPERTIES
1002
{
1000
PbHidd
1002
}
  0
ARC
  5
86
330
1F
100
AcDbEntity
  8
THICK
100
AcDbCircle
 10
-0.0000000000000169
 20
0.0
 30
0.0
 40
111.6500000000001
100
AcDbArc
 50
270.0000187239684
 51
281.6244156547005
1001
DBPROPERTIES
1002
{
1000
PbThick
1002
}
  0
ARC
  5
87
330
1F
100
AcDbEntity
  8
HIDDEN
100
AcDbCircle
 10
-0.0000000000000169
 20
0.0
 30
0.0
 40
111.6500000000001
100
AcDbArc
 50
281.6244156547005
 51
311.0260886865158
1001
DBPROPERTIES
1002
{
1000
PbHidd
1002
}
  0
ARC
  5
88
330
1F
100
AcDbEntity
  8
THICK
100
AcDbCircle
 10
-0.0000000000000169
 20
0.0
 30
0.0
 40
111.6500000000001
100
AcDbArc
 50
311.0260886865158
 51
62.96428016342961
1001
DBPROPERTIES
1002
{
1000
PbThick
1002
}
  0
ARC
  5
89
330
1F
100
AcDbEntity
  8
HIDDEN
100
AcDbCircle
 10
-0.0000000000000169
 20
0.0
 30
0.0
 40
111.6500000000001
100
AcDbArc
 50
62.96428016342961
 51
89.99998127603165
1001
DBPROPERTIES
1002
{
1000
PbHidd
1002
}
  0
ARC
  5
8A
330
1F
100
AcDbEntity
  8
THICK
100
AcDbCircle
 10
131.95
 20
-107.46
 30
0.0
 40
1.9
100
AcDbArc
 50
326.3529388893833
 51
0.0
1001
DBPROPERTIES
1002
{
1000
PbThick
1002
}
  0
ARC
  5
8B
330
1F
100
AcDbEntity
  8
THICK
100
AcDbCircle
 10
-131.95
 20
-107.46
 30
0.0
 40
1.9
100
AcDbArc
 50
180.0000198478428
 51
213.6470412627738
1001
DBPROPERTIES
1002
{
1000
PbThick
1002
}
  0
LINE
  5
8C
330
1F
100
AcDbEntity
  8
HIDDEN
100
AcDbLine
 10
480.154686732208
 20
412.2688573528363
 30
0.0
 11
480.154686732208
 21
412.2688573528363
 31
0.0
1001
DBPROPERTIES
1002
{
1000
PbHidd
1002
}
  0
LINE
  5
8D
330
1F
100
AcDbEntity
  8
HIDDEN
100
AcDbLine
 10
536.5816867322079
 20
497.0472573528363
 30
0.0
 11
536.5816867322079
 21
497.0472573528363
 31
0.0
1001
DBPROPERTIES
1002
{
1000
PbHidd
1002
}
  0
LINE
  5
8E
330
1F
100
AcDbEntity
  8
THICK
100
AcDbLine
 10
536.5816867322079
 20
497.0472573528363
 30
0.0
 11
521.8432896719165
 21
474.9036431019242
 31
0.0
1001
DBPROPERTIES
1002
{
1000
PbThick
1002
}
  0
LINE
  5
8F
330
1F
100
AcDbEntity
  8
THICK
100
AcDbLine
 10
521.8432896719165
 20
474.9036431019242
 30
0.0
 11
133.5316867322081
 21
-108.5127426471637
 31
0.0
1001
DBPROPERTIES
1002
{
1000
PbThick
1002
}
  0
LINE
  5
90
330
1F
100
AcDbEntity
  8
HIDDEN
100
AcDbLine
 10
133.531686732208
 20
-108.5127426471637
 30
0.0
 11
133.531686732208
 21
-108.5127426471637
 31
0.0
1001
DBPROPERTIES
1002
{
1000
PbHidd
1002
}
  0
LINE
  5
91
330
1F
100
AcDbEntity
  8
HIDDEN
100
AcDbLine
 10
134.4036066986886
 20
-107.2027318422957
 30
0.0
 11
134.4036066986886
 21
-107.2027318422957
 31
0.0
1001
DBPROPERTIES
1002
{
1000
PbHidd
1002
}
  0
LINE
  5
92
330
1F
100
AcDbEntity
  8
HIDDEN
100
AcDbLine
 10
534.0726000344696
 20
498.717260975142
 30
0.0
 11
534.0726000344696
 21
498.717260975142
 31
0.0
1001
DBPROPERTIES
1002
{
1000
PbHidd
1002
}
  0
LINE
  5
93
330
1F
100
AcDbEntity
  8
HIDDEN
100
AcDbLine
 10
533.4183132677919
 20
499.1527426471636
 30
0.0
 11
533.4183132677919
 21
499.1527426471636
 31
0.0
1001
DBPROPERTIES
1002
{
1000
PbHidd
1002
}
  0
LINE
  5
94
330
1F
100
AcDbEntity
  8
THICK
100
AcDbLine
 10
536.5816867322079
 20
497.0472573528363
 30
0.0
 11
533.4183132677919
 21
499.1527426471636
 31
0.0
1001
DBPROPERTIES
1002
{
1000
PbThick
1002
}
  0
LINE
  5
95
330
1F
100
AcDbEntity
  8
HIDDEN
100
AcDbLine
 10
-476.991313267792
 20
414.3743426471636
 30
0.0
 11
-476.991313267792
 21
414.3743426471636
 31
0.0
1001
DBPROPERTIES
1002
{
1000
PbHidd
1002
}
  0
LINE
  5
96
330
1F
100
AcDbEntity
  8
HIDDEN
100
AcDbLine
 10
-531.2493775647766
 20
495.8940385054493
 30
0.0
 11
-531.2493775647766
 21
495.8940385054493
 31
0.0
1001
DBPROPERTIES
1002
{
1000
PbHidd
1002
}
  0
LINE
  5
97
330
1F
100
AcDbEntity
  8
HIDDEN
100
AcDbLine
 10
-533.4183132677919
 20
499.1527426471636
 30
0.0
 11
-533.4183132677919
 21
499.1527426471636
 31
0.0
1001
DBPROPERTIES
1002
{
1000
PbHidd
1002
}
  0
LINE
  5
98
330
1F
100
AcDbEntity
  8
THICK
100
AcDbLine
 10
-533.4183132677919
 20
499.1527426471636
 30
0.0
 11
-518.6799162075004
 21
477.0091283962515
 31
0.0
1001
DBPROPERTIES
1002
{
1000
PbThick
1002
}
  0
LINE
  5
99
330
1F
100
AcDbEntity
  8
THICK
100
AcDbLine
 10
-518.6799162075005
 20
477.0091283962515
 30
0.0
 11
-130.9322327407769
 21
-105.5599999999999
 31
0.0
1001
DBPROPERTIES
1002
{
1000
PbThick
1002
}
  0
LINE
  5
9A
330
1F
100
AcDbEntity
  8
HIDDEN
100
AcDbLine
 10
-130.9322327407769
 20
-105.56
 30
0.0
 11
-130.9322327407769
 21
-105.56
 31
0.0
1001
DBPROPERTIES
1002
{
1000
PbHidd
1002
}
  0
LINE
  5
9B
330
1F
100
AcDbEntity
  8
HIDDEN
100
AcDbLine
 10
-534.0726000344694
 20
498.717260975142
 30
0.0
 11
-534.0726000344694
 21
498.717260975142
 31
0.0
1001
DBPROPERTIES
1002
{
1000
PbHidd
1002
}
  0
LINE
  5
9C
330
1F
100
AcDbEntity
  8
HIDDEN
100
AcDbLine
 10
-536.5816867322079
 20
497.0472573528363
 30
0.0
 11
-536.5816867322079
 21
497.0472573528363
 31
0.0
1001
DBPROPERTIES
1002
{
1000
PbHidd
1002
}
  0
LINE
  5
9D
330
1F
100
AcDbEntity
  8
THICK
100
AcDbLine
 10
-533.4183132677919
 20
499.1527426471636
 30
0.0
 11
-536.5816867322079
 21
497.0472573528362
 31
0.0
1001
DBPROPERTIES
1002
{
1000
PbThick
1002
}
  0
LINE
  5
9E
330
1F
100
AcDbEntity
  8
HIDDEN
100
AcDbLine
 10
536.3289204768062
 20
-500.5420712955664
 30
0.0
 11
536.3289204768062
 21
-500.5420712955664
 31
0.0
1001
DBPROPERTIES
1002
{
1000
PbHidd
1002
}
  0
LINE
  5
9F
330
1F
100
AcDbEntity
  8
HIDDEN
100
AcDbLine
 10
516.1291348046956
 20
-480.7737957453683
 30
0.0
 11
516.1291348046956
 21
-480.7737957453683
 31
0.0
1001
DBPROPERTIES
1002
{
1000
PbHidd
1002
}
  0
LINE
  5
A0
330
1F
100
AcDbEntity
  8
HIDDEN
100
AcDbLine
 10
465.7951704768062
 20
-431.5150712955664
 30
0.0
 11
465.7951704768062
 21
-431.5150712955664
 31
0.0
1001
DBPROPERTIES
1002
{
1000
PbHidd
1002
}
  0
LINE
  5
A1
330
1F
100
AcDbEntity
  8
THICK
100
AcDbLine
 10
517.3179186147354
 20
-481.9371846202774
 30
0.0
 11
134.4036066986886
 21
-107.2027318422957
 31
0.0
1001
DBPROPERTIES
1002
{
1000
PbThick
1002
}
  0
LINE
  5
A2
330
1F
100
AcDbEntity
  8
THICK
100
AcDbLine
 10
536.3289204768062
 20
-500.5420712955664
 30
0.0
 11
517.3179186147354
 21
-481.9371846202775
 31
0.0
1001
DBPROPERTIES
1002
{
1000
PbThick
1002
}
  0
LINE
  5
A3
330
1F
100
AcDbEntity
  8
HIDDEN
100
AcDbLine
 10
463.1373295231936
 20
-434.2309287044336
 30
0.0
 11
463.1373295231936
 21
-434.2309287044336
 31
0.0
1001
DBPROPERTIES
1002
{
1000
PbHidd
1002
}
  0
LINE
  5
A4
330
1F
100
AcDbEntity
  8
HIDDEN
100
AcDbLine
 10
465.7951704768062
 20
-431.5150712955664
 30
0.0
 11
463.1373295231935
 21
-434.2309287044336
 31
0.0
1001
DBPROPERTIES
1002
{
1000
PbHidd
1002
}
  0
LINE
  5
A5
330
1F
100
AcDbEntity
  8
HIDDEN
100
AcDbLine
 10
-536.3289204768062
 20
-500.5420712955664
 30
0.0
 11
-536.3289204768062
 21
-500.5420712955664
 31
0.0
1001
DBPROPERTIES
1002
{
1000
PbHidd
1002
}
  0
LINE
  5
A6
330
1F
100
AcDbEntity
  8
HIDDEN
100
AcDbLine
 10
-533.6710795231935
 20
-503.2579287044337
 30
0.0
 11
-533.6710795231935
 21
-503.2579287044337
 31
0.0
1001
DBPROPERTIES
1002
{
1000
PbHidd
1002
}
  0
LINE
  5
A7
330
1F
100
AcDbEntity
  8
THICK
100
AcDbLine
 10
-533.6710795231935
 20
-503.2579287044337
 30
0.0
 11
-536.3289204768062
 21
-500.5420712955664
 31
0.0
1001
DBPROPERTIES
1002
{
1000
PbThick
1002
}
  0
LINE
  5
A8
330
1F
100
AcDbEntity
  8
HIDDEN
100
AcDbLine
 10
-532.8757499788942
 20
-502.4795890804332
 30
0.0
 11
-532.8757499788942
 21
-502.4795890804332
 31
0.0
1001
DBPROPERTIES
1002
{
1000
PbHidd
1002
}
  0
LINE
  5
A9
330
1F
100
AcDbEntity
  8
HIDDEN
100
AcDbLine
 10
-463.1373295231936
 20
-434.2309287044336
 30
0.0
 11
-463.1373295231936
 21
-434.2309287044336
 31
0.0
1001
DBPROPERTIES
1002
{
1000
PbHidd
1002
}
  0
LINE
  5
AA
330
1F
100
AcDbEntity
  8
HIDDEN
100
AcDbLine
 10
-131.1749833759419
 20
-109.36
 30
0.0
 11
-131.1749833759419
 21
-109.36
 31
0.0
1001
DBPROPERTIES
1002
{
1000
PbHidd
1002
}
  0
LINE
  5
AB
330
1F
100
AcDbEntity
  8
THICK
100
AcDbLine
 10
-514.6600776611227
 20
-484.6530420291447
 30
0.0
 11
-131.174983375942
 21
-109.3600000000001
 31
0.0
1001
DBPROPERTIES
1002
{
1000
PbThick
1002
}
  0
LINE
  5
AC
330
1F
100
AcDbEntity
  8
THICK
100
AcDbLine
 10
-533.6710795231935
 20
-503.2579287044337
 30
0.0
 11
-514.6600776611227
 21
-484.6530420291448
 31
0.0
1001
DBPROPERTIES
1002
{
1000
PbThick
1002
}
  0
LINE
  5
AD
330
1F
100
AcDbEntity
  8
HIDDEN
100
AcDbLine
 10
131.95
 20
-105.56
 30
0.0
 11
131.95
 21
-105.56
 31
0.0
1001
DBPROPERTIES
1002
{
1000
PbHidd
1002
}
  0
LINE
  5
AE
330
1F
100
AcDbEntity
  8
HIDDEN
100
AcDbLine
 10
130.9322327407769
 20
-105.56
 30
0.0
 11
130.9322327407769
 21
-105.56
 31
0.0
1001
DBPROPERTIES
1002
{
1000
PbHidd
1002
}
  0
LINE
  5
AF
330
1F
100
AcDbEntity
  8
HIDDEN
100
AcDbLine
 10
-131.95
 20
-105.56
 30
0.0
 11
-131.95
 21
-105.56
 31
0.0
1001
DBPROPERTIES
1002
{
1000
PbHidd
1002
}
  0
LINE
  5
B0
330
1F
100
AcDbEntity
  8
THICK
100
AcDbLine
 10
131.95
 20
-105.56
 30
0.0
 11
-131.95
 21
-105.56
 31
0.0
1001
DBPROPERTIES
1002
{
1000
PbThick
1002
}
  0
LINE
  5
B1
330
1F
100
AcDbEntity
  8
HIDDEN
100
AcDbLine
 10
-97.44
 20
-105.56
 30
0.0
 11
-97.44
 21
-105.56
 31
0.0
1001
DBPROPERTIES
1002
{
1000
PbHidd
1002
}
  0
LINE
  5
B2
330
1F
100
AcDbEntity
  8
HIDDEN
100
AcDbLine
 10
97.44
 20
-105.56
 30
0.0
 11
97.44
 21
-105.56
 31
0.0
1001
DBPROPERTIES
1002
{
1000
PbHidd
1002
}
  0
LINE
  5
B3
330
1F
100
AcDbEntity
  8
HIDDEN
100
AcDbLine
 10
476.991313267792
 20
414.3743426471636
 30
0.0
 11
476.991313267792
 21
414.3743426471636
 31
0.0
1001
DBPROPERTIES
1002
{
1000
PbHidd
1002
}
  0
LINE
  5
B4
330
1F
100
AcDbEntity
  8
HIDDEN
100
AcDbLine
 10
480.154686732208
 20
412.2688573528363
 30
0.0
 11
476.991313267792
 21
414.3743426471637
 31
0.0
1001
DBPROPERTIES
1002
{
1000
PbHidd
1002
}
  0
LINE
  5
B5
330
1F
100
AcDbEntity
  8
THICK
100
AcDbLine
 10
533.418313267792
 20
499.1527426471636
 30
0.0
 11
518.6799162075006
 21
477.0091283962515
 31
0.0
1001
DBPROPERTIES
1002
{
1000
PbThick
1002
}
  0
LINE
  5
B6
330
1F
100
AcDbEntity
  8
THICK
100
AcDbLine
 10
521.8432896719165
 20
474.9036431019242
 30
0.0
 11
518.6799162075005
 21
477.0091283962516
 31
0.0
1001
DBPROPERTIES
1002
{
1000
PbThick
1002
}
  0
LINE
  5
B7
330
1F
100
AcDbEntity
  8
THICK
100
AcDbLine
 10
518.6799162075005
 20
477.0091283962515
 30
0.0
 11
130.9322327407769
 21
-105.5599999999999
 31
0.0
1001
DBPROPERTIES
1002
{
1000
PbThick
1002
}
  0
LINE
  5
B8
330
1F
100
AcDbEntity
  8
THICK
100
AcDbLine
 10
133.8069026773091
 20
-107.0576165423348
 30
0.0
 11
134.1740317718726
 21
-106.9780611212107
 31
0.0
1001
DBPROPERTIES
1002
{
1000
PbThick
1002
}
  0
LINE
  5
B9
330
1F
100
AcDbEntity
  8
HIDDEN
100
AcDbLine
 10
531.2493775647763
 20
495.8940385054487
 30
0.0
 11
531.2493775647763
 21
495.8940385054487
 31
0.0
1001
DBPROPERTIES
1002
{
1000
PbHidd
1002
}
  0
ARC
  5
BA
330
1F
100
AcDbEntity
  8
THICK
100
AcDbCircle
 10
131.95
 20
-107.46
 30
0.0
 40
1.9
100
AcDbArc
 50
270.0000187239684
 51
326.3529388893833
1001
DBPROPERTIES
1002
{
1000
PbThick
1002
}
  0
LINE
  5
BB
330
1F
100
AcDbEntity
  8
HIDDEN
100
AcDbLine
 10
131.95
 20
-109.36
 30
0.0
 11
131.95
 21
-109.36
 31
0.0
1001
DBPROPERTIES
1002
{
1000
PbHidd
1002
}
  0
LINE
  5
BC
330
1F
100
AcDbEntity
  8
HIDDEN
100
AcDbLine
 10
133.2789204768064
 20
-106.1020712955664
 30
0.0
 11
133.2789204768064
 21
-106.1020712955664
 31
0.0
1001
DBPROPERTIES
1002
{
1000
PbHidd
1002
}
  0
ARC
  5
BD
330
1F
100
AcDbEntity
  8
THICK
100
AcDbCircle
 10
131.95
 20
-107.46
 30
0.0
 40
1.9
100
AcDbArc
 50
45.61855587363906
 51
89.99998127603165
1001
DBPROPERTIES
1002
{
1000
PbThick
1002
}
  0
LINE
  5
BE
330
1F
100
AcDbEntity
  8
THICK
100
AcDbLine
 10
131.174983375942
 20
-109.3600000000001
 30
0.0
 11
514.6600776611227
 21
-484.6530420291447
 31
0.0
1001
DBPROPERTIES
1002
{
1000
PbThick
1002
}
  0
LINE
  5
BF
330
1F
100
AcDbEntity
  8
THICK
100
AcDbLine
 10
517.3179186147354
 20
-481.9371846202774
 30
0.0
 11
514.6600776611227
 21
-484.6530420291447
 31
0.0
1001
DBPROPERTIES
1002
{
1000
PbThick
1002
}
  0
LINE
  5
C0
330
1F
100
AcDbEntity
  8
THICK
100
AcDbLine
 10
134.1740317718726
 20
-106.9780611212107
 30
0.0
 11
133.2789204768067
 21
-106.1020712955668
 31
0.0
1001
DBPROPERTIES
1002
{
1000
PbThick
1002
}
  0
LINE
  5
C1
330
1F
100
AcDbEntity
  8
THICK
100
AcDbLine
 10
-134.1740317718726
 20
-106.9780611212107
 30
0.0
 11
-133.8069026773091
 21
-107.0576165423348
 31
0.0
1001
DBPROPERTIES
1002
{
1000
PbThick
1002
}
  0
LINE
  5
C2
330
1F
100
AcDbEntity
  8
THICK
100
AcDbLine
 10
-518.6799162075005
 20
477.0091283962515
 30
0.0
 11
-521.8432896719165
 21
474.9036431019242
 31
0.0
1001
DBPROPERTIES
1002
{
1000
PbThick
1002
}
  0
LINE
  5
C3
330
1F
100
AcDbEntity
  8
THICK
100
AcDbLine
 10
-521.8432896719164
 20
474.9036431019242
 30
0.0
 11
-133.531686732208
 21
-108.5127426471637
 31
0.0
1001
DBPROPERTIES
1002
{
1000
PbThick
1002
}
  0
LINE
  5
C4
330
1F
100
AcDbEntity
  8
HIDDEN
100
AcDbLine
 10
-480.154686732208
 20
412.2688573528363
 30
0.0
 11
-480.154686732208
 21
412.2688573528363
 31
0.0
1001
DBPROPERTIES
1002
{
1000
PbHidd
1002
}
  0
LINE
  5
C5
330
1F
100
AcDbEntity
  8
HIDDEN
100
AcDbLine
 10
-476.991313267792
 20
414.3743426471636
 30
0.0
 11
-480.1546867322079
 21
412.2688573528363
 31
0.0
1001
DBPROPERTIES
1002
{
1000
PbHidd
1002
}
  0
LINE
  5
C6
330
1F
100
AcDbEntity
  8
THICK
100
AcDbLine
 10
-536.5816867322079
 20
497.0472573528363
 30
0.0
 11
-521.8432896719164
 21
474.9036431019242
 31
0.0
1001
DBPROPERTIES
1002
{
1000
PbThick
1002
}
  0
LINE
  5
C7
330
1F
100
AcDbEntity
  8
HIDDEN
100
AcDbLine
 10
-134.4036066986886
 20
-107.2027318422957
 30
0.0
 11
-134.4036066986886
 21
-107.2027318422957
 31
0.0
1001
DBPROPERTIES
1002
{
1000
PbHidd
1002
}
  0
LINE
  5
C8
330
1F
100
AcDbEntity
  8
HIDDEN
100
AcDbLine
 10
-133.531686732208
 20
-108.5127426471637
 30
0.0
 11
-133.531686732208
 21
-108.5127426471637
 31
0.0
1001
DBPROPERTIES
1002
{
1000
PbHidd
1002
}
  0
ARC
  5
C9
330
1F
100
AcDbEntity
  8
THICK
100
AcDbCircle
 10
-131.95
 20
-107.46
 30
0.0
 40
1.9
100
AcDbArc
 50
213.6470412627738
 51
270.0000187239684
1001
DBPROPERTIES
1002
{
1000
PbThick
1002
}
  0
LINE
  5
CA
330
1F
100
AcDbEntity
  8
HIDDEN
100
AcDbLine
 10
-131.95
 20
-109.36
 30
0.0
 11
-131.95
 21
-109.36
 31
0.0
1001
DBPROPERTIES
1002
{
1000
PbHidd
1002
}
  0
ARC
  5
CB
330
1F
100
AcDbEntity
  8
THICK
100
AcDbCircle
 10
-131.95
 20
-107.46
 30
0.0
 40
1.9
100
AcDbArc
 50
134.3814066784242
 51
180.0000198478428
1001
DBPROPERTIES
1002
{
1000
PbThick
1002
}
  0
LINE
  5
CC
330
1F
100
AcDbEntity
  8
THICK
100
AcDbLine
 10
-134.4036066986886
 20
-107.2027318422957
 30
0.0
 11
-517.3179186147354
 21
-481.9371846202774
 31
0.0
1001
DBPROPERTIES
1002
{
1000
PbThick
1002
}
  0
LINE
  5
CD
330
1F
100
AcDbEntity
  8
THICK
100
AcDbLine
 10
-514.6600776611227
 20
-484.6530420291447
 30
0.0
 11
-517.3179186147354
 21
-481.9371846202774
 31
0.0
1001
DBPROPERTIES
1002
{
1000
PbThick
1002
}
  0
LINE
  5
CE
330
1F
100
AcDbEntity
  8
THICK
100
AcDbLine
 10
-133.2789204768066
 20
-106.1020712955666
 30
0.0
 11
-134.1740317718726
 21
-106.9780611212107
 31
0.0
1001
DBPROPERTIES
1002
{
1000
PbThick
1002
}
  0
LINE
  5
CF
330
1F
100
AcDbEntity
  8
HIDDEN
100
AcDbLine
 10
-516.1291348047064
 20
-480.773795745379
 30
0.0
 11
-516.1291348047064
 21
-480.773795745379
 31
0.0
1001
DBPROPERTIES
1002
{
1000
PbHidd
1002
}
  0
LINE
  5
D0
330
1F
100
AcDbEntity
  8
THICK
100
AcDbLine
 10
-517.3179186147354
 20
-481.9371846202775
 30
0.0
 11
-536.3289204768062
 21
-500.5420712955664
 31
0.0
1001
DBPROPERTIES
1002
{
1000
PbThick
1002
}
  0
LINE
  5
D1
330
1F
100
AcDbEntity
  8
HIDDEN
100
AcDbLine
 10
-465.7951704768062
 20
-431.5150712955664
 30
0.0
 11
-465.7951704768062
 21
-431.5150712955664
 31
0.0
1001
DBPROPERTIES
1002
{
1000
PbHidd
1002
}
  0
LINE
  5
D2
330
1F
100
AcDbEntity
  8
HIDDEN
100
AcDbLine
 10
532.8757499788943
 20
-502.4795890804332
 30
0.0
 11
532.8757499788943
 21
-502.4795890804332
 31
0.0
1001
DBPROPERTIES
1002
{
1000
PbHidd
1002
}
  0
LINE
  5
D3
330
1F
100
AcDbEntity
  8
HIDDEN
100
AcDbLine
 10
533.6710795231935
 20
-503.2579287044337
 30
0.0
 11
533.6710795231935
 21
-503.2579287044337
 31
0.0
1001
DBPROPERTIES
1002
{
1000
PbHidd
1002
}
  0
LINE
  5
D4
330
1F
100
AcDbEntity
  8
THICK
100
AcDbLine
 10
514.6600776611227
 20
-484.6530420291447
 30
0.0
 11
533.6710795231935
 21
-503.2579287044337
 31
0.0
1001
DBPROPERTIES
1002
{
1000
PbThick
1002
}
  0
LINE
  5
D5
330
1F
100
AcDbEntity
  8
HIDDEN
100
AcDbLine
 10
131.1749833759419
 20
-109.36
 30
0.0
 11
131.1749833759419
 21
-109.36
 31
0.0
1001
DBPROPERTIES
1002
{
1000
PbHidd
1002
}
  0
LINE
  5
D6
330
1F
100
AcDbEntity
  8
THICK
100
AcDbLine
 10
536.3289204768062
 20
-500.5420712955664
 30
0.0
 11
533.6710795231935
 21
-503.2579287044337
 31
0.0
1001
DBPROPERTIES
1002
{
1000
PbThick
1002
}
  0
ARC
  5
D7
330
1F
100
AcDbEntity
  8
THICK
100
AcDbCircle
 10
131.95
 20
-107.46
 30
0.0
 40
1.9
100
AcDbArc
 50
0.0
 51
45.61855587363906
1001
DBPROPERTIES
1002
{
1000
PbThick
1002
}
  0
LINE
  5
D8
330
1F
100
AcDbEntity
  8
HIDDEN
100
AcDbLine
 10
-463.1373295231936
 20
-434.2309287044336
 30
0.0
 11
-465.7951704768063
 21
-431.5150712955664
 31
0.0
1001
DBPROPERTIES
1002
{
1000
PbHidd
1002
}
  0
LINE
  5
D9
330
1F
100
AcDbEntity
  8
HIDDEN
100
AcDbLine
 10
-133.2789204768064
 20
-106.1020712955664
 30
0.0
 11
-133.2789204768064
 21
-106.1020712955664
 31
0.0
1001
DBPROPERTIES
1002
{
1000
PbHidd
1002
}
  0
ARC
  5
DA
330
1F
100
AcDbEntity
  8
THICK
100
AcDbCircle
 10
-131.95
 20
-107.46
 30
0.0
 40
1.9
100
AcDbArc
 50
89.99998127603165
 51
134.3814066784242
1001
DBPROPERTIES
1002
{
1000
PbThick
1002
}
  0
LINE
  5
DB
330
1F
100
AcDbEntity
  8
THICK
100
AcDbLine
 10
-131.95
 20
-109.36
 30
0.0
 11
131.95
 21
-109.36
 31
0.0
1001
DBPROPERTIES
1002
{
1000
PbThick
1002
}
  0
LINE
  5
DC
330
1F
100
AcDbEntity
  8
THICK
100
AcDbLine
 10
-97.44
 20
-84.23
 30
0.0
 11
-97.44
 21
-105.56
 31
0.0
1001
DBPROPERTIES
1002
{
1000
PbThick
1002
}
  0
LINE
  5
DD
330
1F
100
AcDbEntity
  8
THICK
100
AcDbLine
 10
97.44
 20
-105.56
 30
0.0
 11
97.44
 21
-84.23
 31
0.0
1001
DBPROPERTIES
1002
{
1000
PbThick
1002
}
  0
LINE
  5
DE
330
1F
100
AcDbEntity
  8
THICK
100
AcDbLine
 10
97.44
 20
-84.23
 30
0.0
 11
56.6352990633933
 21
-84.23
 31
0.0
1001
DBPROPERTIES
1002
{
1000
PbThick
1002
}
  0
LINE
  5
DF
330
1F
100
AcDbEntity
  8
HIDDEN
100
AcDbLine
 10
56.6352990633933
 20
-84.23
 30
0.0
 11
52.96750985273901
 21
-84.23
 31
0.0
1001
DBPROPERTIES
1002
{
1000
PbHidd
1002
}
  0
LINE
  5
E0
330
1F
100
AcDbEntity
  8
HIDDEN
100
AcDbLine
 10
-52.96750985273902
 20
-84.23
 30
0.0
 11
-56.63529906339332
 21
-84.23
 31
0.0
1001
DBPROPERTIES
1002
{
1000
PbHidd
1002
}
  0
LINE
  5
E1
330
1F
100
AcDbEntity
  8
THICK
100
AcDbLine
 10
-56.63529906339332
 20
-84.23
 30
0.0
 11
-97.44
 21
-84.23
 31
0.0
1001
DBPROPERTIES
1002
{
1000
PbThick
1002
}
  0
LINE
  5
E2
330
1F
100
AcDbEntity
  8
HIDDEN
100
AcDbLine
 10
97.44
 20
-84.23
 30
0.0
 11
97.44
 21
-84.23
 31
0.0
1001
DBPROPERTIES
1002
{
1000
PbHidd
1002
}
  0
LINE
  5
E3
330
1F
100
AcDbEntity
  8
HIDDEN
100
AcDbLine
 10
-56.86305948686987
 20
-96.08493620642477
 30
0.0
 11
-73.50946296395541
 21
-109.36
 31
0.0
1001
DBPROPERTIES
1002
{
1000
PbHidd
1002
}
  0
LINE
  5
E4
330
1F
100
AcDbEntity
  8
THICK
100
AcDbLine
 10
-73.50946296395541
 20
-109.36
 30
0.0
 11
-344.4863676719937
 21
-325.4568705063834
 31
0.0
1001
DBPROPERTIES
1002
{
1000
PbThick
1002
}
  0
LINE
  5
E5
330
1F
100
AcDbEntity
  8
THICK
100
AcDbLine
 10
-397.8321055662848
 20
-258.5634310035921
 30
0.0
 11
-159.9334462815346
 21
-68.84558097320215
 31
0.0
1001
DBPROPERTIES
1002
{
1000
PbThick
1002
}
  0
LINE
  5
E6
330
1F
100
AcDbEntity
  8
HIDDEN
100
AcDbLine
 10
-159.9334462815346
 20
-68.84558097320215
 30
0.0
 11
-156.9514797185371
 21
-66.46754199267457
 31
0.0
1001
DBPROPERTIES
1002
{
1000
PbHidd
1002
}
  0
LINE
  5
E7
330
1F
100
AcDbEntity
  8
THICK
100
AcDbLine
 10
-156.9514797185371
 20
-66.46754199267457
 30
0.0
 11
-108.1896311976506
 21
-27.58126540455272
 31
0.0
1001
DBPROPERTIES
1002
{
1000
PbThick
1002
}
  0
ELLIPSE
  5
E8
330
1F
100
AcDbEntity
  8
THICK
100
AcDbEllipse
 10
-189.5794008066651
 20
-147.2050637369036
 30
0.0
 11
-187.6395557923272
 21
-149.637552446096
 31
0.0
210
0.0
220
0.0
230
1.0
 40
0.7071067811865475
 41
0.2239204498519253
 42
0.2548325122338405
1001
DBPROPERTIES
1002
{
1000
PbThick
1002
}
  0
ELLIPSE
  5
E9
330
1F
100
AcDbEntity
  8
HIDDEN
100
AcDbEllipse
 10
-189.5794008066651
 20
-147.2050637369036
 30
0.0
 11
-187.6395557923272
 21
-149.637552446096
 31
0.0
210
0.0
220
0.0
230
1.0
 40
0.7071067811865475
 41
0.2015907953723154
 42
0.2239204498519253
1001
DBPROPERTIES
1002
{
1000
PbHidd
1002
}
  0
ELLIPSE
  5
EA
330
1F
100
AcDbEntity
  8
THICK
100
AcDbEllipse
 10
-189.5794008066651
 20
-147.2050637369036
 30
0.0
 11
-187.6395557923272
 21
-149.637552446096
 31
0.0
210
0.0
220
0.0
230
1.0
 40
0.7071067811865475
 41
0.0
 42
0.2015907953723154
1001
DBPROPERTIES
1002
{
1000
PbThick
1002
}
  0
ELLIPSE
  5
EB
330
1F
100
AcDbEntity
  8
THICK
100
AcDbEllipse
 10
-189.5794008066651
 20
-147.2050637369036
 30
0.0
 11
-187.6395557923272
 21
-149.637552446096
 31
0.0
210
0.0
220
0.0
230
1.0
 40
0.7071067811865475
 41
-0.2548325122338408
 42
0.0
1001
DBPROPERTIES
1002
{
1000
PbThick
1002
}
  0
LINE
  5
EC
330
1F
100
AcDbEntity
  8
HIDDEN
100
AcDbLine
 10
-106.3291073524852
 20
-34.05647412201827
 30
0.0
 11
-393.9524155376091
 21
-263.4284084219769
 31
0.0
1001
DBPROPERTIES
1002
{
1000
PbHidd
1002
}
  0
LINE
  5
ED
330
1F
100
AcDbEntity
  8
HIDDEN
100
AcDbLine
 10
-393.9524155376091
 20
-263.4284084219769
 30
0.0
 11
-397.8321055662848
 21
-258.5634310035921
 31
0.0
1001
DBPROPERTIES
1002
{
1000
PbHidd
1002
}
  0
LINE
  5
EE
330
1F
100
AcDbEntity
  8
HIDDEN
100
AcDbLine
 10
-50.96420327468382
 20
-99.33968232572886
 30
0.0
 11
-63.52928420900042
 21
-109.36
 31
0.0
1001
DBPROPERTIES
1002
{
1000
PbHidd
1002
}
  0
LINE
  5
EF
330
1F
100
AcDbEntity
  8
THICK
100
AcDbLine
 10
-63.52928420900042
 20
-109.36
 30
0.0
 11
-340.606677643318
 21
-330.3218479247682
 31
0.0
1001
DBPROPERTIES
1002
{
1000
PbThick
1002
}
  0
LINE
  5
F0
330
1F
100
AcDbEntity
  8
THICK
100
AcDbLine
 10
-340.606677643318
 20
-330.3218479247682
 30
0.0
 11
-344.4863676719937
 21
-325.4568705063834
 31
0.0
1001
DBPROPERTIES
1002
{
1000
PbThick
1002
}
  0
ELLIPSE
  5
F1
330
1F
100
AcDbEntity
  8
HIDDEN
100
AcDbEllipse
 10
-185.6997107779893
 20
-152.0700411552884
 30
0.0
 11
187.6395557923272
 21
149.637552446096
 31
0.0
210
0.0
220
0.0
230
1.0
 40
0.7071067811865475
 41
2.886760141355952
 42
3.141592653589793
1001
DBPROPERTIES
1002
{
1000
PbHidd
1002
}
  0
ELLIPSE
  5
F2
330
1F
100
AcDbEntity
  8
THICK
100
AcDbEllipse
 10
-185.6997107779893
 20
-152.0700411552884
 30
0.0
 11
187.6395557923272
 21
149.637552446096
 31
0.0
210
0.0
220
0.0
230
1.0
 40
0.7071067811865475
 41
-3.141592653589793
 42
-2.976326483619813
1001
DBPROPERTIES
1002
{
1000
PbThick
1002
}
  0
ELLIPSE
  5
F3
330
1F
100
AcDbEntity
  8
HIDDEN
100
AcDbEllipse
 10
-185.6997107779893
 20
-152.0700411552884
 30
0.0
 11
187.6395557923272
 21
149.637552446096
 31
0.0
210
0.0
220
0.0
230
1.0
 40
0.7071067811865475
 41
-2.976326483619813
 42
-2.954035662058766
1001
DBPROPERTIES
1002
{
1000
PbHidd
1002
}
  0
ELLIPSE
  5
F4
330
1F
100
AcDbEntity
  8
THICK
100
AcDbEllipse
 10
-185.6997107779893
 20
-152.0700411552884
 30
0.0
 11
187.6395557923272
 21
149.637552446096
 31
0.0
210
0.0
220
0.0
230
1.0
 40
0.7071067811865475
 41
-2.954035662058766
 42
-2.886760141355952
1001
DBPROPERTIES
1002
{
1000
PbThick
1002
}
  0
LINE
  5
F5
330
1F
100
AcDbEntity
  8
THICK
100
AcDbLine
 10
-110.575765809665
 20
-15.45064774066561
 30
0.0
 11
-205.2969744699639
 21
6.168850022395389
 31
0.0
1001
DBPROPERTIES
1002
{
1000
PbThick
1002
}
  0
LINE
  5
F6
330
1F
100
AcDbEntity
  8
HIDDEN
100
AcDbLine
 10
-205.2969744699639
 20
6.168850022395389
 30
0.0
 11
-210.679390295621
 21
7.397351311055914
 31
0.0
1001
DBPROPERTIES
1002
{
1000
PbHidd
1002
}
  0
LINE
  5
F7
330
1F
100
AcDbEntity
  8
THICK
100
AcDbLine
 10
-210.679390295621
 20
7.397351311055914
 30
0.0
 11
-469.2361646702575
 21
66.41124782143311
 31
0.0
1001
DBPROPERTIES
1002
{
1000
PbThick
1002
}
  0
LINE
  5
F8
330
1F
100
AcDbEntity
  8
THICK
100
AcDbLine
 10
-450.1972912461242
 20
149.8260025039222
 30
0.0
 11
-279.5541559226348
 21
110.8778204168604
 31
0.0
1001
DBPROPERTIES
1002
{
1000
PbThick
1002
}
  0
LINE
  5
F9
330
1F
100
AcDbEntity
  8
HIDDEN
100
AcDbLine
 10
-279.5541559226348
 20
110.8778204168604
 30
0.0
 11
-274.1717400969777
 21
109.6493191281999
 31
0.0
1001
DBPROPERTIES
1002
{
1000
PbHidd
1002
}
  0
LINE
  5
FA
330
1F
100
AcDbEntity
  8
THICK
100
AcDbLine
 10
-274.1717400969777
 20
109.6493191281999
 30
0.0
 11
-89.01903333817825
 21
67.38942204483084
 31
0.0
1001
DBPROPERTIES
1002
{
1000
PbThick
1002
}
  0
ELLIPSE
  5
FB
330
1F
100
AcDbEntity
  8
THICK
100
AcDbEllipse
 10
-233.2903762536692
 20
56.4382879561515
 30
0.0
 11
-233.9826989236376
 21
53.4050241495155
 31
0.0
210
0.0
220
0.0
230
1.0
 40
0.7071067811865475
 41
0.0
 42
0.2548325122338406
1001
DBPROPERTIES
1002
{
1000
PbThick
1002
}
  0
ELLIPSE
  5
FC
330
1F
100
AcDbEntity
  8
THICK
100
AcDbEllipse
 10
-233.2903762536692
 20
56.4382879561515
 30
0.0
 11
-233.9826989236376
 21
53.4050241495155
 31
0.0
210
0.0
220
0.0
230
1.0
 40
0.7071067811865475
 41
-0.2548325122338407
 42
0.0
1001
DBPROPERTIES
1002
{
1000
PbThick
1002
}
  0
LINE
  5
FD
330
1F
100
AcDbEntity
  8
HIDDEN
100
AcDbLine
 10
-92.92153772546864
 20
61.89757932855152
 30
0.0
 11
-451.5819365860611
 21
143.7594748906502
 31
0.0
1001
DBPROPERTIES
1002
{
1000
PbHidd
1002
}
  0
LINE
  5
FE
330
1F
100
AcDbEntity
  8
HIDDEN
100
AcDbLine
 10
-451.5819365860611
 20
143.7594748906502
 30
0.0
 11
-450.1972912461242
 21
149.8260025039222
 31
0.0
1001
DBPROPERTIES
1002
{
1000
PbHidd
1002
}
  0
LINE
  5
FF
330
1F
100
AcDbEntity
  8
THICK
100
AcDbLine
 10
-109.4425521022485
 20
-22.09186025093017
 30
0.0
 11
-200.287900606181
 21
-1.35700227620859
 31
0.0
1001
DBPROPERTIES
1002
{
1000
PbThick
1002
}
  0
LINE
  5
100
330
1F
100
AcDbEntity
  8
HIDDEN
100
AcDbLine
 10
-200.287900606181
 20
-1.35700227620859
 30
0.0
 11
-205.6703164318382
 21
-0.1285009875480654
 31
0.0
1001
DBPROPERTIES
1002
{
1000
PbHidd
1002
}
  0
LINE
  5
101
330
1F
100
AcDbEntity
  8
THICK
100
AcDbLine
 10
-205.6703164318382
 20
-0.1285009875480654
 30
0.0
 11
-470.6208100101945
 21
60.34472020816116
 31
0.0
1001
DBPROPERTIES
1002
{
1000
PbThick
1002
}
  0
LINE
  5
102
330
1F
100
AcDbEntity
  8
THICK
100
AcDbLine
 10
-470.6208100101945
 20
60.34472020816118
 30
0.0
 11
-469.2361646702575
 21
66.41124782143311
 31
0.0
1001
DBPROPERTIES
1002
{
1000
PbThick
1002
}
  0
ELLIPSE
  5
103
330
1F
100
AcDbEntity
  8
HIDDEN
100
AcDbEllipse
 10
-234.6750215936061
 20
50.37176034287957
 30
0.0
 11
233.9826989236376
 21
-53.4050241495155
 31
0.0
210
0.0
220
0.0
230
1.0
 40
0.7071067811865475
 41
2.886760141355952
 42
3.141592653589793
1001
DBPROPERTIES
1002
{
1000
PbHidd
1002
}
  0
ELLIPSE
  5
104
330
1F
100
AcDbEntity
  8
THICK
100
AcDbEllipse
 10
-234.6750215936061
 20
50.37176034287957
 30
0.0
 11
233.9826989236376
 21
-53.4050241495155
 31
0.0
210
0.0
220
0.0
230
1.0
 40
0.7071067811865475
 41
-3.141592653589793
 42
-2.886760141355952
1001
DBPROPERTIES
1002
{
1000
PbThick
1002
}
  0
LINE
  5
105
330
1F
100
AcDbEntity
  8
THICK
100
AcDbLine
 10
-81.02266514322164
 20
76.81829360959136
 30
0.0
 11
-240.6415589984281
 21
408.2703419971364
 31
0.0
1001
DBPROPERTIES
1002
{
1000
PbThick
1002
}
  0
LINE
  5
106
330
1F
100
AcDbEntity
  8
THICK
100
AcDbLine
 10
-163.5547342664843
 20
445.3934002325051
 30
0.0
 11
-12.60834828178007
 21
131.9499999999999
 31
0.0
1001
DBPROPERTIES
1002
{
1000
PbThick
1002
}
  0
LINE
  5
107
330
1F
100
AcDbEntity
  8
HIDDEN
100
AcDbLine
 10
-12.60834828178007
 20
131.9499999999999
 30
0.0
 11
-2.815287717702923
 21
111.614500200765
 31
0.0
1001
DBPROPERTIES
1002
{
1000
PbHidd
1002
}
  0
ELLIPSE
  5
108
330
1F
100
AcDbEntity
  8
THICK
100
AcDbEllipse
 10
-101.3289401252341
 20
217.5824576869576
 30
0.0
 11
-104.1320973882139
 21
216.2325282965806
 31
0.0
210
0.0
220
0.0
230
1.0
 40
0.7071067811865476
 41
0.0
 42
0.2548325122338406
1001
DBPROPERTIES
1002
{
1000
PbThick
1002
}
  0
ELLIPSE
  5
109
330
1F
100
AcDbEntity
  8
THICK
100
AcDbEllipse
 10
-101.3289401252341
 20
217.5824576869576
 30
0.0
 11
-104.1320973882139
 21
216.2325282965806
 31
0.0
210
0.0
220
0.0
230
1.0
 40
0.7071067811865476
 41
-0.2548325122338406
 42
0.0
1001
DBPROPERTIES
1002
{
1000
PbThick
1002
}
  0
LINE
  5
10A
330
1F
100
AcDbEntity
  8
HIDDEN
100
AcDbLine
 10
-9.542154937237356
 20
111.2414930642059
 30
0.0
 11
-169.1610487924438
 21
442.693541451751
 31
0.0
1001
DBPROPERTIES
1002
{
1000
PbHidd
1002
}
  0
LINE
  5
10B
330
1F
100
AcDbEntity
  8
HIDDEN
100
AcDbLine
 10
-169.1610487924439
 20
442.6935414517511
 30
0.0
 11
-163.5547342664843
 21
445.3934002325051
 31
0.0
1001
DBPROPERTIES
1002
{
1000
PbHidd
1002
}
  0
LINE
  5
10C
330
1F
100
AcDbEntity
  8
THICK
100
AcDbLine
 10
-85.50842697560634
 20
71.79158318464228
 30
0.0
 11
-246.2478735243876
 21
405.5704832163823
 31
0.0
1001
DBPROPERTIES
1002
{
1000
PbThick
1002
}
  0
LINE
  5
10D
330
1F
100
AcDbEntity
  8
THICK
100
AcDbLine
 10
-246.2478735243877
 20
405.5704832163824
 30
0.0
 11
-240.6415589984281
 21
408.2703419971365
 31
0.0
1001
DBPROPERTIES
1002
{
1000
PbThick
1002
}
  0
ELLIPSE
  5
10E
330
1F
100
AcDbEntity
  8
HIDDEN
100
AcDbEllipse
 10
-106.9352546511936
 20
214.8825989062036
 30
0.0
 11
104.1320973882139
 21
-216.2325282965806
 31
0.0
210
0.0
220
0.0
230
1.0
 40
0.7071067811865476
 41
2.886760141355952
 42
3.141592653589793
1001
DBPROPERTIES
1002
{
1000
PbHidd
1002
}
  0
ELLIPSE
  5
10F
330
1F
100
AcDbEntity
  8
THICK
100
AcDbEllipse
 10
-106.9352546511936
 20
214.8825989062036
 30
0.0
 11
104.1320973882139
 21
-216.2325282965806
 31
0.0
210
0.0
220
0.0
230
1.0
 40
0.7071067811865476
 41
3.141592653589793
 42
3.396425165823634
1001
DBPROPERTIES
1002
{
1000
PbThick
1002
}
  0
LINE
  5
110
330
1F
100
AcDbEntity
  8
HIDDEN
100
AcDbLine
 10
9.542154937237406
 20
111.2414930642059
 30
0.0
 11
19.51484627091554
 21
131.95
 31
0.0
1001
DBPROPERTIES
1002
{
1000
PbHidd
1002
}
  0
LINE
  5
111
330
1F
100
AcDbEntity
  8
THICK
100
AcDbLine
 10
19.51484627091554
 20
131.95
 30
0.0
 11
169.1610487924441
 21
442.693541451751
 31
0.0
1001
DBPROPERTIES
1002
{
1000
PbThick
1002
}
  0
LINE
  5
112
330
1F
100
AcDbEntity
  8
THICK
100
AcDbLine
 10
246.2478735243879
 20
405.5704832163823
 30
0.0
 11
85.50842697560635
 21
71.7915831846422
 31
0.0
1001
DBPROPERTIES
1002
{
1000
PbThick
1002
}
  0
ELLIPSE
  5
113
330
1F
100
AcDbEntity
  8
THICK
100
AcDbEllipse
 10
106.9352546511938
 20
214.8825989062035
 30
0.0
 11
104.132097388214
 21
216.2325282965806
 31
0.0
210
0.0
220
0.0
230
1.0
 40
0.7071067811865477
 41
0.0
 42
0.2548325122338406
1001
DBPROPERTIES
1002
{
1000
PbThick
1002
}
  0
ELLIPSE
  5
114
330
1F
100
AcDbEntity
  8
THICK
100
AcDbEllipse
 10
106.9352546511938
 20
214.8825989062035
 30
0.0
 11
104.132097388214
 21
216.2325282965806
 31
0.0
210
0.0
220
0.0
230
1.0
 40
0.7071067811865477
 41
-0.2548325122338406
 42
0.0
1001
DBPROPERTIES
1002
{
1000
PbThick
1002
}
  0
LINE
  5
115
330
1F
100
AcDbEntity
  8
HIDDEN
100
AcDbLine
 10
81.02266514322167
 20
76.81829360959128
 30
0.0
 11
240.6415589984283
 21
408.2703419971364
 31
0.0
1001
DBPROPERTIES
1002
{
1000
PbHidd
1002
}
  0
LINE
  5
116
330
1F
100
AcDbEntity
  8
HIDDEN
100
AcDbLine
 10
240.6415589984283
 20
408.2703419971364
 30
0.0
 11
246.2478735243879
 21
405.5704832163823
 31
0.0
1001
DBPROPERTIES
1002
{
1000
PbHidd
1002
}
  0
LINE
  5
117
330
1F
100
AcDbEntity
  8
HIDDEN
100
AcDbLine
 10
2.815287717702979
 20
111.614500200765
 30
0.0
 11
12.60834828178017
 21
131.95
 31
0.0
1001
DBPROPERTIES
1002
{
1000
PbHidd
1002
}
  0
LINE
  5
118
330
1F
100
AcDbEntity
  8
THICK
100
AcDbLine
 10
12.60834828178017
 20
131.95
 30
0.0
 11
163.5547342664845
 21
445.3934002325051
 31
0.0
1001
DBPROPERTIES
1002
{
1000
PbThick
1002
}
  0
LINE
  5
119
330
1F
100
AcDbEntity
  8
THICK
100
AcDbLine
 10
163.5547342664845
 20
445.3934002325051
 30
0.0
 11
169.1610487924441
 21
442.693541451751
 31
0.0
1001
DBPROPERTIES
1002
{
1000
PbThick
1002
}
  0
ELLIPSE
  5
11A
330
1F
100
AcDbEntity
  8
HIDDEN
100
AcDbEllipse
 10
101.3289401252342
 20
217.5824576869576
 30
0.0
 11
-104.132097388214
 21
-216.2325282965806
 31
0.0
210
0.0
220
0.0
230
1.0
 40
0.7071067811865477
 41
2.886760141355952
 42
3.141592653589793
1001
DBPROPERTIES
1002
{
1000
PbHidd
1002
}
  0
ELLIPSE
  5
11B
330
1F
100
AcDbEntity
  8
THICK
100
AcDbEllipse
 10
101.3289401252342
 20
217.5824576869576
 30
0.0
 11
-104.132097388214
 21
-216.2325282965806
 31
0.0
210
0.0
220
0.0
230
1.0
 40
0.7071067811865477
 41
3.141592653589793
 42
3.396425165823634
1001
DBPROPERTIES
1002
{
1000
PbThick
1002
}
  0
LINE
  5
11C
330
1F
100
AcDbEntity
  8
THICK
100
AcDbLine
 10
92.92153772546861
 20
61.89757932855146
 30
0.0
 11
269.1626662331947
 21
102.1234668295957
 31
0.0
1001
DBPROPERTIES
1002
{
1000
PbThick
1002
}
  0
LINE
  5
11D
330
1F
100
AcDbEntity
  8
HIDDEN
100
AcDbLine
 10
269.1626662331947
 20
102.1234668295957
 30
0.0
 11
274.5450820588519
 21
103.3519681182563
 31
0.0
1001
DBPROPERTIES
1002
{
1000
PbHidd
1002
}
  0
LINE
  5
11E
330
1F
100
AcDbEntity
  8
THICK
100
AcDbLine
 10
274.5450820588519
 20
103.3519681182563
 30
0.0
 11
451.5819365860611
 21
143.75947489065
 31
0.0
1001
DBPROPERTIES
1002
{
1000
PbThick
1002
}
  0
LINE
  5
11F
330
1F
100
AcDbEntity
  8
THICK
100
AcDbLine
 10
470.6208100101944
 20
60.34472020816094
 30
0.0
 11
205.6703164318382
 21
-0.1285009875481578
 31
0.0
1001
DBPROPERTIES
1002
{
1000
PbThick
1002
}
  0
LINE
  5
120
330
1F
100
AcDbEntity
  8
HIDDEN
100
AcDbLine
 10
205.6703164318382
 20
-0.1285009875481578
 30
0.0
 11
200.2879006061809
 21
-1.357002276208689
 31
0.0
1001
DBPROPERTIES
1002
{
1000
PbHidd
1002
}
  0
LINE
  5
121
330
1F
100
AcDbEntity
  8
THICK
100
AcDbLine
 10
200.2879006061809
 20
-1.357002276208689
 30
0.0
 11
109.4425521022485
 21
-22.09186025093022
 31
0.0
1001
DBPROPERTIES
1002
{
1000
PbThick
1002
}
  0
ELLIPSE
  5
122
330
1F
100
AcDbEntity
  8
THICK
100
AcDbEllipse
 10
234.6750215936061
 20
50.37176034287944
 30
0.0
 11
233.9826989236376
 21
53.40502414951541
 31
0.0
210
0.0
220
0.0
230
1.0
 40
0.7071067811865477
 41
0.0
 42
0.2548325122338406
1001
DBPROPERTIES
1002
{
1000
PbThick
1002
}
  0
ELLIPSE
  5
123
330
1F
100
AcDbEntity
  8
THICK
100
AcDbEllipse
 10
234.6750215936061
 20
50.37176034287944
 30
0.0
 11
233.9826989236376
 21
53.40502414951541
 31
0.0
210
0.0
220
0.0
230
1.0
 40
0.7071067811865477
 41
-0.2548325122338407
 42
0.0
1001
DBPROPERTIES
1002
{
1000
PbThick
1002
}
  0
LINE
  5
124
330
1F
100
AcDbEntity
  8
HIDDEN
100
AcDbLine
 10
110.5757658096649
 20
-15.45064774066567
 30
0.0
 11
469.2361646702574
 21
66.41124782143288
 31
0.0
1001
DBPROPERTIES
1002
{
1000
PbHidd
1002
}
  0
LINE
  5
125
330
1F
100
AcDbEntity
  8
HIDDEN
100
AcDbLine
 10
469.2361646702575
 20
66.41124782143288
 30
0.0
 11
470.6208100101945
 21
60.34472020816096
 31
0.0
1001
DBPROPERTIES
1002
{
1000
PbHidd
1002
}
  0
LINE
  5
126
330
1F
100
AcDbEntity
  8
THICK
100
AcDbLine
 10
89.0190333381782
 20
67.38942204483077
 30
0.0
 11
274.1717400969774
 21
109.6493191281997
 31
0.0
1001
DBPROPERTIES
1002
{
1000
PbThick
1002
}
  0
LINE
  5
127
330
1F
100
AcDbEntity
  8
HIDDEN
100
AcDbLine
 10
274.1717400969774
 20
109.6493191281997
 30
0.0
 11
279.5541559226347
 21
110.8778204168602
 31
0.0
1001
DBPROPERTIES
1002
{
1000
PbHidd
1002
}
  0
LINE
  5
128
330
1F
100
AcDbEntity
  8
THICK
100
AcDbLine
 10
279.5541559226347
 20
110.8778204168602
 30
0.0
 11
450.1972912461241
 21
149.8260025039219
 31
0.0
1001
DBPROPERTIES
1002
{
1000
PbThick
1002
}
  0
LINE
  5
129
330
1F
100
AcDbEntity
  8
THICK
100
AcDbLine
 10
450.1972912461242
 20
149.8260025039219
 30
0.0
 11
451.5819365860611
 21
143.75947489065
 31
0.0
1001
DBPROPERTIES
1002
{
1000
PbThick
1002
}
  0
ELLIPSE
  5
12A
330
1F
100
AcDbEntity
  8
HIDDEN
100
AcDbEllipse
 10
233.2903762536692
 20
56.43828795615137
 30
0.0
 11
-233.9826989236376
 21
-53.40502414951541
 31
0.0
210
0.0
220
0.0
230
1.0
 40
0.7071067811865477
 41
2.886760141355952
 42
3.141592653589793
1001
DBPROPERTIES
1002
{
1000
PbHidd
1002
}
  0
ELLIPSE
  5
12B
330
1F
100
AcDbEntity
  8
THICK
100
AcDbEllipse
 10
233.2903762536692
 20
56.43828795615137
 30
0.0
 11
-233.9826989236376
 21
-53.40502414951541
 31
0.0
210
0.0
220
0.0
230
1.0
 40
0.7071067811865477
 41
3.141592653589793
 42
3.396425165823633
1001
DBPROPERTIES
1002
{
1000
PbThick
1002
}
  0
LINE
  5
12C
330
1F
100
AcDbEntity
  8
THICK
100
AcDbLine
 10
106.3291073524851
 20
-34.0564741220183
 30
0.0
 11
153.4909521895084
 21
-71.6667903501454
 31
0.0
1001
DBPROPERTIES
1002
{
1000
PbThick
1002
}
  0
LINE
  5
12D
330
1F
100
AcDbEntity
  8
HIDDEN
100
AcDbLine
 10
153.4909521895084
 20
-71.6667903501454
 30
0.0
 11
156.4729187525058
 21
-74.04482933067295
 31
0.0
1001
DBPROPERTIES
1002
{
1000
PbHidd
1002
}
  0
LINE
  5
12E
330
1F
100
AcDbEntity
  8
THICK
100
AcDbLine
 10
156.4729187525058
 20
-74.04482933067295
 30
0.0
 11
393.9524155376088
 21
-263.4284084219771
 31
0.0
1001
DBPROPERTIES
1002
{
1000
PbThick
1002
}
  0
LINE
  5
12F
330
1F
100
AcDbEntity
  8
THICK
100
AcDbLine
 10
340.6066776433177
 20
-330.3218479247684
 30
0.0
 11
63.52928420900027
 21
-109.36
 31
0.0
1001
DBPROPERTIES
1002
{
1000
PbThick
1002
}
  0
LINE
  5
130
330
1F
100
AcDbEntity
  8
HIDDEN
100
AcDbLine
 10
63.52928420900027
 20
-109.36
 30
0.0
 11
50.96420327468373
 21
-99.33968232572887
 31
0.0
1001
DBPROPERTIES
1002
{
1000
PbHidd
1002
}
  0
ELLIPSE
  5
131
330
1F
100
AcDbEntity
  8
THICK
100
AcDbEllipse
 10
185.6997107779892
 20
-152.0700411552885
 30
0.0
 11
187.6395557923271
 21
-149.6375524460961
 31
0.0
210
0.0
220
0.0
230
1.0
 40
0.7071067811865477
 41
0.0
 42
0.2548325122338406
1001
DBPROPERTIES
1002
{
1000
PbThick
1002
}
  0
ELLIPSE
  5
132
330
1F
100
AcDbEntity
  8
THICK
100
AcDbEllipse
 10
185.6997107779892
 20
-152.0700411552885
 30
0.0
 11
187.6395557923271
 21
-149.6375524460961
 31
0.0
210
0.0
220
0.0
230
1.0
 40
0.7071067811865477
 41
-0.1652661699699784
 42
0.0
1001
DBPROPERTIES
1002
{
1000
PbThick
1002
}
  0
ELLIPSE
  5
133
330
1F
100
AcDbEntity
  8
HIDDEN
100
AcDbEllipse
 10
185.6997107779892
 20
-152.0700411552885
 30
0.0
 11
187.6395557923271
 21
-149.6375524460961
 31
0.0
210
0.0
220
0.0
230
1.0
 40
0.7071067811865477
 41
-0.1875569915310255
 42
-0.1652661699699784
1001
DBPROPERTIES
1002
{
1000
PbHidd
1002
}
  0
ELLIPSE
  5
134
330
1F
100
AcDbEntity
  8
THICK
100
AcDbEllipse
 10
185.6997107779892
 20
-152.0700411552885
 30
0.0
 11
187.6395557923271
 21
-149.6375524460961
 31
0.0
210
0.0
220
0.0
230
1.0
 40
0.7071067811865477
 41
-0.2548325122338406
 42
-0.1875569915310255
1001
DBPROPERTIES
1002
{
1000
PbThick
1002
}
  0
LINE
  5
135
330
1F
100
AcDbEntity
  8
HIDDEN
100
AcDbLine
 10
56.86305948686976
 20
-96.08493620642477
 30
0.0
 11
344.4863676719934
 21
-325.4568705063836
 31
0.0
1001
DBPROPERTIES
1002
{
1000
PbHidd
1002
}
  0
LINE
  5
136
330
1F
100
AcDbEntity
  8
HIDDEN
100
AcDbLine
 10
344.4863676719935
 20
-325.4568705063836
 30
0.0
 11
340.6066776433178
 21
-330.3218479247684
 31
0.0
1001
DBPROPERTIES
1002
{
1000
PbHidd
1002
}
  0
LINE
  5
137
330
1F
100
AcDbEntity
  8
THICK
100
AcDbLine
 10
108.1896311976505
 20
-27.58126540455275
 30
0.0
 11
156.9514797185371
 21
-66.46754199267463
 31
0.0
1001
DBPROPERTIES
1002
{
1000
PbThick
1002
}
  0
LINE
  5
138
330
1F
100
AcDbEntity
  8
HIDDEN
100
AcDbLine
 10
156.9514797185371
 20
-66.46754199267463
 30
0.0
 11
159.9334462815345
 21
-68.84558097320217
 31
0.0
1001
DBPROPERTIES
1002
{
1000
PbHidd
1002
}
  0
LINE
  5
139
330
1F
100
AcDbEntity
  8
THICK
100
AcDbLine
 10
159.9334462815345
 20
-68.84558097320217
 30
0.0
 11
397.8321055662845
 21
-258.5634310035923
 31
0.0
1001
DBPROPERTIES
1002
{
1000
PbThick
1002
}
  0
LINE
  5
13A
330
1F
100
AcDbEntity
  8
THICK
100
AcDbLine
 10
397.8321055662846
 20
-258.5634310035923
 30
0.0
 11
393.9524155376088
 21
-263.4284084219771
 31
0.0
1001
DBPROPERTIES
1002
{
1000
PbThick
1002
}
  0
ELLIPSE
  5
13B
330
1F
100
AcDbEntity
  8
HIDDEN
100
AcDbEllipse
 10
189.5794008066649
 20
-147.2050637369037
 30
0.0
 11
-187.6395557923271
 21
149.6375524460961
 31
0.0
210
0.0
220
0.0
230
1.0
 40
0.7071067811865477
 41
2.886760141355952
 42
3.141592653589793
1001
DBPROPERTIES
1002
{
1000
PbHidd
1002
}
  0
ELLIPSE
  5
13C
330
1F
100
AcDbEntity
  8
THICK
100
AcDbEllipse
 10
189.5794008066649
 20
-147.2050637369037
 30
0.0
 11
-187.6395557923271
 21
149.6375524460961
 31
0.0
210
0.0
220
0.0
230
1.0
 40
0.7071067811865477
 41
3.141592653589793
 42
3.396425165823633
1001
DBPROPERTIES
1002
{
1000
PbThick
1002
}
  0
LINE
  5
13D
330
1F
100
AcDbEntity
  8
THICK
100
AcDbLine
 10
-45.891230099007
 20
-472.2493272326101
 30
0.0
 11
-45.89123009900695
 21
-109.36
 31
0.0
1001
DBPROPERTIES
1002
{
1000
PbThick
1002
}
  0
LINE
  5
13E
330
1F
100
AcDbEntity
  8
HIDDEN
100
AcDbLine
 10
-45.89123009900695
 20
-109.36
 30
0.0
 11
-45.89123009900695
 21
-101.7826974490263
 31
0.0
1001
DBPROPERTIES
1002
{
1000
PbHidd
1002
}
  0
ELLIPSE
  5
13F
330
1F
100
AcDbEntity
  8
THICK
100
AcDbEllipse
 10
-3.111269837220849
 20
-240.0
 30
0.0
 11
-2.939055249173705E-14
 21
-240.0
 31
0.0
210
0.0
220
0.0
230
1.0
 40
0.7071067811865475
 41
0.0
 42
0.2548325122338407
1001
DBPROPERTIES
1002
{
1000
PbThick
1002
}
  0
ELLIPSE
  5
140
330
1F
100
AcDbEntity
  8
THICK
100
AcDbEllipse
 10
-3.111269837220849
 20
-240.0
 30
0.0
 11
-2.939055249173705E-14
 21
-240.0
 31
0.0
210
0.0
220
0.0
230
1.0
 40
0.7071067811865475
 41
-0.2548325122338408
 42
0.0
1001
DBPROPERTIES
1002
{
1000
PbThick
1002
}
  0
LINE
  5
141
330
1F
100
AcDbEntity
  8
HIDDEN
100
AcDbLine
 10
39.66869042456531
 20
-104.36530793324
 30
0.0
 11
39.66869042456531
 21
-109.36
 31
0.0
1001
DBPROPERTIES
1002
{
1000
PbHidd
1002
}
  0
LINE
  5
142
330
1F
100
AcDbEntity
  8
THICK
100
AcDbLine
 10
39.66869042456531
 20
-109.36
 30
0.0
 11
39.66869042456526
 21
-472.2493272326101
 31
0.0
1001
DBPROPERTIES
1002
{
1000
PbThick
1002
}
  0
LINE
  5
143
330
1F
100
AcDbEntity
  8
HIDDEN
100
AcDbLine
 10
-39.66869042456533
 20
-104.36530793324
 30
0.0
 11
-39.66869042456538
 21
-472.2493272326101
 31
0.0
1001
DBPROPERTIES
1002
{
1000
PbHidd
1002
}
  0
LINE
  5
144
330
1F
100
AcDbEntity
  8
HIDDEN
100
AcDbLine
 10
-39.66869042456538
 20
-472.2493272326101
 30
0.0
 11
-45.89123009900699
 21
-472.2493272326101
 31
0.0
1001
DBPROPERTIES
1002
{
1000
PbHidd
1002
}
  0
LINE
  5
145
330
1F
100
AcDbEntity
  8
HIDDEN
100
AcDbLine
 10
45.89123009900693
 20
-101.7826974490262
 30
0.0
 11
45.89123009900693
 21
-109.36
 31
0.0
1001
DBPROPERTIES
1002
{
1000
PbHidd
1002
}
  0
LINE
  5
146
330
1F
100
AcDbEntity
  8
THICK
100
AcDbLine
 10
45.89123009900693
 20
-109.36
 30
0.0
 11
45.89123009900688
 21
-472.2493272326101
 31
0.0
1001
DBPROPERTIES
1002
{
1000
PbThick
1002
}
  0
LINE
  5
147
330
1F
100
AcDbEntity
  8
THICK
100
AcDbLine
 10
45.89123009900688
 20
-472.2493272326101
 30
0.0
 11
39.66869042456527
 21
-472.2493272326101
 31
0.0
1001
DBPROPERTIES
1002
{
1000
PbThick
1002
}
  0
ELLIPSE
  5
148
330
1F
100
AcDbEntity
  8
HIDDEN
100
AcDbEllipse
 10
3.11126983722077
 20
-240.0
 30
0.0
 11
2.939055249173705E-14
 21
240.0
 31
0.0
210
0.0
220
0.0
230
1.0
 40
0.7071067811865475
 41
2.886760141355952
 42
3.141592653589793
1001
DBPROPERTIES
1002
{
1000
PbHidd
1002
}
  0
ELLIPSE
  5
149
330
1F
100
AcDbEntity
  8
THICK
100
AcDbEllipse
 10
3.11126983722077
 20
-240.0
 30
0.0
 11
2.939055249173705E-14
 21
240.0
 31
0.0
210
0.0
220
0.0
230
1.0
 40
0.7071067811865475
 41
3.141592653589793
 42
3.396425165823633
1001
DBPROPERTIES
1002
{
1000
PbThick
1002
}
  0
LINE
  5
14A
330
1F
100
AcDbEntity
  8
THICK
100
AcDbLine
 10
50.75000000000001
 20
109.62
 30
0.0
 11
50.75000000000001
 21
87.9015784841205
 31
0.0
1001
DBPROPERTIES
1002
{
1000
PbThick
1002
}
  0
LINE
  5
14B
330
1F
100
AcDbEntity
  8
HIDDEN
100
AcDbLine
 10
50.75000000000001
 20
87.9015784841205
 30
0.0
 11
50.75000000000001
 21
85.58438817915335
 31
0.0
1001
DBPROPERTIES
1002
{
1000
PbHidd
1002
}
  0
LINE
  5
14C
330
1F
100
AcDbEntity
  8
THICK
100
AcDbLine
 10
28.42000000000002
 20
131.95
 30
0.0
 11
50.75000000000001
 21
109.62
 31
0.0
1001
DBPROPERTIES
1002
{
1000
PbThick
1002
}
  0
LINE
  5
14D
330
1F
100
AcDbEntity
  8
THICK
100
AcDbLine
 10
-28.41999999999999
 20
131.95
 30
0.0
 11
28.42000000000001
 21
131.95
 31
0.0
1001
DBPROPERTIES
1002
{
1000
PbThick
1002
}
  0
LINE
  5
14E
330
1F
100
AcDbEntity
  8
THICK
100
AcDbLine
 10
-50.74999999999999
 20
109.62
 30
0.0
 11
-28.42000000000001
 21
131.95
 31
0.0
1001
DBPROPERTIES
1002
{
1000
PbThick
1002
}
  0
LINE
  5
14F
330
1F
100
AcDbEntity
  8
HIDDEN
100
AcDbLine
 10
-50.74999999999999
 20
85.58438817915336
 30
0.0
 11
-50.74999999999999
 21
87.90157848412056
 31
0.0
1001
DBPROPERTIES
1002
{
1000
PbHidd
1002
}
  0
LINE
  5
150
330
1F
100
AcDbEntity
  8
THICK
100
AcDbLine
 10
-50.74999999999999
 20
87.90157848412056
 30
0.0
 11
-50.74999999999999
 21
109.62
 31
0.0
1001
DBPROPERTIES
1002
{
1000
PbThick
1002
}
  0
LINE
  5
151
330
1F
100
AcDbEntity
  8
HIDDEN
100
AcDbLine
 10
50.75000000000001
 20
109.62
 30
0.0
 11
50.75000000000001
 21
109.62
 31
0.0
1001
DBPROPERTIES
1002
{
1000
PbHidd
1002
}
  0
LINE
  5
152
330
1F
100
AcDbEntity
  8
HIDDEN
100
AcDbLine
 10
-50.74999999999999
 20
85.58438817915336
 30
0.0
 11
-50.75
 21
85.58438817915336
 31
0.0
1001
DBPROPERTIES
1002
{
1000
PbHidd
1002
}
  0
LINE
  5
153
330
1F
100
AcDbEntity
  8
HIDDEN
100
AcDbLine
 10
-50.74999999999999
 20
109.62
 30
0.0
 11
-50.74999999999999
 21
109.62
 31
0.0
1001
DBPROPERTIES
1002
{
1000
PbHidd
1002
}
  0
LINE
  5
154
330
1F
100
AcDbEntity
  8
HIDDEN
100
AcDbLine
 10
-28.41999999999999
 20
131.95
 30
0.0
 11
-28.41999999999999
 21
131.95
 31
0.0
1001
DBPROPERTIES
1002
{
1000
PbHidd
1002
}
  0
LINE
  5
155
330
1F
100
AcDbEntity
  8
HIDDEN
100
AcDbLine
 10
28.42000000000001
 20
131.95
 30
0.0
 11
28.42000000000001
 21
131.95
 31
0.0
1001
DBPROPERTIES
1002
{
1000
PbHidd
1002
}
  0
LINE
  5
156
330
1F
100
AcDbEntity
  8
HIDDEN
100
AcDbLine
 10
-52.96750985273903
 20
-84.23
 30
0.0
 11
-52.96750985273901
 21
-84.23
 31
0.0
1001
DBPROPERTIES
1002
{
1000
PbHidd
1002
}
  0
LINE
  5
157
330
1F
100
AcDbEntity
  8
HIDDEN
100
AcDbLine
 10
-97.44
 20
-84.23
 30
0.0
 11
-97.44
 21
-84.23
 31
0.0
1001
DBPROPERTIES
1002
{
1000
PbHidd
1002
}
  0
ARC
  5
158
330
1F
100
AcDbEntity
  8
HIDDEN
100
AcDbCircle
 10
-0.0000000000000169
 20
0.0
 30
0.0
 40
111.6500000000001
100
AcDbArc
 50
89.99998127603165
 51
117.0356823886337
1001
DBPROPERTIES
1002
{
1000
PbHidd
1002
}
  0
ARC
  5
159
330
1F
100
AcDbEntity
  8
THICK
100
AcDbCircle
 10
-0.0000000000000169
 20
0.0
 30
0.0
 40
111.6500000000001
100
AcDbArc
 50
117.0356823886337
 51
228.9739487614209
1001
DBPROPERTIES
1002
{
1000
PbThick
1002
}
  0
ARC
  5
15A
330
1F
100
AcDbEntity
  8
HIDDEN
100
AcDbCircle
 10
-0.0000000000000169
 20
0.0
 30
0.0
 40
111.6500000000001
100
AcDbArc
 50
228.9739487614209
 51
258.3755644974567
1001
DBPROPERTIES
1002
{
1000
PbHidd
1002
}
  0
ARC
  5
15B
330
1F
100
AcDbEntity
  8
THICK
100
AcDbCircle
 10
-0.0000000000000169
 20
0.0
 30
0.0
 40
111.6500000000001
100
AcDbArc
 50
258.3755644974567
 51
270.0000187239684
1001
DBPROPERTIES
1002
{
1000
PbThick
1002
}
  0
ARC
  5
15C
330
1F
100
AcDbEntity
  8
HIDDEN
100
AcDbCircle
 10
-0.0000000000000049
 20
0.0
 30
0.0
 40
99.50000000000001
100
AcDbArc
 50
89.99998127603165
 51
270.0000187239684
1001
DBPROPERTIES
1002
{
1000
PbHidd
1002
}
  0
ARC
  5
15D
330
1F
100
AcDbEntity
  8
THICK
100
AcDbCircle
 10
-0.0000000000000019
 20
0.0
 30
0.0
 40
101.5
100
AcDbArc
 50
89.99998127603165
 51
270.0000187239684
1001
DBPROPERTIES
1002
{
1000
PbThick
1002
}
  0
ARC
  5
15E
330
1F
100
AcDbEntity
  8
THICK
100
AcDbCircle
 10
-0.0000000000000019
 20
0.0
 30
0.0
 40
91.35000000000001
100
AcDbArc
 50
89.99998127603165
 51
270.0000187239684
1001
DBPROPERTIES
1002
{
1000
PbThick
1002
}
  0
ARC
  5
15F
330
1F
100
AcDbEntity
  8
THICK
100
AcDbCircle
 10
0.0
 20
0.0
 30
0.0
 40
86.27499999999999
100
AcDbArc
 50
89.99998127603165
 51
270.0000187239684
1001
DBPROPERTIES
1002
{
1000
PbThick
1002
}
  0
LINE
  5
160
330
1F
100
AcDbEntity
  8
THICK
100
AcDbLine
 10
534.0726000344696
 20
498.717260975142
 30
0.0
 11
535.3553390593274
 21
499.9999999999999
 31
0.0
1001
DBPROPERTIES
1002
{
1000
PbThick
1002
}
  0
LINE
  5
161
330
1F
100
AcDbEntity
  8
HIDDEN
100
AcDbLine
 10
535.3553390593275
 20
499.9999999999999
 30
0.0
 11
535.3553390593275
 21
499.9999999999999
 31
0.0
1001
DBPROPERTIES
1002
{
1000
PbHidd
1002
}
  0
LINE
  5
162
330
1F
100
AcDbEntity
  8
THICK
100
AcDbLine
 10
464.6446609406727
 20
429.2893218813451
 30
0.0
 11
531.2493775647762
 21
495.8940385054486
 31
0.0
1001
DBPROPERTIES
1002
{
1000
PbThick
1002
}
  0
LINE
  5
163
330
1F
100
AcDbEntity
  8
HIDDEN
100
AcDbLine
 10
464.6446609406726
 20
429.2893218813451
 30
0.0
 11
464.6446609406726
 21
429.2893218813451
 31
0.0
1001
DBPROPERTIES
1002
{
1000
PbHidd
1002
}
  0
LINE
  5
164
330
1F
100
AcDbEntity
  8
THICK
100
AcDbLine
 10
535.3553390593275
 20
499.9999999999999
 30
0.0
 11
500.0000000000002
 21
535.3553390593273
 31
0.0
1001
DBPROPERTIES
1002
{
1000
PbThick
1002
}
  0
LINE
  5
165
330
1F
100
AcDbEntity
  8
THICK
100
AcDbLine
 10
500.0000000000001
 20
535.3553390593272
 30
0.0
 11
429.2893218813454
 21
464.6446609406725
 31
0.0
1001
DBPROPERTIES
1002
{
1000
PbThick
1002
}
  0
LINE
  5
166
330
1F
100
AcDbEntity
  8
THICK
100
AcDbLine
 10
429.2893218813453
 20
464.6446609406725
 30
0.0
 11
464.6446609406726
 21
429.2893218813452
 31
0.0
1001
DBPROPERTIES
1002
{
1000
PbThick
1002
}
  0
ARC
  5
167
330
1F
100
AcDbEntity
  8
THICK
100
AcDbCircle
 10
500.0
 20
500.0
 30
0.0
 40
9.0
100
AcDbArc
 50
0.0
 51
180.0000198478428
1001
DBPROPERTIES
1002
{
1000
PbThick
1002
}
  0
LINE
  5
168
330
1F
100
AcDbEntity
  8
THICK
100
AcDbLine
 10
-535.3553390593273
 20
500.0
 30
0.0
 11
-534.0726000344694
 21
498.717260975142
 31
0.0
1001
DBPROPERTIES
1002
{
1000
PbThick
1002
}
  0
LINE
  5
169
330
1F
100
AcDbEntity
  8
HIDDEN
100
AcDbLine
 10
-535.3553390593274
 20
500.0000000000001
 30
0.0
 11
-535.3553390593274
 21
500.0000000000001
 31
0.0
1001
DBPROPERTIES
1002
{
1000
PbHidd
1002
}
  0
LINE
  5
16A
330
1F
100
AcDbEntity
  8
THICK
100
AcDbLine
 10
499.9999999999999
 20
-535.3553390593275
 30
0.0
 11
532.8757499788943
 21
-502.4795890804332
 31
0.0
1001
DBPROPERTIES
1002
{
1000
PbThick
1002
}
  0
LINE
  5
16B
330
1F
100
AcDbEntity
  8
HIDDEN
100
AcDbLine
 10
500.0
 20
-535.3553390593275
 30
0.0
 11
500.0
 21
-535.3553390593275
 31
0.0
1001
DBPROPERTIES
1002
{
1000
PbHidd
1002
}
  0
LINE
  5
16C
330
1F
100
AcDbEntity
  8
THICK
100
AcDbLine
 10
-625.0
 20
-609.0
 30
0.0
 11
-625.0
 21
609.0
 31
0.0
1001
DBPROPERTIES
1002
{
1000
PbThick
1002
}
  0
ARC
  5
16D
330
1F
100
AcDbEntity
  8
THICK
100
AcDbCircle
 10
-609.0
 20
-609.0
 30
0.0
 40
16.0
100
AcDbArc
 50
180.0000198478428
 51
270.0000187239684
1001
DBPROPERTIES
1002
{
1000
PbThick
1002
}
  0
LINE
  5
16E
330
1F
100
AcDbEntity
  8
THICK
100
AcDbLine
 10
609.0
 20
-625.0
 30
0.0
 11
-609.0
 21
-625.0
 31
0.0
1001
DBPROPERTIES
1002
{
1000
PbThick
1002
}
  0
ARC
  5
16F
330
1F
100
AcDbEntity
  8
THICK
100
AcDbCircle
 10
609.0
 20
-609.0
 30
0.0
 40
16.0
100
AcDbArc
 50
270.0000187239684
 51
0.0
1001
DBPROPERTIES
1002
{
1000
PbThick
1002
}
  0
LINE
  5
170
330
1F
100
AcDbEntity
  8
THICK
100
AcDbLine
 10
625.0
 20
609.0
 30
0.0
 11
625.0
 21
-609.0
 31
0.0
1001
DBPROPERTIES
1002
{
1000
PbThick
1002
}
  0
ARC
  5
171
330
1F
100
AcDbEntity
  8
THICK
100
AcDbCircle
 10
609.0
 20
609.0
 30
0.0
 40
16.0
100
AcDbArc
 50
0.0
 51
89.99998127603165
1001
DBPROPERTIES
1002
{
1000
PbThick
1002
}
  0
LINE
  5
172
330
1F
100
AcDbEntity
  8
THICK
100
AcDbLine
 10
-609.0
 20
625.0
 30
0.0
 11
609.0
 21
625.0
 31
0.0
1001
DBPROPERTIES
1002
{
1000
PbThick
1002
}
  0
ARC
  5
173
330
1F
100
AcDbEntity
  8
THICK
100
AcDbCircle
 10
-609.0
 20
609.0
 30
0.0
 40
16.0
100
AcDbArc
 50
89.99998127603165
 51
180.0000198478428
1001
DBPROPERTIES
1002
{
1000
PbThick
1002
}
  0
ARC
  5
174
330
1F
100
AcDbEntity
  8
THICK
100
AcDbCircle
 10
0.0
 20
0.0
 30
0.0
 40
490.0
100
AcDbArc
 50
317.6522309956447
 51
0.0
1001
DBPROPERTIES
1002
{
1000
PbThick
1002
}
  0
ARC
  5
175
330
1F
100
AcDbEntity
  8
HIDDEN
100
AcDbCircle
 10
0.0
 20
0.0
 30
0.0
 40
490.0
100
AcDbArc
 50
317.2076730424027
 51
317.6522309956447
1001
DBPROPERTIES
1002
{
1000
PbHidd
1002
}
  0
ARC
  5
176
330
1F
100
AcDbEntity
  8
THICK
100
AcDbCircle
 10
0.0
 20
0.0
 30
0.0
 40
490.0
100
AcDbArc
 50
222.7923071097544
 51
317.2076730424027
1001
DBPROPERTIES
1002
{
1000
PbThick
1002
}
  0
ARC
  5
177
330
1F
100
AcDbEntity
  8
HIDDEN
100
AcDbCircle
 10
0.0
 20
0.0
 30
0.0
 40
490.0
100
AcDbArc
 50
222.3477491565124
 51
222.7923071097544
1001
DBPROPERTIES
1002
{
1000
PbHidd
1002
}
  0
ARC
  5
178
330
1F
100
AcDbEntity
  8
THICK
100
AcDbCircle
 10
0.0
 20
0.0
 30
0.0
 40
490.0
100
AcDbArc
 50
179.9999801521572
 51
222.3477491565124
1001
DBPROPERTIES
1002
{
1000
PbThick
1002
}
  0
LINE
  5
179
330
1F
100
AcDbEntity
  8
THICK
100
AcDbLine
 10
-464.6446609406726
 20
-429.2893218813452
 30
0.0
 11
-516.129134804704
 21
-480.7737957453766
 31
0.0
1001
DBPROPERTIES
1002
{
1000
PbThick
1002
}
  0
LINE
  5
17A
330
1F
100
AcDbEntity
  8
HIDDEN
100
AcDbLine
 10
-464.6446609406726
 20
-429.2893218813452
 30
0.0
 11
-464.6446609406726
 21
-429.2893218813452
 31
0.0
1001
DBPROPERTIES
1002
{
1000
PbHidd
1002
}
  0
LINE
  5
17B
330
1F
100
AcDbEntity
  8
THICK
100
AcDbLine
 10
-532.8757499788943
 20
-502.4795890804332
 30
0.0
 11
-500.0000000000001
 21
-535.3553390593274
 31
0.0
1001
DBPROPERTIES
1002
{
1000
PbThick
1002
}
  0
LINE
  5
17C
330
1F
100
AcDbEntity
  8
THICK
100
AcDbLine
 10
-500.0000000000001
 20
-535.3553390593272
 30
0.0
 11
-429.2893218813453
 21
-464.6446609406725
 31
0.0
1001
DBPROPERTIES
1002
{
1000
PbThick
1002
}
  0
LINE
  5
17D
330
1F
100
AcDbEntity
  8
THICK
100
AcDbLine
 10
-429.2893218813452
 20
-464.6446609406726
 30
0.0
 11
-461.4016529601886
 21
-432.5323298618292
 31
0.0
1001
DBPROPERTIES
1002
{
1000
PbThick
1002
}
  0
LINE
  5
17E
330
1F
100
AcDbEntity
  8
HIDDEN
100
AcDbLine
 10
-461.4016529601886
 20
-432.5323298618292
 30
0.0
 11
-464.0888153250921
 21
-429.8451674969257
 31
0.0
1001
DBPROPERTIES
1002
{
1000
PbHidd
1002
}
  0
LINE
  5
17F
330
1F
100
AcDbEntity
  8
THICK
100
AcDbLine
 10
-464.0888153250921
 20
-429.8451674969257
 30
0.0
 11
-464.6446609406726
 21
-429.2893218813452
 31
0.0
1001
DBPROPERTIES
1002
{
1000
PbThick
1002
}
  0
ARC
  5
180
330
1F
100
AcDbEntity
  8
THICK
100
AcDbCircle
 10
-500.0
 20
-500.0
 30
0.0
 40
9.0
100
AcDbArc
 50
0.0
 51
180.0000198478428
1001
DBPROPERTIES
1002
{
1000
PbThick
1002
}
  0
ARC
  5
181
330
1F
100
AcDbEntity
  8
THICK
100
AcDbCircle
 10
500.0
 20
-500.0
 30
0.0
 40
9.0
100
AcDbArc
 50
0.0
 51
180.0000198478428
1001
DBPROPERTIES
1002
{
1000
PbThick
1002
}
  0
ARC
  5
182
330
1F
100
AcDbEntity
  8
THICK
100
AcDbCircle
 10
-500.0
 20
500.0
 30
0.0
 40
9.0
100
AcDbArc
 50
0.0
 51
180.0000198478428
1001
DBPROPERTIES
1002
{
1000
PbThick
1002
}
  0
LINE
  5
183
330
1F
100
AcDbEntity
  8
HIDDEN
100
AcDbLine
 10
500.0000000000002
 20
535.3553390593273
 30
0.0
 11
500.0000000000002
 21
535.3553390593273
 31
0.0
1001
DBPROPERTIES
1002
{
1000
PbHidd
1002
}
  0
LINE
  5
184
330
1F
100
AcDbEntity
  8
HIDDEN
100
AcDbLine
 10
429.2893218813454
 20
464.6446609406725
 30
0.0
 11
429.2893218813454
 21
464.6446609406725
 31
0.0
1001
DBPROPERTIES
1002
{
1000
PbHidd
1002
}
  0
LINE
  5
185
330
1F
100
AcDbEntity
  8
THICK
100
AcDbLine
 10
516.129134804695
 20
-480.7737957453677
 30
0.0
 11
464.6446609406726
 21
-429.2893218813453
 31
0.0
1001
DBPROPERTIES
1002
{
1000
PbThick
1002
}
  0
LINE
  5
186
330
1F
100
AcDbEntity
  8
HIDDEN
100
AcDbLine
 10
464.6446609406725
 20
-429.2893218813453
 30
0.0
 11
464.6446609406725
 21
-429.2893218813453
 31
0.0
1001
DBPROPERTIES
1002
{
1000
PbHidd
1002
}
  0
LINE
  5
187
330
1F
100
AcDbEntity
  8
HIDDEN
100
AcDbLine
 10
429.2893218813452
 20
-464.6446609406726
 30
0.0
 11
429.2893218813452
 21
-464.6446609406726
 31
0.0
1001
DBPROPERTIES
1002
{
1000
PbHidd
1002
}
  0
LINE
  5
188
330
1F
100
AcDbEntity
  8
THICK
100
AcDbLine
 10
464.6446609406725
 20
-429.2893218813453
 30
0.0
 11
464.088815325092
 21
-429.8451674969258
 31
0.0
1001
DBPROPERTIES
1002
{
1000
PbThick
1002
}
  0
LINE
  5
189
330
1F
100
AcDbEntity
  8
HIDDEN
100
AcDbLine
 10
464.088815325092
 20
-429.8451674969258
 30
0.0
 11
461.4016529601885
 21
-432.5323298618293
 31
0.0
1001
DBPROPERTIES
1002
{
1000
PbHidd
1002
}
  0
LINE
  5
18A
330
1F
100
AcDbEntity
  8
THICK
100
AcDbLine
 10
461.4016529601885
 20
-432.5323298618293
 30
0.0
 11
429.2893218813452
 21
-464.6446609406726
 31
0.0
1001
DBPROPERTIES
1002
{
1000
PbThick
1002
}
  0
LINE
  5
18B
330
1F
100
AcDbEntity
  8
THICK
100
AcDbLine
 10
429.2893218813452
 20
-464.6446609406726
 30
0.0
 11
499.9999999999999
 21
-535.3553390593273
 31
0.0
1001
DBPROPERTIES
1002
{
1000
PbThick
1002
}
  0
LINE
  5
18C
330
1F
100
AcDbEntity
  8
HIDDEN
100
AcDbLine
 10
-500.0000000000001
 20
-535.3553390593274
 30
0.0
 11
-500.0000000000001
 21
-535.3553390593274
 31
0.0
1001
DBPROPERTIES
1002
{
1000
PbHidd
1002
}
  0
LINE
  5
18D
330
1F
100
AcDbEntity
  8
HIDDEN
100
AcDbLine
 10
-429.2893218813453
 20
-464.6446609406726
 30
0.0
 11
-429.2893218813453
 21
-464.6446609406726
 31
0.0
1001
DBPROPERTIES
1002
{
1000
PbHidd
1002
}
  0
LINE
  5
18E
330
1F
100
AcDbEntity
  8
THICK
100
AcDbLine
 10
-531.2493775647766
 20
495.8940385054493
 30
0.0
 11
-464.6446609406726
 21
429.2893218813452
 31
0.0
1001
DBPROPERTIES
1002
{
1000
PbThick
1002
}
  0
LINE
  5
18F
330
1F
100
AcDbEntity
  8
HIDDEN
100
AcDbLine
 10
-464.6446609406726
 20
429.2893218813452
 30
0.0
 11
-464.6446609406726
 21
429.2893218813452
 31
0.0
1001
DBPROPERTIES
1002
{
1000
PbHidd
1002
}
  0
LINE
  5
190
330
1F
100
AcDbEntity
  8
HIDDEN
100
AcDbLine
 10
-429.2893218813452
 20
464.6446609406726
 30
0.0
 11
-429.2893218813452
 21
464.6446609406726
 31
0.0
1001
DBPROPERTIES
1002
{
1000
PbHidd
1002
}
  0
LINE
  5
191
330
1F
100
AcDbEntity
  8
THICK
100
AcDbLine
 10
-464.6446609406726
 20
429.2893218813452
 30
0.0
 11
-429.2893218813452
 21
464.6446609406726
 31
0.0
1001
DBPROPERTIES
1002
{
1000
PbThick
1002
}
  0
LINE
  5
192
330
1F
100
AcDbEntity
  8
THICK
100
AcDbLine
 10
-429.2893218813452
 20
464.6446609406726
 30
0.0
 11
-500.0
 21
535.3553390593273
 31
0.0
1001
DBPROPERTIES
1002
{
1000
PbThick
1002
}
  0
LINE
  5
193
330
1F
100
AcDbEntity
  8
THICK
100
AcDbLine
 10
-500.0000000000001
 20
535.3553390593274
 30
0.0
 11
-535.3553390593274
 21
500.0000000000001
 31
0.0
1001
DBPROPERTIES
1002
{
1000
PbThick
1002
}
  0
LINE
  5
194
330
1F
100
AcDbEntity
  8
HIDDEN
100
AcDbLine
 10
-500.0000000000001
 20
535.3553390593274
 30
0.0
 11
-500.0000000000001
 21
535.3553390593274
 31
0.0
1001
DBPROPERTIES
1002
{
1000
PbHidd
1002
}
  0
ARC
  5
195
330
1F
100
AcDbEntity
  8
HIDDEN
100
AcDbCircle
 10
0.0000000000000044
 20
0.0
 30
0.0
 40
500.0
100
AcDbArc
 50
270.0000187239684
 51
0.0
1001
DBPROPERTIES
1002
{
1000
PbHidd
1002
}
  0
LINE
  5
196
330
1F
100
AcDbEntity
  8
HIDDEN
100
AcDbLine
 10
-609.0
 20
-625.0
 30
0.0
 11
-609.0
 21
-625.0
 31
0.0
1001
DBPROPERTIES
1002
{
1000
PbHidd
1002
}
  0
LINE
  5
197
330
1F
100
AcDbEntity
  8
HIDDEN
100
AcDbLine
 10
-625.0
 20
-609.0
 30
0.0
 11
-625.0
 21
-609.0
 31
0.0
1001
DBPROPERTIES
1002
{
1000
PbHidd
1002
}
  0
LINE
  5
198
330
1F
100
AcDbEntity
  8
HIDDEN
100
AcDbLine
 10
-625.0
 20
609.0
 30
0.0
 11
-625.0
 21
609.0
 31
0.0
1001
DBPROPERTIES
1002
{
1000
PbHidd
1002
}
  0
LINE
  5
199
330
1F
100
AcDbEntity
  8
HIDDEN
100
AcDbLine
 10
-609.0
 20
625.0
 30
0.0
 11
-609.0
 21
625.0
 31
0.0
1001
DBPROPERTIES
1002
{
1000
PbHidd
1002
}
  0
LINE
  5
19A
330
1F
100
AcDbEntity
  8
HIDDEN
100
AcDbLine
 10
609.0
 20
625.0
 30
0.0
 11
609.0
 21
625.0
 31
0.0
1001
DBPROPERTIES
1002
{
1000
PbHidd
1002
}
  0
LINE
  5
19B
330
1F
100
AcDbEntity
  8
HIDDEN
100
AcDbLine
 10
625.0
 20
609.0
 30
0.0
 11
625.0
 21
609.0
 31
0.0
1001
DBPROPERTIES
1002
{
1000
PbHidd
1002
}
  0
LINE
  5
19C
330
1F
100
AcDbEntity
  8
HIDDEN
100
AcDbLine
 10
625.0
 20
-609.0
 30
0.0
 11
625.0
 21
-609.0
 31
0.0
1001
DBPROPERTIES
1002
{
1000
PbHidd
1002
}
  0
LINE
  5
19D
330
1F
100
AcDbEntity
  8
HIDDEN
100
AcDbLine
 10
609.0
 20
-625.0
 30
0.0
 11
609.0
 21
-625.0
 31
0.0
1001
DBPROPERTIES
1002
{
1000
PbHidd
1002
}
  0
LINE
  5
19E
330
1F
100
AcDbEntity
  8
THICK
100
AcDbLine
 10
-377.2189571595856
 20
-296.8426154800376
 30
0.0
 11
-373.33926889871
 21
-301.7075906816712
 31
0.0
1001
DBPROPERTIES
1002
{
1000
PbThick
1002
}
  0
LINE
  5
19F
330
1F
100
AcDbEntity
  8
THICK
100
AcDbLine
 10
-467.273074634835
 20
109.8433144823911
 30
0.0
 11
-468.6577202447676
 21
103.776785686191
 31
0.0
1001
DBPROPERTIES
1002
{
1000
PbThick
1002
}
  0
LINE
  5
1A0
330
1F
100
AcDbEntity
  8
THICK
100
AcDbLine
 10
-205.4610425398694
 20
433.8149835629412
 30
0.0
 11
-211.0673555358751
 21
431.115125518974
 31
0.0
1001
DBPROPERTIES
1002
{
1000
PbThick
1002
}
  0
LINE
  5
1A1
330
1F
100
AcDbEntity
  8
THICK
100
AcDbLine
 10
211.0673555358752
 20
431.115125518974
 30
0.0
 11
205.4610425398695
 21
433.8149835629412
 31
0.0
1001
DBPROPERTIES
1002
{
1000
PbThick
1002
}
  0
LINE
  5
1A2
330
1F
100
AcDbEntity
  8
THICK
100
AcDbLine
 10
468.6577202447676
 20
103.7767856861909
 30
0.0
 11
467.273074634835
 21
109.843314482391
 31
0.0
1001
DBPROPERTIES
1002
{
1000
PbThick
1002
}
  0
LINE
  5
1A3
330
1F
100
AcDbEntity
  8
THICK
100
AcDbLine
 10
373.3392688987099
 20
-301.7075906816713
 30
0.0
 11
377.2189571595856
 21
-296.8426154800377
 31
0.0
1001
DBPROPERTIES
1002
{
1000
PbThick
1002
}
  0
LINE
  5
1A4
330
1F
100
AcDbEntity
  8
THICK
100
AcDbLine
 10
-3.111270427703893
 20
-480.0
 30
0.0
 11
3.111270427703819
 21
-480.0
 31
0.0
1001
DBPROPERTIES
1002
{
1000
PbThick
1002
}
  0
ENDSEC
  0
SECTION
  2
OBJECTS
  0
DICTIONARY
  5
C
330
0
100
AcDbDictionary
  3
ACAD_GROUP
350
D
  3
ACAD_LAYOUT
350
1A
  3
ACAD_MATERIAL
350
43
  3
ACAD_MLEADERSTYLE
350
6B
  3
ACAD_MLINESTYLE
350
17
  3
ACAD_PLOTSETTINGS
350
19
  3
ACAD_SCALELIST
350
47
  3
ACAD_VISUALSTYLE
350
2A
  3
ACDBVARIABLEDICTIONARY
350
1A5
1001
ACAD
1000
TREAT_AS_HARD
1070
     0
  0
DICTIONARY
  5
D
102
{ACAD_REACTORS
330
C
102
}
330
C
100
AcDbDictionary
1001
ACAD
1000
TREAT_AS_HARD
1070
     0
  0
DICTIONARY
  5
1A
102
{ACAD_REACTORS
330
C
102
}
330
C
100
AcDbDictionary
1001
ACAD
1000
TREAT_AS_HARD
1070
     0
  0
DICTIONARY
  5
43
102
{ACAD_REACTORS
330
C
102
}
330
C
100
AcDbDictionary
  3
BYBLOCK
350
45
  3
BYLAYER
350
44
  3
GLOBAL
350
46
1001
ACAD
1000
TREAT_AS_HARD
1070
     0
  0
DICTIONARY
  5
6B
102
{ACAD_REACTORS
330
C
102
}
330
C
100
AcDbDictionary
  3
STANDARD
350
6C
1001
ACAD
1000
TREAT_AS_HARD
1070
     0
  0
DICTIONARY
  5
17
102
{ACAD_REACTORS
330
C
102
}
330
C
100
AcDbDictionary
  3
STANDARD
350
18
1001
ACAD
1000
TREAT_AS_HARD
1070
     0
  0
DICTIONARY
  5
19
102
{ACAD_REACTORS
330
C
102
}
330
C
100
AcDbDictionary
1001
ACAD
1000
TREAT_AS_HARD
1070
     0
  0
DICTIONARY
  5
47
102
{ACAD_REACTORS
330
C
102
}
330
C
100
AcDbDictionary
  3
A0
350
48
  3
A1
350
49
  3
A2
350
4A
  3
A3
350
4B
  3
A4
350
4C
  3
A5
350
4D
  3
A6
350
4E
  3
A7
350
4F
  3
A8
350
50
  3
A9
350
51
  3
B0
350
52
  3
B1
350
53
  3
B2
350
54
  3
B3
350
55
  3
B4
350
56
  3
B5
350
57
  3
B6
350
58
  3
B7
350
59
  3
B8
350
5A
  3
B9
350
5B
  3
C0
350
5C
  3
C1
350
5D
  3
C2
350
5E
  3
C3
350
5F
  3
C4
350
60
  3
C5
350
61
  3
C6
350
62
  3
C7
350
63
  3
C8
350
64
  3
C9
350
65
  3
D0
350
66
  3
D1
350
67
  3
D2
350
68
1001
ACAD
1000
TREAT_AS_HARD
1070
     0
  0
DICTIONARY
  5
2A
102
{ACAD_REACTORS
330
C
102
}
330
C
100
AcDbDictionary
  3
2DWIREFRAME
350
2F
  3
BASIC
350
32
  3
BRIGHTEN
350
36
  3
COLORCHANGE
350
3A
  3
CONCEPTUAL
350
34
  3
DIM
350
35
  3
EDGECOLOROFF
350
3D
  3
FACEPATTERN
350
39
  3
FLAT
350
2B
  3
FLATWITHEDGES
350
2C
  3
GOURAUD
350
2D
  3
GOURAUDWITHEDGES
350
2E
  3
HIDDEN
350
31
  3
JITTEROFF
350
3B
  3
LINEPATTERN
350
38
  3
OVERHANGOFF
350
3C
  3
REALISTIC
350
33
  3
SHADED
350
42
  3
SHADED_WITH_EDGES
350
41
  3
SHADES_OF_GRAY
350
3E
  3
SKETCHY
350
3F
  3
THICKEN
350
37
  3
WIREFRAME
350
30
  3
X-RAY
350
40
1001
ACAD
1000
TREAT_AS_HARD
1070
     0
  0
DICTIONARY
  5
1A5
102
{ACAD_REACTORS
330
C
102
}
330
C
100
AcDbDictionary
  3
CANNOSCALE
350
1B0
  3
CENTEREXE
350
1AC
  3
CENTERLTYPEFILE
350
1AD
  3
CMLEADERSTYLE
350
1A7
  3
CTABLESTYLE
350
1A6
  3
DIMASSOC
350
1AE
  3
HIDETEXT
350
1AF
  3
MSLTSCALE
350
1B1
  3
PSOLHEIGHT
350
1A9
  3
PSOLWIDTH
350
1A8
1001
ACAD
1000
TREAT_AS_HARD
1070
     0
  0
MATERIAL
  5
45
102
{ACAD_REACTORS
330
43
102
}
102
{ACAD_XDICTIONARY
360
1B4
102
}
330
43
100
AcDbMaterial
  1
BYBLOCK
  0
MATERIAL
  5
44
102
{ACAD_REACTORS
330
43
102
}
102
{ACAD_XDICTIONARY
360
1B2
102
}
330
43
100
AcDbMaterial
  1
BYLAYER
  0
MATERIAL
  5
46
102
{ACAD_REACTORS
330
43
102
}
102
{ACAD_XDICTIONARY
360
1B6
102
}
330
43
100
AcDbMaterial
  1
GLOBAL
  0
ACAD_PROXY_OBJECT
  5
6C
102
{ACAD_REACTORS
330
6B
102
}
330
6B
100
AcDbZombieObject
 90
      499
 91
      505
 93
      610
310
40901902A4063FBFFFFFE0000000000000020400000000000020404214DD185B99185C990000000000000104090141901A00000000000004100000000000000041025764000000000000039000
340
14
340
0
340
11
340
0
 94
        0
1001
ACAD_MLEADERVER
1070
     2
  0
MLINESTYLE
  5
18
102
{ACAD_REACTORS
330
17
102
}
330
17
100
AcDbMlineStyle
  2
Standard
 70
     0
  3

 62
   256
 51
90.0
 52
90.0
 71
     2
 49
0.5
 62
   256
  6
BYLAYER
 49
-0.5
 62
   256
  6
BYLAYER
  0
ACAD_PROXY_OBJECT
  5
48
102
{ACAD_REACTORS
330
47
102
}
330
47
100
AcDbZombieObject
 90
      499
 91
      503
 93
       41
310
903313A31580
  0
ACAD_PROXY_OBJECT
  5
49
102
{ACAD_REACTORS
330
47
102
}
330
47
100
AcDbZombieObject
 90
      499
 91
      503
 93
      105
310
903313A324000000000000004000
  0
ACAD_PROXY_OBJECT
  5
4A
102
{ACAD_REACTORS
330
47
102
}
330
47
100
AcDbZombieObject
 90
      499
 91
      503
 93
      105
310
903313A344000000000000104000
  0
ACAD_PROXY_OBJECT
  5
4B
102
{ACAD_REACTORS
330
47
102
}
330
47
100
AcDbZombieObject
 90
      499
 91
      503
 93
      105
310
903313A354000000000000144000
  0
ACAD_PROXY_OBJECT
  5
4C
102
{ACAD_REACTORS
330
47
102
}
330
47
100
AcDbZombieObject
 90
      499
 91
      503
 93
      105
310
903313A384000000000000204000
  0
ACAD_PROXY_OBJECT
  5
4D
102
{ACAD_REACTORS
330
47
102
}
330
47
100
AcDbZombieObject
 90
      499
 91
      503
 93
      113
310
904313A31304000000000000244000
  0
ACAD_PROXY_OBJECT
  5
4E
102
{ACAD_REACTORS
330
47
102
}
330
47
100
AcDbZombieObject
 90
      499
 91
      503
 93
      113
310
904313A31364000000000000304000
  0
ACAD_PROXY_OBJECT
  5
4F
102
{ACAD_REACTORS
330
47
102
}
330
47
100
AcDbZombieObject
 90
      499
 91
      503
 93
      113
310
904313A32304000000000000344000
  0
ACAD_PROXY_OBJECT
  5
50
102
{ACAD_REACTORS
330
47
102
}
330
47
100
AcDbZombieObject
 90
      499
 91
      503
 93
      113
310
904313A333040000000000003E4000
  0
ACAD_PROXY_OBJECT
  5
51
102
{ACAD_REACTORS
330
47
102
}
330
47
100
AcDbZombieObject
 90
      499
 91
      503
 93
      113
310
904313A34304000000000000444000
  0
ACAD_PROXY_OBJECT
  5
52
102
{ACAD_REACTORS
330
47
102
}
330
47
100
AcDbZombieObject
 90
      499
 91
      503
 93
      113
310
904313A35304000000000000494000
  0
ACAD_PROXY_OBJECT
  5
53
102
{ACAD_REACTORS
330
47
102
}
330
47
100
AcDbZombieObject
 90
      499
 91
      503
 93
      121
310
905313A3130304000000000000594000
  0
ACAD_PROXY_OBJECT
  5
54
102
{ACAD_REACTORS
330
47
102
}
330
47
100
AcDbZombieObject
 90
      499
 91
      503
 93
      105
310
903323A310000000000000010100
  0
ACAD_PROXY_OBJECT
  5
55
102
{ACAD_REACTORS
330
47
102
}
330
47
100
AcDbZombieObject
 90
      499
 91
      503
 93
      105
310
903343A310000000000000410100
  0
ACAD_PROXY_OBJECT
  5
56
102
{ACAD_REACTORS
330
47
102
}
330
47
100
AcDbZombieObject
 90
      499
 91
      503
 93
      105
310
903383A310000000000000810100
  0
ACAD_PROXY_OBJECT
  5
57
102
{ACAD_REACTORS
330
47
102
}
330
47
100
AcDbZombieObject
 90
      499
 91
      503
 93
      113
310
90431303A310000000000000910100
  0
ACAD_PROXY_OBJECT
  5
58
102
{ACAD_REACTORS
330
47
102
}
330
47
100
AcDbZombieObject
 90
      499
 91
      503
 93
      121
310
9053130303A310000000000001650100
  0
ACAD_PROXY_OBJECT
  5
59
102
{ACAD_REACTORS
330
47
102
}
330
47
100
AcDbZombieObject
 90
      499
 91
      503
 93
      257
310
90E312F31323822203D2031272D3022000000000000200FC000000000000284000
  0
ACAD_PROXY_OBJECT
  5
5A
102
{ACAD_REACTORS
330
47
102
}
330
47
100
AcDbZombieObject
 90
      499
 91
      503
 93
      249
310
90D312F363422203D2031272D3022000000000000240FC000000000000284000
  0
ACAD_PROXY_OBJECT
  5
5B
102
{ACAD_REACTORS
330
47
102
}
330
47
100
AcDbZombieObject
 90
      499
 91
      503
 93
      249
310
90D312F333222203D2031272D3022000000000000280FC000000000000284000
  0
ACAD_PROXY_OBJECT
  5
5C
102
{ACAD_REACTORS
330
47
102
}
330
47
100
AcDbZombieObject
 90
      499
 91
      503
 93
      249
310
90D312F313622203D2031272D30220000000000002C0FC000000000000284000
  0
ACAD_PROXY_OBJECT
  5
5D
102
{ACAD_REACTORS
330
47
102
}
330
47
100
AcDbZombieObject
 90
      499
 91
      503
 93
      249
310
90D332F333222203D2031272D30220000000000002E0FC000000000000284000
  0
ACAD_PROXY_OBJECT
  5
5E
102
{ACAD_REACTORS
330
47
102
}
330
47
100
AcDbZombieObject
 90
      499
 91
      503
 93
      241
310
90C312F3822203D2031272D3022000000000000300FC000000000000284000
  0
ACAD_PROXY_OBJECT
  5
5F
102
{ACAD_REACTORS
330
47
102
}
330
47
100
AcDbZombieObject
 90
      499
 91
      503
 93
      249
310
90D332F313622203D2031272D3022000000000000320FC000000000000284000
  0
ACAD_PROXY_OBJECT
  5
60
102
{ACAD_REACTORS
330
47
102
}
330
47
100
AcDbZombieObject
 90
      499
 91
      503
 93
      241
310
90C312F3422203D2031272D3022000000000000340FC000000000000284000
  0
ACAD_PROXY_OBJECT
  5
61
102
{ACAD_REACTORS
330
47
102
}
330
47
100
AcDbZombieObject
 90
      499
 91
      503
 93
      241
310
90C332F3822203D2031272D3022000000000000360FC000000000000284000
  0
ACAD_PROXY_OBJECT
  5
62
102
{ACAD_REACTORS
330
47
102
}
330
47
100
AcDbZombieObject
 90
      499
 91
      503
 93
      241
310
90C312F3222203D2031272D3022000000000000380FC000000000000284000
  0
ACAD_PROXY_OBJECT
  5
63
102
{ACAD_REACTORS
330
47
102
}
330
47
100
AcDbZombieObject
 90
      499
 91
      503
 93
      241
310
90C332F3422203D2031272D30220000000000003A0FC000000000000284000
  0
ACAD_PROXY_OBJECT
  5
64
102
{ACAD_REACTORS
330
47
102
}
330
47
100
AcDbZombieObject
 90
      499
 91
      503
 93
      161
310
90A3122203D2031272D30224000000000000284000
  0
ACAD_PROXY_OBJECT
  5
65
102
{ACAD_REACTORS
330
47
102
}
330
47
100
AcDbZombieObject
 90
      499
 91
      503
 93
      257
310
90E312D312F3222203D2031272D30220000000000003E0FC000000000000284000
  0
ACAD_PROXY_OBJECT
  5
66
102
{ACAD_REACTORS
330
47
102
}
330
47
100
AcDbZombieObject
 90
      499
 91
      503
 93
      225
310
90A3322203D2031272D302200000000000002100000000000000284000
  0
ACAD_PROXY_OBJECT
  5
67
102
{ACAD_REACTORS
330
47
102
}
330
47
100
AcDbZombieObject
 90
      499
 91
      503
 93
      225
310
90A3622203D2031272D302200000000000006100000000000000284000
  0
ACAD_PROXY_OBJECT
  5
68
102
{ACAD_REACTORS
330
47
102
}
330
47
100
AcDbZombieObject
 90
      499
 91
      503
 93
      249
310
90D31272D3022203D2031272D30220000000000000A100000000000000284000
  0
ACAD_PROXY_OBJECT
  5
2F
102
{ACAD_REACTORS
330
2A
102
}
330
2A
100
AcDbZombieObject
 90
      499
 91
      501
 93
      436
310
42CC9915DA5C99599C985B595049028333333333333E33F0000000000000F90107901411070040501600405405064090741402480A0340
1001
ACAD
1000
AcDbSavedByObjectVersion
1070
     0
  0
ACAD_PROXY_OBJECT
  5
32
102
{ACAD_REACTORS
330
2A
102
}
330
2A
100
AcDbZombieObject
 90
      499
 91
      501
 93
      388
310
4150985CDA58D07406404333333333333E33F0000000000000F90107A41107004050150841D405064090741402480A0350
1001
ACAD
1000
AcDbSavedByObjectVersion
1070
     0
  0
ACAD_PROXY_OBJECT
  5
36
102
{ACAD_REACTORS
330
2A
102
}
330
2A
100
AcDbZombieObject
 90
      499
 91
      501
 93
      428
310
42109C9A59DA1D195B90C409028333333333333E33F0000000000000F9010790141107004050150841D405064090741402480A029950
1001
ACAD
1000
AcDbSavedByObjectVersion
1070
     0
  0
ACAD_PROXY_OBJECT
  5
3A
102
{ACAD_REACTORS
330
2A
102
}
330
2A
100
AcDbZombieObject
 90
      499
 91
      501
 93
      452
310
42D0DBDB1BDC90DA185B99D95104090240C333333333333E33F0000000000000F90108901411070040501508421405064090741402480A0350
1001
ACAD
1000
AcDbSavedByObjectVersion
1070
     0
  0
ACAD_PROXY_OBJECT
  5
34
102
{ACAD_REACTORS
330
2A
102
}
330
2A
100
AcDbZombieObject
 90
      499
 91
      501
 93
      500
310
4290DBDB98D95C1D1D585B10940D028333333333333E33F0000000000000F90107902409070040501000000000018199010841D405064090740C02480A0340
1001
ACAD
1000
AcDbSavedByObjectVersion
1070
     0
  0
ACAD_PROXY_OBJECT
  5
35
102
{ACAD_REACTORS
330
2A
102
}
330
2A
100
AcDbZombieObject
 90
      499
 91
      501
 93
      412
310
40D11A5B50B409028333333333333E33F0000000000000F9010790141107004050150841D405064090741402480A02677FFFFFD0
1001
ACAD
1000
AcDbSavedByObjectVersion
1070
     0
  0
ACAD_PROXY_OBJECT
  5
3D
102
{ACAD_REACTORS
330
2A
102
}
330
2A
100
AcDbZombieObject
 90
      499
 91
      501
 93
      452
310
43115919D950DBDB1BDC93D999916409028333333333333E33F0000000000000F9010790141107004050150841D405064090741402480A0350
1001
ACAD
1000
AcDbSavedByObjectVersion
1070
     0
  0
ACAD_PROXY_OBJECT
  5
39
102
{ACAD_REACTORS
330
2A
102
}
330
2A
100
AcDbZombieObject
 90
      499
 91
      501
 93
      444
310
42D19858D95C185D1D195C9B90F409028333333333333E33F0000000000000F9010790141107004050150841D405064090741402480A0350
1001
ACAD
1000
AcDbSavedByObjectVersion
1070
     0
  0
ACAD_PROXY_OBJECT
  5
2B
102
{ACAD_REACTORS
330
2A
102
}
330
2A
100
AcDbZombieObject
 90
      499
 91
      501
 93
      380
310
41119B185D240901404333333333333E33F0000000000000F9010740A907004050150841D405064090741402480A1B50
1001
ACAD
1000
AcDbSavedByObjectVersion
1070
     0
  0
ACAD_PROXY_OBJECT
  5
2C
102
{ACAD_REACTORS
330
2A
102
}
330
2A
100
AcDbZombieObject
 90
      499
 91
      501
 93
      468
310
43519B185D15DA5D1A115919D95CD0140901404333333333333E33F0000000000000F90107409019070040501600405405064090741402480A1B50
1001
ACAD
1000
AcDbSavedByObjectVersion
1070
     0
  0
ACAD_PROXY_OBJECT
  5
2D
102
{ACAD_REACTORS
330
2A
102
}
330
2A
100
AcDbZombieObject
 90
      499
 91
      501
 93
      404
310
41D1DBDD5C985D5910240902404333333333333E33F0000000000000F9010740A9070040501641D405064090741402480A1B50
1001
ACAD
1000
AcDbSavedByObjectVersion
1070
     0
  0
ACAD_PROXY_OBJECT
  5
2E
102
{ACAD_REACTORS
330
2A
102
}
330
2A
100
AcDbZombieObject
 90
      499
 91
      501
 93
      492
310
4411DBDD5C985D5915DA5D1A115919D95CD0340902404333333333333E33F0000000000000F90107409019070040501600405405064090741402480A1B50
1001
ACAD
1000
AcDbSavedByObjectVersion
1070
     0
  0
ACAD_PROXY_OBJECT
  5
31
102
{ACAD_REACTORS
330
2A
102
}
330
2A
100
AcDbZombieObject
 90
      499
 91
      501
 93
      476
310
41921A5919195B90640502408333333333333E33F0000000000000F901079024090700405020000000000001110200405405064090740C02480A0340
1001
ACAD
1000
AcDbSavedByObjectVersion
1070
     0
  0
ACAD_PROXY_OBJECT
  5
3B
102
{ACAD_REACTORS
330
2A
102
}
330
2A
100
AcDbZombieObject
 90
      499
 91
      501
 93
      428
310
42529A5D1D195C93D999914409028333333333333E33F0000000000000F9010790141107004050150A41D405064090741402480A0350
1001
ACAD
1000
AcDbSavedByObjectVersion
1070
     0
  0
ACAD_PROXY_OBJECT
  5
38
102
{ACAD_REACTORS
330
2A
102
}
330
2A
100
AcDbZombieObject
 90
      499
 91
      501
 93
      444
310
42D31A5B995C185D1D195C9B90E409028333333333333E33F0000000000000F9010790141107004050750841D405064090741402483A0350
1001
ACAD
1000
AcDbSavedByObjectVersion
1070
     0
  0
ACAD_PROXY_OBJECT
  5
3C
102
{ACAD_REACTORS
330
2A
102
}
330
2A
100
AcDbZombieObject
 90
      499
 91
      501
 93
      444
310
42D3DD995C9A185B99D3D999915409028333333333333E33F0000000000000F9010790141107004050150941D405064090741402480A0350
1001
ACAD
1000
AcDbSavedByObjectVersion
1070
     0
  0
ACAD_PROXY_OBJECT
  5
33
102
{ACAD_REACTORS
330
2A
102
}
330
2A
100
AcDbZombieObject
 90
      499
 91
      501
 93
      428
310
425499585B1A5CDD1A58D08409038333333333333E33F0000000000000F9010740A907004050150800405405064090740C02480A1B40
1001
ACAD
1000
AcDbSavedByObjectVersion
1070
     0
  0
ACAD_PROXY_OBJECT
  5
42
102
{ACAD_REACTORS
330
2A
102
}
330
2A
100
AcDbZombieObject
 90
      499
 91
      501
 93
      420
310
4194DA1859195911B40902404333333333333E33F0000000000000F9010740A41107004050150800405405064090840C02480A0B40
1001
ACAD
1000
AcDbSavedByObjectVersion
1070
     0
  0
ACAD_PROXY_OBJECT
  5
41
102
{ACAD_REACTORS
330
2A
102
}
330
2A
100
AcDbZombieObject
 90
      499
 91
      501
 93
      516
310
4454DA18591959081DDA5D1A08195919D95CD1A40902404333333333333E33F0000000000000F901074090142907004050250800405405064090740C02480A0B40
1001
ACAD
1000
AcDbSavedByObjectVersion
1070
     0
  0
ACAD_PROXY_OBJECT
  5
3E
102
{ACAD_REACTORS
330
2A
102
}
330
2A
100
AcDbZombieObject
 90
      499
 91
      501
 93
      532
310
4394DA1859195CC81BD98811DC985E5174090240C333333333333E33F0000000000000F901079024090741D01000000000000111010841D405064090740C02480A0340
1001
ACAD
1000
AcDbSavedByObjectVersion
1070
     0
  0
ACAD_PROXY_OBJECT
  5
3F
102
{ACAD_REACTORS
330
2A
102
}
330
2A
100
AcDbZombieObject
 90
      499
 91
      501
 93
      476
310
41D4DAD95D18DA1E51840502408333333333333E33F0000000000000F901079024090741D01000000000000111010B41D405064090741802480A0340
1001
ACAD
1000
AcDbSavedByObjectVersion
1070
     0
  0
ACAD_PROXY_OBJECT
  5
37
102
{ACAD_REACTORS
330
2A
102
}
330
2A
100
AcDbZombieObject
 90
      499
 91
      501
 93
      412
310
41D51A1A58DAD95B90D409028333333333333E33F0000000000000F9010790141107004050150C41D405064090741402480A0350
1001
ACAD
1000
AcDbSavedByObjectVersion
1070
     0
  0
ACAD_PROXY_OBJECT
  5
30
102
{ACAD_REACTORS
330
2A
102
}
330
2A
100
AcDbZombieObject
 90
      499
 91
      501
 93
      420
310
4255DA5C99599C985B595059028333333333333E33F0000000000000F90107901411070040501600405405064090740C02480A0340
1001
ACAD
1000
AcDbSavedByObjectVersion
1070
     0
  0
ACAD_PROXY_OBJECT
  5
40
102
{ACAD_REACTORS
330
2A
102
}
330
2A
100
AcDbZombieObject
 90
      499
 91
      501
 93
      404
310
41560B54985E51940902404000000000000E03F0000000000000F9010740501907004050150841D405064090740C02480A1B40
1001
ACAD
1000
AcDbSavedByObjectVersion
1070
     0
  0
DICTIONARYVAR
  5
1B0
102
{ACAD_REACTORS
330
1A5
102
}
330
1A5
100
DictionaryVariables
280
     0
  1
1:1
  0
DICTIONARYVAR
  5
1AC
102
{ACAD_REACTORS
330
1A5
102
}
330
1A5
100
DictionaryVariables
280
     0
  1
3.500000
  0
DICTIONARYVAR
  5
1AD
102
{ACAD_REACTORS
330
1A5
102
}
330
1A5
100
DictionaryVariables
280
     0
  1
acadiso.lin
  0
DICTIONARYVAR
  5
1A7
102
{ACAD_REACTORS
330
1A5
102
}
330
1A5
100
DictionaryVariables
280
     0
  1
Standard
  0
DICTIONARYVAR
  5
1A6
102
{ACAD_REACTORS
330
1A5
102
}
330
1A5
100
DictionaryVariables
280
     0
  1
Standard
  0
DICTIONARYVAR
  5
1AE
102
{ACAD_REACTORS
330
1A5
102
}
330
1A5
100
DictionaryVariables
280
     0
  1
2
  0
DICTIONARYVAR
  5
1AF
102
{ACAD_REACTORS
330
1A5
102
}
330
1A5
100
DictionaryVariables
280
     0
  1
1
  0
DICTIONARYVAR
  5
1B1
102
{ACAD_REACTORS
330
1A5
102
}
330
1A5
100
DictionaryVariables
280
     0
  1
1
  0
DICTIONARYVAR
  5
1A9
102
{ACAD_REACTORS
330
1A5
102
}
330
1A5
100
DictionaryVariables
280
     0
  1
80.000000
  0
DICTIONARYVAR
  5
1A8
102
{ACAD_REACTORS
330
1A5
102
}
330
1A5
100
DictionaryVariables
280
     0
  1
5.000000
  0
DICTIONARY
  5
1B4
330
45
100
AcDbDictionary
  3
ACAD_XREC_ROUNDTRIP
360
1B5
1001
ACAD
1000
TREAT_AS_HARD
1070
     1
  0
DICTIONARY
  5
1B2
330
44
100
AcDbDictionary
  3
ACAD_XREC_ROUNDTRIP
360
1B3
1001
ACAD
1000
TREAT_AS_HARD
1070
     1
  0
DICTIONARY
  5
1B6
330
46
100
AcDbDictionary
  3
ACAD_XREC_ROUNDTRIP
360
1B7
1001
ACAD
1000
TREAT_AS_HARD
1070
     1
  0
XRECORD
  5
1B5
102
{ACAD_REACTORS
330
1B4
102
}
330
1B4
100
AcDbXrecord
102
MATERIAL
148
0.0
149
0.0
149
0.0
 93
        0
 94
      127
282
     0
 72
     1
 77
     1
171
     1
175
     1
179
     1
273
     0
  0
XRECORD
  5
1B3
102
{ACAD_REACTORS
330
1B2
102
}
330
1B2
100
AcDbXrecord
102
MATERIAL
148
0.0
149
0.0
149
0.0
 93
        0
 94
      127
282
     0
 72
     1
 77
     1
171
     1
175
     1
179
     1
273
     0
  0
XRECORD
  5
1B7
102
{ACAD_REACTORS
330
1B6
102
}
330
1B6
100
AcDbXrecord
102
MATERIAL
148
0.0
149
0.0
149
0.0
 93
        0
 94
      127
282
     0
 72
     1
 77
     1
171
     1
175
     1
179
     1
273
     0
  0
ENDSEC
  0
EOF
