  0
SECTION
  2
HEADER
  9
$ACADVER
  1
AC1012
  9
$DWGCODEPAGE
  3
ansi_1252
  9
$INSBASE
 10
0.0
 20
0.0
 30
0.0
  9
$EXTMIN
 10
1.000000000000000E+20
 20
1.000000000000000E+20
 30
1.000000000000000E+20
  9
$EXTMAX
 10
-1.000000000000000E+20
 20
-1.000000000000000E+20
 30
-1.000000000000000E+20
  9
$LIMMIN
 10
0.0
 20
0.0
  9
$LIMMAX
 10
420.0
 20
297.0
  9
$ORTHOMODE
 70
     0
  9
$REGENMODE
 70
     1
  9
$FILLMODE
 70
     1
  9
$QTEXTMODE
 70
     0
  9
$MIRRTEXT
 70
     1
  9
$DRAGMODE
 70
     2
  9
$LTSCALE
 40
1.0
  9
$OSMODE
 70
    37
  9
$ATTMODE
 70
     1
  9
$TEXTSIZE
 40
2.5
  9
$TRACEWID
 40
1.0
  9
$TEXTSTYLE
  7
STANDARD
  9
$CLAYER
  8
0
  9
$CELTYPE
  6
BYLAYER
  9
$CECOLOR
 62
   256
  9
$CELTSCALE
 40
1.0
  9
$DELOBJ
 70
     1
  9
$DISPSILH
 70
     0
  9
$DIMSCALE
 40
1.0
  9
$DIMASZ
 40
2.5
  9
$DIMEXO
 40
0.625
  9
$DIMDLI
 40
3.75
  9
$DIMRND
 40
0.0
  9
$DIMDLE
 40
0.0
  9
$DIMEXE
 40
1.25
  9
$DIMTP
 40
0.0
  9
$DIMTM
 40
0.0
  9
$DIMTXT
 40
2.5
  9
$DIMCEN
 40
2.5
  9
$DIMTSZ
 40
0.0
  9
$DIMTOL
 70
     0
  9
$DIMLIM
 70
     0
  9
$DIMTIH
 70
     0
  9
$DIMTOH
 70
     0
  9
$DIMSE1
 70
     0
  9
$DIMSE2
 70
     0
  9
$DIMTAD
 70
     1
  9
$DIMZIN
 70
     8
  9
$DIMBLK
  1

  9
$DIMASO
 70
     1
  9
$DIMSHO
 70
     1
  9
$DIMPOST
  1

  9
$DIMAPOST
  1

  9
$DIMALT
 70
     0
  9
$DIMALTD
 70
     3
  9
$DIMALTF
 40
0.03937007874016
  9
$DIMLFAC
 40
1.0
  9
$DIMTOFL
 70
     1
  9
$DIMTVP
 40
0.0
  9
$DIMTIX
 70
     0
  9
$DIMSOXD
 70
     0
  9
$DIMSAH
 70
     0
  9
$DIMBLK1
  1

  9
$DIMBLK2
  1

  9
$DIMSTYLE
  2
ISO-25
  9
$DIMCLRD
 70
     0
  9
$DIMCLRE
 70
     0
  9
$DIMCLRT
 70
     0
  9
$DIMTFAC
 40
1.0
  9
$DIMGAP
 40
0.625
  9
$DIMJUST
 70
     0
  9
$DIMSD1
 70
     0
  9
$DIMSD2
 70
     0
  9
$DIMTOLJ
 70
     0
  9
$DIMTZIN
 70
     8
  9
$DIMALTZ
 70
     0
  9
$DIMALTTZ
 70
     0
  9
$DIMFIT
 70
     3
  9
$DIMUPT
 70
     0
  9
$DIMUNIT
 70
     2
  9
$DIMDEC
 70
     2
  9
$DIMTDEC
 70
     2
  9
$DIMALTU
 70
     2
  9
$DIMALTTD
 70
     3
  9
$DIMTXSTY
  7
STANDARD
  9
$DIMAUNIT
 70
     0
  9
$LUNITS
 70
     2
  9
$LUPREC
 70
     4
  9
$SKETCHINC
 40
1.0
  9
$FILLETRAD
 40
10.0
  9
$AUNITS
 70
     0
  9
$AUPREC
 70
     0
  9
$MENU
  1
.
  9
$ELEVATION
 40
0.0
  9
$PELEVATION
 40
0.0
  9
$THICKNESS
 40
0.0
  9
$LIMCHECK
 70
     0
  9
$CHAMFERA
 40
0.0
  9
$CHAMFERB
 40
0.0
  9
$CHAMFERC
 40
0.0
  9
$CHAMFERD
 40
0.0
  9
$SKPOLY
 70
     0
  9
$TDCREATE
 40
2457975.606912754
  9
$TDUPDATE
 40
2457975.606913831
  9
$TDINDWG
 40
0.0000000116
  9
$TDUSRTIMER
 40
0.0000000116
  9
$USRTIMER
 70
     1
  9
$ANGBASE
 50
0.0
  9
$ANGDIR
 70
     0
  9
$PDMODE
 70
     0
  9
$PDSIZE
 40
0.0
  9
$PLINEWID
 40
0.0
  9
$COORDS
 70
     1
  9
$SPLFRAME
 70
     0
  9
$SPLINETYPE
 70
     6
  9
$SPLINESEGS
 70
     8
  9
$ATTDIA
 70
     0
  9
$ATTREQ
 70
     1
  9
$HANDLING
 70
     1
  9
$HANDSEED
  5
1B9
  9
$SURFTAB1
 70
     6
  9
$SURFTAB2
 70
     6
  9
$SURFTYPE
 70
     6
  9
$SURFU
 70
     6
  9
$SURFV
 70
     6
  9
$UCSNAME
  2

  9
$UCSORG
 10
0.0
 20
0.0
 30
0.0
  9
$UCSXDIR
 10
1.0
 20
0.0
 30
0.0
  9
$UCSYDIR
 10
0.0
 20
1.0
 30
0.0
  9
$PUCSNAME
  2

  9
$PUCSORG
 10
0.0
 20
0.0
 30
0.0
  9
$PUCSXDIR
 10
1.0
 20
0.0
 30
0.0
  9
$PUCSYDIR
 10
0.0
 20
1.0
 30
0.0
  9
$USERI1
 70
     0
  9
$USERI2
 70
     0
  9
$USERI3
 70
     0
  9
$USERI4
 70
     0
  9
$USERI5
 70
     0
  9
$USERR1
 40
0.0
  9
$USERR2
 40
0.0
  9
$USERR3
 40
0.0
  9
$USERR4
 40
0.0
  9
$USERR5
 40
0.0
  9
$WORLDVIEW
 70
     1
  9
$SHADEDGE
 70
     3
  9
$SHADEDIF
 70
    70
  9
$TILEMODE
 70
     1
  9
$MAXACTVP
 70
    64
  9
$PINSBASE
 10
0.0
 20
0.0
 30
0.0
  9
$PLIMCHECK
 70
     0
  9
$PEXTMIN
 10
1.000000000000000E+20
 20
1.000000000000000E+20
 30
1.000000000000000E+20
  9
$PEXTMAX
 10
-1.000000000000000E+20
 20
-1.000000000000000E+20
 30
-1.000000000000000E+20
  9
$PLIMMIN
 10
0.0
 20
0.0
  9
$PLIMMAX
 10
420.0
 20
297.0
  9
$UNITMODE
 70
     0
  9
$VISRETAIN
 70
     1
  9
$PLINEGEN
 70
     0
  9
$PSLTSCALE
 70
     1
  9
$TREEDEPTH
 70
  3020
  9
$PICKSTYLE
 70
     1
  9
$CMLSTYLE
  2
STANDARD
  9
$CMLJUST
 70
     0
  9
$CMLSCALE
 40
20.0
  9
$SAVEIMAGES
 70
     1
  0
ENDSEC
  0
SECTION
  2
CLASSES
  0
CLASS
  1
ACDBDICTIONARYWDFLT
  2
AcDbDictionaryWithDefault
  3
ObjectDBX Classes
 90
    32768
280
     0
281
     0
  0
CLASS
  1
VISUALSTYLE
  2
AcDbVisualStyle
  3
ObjectDBX Classes
 90
     4095
280
     0
281
     0
  0
CLASS
  1
MATERIAL
  2
AcDbMaterial
  3
ObjectDBX Classes
 90
     1153
280
     0
281
     0
  0
CLASS
  1
SCALE
  2
AcDbScale
  3
ObjectDBX Classes
 90
     1153
280
     0
281
     0
  0
CLASS
  1
TABLESTYLE
  2
AcDbTableStyle
  3
ObjectDBX Classes
 90
     4095
280
     0
281
     0
  0
CLASS
  1
MLEADERSTYLE
  2
AcDbMLeaderStyle
  3
ACDB_MLEADERSTYLE_CLASS
 90
     4095
280
     0
281
     0
  0
CLASS
  1
SUN
  2
AcDbSun
  3
SCENEOE
 90
     1153
280
     0
281
     0
  0
CLASS
  1
DICTIONARYVAR
  2
AcDbDictionaryVar
  3
ObjectDBX Classes
 90
        0
280
     0
281
     0
  0
CLASS
  1
XRECORD
  2
AcDbXrecord
  3
ObjectDBX Classes
 90
    32768
280
     0
281
     0
  0
CLASS
  1
LWPOLYLINE
  2
AcDbPolyline
  3
ObjectDBX Classes
 90
    32768
280
     0
281
     1
  0
CLASS
  1
HATCH
  2
AcDbHatch
  3
ObjectDBX Classes
 90
    32768
280
     0
281
     1
  0
CLASS
  1
ACDBPLACEHOLDER
  2
AcDbPlaceHolder
  3
ObjectDBX Classes
 90
        0
280
     0
281
     0
  0
CLASS
  1
LAYOUT
  2
AcDbLayout
  3
ObjectDBX Classes
 90
        0
280
     0
281
     0
  0
ENDSEC
  0
SECTION
  2
TABLES
  0
TABLE
  2
VPORT
  5
8
330
0
100
AcDbSymbolTable
 70
     1
  0
VPORT
  5
29
330
8
100
AcDbSymbolTableRecord
100
AcDbViewportTableRecord
  2
*ACTIVE
 70
     0
 10
0.0
 20
0.0
 11
1.0
 21
1.0
 12
0.0
 22
0.0
 13
0.0
 23
0.0
 14
10.0
 24
10.0
 15
10.0
 25
10.0
 16
0.0
 26
0.0
 36
1.0
 17
0.0000000000000568
 27
0.0
 37
0.0
 40
1020.0
 41
1.0
 42
50.0
 43
0.0
 44
0.0
 50
0.0
 51
0.0
 71
     0
 72
   100
 73
     1
 74
     3
 75
     0
 76
     0
 77
     0
 78
     0
  0
ENDTAB
  0
TABLE
  2
LTYPE
  5
5
330
0
100
AcDbSymbolTable
 70
     1
  0
LTYPE
  5
14
330
5
100
AcDbSymbolTableRecord
100
AcDbLinetypeTableRecord
  2
BYBLOCK
 70
     0
  3

 72
    65
 73
     0
 40
0.0
  0
LTYPE
  5
15
330
5
100
AcDbSymbolTableRecord
100
AcDbLinetypeTableRecord
  2
BYLAYER
 70
     0
  3

 72
    65
 73
     0
 40
0.0
  0
LTYPE
  5
16
330
5
100
AcDbSymbolTableRecord
100
AcDbLinetypeTableRecord
  2
CONTINUOUS
 70
     0
  3
Solid line
 72
    65
 73
     0
 40
0.0
  0
ENDTAB
  0
TABLE
  2
LAYER
  5
2
330
0
100
AcDbSymbolTable
 70
     4
  0
LAYER
  5
10
330
2
100
AcDbSymbolTableRecord
100
AcDbLayerTableRecord
  2
0
 70
     0
 62
     7
  6
CONTINUOUS
  0
LAYER
  5
6E
330
2
100
AcDbSymbolTableRecord
100
AcDbLayerTableRecord
  2
THICK
 70
     0
 62
     7
  6
CONTINUOUS
  0
LAYER
  5
6F
330
2
100
AcDbSymbolTableRecord
100
AcDbLayerTableRecord
  2
HIDDEN
 70
     0
 62
     7
  6
CONTINUOUS
  0
LAYER
  5
70
330
2
100
AcDbSymbolTableRecord
100
AcDbLayerTableRecord
  2
HASHLINES
 70
     0
 62
     7
  6
CONTINUOUS
  0
ENDTAB
  0
TABLE
  2
STYLE
  5
3
330
0
100
AcDbSymbolTable
 70
     1
  0
STYLE
  5
11
330
3
100
AcDbSymbolTableRecord
100
AcDbTextStyleTableRecord
  2
STANDARD
 70
     0
 40
0.0
 41
1.0
 50
0.0
 71
     0
 42
2.5
  3
txt
  4

  0
ENDTAB
  0
TABLE
  2
VIEW
  5
6
330
0
100
AcDbSymbolTable
 70
     0
  0
ENDTAB
  0
TABLE
  2
UCS
  5
7
330
0
100
AcDbSymbolTable
 70
     0
  0
ENDTAB
  0
TABLE
  2
APPID
  5
9
330
0
100
AcDbSymbolTable
 70
     3
  0
APPID
  5
12
330
9
100
AcDbSymbolTableRecord
100
AcDbRegAppTableRecord
  2
ACAD
 70
     0
  0
APPID
  5
71
330
9
100
AcDbSymbolTableRecord
100
AcDbRegAppTableRecord
  2
DBPROPERTIES
 70
     0
  0
APPID
  5
1B8
330
9
100
AcDbSymbolTableRecord
100
AcDbRegAppTableRecord
  2
ACAD_MLEADERVER
 70
     0
  0
ENDTAB
  0
TABLE
  2
DIMSTYLE
  5
A
330
0
100
AcDbSymbolTable
 70
     1
  0
DIMSTYLE
105
27
330
A
100
AcDbSymbolTableRecord
100
AcDbDimStyleTableRecord
  2
ISO-25
 70
     0
  3

  4

  5

  6

  7

 40
1.0
 41
2.5
 42
0.625
 43
3.75
 44
1.25
 45
0.0
 46
0.0
 47
0.0
 48
0.0
140
2.5
141
2.5
142
0.0
143
0.03937007874016
144
1.0
145
0.0
146
1.0
147
0.625
 71
     0
 72
     0
 73
     0
 74
     0
 75
     0
 76
     0
 77
     1
 78
     8
170
     0
171
     3
172
     1
173
     0
174
     0
175
     0
176
     0
177
     0
178
     0
270
     2
271
     2
272
     2
273
     2
274
     3
340
11
275
     0
280
     0
281
     0
282
     0
283
     0
284
     8
285
     0
286
     0
287
     3
288
     0
  0
ENDTAB
  0
TABLE
  2
BLOCK_RECORD
  5
1
330
0
100
AcDbSymbolTable
 70
     0
  0
BLOCK_RECORD
  5
1F
330
1
100
AcDbSymbolTableRecord
100
AcDbBlockTableRecord
  2
*MODEL_SPACE
  0
BLOCK_RECORD
  5
1B
330
1
100
AcDbSymbolTableRecord
100
AcDbBlockTableRecord
  2
*PAPER_SPACE
  0
ENDTAB
  0
ENDSEC
  0
SECTION
  2
BLOCKS
  0
BLOCK
  5
20
330
1F
100
AcDbEntity
  8
0
100
AcDbBlockBegin
  2
*MODEL_SPACE
 70
     0
 10
0.0
 20
0.0
 30
0.0
  3
*MODEL_SPACE
  1

  0
ENDBLK
  5
21
330
1F
100
AcDbEntity
  8
0
100
AcDbBlockEnd
  0
BLOCK
  5
1C
330
1B
100
AcDbEntity
 67
     1
  8
0
100
AcDbBlockBegin
  2
*PAPER_SPACE
 70
     0
 10
0.0
 20
0.0
 30
0.0
  3
*PAPER_SPACE
  1

  0
ENDBLK
  5
1D
330
1B
100
AcDbEntity
 67
     1
  8
0
100
AcDbBlockEnd
  0
ENDSEC
  0
SECTION
  2
ENTITIES
  0
ARC
  5
72
330
1F
100
AcDbEntity
  8
HIDDEN
100
AcDbCircle
 10
0.0000000000000049
 20
0.0
 30
0.0
 40
459.0531864582027
100
AcDbArc
 50
180.0000198478428
 51
0.0
1001
DBPROPERTIES
1002
{
1000
PbHidd
1002
}
  0
ARC
  5
73
330
1F
100
AcDbEntity
  8
HIDDEN
100
AcDbCircle
 10
0.0000000000000049
 20
0.0
 30
0.0
 40
459.0531864582027
100
AcDbArc
 50
0.0
 51
180.0000198478428
1001
DBPROPERTIES
1002
{
1000
PbHidd
1002
}
  0
ARC
  5
74
330
1F
100
AcDbEntity
  8
HIDDEN
100
AcDbCircle
 10
0.0000000000000037
 20
0.0
 30
0.0
 40
400.0
100
AcDbArc
 50
89.99998127603165
 51
179.9999801521572
1001
DBPROPERTIES
1002
{
1000
PbHidd
1002
}
  0
ARC
  5
75
330
1F
100
AcDbEntity
  8
HIDDEN
100
AcDbCircle
 10
0.0000000000000037
 20
0.0
 30
0.0
 40
400.0
100
AcDbArc
 50
179.9999801521572
 51
270.0000187239684
1001
DBPROPERTIES
1002
{
1000
PbHidd
1002
}
  0
ARC
  5
76
330
1F
100
AcDbEntity
  8
HIDDEN
100
AcDbCircle
 10
0.0000000000000037
 20
0.0
 30
0.0
 40
400.0
100
AcDbArc
 50
0.0
 51
89.99998127603165
1001
DBPROPERTIES
1002
{
1000
PbHidd
1002
}
  0
ARC
  5
77
330
1F
100
AcDbEntity
  8
THICK
100
AcDbCircle
 10
0.0
 20
0.0
 30
0.0
 40
392.0
100
AcDbArc
 50
144.0968228273396
 51
180.0000198478428
1001
DBPROPERTIES
1002
{
1000
PbThick
1002
}
  0
ARC
  5
78
330
1F
100
AcDbEntity
  8
HIDDEN
100
AcDbCircle
 10
0.0
 20
0.0
 30
0.0
 40
392.0
100
AcDbArc
 50
143.6141058849419
 51
144.0968228273396
1001
DBPROPERTIES
1002
{
1000
PbHidd
1002
}
  0
ARC
  5
79
330
1F
100
AcDbEntity
  8
THICK
100
AcDbCircle
 10
0.0
 20
0.0
 30
0.0
 40
392.0
100
AcDbArc
 50
36.38585666712147
 51
143.6141058849419
1001
DBPROPERTIES
1002
{
1000
PbThick
1002
}
  0
ARC
  5
7A
330
1F
100
AcDbEntity
  8
HIDDEN
100
AcDbCircle
 10
0.0
 20
0.0
 30
0.0
 40
392.0
100
AcDbArc
 50
35.90313972472374
 51
36.38585666712147
1001
DBPROPERTIES
1002
{
1000
PbHidd
1002
}
  0
ARC
  5
7B
330
1F
100
AcDbEntity
  8
THICK
100
AcDbCircle
 10
0.0
 20
0.0
 30
0.0
 40
392.0
100
AcDbArc
 50
0.0
 51
35.90313972472374
1001
DBPROPERTIES
1002
{
1000
PbThick
1002
}
  0
ARC
  5
7C
330
1F
100
AcDbEntity
  8
THICK
100
AcDbCircle
 10
-400.0
 20
-400.0
 30
0.0
 40
9.0
100
AcDbArc
 50
180.0000198478428
 51
0.0
1001
DBPROPERTIES
1002
{
1000
PbThick
1002
}
  0
ARC
  5
7D
330
1F
100
AcDbEntity
  8
THICK
100
AcDbCircle
 10
-400.0
 20
400.0
 30
0.0
 40
9.0
100
AcDbArc
 50
180.0000198478428
 51
0.0
1001
DBPROPERTIES
1002
{
1000
PbThick
1002
}
  0
ARC
  5
7E
330
1F
100
AcDbEntity
  8
THICK
100
AcDbCircle
 10
400.0
 20
-400.0
 30
0.0
 40
9.0
100
AcDbArc
 50
180.0000198478428
 51
0.0
1001
DBPROPERTIES
1002
{
1000
PbThick
1002
}
  0
ARC
  5
7F
330
1F
100
AcDbEntity
  8
THICK
100
AcDbCircle
 10
400.0
 20
400.0
 30
0.0
 40
9.0
100
AcDbArc
 50
180.0000198478428
 51
0.0
1001
DBPROPERTIES
1002
{
1000
PbThick
1002
}
  0
ARC
  5
80
330
1F
100
AcDbEntity
  8
THICK
100
AcDbCircle
 10
-0.0000000000000015
 20
0.0
 30
0.0
 40
72.9
100
AcDbArc
 50
270.0000187239684
 51
89.99998127603165
1001
DBPROPERTIES
1002
{
1000
PbThick
1002
}
  0
ARC
  5
81
330
1F
100
AcDbEntity
  8
THICK
100
AcDbCircle
 10
0.0
 20
0.0
 30
0.0
 40
68.85
100
AcDbArc
 50
270.0000187239684
 51
89.99998127603165
1001
DBPROPERTIES
1002
{
1000
PbThick
1002
}
  0
ARC
  5
82
330
1F
100
AcDbEntity
  8
THICK
100
AcDbCircle
 10
-0.0000000000000015
 20
0.0
 30
0.0
 40
81.0
100
AcDbArc
 50
270.0000187239684
 51
89.99998127603165
1001
DBPROPERTIES
1002
{
1000
PbThick
1002
}
  0
ARC
  5
83
330
1F
100
AcDbEntity
  8
HIDDEN
100
AcDbCircle
 10
-0.000000000000004
 20
0.0
 30
0.0
 40
79.0
100
AcDbArc
 50
270.0000187239684
 51
89.99998127603165
1001
DBPROPERTIES
1002
{
1000
PbHidd
1002
}
  0
LINE
  5
84
330
1F
100
AcDbEntity
  8
HIDDEN
100
AcDbLine
 10
41.1769790052645
 20
-67.42000000000002
 30
0.0
 11
41.17697900526449
 21
-67.42000000000002
 31
0.0
1001
DBPROPERTIES
1002
{
1000
PbHidd
1002
}
  0
LINE
  5
85
330
1F
100
AcDbEntity
  8
HIDDEN
100
AcDbLine
 10
40.5
 20
67.82882867925699
 30
0.0
 11
40.50000000000001
 21
67.82882867925699
 31
0.0
1001
DBPROPERTIES
1002
{
1000
PbHidd
1002
}
  0
ARC
  5
86
330
1F
100
AcDbEntity
  8
THICK
100
AcDbCircle
 10
-0.0000000000000137
 20
0.0
 30
0.0
 40
89.09999999999994
100
AcDbArc
 50
270.0000187239684
 51
281.4070354672279
1001
DBPROPERTIES
1002
{
1000
PbThick
1002
}
  0
ARC
  5
87
330
1F
100
AcDbEntity
  8
HIDDEN
100
AcDbCircle
 10
-0.0000000000000137
 20
0.0
 30
0.0
 40
89.09999999999994
100
AcDbArc
 50
281.4070354672279
 51
310.827787993621
1001
DBPROPERTIES
1002
{
1000
PbHidd
1002
}
  0
ARC
  5
88
330
1F
100
AcDbEntity
  8
THICK
100
AcDbCircle
 10
-0.0000000000000137
 20
0.0
 30
0.0
 40
89.09999999999994
100
AcDbArc
 50
310.827787993621
 51
62.96428016342961
1001
DBPROPERTIES
1002
{
1000
PbThick
1002
}
  0
ARC
  5
89
330
1F
100
AcDbEntity
  8
HIDDEN
100
AcDbCircle
 10
-0.0000000000000137
 20
0.0
 30
0.0
 40
89.09999999999994
100
AcDbArc
 50
62.96428016342961
 51
89.99998127603165
1001
DBPROPERTIES
1002
{
1000
PbHidd
1002
}
  0
ARC
  5
8A
330
1F
100
AcDbEntity
  8
THICK
100
AcDbCircle
 10
105.3
 20
-85.79
 30
0.0
 40
1.55
100
AcDbArc
 50
326.3202802950609
 51
0.0
1001
DBPROPERTIES
1002
{
1000
PbThick
1002
}
  0
ARC
  5
8B
330
1F
100
AcDbEntity
  8
THICK
100
AcDbCircle
 10
-105.3
 20
-85.79
 30
0.0
 40
1.55
100
AcDbArc
 50
180.0000198478428
 51
213.6796998570962
1001
DBPROPERTIES
1002
{
1000
PbThick
1002
}
  0
LINE
  5
8C
330
1F
100
AcDbEntity
  8
HIDDEN
100
AcDbLine
 10
384.1118336546728
 20
329.7968482893547
 30
0.0
 11
384.1118336546728
 21
329.7968482893547
 31
0.0
1001
DBPROPERTIES
1002
{
1000
PbHidd
1002
}
  0
LINE
  5
8D
330
1F
100
AcDbEntity
  8
HIDDEN
100
AcDbLine
 10
429.2898336546728
 20
397.5904482893546
 30
0.0
 11
429.2898336546728
 21
397.5904482893546
 31
0.0
1001
DBPROPERTIES
1002
{
1000
PbHidd
1002
}
  0
LINE
  5
8E
330
1F
100
AcDbEntity
  8
THICK
100
AcDbLine
 10
429.2898336546728
 20
397.5904482893546
 30
0.0
 11
417.2561097056376
 21
379.5327771239353
 31
0.0
1001
DBPROPERTIES
1002
{
1000
PbThick
1002
}
  0
LINE
  5
8F
330
1F
100
AcDbEntity
  8
THICK
100
AcDbLine
 10
417.2561097056376
 20
379.5327771239353
 30
0.0
 11
106.589833654673
 21
-86.64955171064497
 31
0.0
1001
DBPROPERTIES
1002
{
1000
PbThick
1002
}
  0
LINE
  5
90
330
1F
100
AcDbEntity
  8
HIDDEN
100
AcDbLine
 10
106.5898336546728
 20
-86.64955171064538
 30
0.0
 11
106.5898336546728
 21
-86.64955171064538
 31
0.0
1001
DBPROPERTIES
1002
{
1000
PbHidd
1002
}
  0
LINE
  5
91
330
1F
100
AcDbEntity
  8
HIDDEN
100
AcDbLine
 10
107.3022122349177
 20
-85.58056440448547
 30
0.0
 11
107.3022122349177
 21
-85.58056440448547
 31
0.0
1001
DBPROPERTIES
1002
{
1000
PbHidd
1002
}
  0
LINE
  5
92
330
1F
100
AcDbEntity
  8
HIDDEN
100
AcDbLine
 10
427.2404435383932
 20
398.9561722909312
 30
0.0
 11
427.2404435383932
 21
398.9561722909312
 31
0.0
1001
DBPROPERTIES
1002
{
1000
PbHidd
1002
}
  0
LINE
  5
93
330
1F
100
AcDbEntity
  8
HIDDEN
100
AcDbLine
 10
426.7101663453272
 20
399.3095517106453
 30
0.0
 11
426.7101663453272
 21
399.3095517106453
 31
0.0
1001
DBPROPERTIES
1002
{
1000
PbHidd
1002
}
  0
LINE
  5
94
330
1F
100
AcDbEntity
  8
THICK
100
AcDbLine
 10
429.2898336546728
 20
397.5904482893546
 30
0.0
 11
426.7101663453272
 21
399.3095517106454
 31
0.0
1001
DBPROPERTIES
1002
{
1000
PbThick
1002
}
  0
LINE
  5
95
330
1F
100
AcDbEntity
  8
HIDDEN
100
AcDbLine
 10
-381.5321663453272
 20
331.5159517106454
 30
0.0
 11
-381.5321663453272
 21
331.5159517106454
 31
0.0
1001
DBPROPERTIES
1002
{
1000
PbHidd
1002
}
  0
LINE
  5
96
330
1F
100
AcDbEntity
  8
HIDDEN
100
AcDbLine
 10
-424.9449317969545
 20
396.6606605494926
 30
0.0
 11
-424.9449317969545
 21
396.6606605494926
 31
0.0
1001
DBPROPERTIES
1002
{
1000
PbHidd
1002
}
  0
LINE
  5
97
330
1F
100
AcDbEntity
  8
HIDDEN
100
AcDbLine
 10
-426.7101663453272
 20
399.3095517106453
 30
0.0
 11
-426.7101663453272
 21
399.3095517106453
 31
0.0
1001
DBPROPERTIES
1002
{
1000
PbHidd
1002
}
  0
LINE
  5
98
330
1F
100
AcDbEntity
  8
THICK
100
AcDbLine
 10
-426.7101663453272
 20
399.3095517106453
 30
0.0
 11
-414.676442396292
 21
381.251880545226
 31
0.0
1001
DBPROPERTIES
1002
{
1000
PbThick
1002
}
  0
LINE
  5
99
330
1F
100
AcDbEntity
  8
THICK
100
AcDbLine
 10
-414.676442396292
 20
381.251880545226
 30
0.0
 11
-104.4702845986207
 21
-84.23999999999967
 31
0.0
1001
DBPROPERTIES
1002
{
1000
PbThick
1002
}
  0
LINE
  5
9A
330
1F
100
AcDbEntity
  8
HIDDEN
100
AcDbLine
 10
-104.4702845986205
 20
-84.24000000000001
 30
0.0
 11
-104.4702845986205
 21
-84.24000000000001
 31
0.0
1001
DBPROPERTIES
1002
{
1000
PbHidd
1002
}
  0
LINE
  5
9B
330
1F
100
AcDbEntity
  8
HIDDEN
100
AcDbLine
 10
-427.2404435383931
 20
398.9561722909312
 30
0.0
 11
-427.2404435383931
 21
398.9561722909312
 31
0.0
1001
DBPROPERTIES
1002
{
1000
PbHidd
1002
}
  0
LINE
  5
9C
330
1F
100
AcDbEntity
  8
HIDDEN
100
AcDbLine
 10
-429.2898336546728
 20
397.5904482893546
 30
0.0
 11
-429.2898336546728
 21
397.5904482893546
 31
0.0
1001
DBPROPERTIES
1002
{
1000
PbHidd
1002
}
  0
LINE
  5
9D
330
1F
100
AcDbEntity
  8
THICK
100
AcDbLine
 10
-426.7101663453272
 20
399.3095517106453
 30
0.0
 11
-429.2898336546728
 21
397.5904482893546
 31
0.0
1001
DBPROPERTIES
1002
{
1000
PbThick
1002
}
  0
LINE
  5
9E
330
1F
100
AcDbEntity
  8
HIDDEN
100
AcDbLine
 10
429.0840378853036
 20
-400.4421363516992
 30
0.0
 11
429.0840378853036
 21
-400.4421363516992
 31
0.0
1001
DBPROPERTIES
1002
{
1000
PbHidd
1002
}
  0
LINE
  5
9F
330
1F
100
AcDbEntity
  8
HIDDEN
100
AcDbLine
 10
412.4547448970841
 20
-384.1704736496224
 30
0.0
 11
412.4547448970841
 21
-384.1704736496224
 31
0.0
1001
DBPROPERTIES
1002
{
1000
PbHidd
1002
}
  0
LINE
  5
A0
330
1F
100
AcDbEntity
  8
HIDDEN
100
AcDbLine
 10
372.6115378853036
 20
-345.1841363516991
 30
0.0
 11
372.6115378853036
 21
-345.1841363516991
 31
0.0
1001
DBPROPERTIES
1002
{
1000
PbHidd
1002
}
  0
LINE
  5
A1
330
1F
100
AcDbEntity
  8
THICK
100
AcDbLine
 10
413.5739468090918
 20
-385.2656059574485
 30
0.0
 11
107.3022122349176
 21
-85.58056440448536
 31
0.0
1001
DBPROPERTIES
1002
{
1000
PbThick
1002
}
  0
LINE
  5
A2
330
1F
100
AcDbEntity
  8
THICK
100
AcDbLine
 10
429.0840378853036
 20
-400.4421363516992
 30
0.0
 11
413.5739468090917
 21
-385.2656059574486
 31
0.0
1001
DBPROPERTIES
1002
{
1000
PbThick
1002
}
  0
LINE
  5
A3
330
1F
100
AcDbEntity
  8
HIDDEN
100
AcDbLine
 10
370.4434621146964
 20
-347.3998636483008
 30
0.0
 11
370.4434621146964
 21
-347.3998636483008
 31
0.0
1001
DBPROPERTIES
1002
{
1000
PbHidd
1002
}
  0
LINE
  5
A4
330
1F
100
AcDbEntity
  8
HIDDEN
100
AcDbLine
 10
372.6115378853036
 20
-345.1841363516991
 30
0.0
 11
370.4434621146963
 21
-347.3998636483008
 31
0.0
1001
DBPROPERTIES
1002
{
1000
PbHidd
1002
}
  0
LINE
  5
A5
330
1F
100
AcDbEntity
  8
HIDDEN
100
AcDbLine
 10
-429.0840378853036
 20
-400.4421363516992
 30
0.0
 11
-429.0840378853036
 21
-400.4421363516992
 31
0.0
1001
DBPROPERTIES
1002
{
1000
PbHidd
1002
}
  0
LINE
  5
A6
330
1F
100
AcDbEntity
  8
HIDDEN
100
AcDbLine
 10
-426.9159621146964
 20
-402.6578636483009
 30
0.0
 11
-426.9159621146964
 21
-402.6578636483009
 31
0.0
1001
DBPROPERTIES
1002
{
1000
PbHidd
1002
}
  0
LINE
  5
A7
330
1F
100
AcDbEntity
  8
THICK
100
AcDbLine
 10
-426.9159621146964
 20
-402.6578636483009
 30
0.0
 11
-429.0840378853036
 21
-400.4421363516992
 31
0.0
1001
DBPROPERTIES
1002
{
1000
PbThick
1002
}
  0
LINE
  5
A8
330
1F
100
AcDbEntity
  8
HIDDEN
100
AcDbLine
 10
-426.2641761889324
 20
-402.0200950585295
 30
0.0
 11
-426.2641761889324
 21
-402.0200950585295
 31
0.0
1001
DBPROPERTIES
1002
{
1000
PbHidd
1002
}
  0
LINE
  5
A9
330
1F
100
AcDbEntity
  8
HIDDEN
100
AcDbLine
 10
-370.4434621146964
 20
-347.3998636483008
 30
0.0
 11
-370.4434621146964
 21
-347.3998636483008
 31
0.0
1001
DBPROPERTIES
1002
{
1000
PbHidd
1002
}
  0
LINE
  5
AA
330
1F
100
AcDbEntity
  8
HIDDEN
100
AcDbLine
 10
-104.6678160565931
 20
-87.34
 30
0.0
 11
-104.6678160565931
 21
-87.34
 31
0.0
1001
DBPROPERTIES
1002
{
1000
PbHidd
1002
}
  0
LINE
  5
AB
330
1F
100
AcDbEntity
  8
THICK
100
AcDbLine
 10
-411.4058710384845
 20
-387.4813332540502
 30
0.0
 11
-104.6678160565931
 21
-87.33999999999997
 31
0.0
1001
DBPROPERTIES
1002
{
1000
PbThick
1002
}
  0
LINE
  5
AC
330
1F
100
AcDbEntity
  8
THICK
100
AcDbLine
 10
-426.9159621146964
 20
-402.6578636483009
 30
0.0
 11
-411.4058710384845
 21
-387.4813332540503
 31
0.0
1001
DBPROPERTIES
1002
{
1000
PbThick
1002
}
  0
LINE
  5
AD
330
1F
100
AcDbEntity
  8
HIDDEN
100
AcDbLine
 10
105.3
 20
-84.24000000000001
 30
0.0
 11
105.3
 21
-84.24000000000001
 31
0.0
1001
DBPROPERTIES
1002
{
1000
PbHidd
1002
}
  0
LINE
  5
AE
330
1F
100
AcDbEntity
  8
HIDDEN
100
AcDbLine
 10
104.4702845986205
 20
-84.24000000000001
 30
0.0
 11
104.4702845986205
 21
-84.24000000000001
 31
0.0
1001
DBPROPERTIES
1002
{
1000
PbHidd
1002
}
  0
LINE
  5
AF
330
1F
100
AcDbEntity
  8
HIDDEN
100
AcDbLine
 10
-105.3
 20
-84.24000000000001
 30
0.0
 11
-105.3
 21
-84.24000000000001
 31
0.0
1001
DBPROPERTIES
1002
{
1000
PbHidd
1002
}
  0
LINE
  5
B0
330
1F
100
AcDbEntity
  8
THICK
100
AcDbLine
 10
105.3
 20
-84.24000000000001
 30
0.0
 11
-105.3
 21
-84.24000000000001
 31
0.0
1001
DBPROPERTIES
1002
{
1000
PbThick
1002
}
  0
LINE
  5
B1
330
1F
100
AcDbEntity
  8
HIDDEN
100
AcDbLine
 10
-77.75999999999999
 20
-84.24000000000001
 30
0.0
 11
-77.75999999999999
 21
-84.24000000000001
 31
0.0
1001
DBPROPERTIES
1002
{
1000
PbHidd
1002
}
  0
LINE
  5
B2
330
1F
100
AcDbEntity
  8
HIDDEN
100
AcDbLine
 10
77.75999999999999
 20
-84.24000000000001
 30
0.0
 11
77.75999999999999
 21
-84.24000000000001
 31
0.0
1001
DBPROPERTIES
1002
{
1000
PbHidd
1002
}
  0
LINE
  5
B3
330
1F
100
AcDbEntity
  8
HIDDEN
100
AcDbLine
 10
381.5321663453272
 20
331.5159517106454
 30
0.0
 11
381.5321663453272
 21
331.5159517106454
 31
0.0
1001
DBPROPERTIES
1002
{
1000
PbHidd
1002
}
  0
LINE
  5
B4
330
1F
100
AcDbEntity
  8
HIDDEN
100
AcDbLine
 10
384.1118336546728
 20
329.7968482893547
 30
0.0
 11
381.5321663453272
 21
331.5159517106454
 31
0.0
1001
DBPROPERTIES
1002
{
1000
PbHidd
1002
}
  0
LINE
  5
B5
330
1F
100
AcDbEntity
  8
THICK
100
AcDbLine
 10
426.7101663453272
 20
399.3095517106453
 30
0.0
 11
414.676442396292
 21
381.251880545226
 31
0.0
1001
DBPROPERTIES
1002
{
1000
PbThick
1002
}
  0
LINE
  5
B6
330
1F
100
AcDbEntity
  8
THICK
100
AcDbLine
 10
417.2561097056376
 20
379.5327771239353
 30
0.0
 11
414.676442396292
 21
381.2518805452261
 31
0.0
1001
DBPROPERTIES
1002
{
1000
PbThick
1002
}
  0
LINE
  5
B7
330
1F
100
AcDbEntity
  8
THICK
100
AcDbLine
 10
414.676442396292
 20
381.251880545226
 30
0.0
 11
104.4702845986206
 21
-84.23999999999995
 31
0.0
1001
DBPROPERTIES
1002
{
1000
PbThick
1002
}
  0
LINE
  5
B8
330
1F
100
AcDbEntity
  8
THICK
100
AcDbLine
 10
106.8149783359083
 20
-85.46237118300024
 30
0.0
 11
107.1150922473227
 21
-85.39746862734559
 31
0.0
1001
DBPROPERTIES
1002
{
1000
PbThick
1002
}
  0
LINE
  5
B9
330
1F
100
AcDbEntity
  8
HIDDEN
100
AcDbLine
 10
424.9449317969541
 20
396.6606605494921
 30
0.0
 11
424.9449317969541
 21
396.6606605494921
 31
0.0
1001
DBPROPERTIES
1002
{
1000
PbHidd
1002
}
  0
ARC
  5
BA
330
1F
100
AcDbEntity
  8
THICK
100
AcDbCircle
 10
105.3
 20
-85.79
 30
0.0
 40
1.55
100
AcDbArc
 50
270.0000187239684
 51
326.3202802950609
1001
DBPROPERTIES
1002
{
1000
PbThick
1002
}
  0
LINE
  5
BB
330
1F
100
AcDbEntity
  8
HIDDEN
100
AcDbLine
 10
105.3
 20
-87.34
 30
0.0
 11
105.3
 21
-87.34
 31
0.0
1001
DBPROPERTIES
1002
{
1000
PbHidd
1002
}
  0
LINE
  5
BC
330
1F
100
AcDbEntity
  8
HIDDEN
100
AcDbLine
 10
106.3840378853036
 20
-84.68213635169916
 30
0.0
 11
106.3840378853036
 21
-84.68213635169916
 31
0.0
1001
DBPROPERTIES
1002
{
1000
PbHidd
1002
}
  0
ARC
  5
BD
330
1F
100
AcDbEntity
  8
THICK
100
AcDbCircle
 10
105.3
 20
-85.79
 30
0.0
 40
1.55
100
AcDbArc
 50
45.62279576132303
 51
89.99998127603165
1001
DBPROPERTIES
1002
{
1000
PbThick
1002
}
  0
LINE
  5
BE
330
1F
100
AcDbEntity
  8
THICK
100
AcDbLine
 10
104.6678160565932
 20
-87.33999999999997
 30
0.0
 11
411.4058710384845
 21
-387.4813332540502
 31
0.0
1001
DBPROPERTIES
1002
{
1000
PbThick
1002
}
  0
LINE
  5
BF
330
1F
100
AcDbEntity
  8
THICK
100
AcDbLine
 10
413.5739468090918
 20
-385.2656059574485
 30
0.0
 11
411.4058710384845
 21
-387.4813332540502
 31
0.0
1001
DBPROPERTIES
1002
{
1000
PbThick
1002
}
  0
LINE
  5
C0
330
1F
100
AcDbEntity
  8
THICK
100
AcDbLine
 10
107.1150922473227
 20
-85.39746862734557
 30
0.0
 11
106.3840378853038
 21
-84.68213635169934
 31
0.0
1001
DBPROPERTIES
1002
{
1000
PbThick
1002
}
  0
LINE
  5
C1
330
1F
100
AcDbEntity
  8
THICK
100
AcDbLine
 10
-107.1150922473226
 20
-85.39746862734566
 30
0.0
 11
-106.8149783359083
 21
-85.46237118300027
 31
0.0
1001
DBPROPERTIES
1002
{
1000
PbThick
1002
}
  0
LINE
  5
C2
330
1F
100
AcDbEntity
  8
THICK
100
AcDbLine
 10
-414.676442396292
 20
381.251880545226
 30
0.0
 11
-417.2561097056376
 21
379.5327771239353
 31
0.0
1001
DBPROPERTIES
1002
{
1000
PbThick
1002
}
  0
LINE
  5
C3
330
1F
100
AcDbEntity
  8
THICK
100
AcDbLine
 10
-417.2561097056376
 20
379.5327771239353
 30
0.0
 11
-106.5898336546731
 21
-86.64955171064497
 31
0.0
1001
DBPROPERTIES
1002
{
1000
PbThick
1002
}
  0
LINE
  5
C4
330
1F
100
AcDbEntity
  8
HIDDEN
100
AcDbLine
 10
-384.1118336546728
 20
329.7968482893547
 30
0.0
 11
-384.1118336546728
 21
329.7968482893547
 31
0.0
1001
DBPROPERTIES
1002
{
1000
PbHidd
1002
}
  0
LINE
  5
C5
330
1F
100
AcDbEntity
  8
HIDDEN
100
AcDbLine
 10
-381.5321663453272
 20
331.5159517106454
 30
0.0
 11
-384.1118336546728
 21
329.7968482893546
 31
0.0
1001
DBPROPERTIES
1002
{
1000
PbHidd
1002
}
  0
LINE
  5
C6
330
1F
100
AcDbEntity
  8
THICK
100
AcDbLine
 10
-429.2898336546728
 20
397.5904482893546
 30
0.0
 11
-417.2561097056376
 21
379.5327771239353
 31
0.0
1001
DBPROPERTIES
1002
{
1000
PbThick
1002
}
  0
LINE
  5
C7
330
1F
100
AcDbEntity
  8
HIDDEN
100
AcDbLine
 10
-107.3022122349177
 20
-85.58056440448547
 30
0.0
 11
-107.3022122349177
 21
-85.58056440448547
 31
0.0
1001
DBPROPERTIES
1002
{
1000
PbHidd
1002
}
  0
LINE
  5
C8
330
1F
100
AcDbEntity
  8
HIDDEN
100
AcDbLine
 10
-106.5898336546728
 20
-86.64955171064538
 30
0.0
 11
-106.5898336546728
 21
-86.64955171064538
 31
0.0
1001
DBPROPERTIES
1002
{
1000
PbHidd
1002
}
  0
ARC
  5
C9
330
1F
100
AcDbEntity
  8
THICK
100
AcDbCircle
 10
-105.3
 20
-85.79
 30
0.0
 40
1.55
100
AcDbArc
 50
213.6796998570962
 51
270.0000187239684
1001
DBPROPERTIES
1002
{
1000
PbThick
1002
}
  0
LINE
  5
CA
330
1F
100
AcDbEntity
  8
HIDDEN
100
AcDbLine
 10
-105.3
 20
-87.34
 30
0.0
 11
-105.3
 21
-87.34
 31
0.0
1001
DBPROPERTIES
1002
{
1000
PbHidd
1002
}
  0
ARC
  5
CB
330
1F
100
AcDbEntity
  8
THICK
100
AcDbCircle
 10
-105.3
 20
-85.79
 30
0.0
 40
1.55
100
AcDbArc
 50
134.3772240865198
 51
180.0000198478428
1001
DBPROPERTIES
1002
{
1000
PbThick
1002
}
  0
LINE
  5
CC
330
1F
100
AcDbEntity
  8
THICK
100
AcDbLine
 10
-107.3022122349176
 20
-85.58056440448541
 30
0.0
 11
-413.5739468090917
 21
-385.2656059574485
 31
0.0
1001
DBPROPERTIES
1002
{
1000
PbThick
1002
}
  0
LINE
  5
CD
330
1F
100
AcDbEntity
  8
THICK
100
AcDbLine
 10
-411.4058710384845
 20
-387.4813332540502
 30
0.0
 11
-413.5739468090917
 21
-385.2656059574485
 31
0.0
1001
DBPROPERTIES
1002
{
1000
PbThick
1002
}
  0
LINE
  5
CE
330
1F
100
AcDbEntity
  8
THICK
100
AcDbLine
 10
-106.3840378853038
 20
-84.68213635169928
 30
0.0
 11
-107.1150922473226
 21
-85.39746862734557
 31
0.0
1001
DBPROPERTIES
1002
{
1000
PbThick
1002
}
  0
LINE
  5
CF
330
1F
100
AcDbEntity
  8
HIDDEN
100
AcDbLine
 10
-412.4547448970872
 20
-384.1704736496253
 30
0.0
 11
-412.4547448970872
 21
-384.1704736496253
 31
0.0
1001
DBPROPERTIES
1002
{
1000
PbHidd
1002
}
  0
LINE
  5
D0
330
1F
100
AcDbEntity
  8
THICK
100
AcDbLine
 10
-413.5739468090917
 20
-385.2656059574486
 30
0.0
 11
-429.0840378853036
 21
-400.4421363516992
 31
0.0
1001
DBPROPERTIES
1002
{
1000
PbThick
1002
}
  0
LINE
  5
D1
330
1F
100
AcDbEntity
  8
HIDDEN
100
AcDbLine
 10
-372.6115378853036
 20
-345.1841363516991
 30
0.0
 11
-372.6115378853036
 21
-345.1841363516991
 31
0.0
1001
DBPROPERTIES
1002
{
1000
PbHidd
1002
}
  0
LINE
  5
D2
330
1F
100
AcDbEntity
  8
HIDDEN
100
AcDbLine
 10
426.2641761889324
 20
-402.0200950585295
 30
0.0
 11
426.2641761889324
 21
-402.0200950585295
 31
0.0
1001
DBPROPERTIES
1002
{
1000
PbHidd
1002
}
  0
LINE
  5
D3
330
1F
100
AcDbEntity
  8
HIDDEN
100
AcDbLine
 10
426.9159621146964
 20
-402.6578636483009
 30
0.0
 11
426.9159621146964
 21
-402.6578636483009
 31
0.0
1001
DBPROPERTIES
1002
{
1000
PbHidd
1002
}
  0
LINE
  5
D4
330
1F
100
AcDbEntity
  8
THICK
100
AcDbLine
 10
411.4058710384845
 20
-387.4813332540503
 30
0.0
 11
426.9159621146964
 21
-402.6578636483009
 31
0.0
1001
DBPROPERTIES
1002
{
1000
PbThick
1002
}
  0
LINE
  5
D5
330
1F
100
AcDbEntity
  8
HIDDEN
100
AcDbLine
 10
104.6678160565931
 20
-87.34
 30
0.0
 11
104.6678160565931
 21
-87.34
 31
0.0
1001
DBPROPERTIES
1002
{
1000
PbHidd
1002
}
  0
LINE
  5
D6
330
1F
100
AcDbEntity
  8
THICK
100
AcDbLine
 10
429.0840378853036
 20
-400.4421363516992
 30
0.0
 11
426.9159621146964
 21
-402.6578636483009
 31
0.0
1001
DBPROPERTIES
1002
{
1000
PbThick
1002
}
  0
ARC
  5
D7
330
1F
100
AcDbEntity
  8
THICK
100
AcDbCircle
 10
105.3
 20
-85.79
 30
0.0
 40
1.55
100
AcDbArc
 50
0.0
 51
45.62279576132303
1001
DBPROPERTIES
1002
{
1000
PbThick
1002
}
  0
LINE
  5
D8
330
1F
100
AcDbEntity
  8
HIDDEN
100
AcDbLine
 10
-370.4434621146964
 20
-347.3998636483008
 30
0.0
 11
-372.6115378853036
 21
-345.1841363516991
 31
0.0
1001
DBPROPERTIES
1002
{
1000
PbHidd
1002
}
  0
LINE
  5
D9
330
1F
100
AcDbEntity
  8
HIDDEN
100
AcDbLine
 10
-106.3840378853036
 20
-84.68213635169916
 30
0.0
 11
-106.3840378853036
 21
-84.68213635169916
 31
0.0
1001
DBPROPERTIES
1002
{
1000
PbHidd
1002
}
  0
ARC
  5
DA
330
1F
100
AcDbEntity
  8
THICK
100
AcDbCircle
 10
-105.3
 20
-85.79
 30
0.0
 40
1.55
100
AcDbArc
 50
89.99998127603165
 51
134.3772240865198
1001
DBPROPERTIES
1002
{
1000
PbThick
1002
}
  0
LINE
  5
DB
330
1F
100
AcDbEntity
  8
THICK
100
AcDbLine
 10
-105.3
 20
-87.34
 30
0.0
 11
105.3
 21
-87.34
 31
0.0
1001
DBPROPERTIES
1002
{
1000
PbThick
1002
}
  0
LINE
  5
DC
330
1F
100
AcDbEntity
  8
THICK
100
AcDbLine
 10
-77.75999999999999
 20
-67.42000000000002
 30
0.0
 11
-77.75999999999999
 21
-84.24000000000001
 31
0.0
1001
DBPROPERTIES
1002
{
1000
PbThick
1002
}
  0
LINE
  5
DD
330
1F
100
AcDbEntity
  8
THICK
100
AcDbLine
 10
77.75999999999999
 20
-84.24000000000001
 30
0.0
 11
77.75999999999999
 21
-67.42000000000002
 31
0.0
1001
DBPROPERTIES
1002
{
1000
PbThick
1002
}
  0
LINE
  5
DE
330
1F
100
AcDbEntity
  8
THICK
100
AcDbLine
 10
77.75999999999999
 20
-67.42000000000002
 30
0.0
 11
44.89480593565359
 21
-67.42000000000002
 31
0.0
1001
DBPROPERTIES
1002
{
1000
PbThick
1002
}
  0
LINE
  5
DF
330
1F
100
AcDbEntity
  8
HIDDEN
100
AcDbLine
 10
44.89480593565359
 20
-67.42000000000002
 30
0.0
 11
41.1769790052645
 21
-67.42000000000002
 31
0.0
1001
DBPROPERTIES
1002
{
1000
PbHidd
1002
}
  0
LINE
  5
E0
330
1F
100
AcDbEntity
  8
HIDDEN
100
AcDbLine
 10
-41.1769790052645
 20
-67.42000000000002
 30
0.0
 11
-44.89480593565361
 21
-67.42000000000002
 31
0.0
1001
DBPROPERTIES
1002
{
1000
PbHidd
1002
}
  0
LINE
  5
E1
330
1F
100
AcDbEntity
  8
THICK
100
AcDbLine
 10
-44.89480593565361
 20
-67.42000000000002
 30
0.0
 11
-77.75999999999999
 21
-67.42000000000002
 31
0.0
1001
DBPROPERTIES
1002
{
1000
PbThick
1002
}
  0
LINE
  5
E2
330
1F
100
AcDbEntity
  8
HIDDEN
100
AcDbLine
 10
77.75999999999999
 20
-67.42000000000002
 30
0.0
 11
77.75999999999999
 21
-67.42000000000002
 31
0.0
1001
DBPROPERTIES
1002
{
1000
PbHidd
1002
}
  0
LINE
  5
E3
330
1F
100
AcDbEntity
  8
HIDDEN
100
AcDbLine
 10
-43.96587954633057
 20
-77.49717050136438
 30
0.0
 11
-56.30839734799613
 21
-87.34
 31
0.0
1001
DBPROPERTIES
1002
{
1000
PbHidd
1002
}
  0
LINE
  5
E4
330
1F
100
AcDbEntity
  8
THICK
100
AcDbLine
 10
-56.30839734799613
 20
-87.34
 30
0.0
 11
-274.2307425969487
 21
-261.1272711788834
 31
0.0
1001
DBPROPERTIES
1002
{
1000
PbThick
1002
}
  0
LINE
  5
E5
330
1F
100
AcDbEntity
  8
THICK
100
AcDbLine
 10
-318.8471779267196
 20
-205.180030867458
 30
0.0
 11
-128.6689162550306
 21
-53.51792804037176
 31
0.0
1001
DBPROPERTIES
1002
{
1000
PbThick
1002
}
  0
LINE
  5
E6
330
1F
100
AcDbEntity
  8
HIDDEN
100
AcDbLine
 10
-128.6689162550306
 20
-53.51792804037176
 30
0.0
 11
-126.2363783899378
 21
-51.57804382551137
 31
0.0
1001
DBPROPERTIES
1002
{
1000
PbHidd
1002
}
  0
LINE
  5
E7
330
1F
100
AcDbEntity
  8
THICK
100
AcDbLine
 10
-126.2363783899378
 20
-51.57804382551137
 30
0.0
 11
-86.79713274009148
 21
-20.12629494216286
 31
0.0
1001
DBPROPERTIES
1002
{
1000
PbThick
1002
}
  0
ELLIPSE
  5
E8
330
1F
100
AcDbEntity
  8
THICK
100
AcDbEllipse
 10
-151.7340604640353
 20
-117.6755968546431
 30
0.0
 11
-150.1116446338617
 21
-119.7100419568768
 31
0.0
210
0.0
220
0.0
230
1.0
 40
0.7071067811865476
 41
0.2252411488523214
 42
0.2666918317417479
1001
DBPROPERTIES
1002
{
1000
PbThick
1002
}
  0
ELLIPSE
  5
E9
330
1F
100
AcDbEntity
  8
HIDDEN
100
AcDbEllipse
 10
-151.7340604640353
 20
-117.6755968546431
 30
0.0
 11
-150.1116446338617
 21
-119.7100419568768
 31
0.0
210
0.0
220
0.0
230
1.0
 40
0.7071067811865476
 41
0.2024654956433045
 42
0.2252411488523214
1001
DBPROPERTIES
1002
{
1000
PbHidd
1002
}
  0
ELLIPSE
  5
EA
330
1F
100
AcDbEntity
  8
THICK
100
AcDbEllipse
 10
-151.7340604640353
 20
-117.6755968546431
 30
0.0
 11
-150.1116446338617
 21
-119.7100419568768
 31
0.0
210
0.0
220
0.0
230
1.0
 40
0.7071067811865476
 41
0.0
 42
0.2024654956433045
1001
DBPROPERTIES
1002
{
1000
PbThick
1002
}
  0
ELLIPSE
  5
EB
330
1F
100
AcDbEntity
  8
THICK
100
AcDbEllipse
 10
-151.7340604640353
 20
-117.6755968546431
 30
0.0
 11
-150.1116446338617
 21
-119.7100419568768
 31
0.0
210
0.0
220
0.0
230
1.0
 40
0.7071067811865476
 41
-0.2666918317417478
 42
0.0
1001
DBPROPERTIES
1002
{
1000
PbThick
1002
}
  0
LINE
  5
EC
330
1F
100
AcDbEntity
  8
HIDDEN
100
AcDbLine
 10
-85.3374832157543
 20
-25.61882039440622
 30
0.0
 11
-315.6023462663726
 21
-209.2489210719253
 31
0.0
1001
DBPROPERTIES
1002
{
1000
PbHidd
1002
}
  0
LINE
  5
ED
330
1F
100
AcDbEntity
  8
HIDDEN
100
AcDbLine
 10
-315.6023462663726
 20
-209.2489210719253
 30
0.0
 11
-318.8471779267196
 21
-205.180030867458
 31
0.0
1001
DBPROPERTIES
1002
{
1000
PbHidd
1002
}
  0
LINE
  5
EE
330
1F
100
AcDbEntity
  8
HIDDEN
100
AcDbLine
 10
-38.93586574997383
 20
-80.14242545805564
 30
0.0
 11
-47.96133875294289
 21
-87.34000000000002
 31
0.0
1001
DBPROPERTIES
1002
{
1000
PbHidd
1002
}
  0
LINE
  5
EF
330
1F
100
AcDbEntity
  8
THICK
100
AcDbLine
 10
-47.96133875294289
 20
-87.34000000000002
 30
0.0
 11
-270.9859109366018
 21
-265.1961613833507
 31
0.0
1001
DBPROPERTIES
1002
{
1000
PbThick
1002
}
  0
LINE
  5
F0
330
1F
100
AcDbEntity
  8
THICK
100
AcDbLine
 10
-270.9859109366018
 20
-265.1961613833507
 30
0.0
 11
-274.2307425969488
 21
-261.1272711788834
 31
0.0
1001
DBPROPERTIES
1002
{
1000
PbThick
1002
}
  0
ELLIPSE
  5
F1
330
1F
100
AcDbEntity
  8
HIDDEN
100
AcDbEllipse
 10
-148.4892288036883
 20
-121.7444870591104
 30
0.0
 11
150.1116446338617
 21
119.7100419568768
 31
0.0
210
0.0
220
0.0
230
1.0
 40
0.7071067811865476
 41
2.874900821848045
 42
3.141592653589793
1001
DBPROPERTIES
1002
{
1000
PbHidd
1002
}
  0
ELLIPSE
  5
F2
330
1F
100
AcDbEntity
  8
THICK
100
AcDbEllipse
 10
-148.4892288036883
 20
-121.7444870591104
 30
0.0
 11
150.1116446338617
 21
119.7100419568768
 31
0.0
210
0.0
220
0.0
230
1.0
 40
0.7071067811865476
 41
3.141592653589793
 42
3.306081414257945
1001
DBPROPERTIES
1002
{
1000
PbThick
1002
}
  0
ELLIPSE
  5
F3
330
1F
100
AcDbEntity
  8
HIDDEN
100
AcDbEllipse
 10
-148.4892288036883
 20
-121.7444870591104
 30
0.0
 11
150.1116446338617
 21
119.7100419568768
 31
0.0
210
0.0
220
0.0
230
1.0
 40
0.7071067811865476
 41
-2.977103892921641
 42
-2.95437327949977
1001
DBPROPERTIES
1002
{
1000
PbHidd
1002
}
  0
ELLIPSE
  5
F4
330
1F
100
AcDbEntity
  8
THICK
100
AcDbEllipse
 10
-148.4892288036883
 20
-121.7444870591104
 30
0.0
 11
150.1116446338617
 21
119.7100419568768
 31
0.0
210
0.0
220
0.0
230
1.0
 40
0.7071067811865476
 41
-2.95437327949977
 42
-2.874900821848045
1001
DBPROPERTIES
1002
{
1000
PbThick
1002
}
  0
LINE
  5
F5
330
1F
100
AcDbEntity
  8
THICK
100
AcDbLine
 10
-88.00200522704597
 20
-13.94478669678971
 30
0.0
 11
-162.6730304668422
 21
3.098387540215988
 31
0.0
1001
DBPROPERTIES
1002
{
1000
PbThick
1002
}
  0
LINE
  5
F6
330
1F
100
AcDbEntity
  8
HIDDEN
100
AcDbLine
 10
-162.6730304668422
 20
3.098387540215988
 30
0.0
 11
-167.0665887354029
 21
4.101188544367858
 31
0.0
1001
DBPROPERTIES
1002
{
1000
PbHidd
1002
}
  0
LINE
  5
F7
330
1F
100
AcDbEntity
  8
THICK
100
AcDbLine
 10
-167.0665887354029
 20
4.101188544367858
 30
0.0
 11
-375.1375929039627
 21
51.59203745564736
 31
0.0
1001
DBPROPERTIES
1002
{
1000
PbThick
1002
}
  0
LINE
  5
F8
330
1F
100
AcDbEntity
  8
THICK
100
AcDbLine
 10
-359.2141714946875
 20
121.3571050082746
 30
0.0
 11
-224.7549254876753
 21
90.66765953575418
 31
0.0
1001
DBPROPERTIES
1002
{
1000
PbThick
1002
}
  0
LINE
  5
F9
330
1F
100
AcDbEntity
  8
HIDDEN
100
AcDbLine
 10
-224.7549254876753
 20
90.66765953575418
 30
0.0
 11
-220.3613672191146
 21
89.6648585316023
 31
0.0
1001
DBPROPERTIES
1002
{
1000
PbHidd
1002
}
  0
LINE
  5
FA
330
1F
100
AcDbEntity
  8
THICK
100
AcDbLine
 10
-220.3613672191146
 20
89.6648585316023
 30
0.0
 11
-69.85249810524583
 21
55.31219131852053
 31
0.0
1001
DBPROPERTIES
1002
{
1000
PbThick
1002
}
  0
ELLIPSE
  5
FB
330
1F
100
AcDbEntity
  8
THICK
100
AcDbEllipse
 10
-186.6071256331183
 20
45.26093086698069
 30
0.0
 11
-187.1861591389101
 21
42.72401931961241
 31
0.0
210
0.0
220
0.0
230
1.0
 40
0.7071067811865476
 41
0.0
 42
0.2666918317417477
1001
DBPROPERTIES
1002
{
1000
PbThick
1002
}
  0
ELLIPSE
  5
FC
330
1F
100
AcDbEntity
  8
THICK
100
AcDbEllipse
 10
-186.6071256331183
 20
45.26093086698069
 30
0.0
 11
-187.1861591389101
 21
42.72401931961241
 31
0.0
210
0.0
220
0.0
230
1.0
 40
0.7071067811865476
 41
-0.2666918317417478
 42
0.0
1001
DBPROPERTIES
1002
{
1000
PbThick
1002
}
  0
LINE
  5
FD
330
1F
100
AcDbEntity
  8
HIDDEN
100
AcDbLine
 10
-73.23665082935446
 20
50.74645776110097
 30
0.0
 11
-360.3722385062712
 21
116.283281913538
 31
0.0
1001
DBPROPERTIES
1002
{
1000
PbHidd
1002
}
  0
LINE
  5
FE
330
1F
100
AcDbEntity
  8
HIDDEN
100
AcDbLine
 10
-360.3722385062712
 20
116.283281913538
 30
0.0
 11
-359.2141714946875
 21
121.3571050082746
 31
0.0
1001
DBPROPERTIES
1002
{
1000
PbHidd
1002
}
  0
LINE
  5
FF
330
1F
100
AcDbEntity
  8
THICK
100
AcDbLine
 10
-86.93398652610465
 20
-19.5266993288432
 30
0.0
 11
-158.4775150666769
 21
-3.197355804612108
 31
0.0
1001
DBPROPERTIES
1002
{
1000
PbThick
1002
}
  0
LINE
  5
100
330
1F
100
AcDbEntity
  8
HIDDEN
100
AcDbLine
 10
-158.4775150666769
 20
-3.197355804612108
 30
0.0
 11
-162.8710733352377
 21
-2.194554800460232
 31
0.0
1001
DBPROPERTIES
1002
{
1000
PbHidd
1002
}
  0
LINE
  5
101
330
1F
100
AcDbEntity
  8
THICK
100
AcDbLine
 10
-162.8710733352377
 20
-2.194554800460232
 30
0.0
 11
-376.2956599155463
 21
46.51821436091084
 31
0.0
1001
DBPROPERTIES
1002
{
1000
PbThick
1002
}
  0
LINE
  5
102
330
1F
100
AcDbEntity
  8
THICK
100
AcDbLine
 10
-376.2956599155463
 20
46.51821436091083
 30
0.0
 11
-375.1375929039627
 21
51.59203745564735
 31
0.0
1001
DBPROPERTIES
1002
{
1000
PbThick
1002
}
  0
ELLIPSE
  5
103
330
1F
100
AcDbEntity
  8
HIDDEN
100
AcDbEllipse
 10
-187.7651926447019
 20
40.18710777224417
 30
0.0
 11
187.1861591389101
 21
-42.72401931961241
 31
0.0
210
0.0
220
0.0
230
1.0
 40
0.7071067811865476
 41
2.874900821848045
 42
3.141592653589793
1001
DBPROPERTIES
1002
{
1000
PbHidd
1002
}
  0
ELLIPSE
  5
104
330
1F
100
AcDbEntity
  8
THICK
100
AcDbEllipse
 10
-187.7651926447019
 20
40.18710777224417
 30
0.0
 11
187.1861591389101
 21
-42.72401931961241
 31
0.0
210
0.0
220
0.0
230
1.0
 40
0.7071067811865476
 41
3.141592653589793
 42
3.408284485331541
1001
DBPROPERTIES
1002
{
1000
PbThick
1002
}
  0
LINE
  5
105
330
1F
100
AcDbEntity
  8
THICK
100
AcDbLine
 10
-65.77082605803368
 20
60.10830591227692
 30
0.0
 11
-193.558184341959
 21
325.4614896003032
 31
0.0
1001
DBPROPERTIES
1002
{
1000
PbThick
1002
}
  0
LINE
  5
106
330
1F
100
AcDbEntity
  8
THICK
100
AcDbLine
 10
-129.0855672934242
 20
356.5098655789752
 30
0.0
 11
-8.109272036538712
 21
105.2999999999999
 31
0.0
1001
DBPROPERTIES
1002
{
1000
PbThick
1002
}
  0
LINE
  5
107
330
1F
100
AcDbEntity
  8
HIDDEN
100
AcDbLine
 10
-8.109272036538712
 20
105.2999999999999
 30
0.0
 11
-0.3075076658630778
 21
89.09946935327628
 31
0.0
1001
DBPROPERTIES
1002
{
1000
PbHidd
1002
}
  0
ELLIPSE
  5
108
330
1F
100
AcDbEntity
  8
THICK
100
AcDbEllipse
 10
-80.96121910880619
 20
174.1150544910344
 30
0.0
 11
-83.30567791057112
 21
172.9860226372645
 31
0.0
210
0.0
220
0.0
230
1.0
 40
0.7071067811865475
 41
0.0
 42
0.2666918317417479
1001
DBPROPERTIES
1002
{
1000
PbThick
1002
}
  0
ELLIPSE
  5
109
330
1F
100
AcDbEntity
  8
THICK
100
AcDbEllipse
 10
-80.96121910880619
 20
174.1150544910344
 30
0.0
 11
-83.30567791057112
 21
172.9860226372645
 31
0.0
210
0.0
220
0.0
230
1.0
 40
0.7071067811865475
 41
-0.266691831741748
 42
0.0
1001
DBPROPERTIES
1002
{
1000
PbThick
1002
}
  0
LINE
  5
10A
330
1F
100
AcDbEntity
  8
HIDDEN
100
AcDbLine
 10
-5.987126613028622
 20
88.89861818340904
 30
0.0
 11
-133.774484896954
 21
354.2518018714354
 31
0.0
1001
DBPROPERTIES
1002
{
1000
PbHidd
1002
}
  0
LINE
  5
10B
330
1F
100
AcDbEntity
  8
HIDDEN
100
AcDbLine
 10
-133.774484896954
 20
354.2518018714355
 30
0.0
 11
-129.0855672934242
 21
356.5098655789752
 31
0.0
1001
DBPROPERTIES
1002
{
1000
PbHidd
1002
}
  0
LINE
  5
10C
330
1F
100
AcDbEntity
  8
THICK
100
AcDbLine
 10
-69.46904231792774
 20
55.79302966706459
 30
0.0
 11
-198.2471019454888
 21
323.2034258927634
 31
0.0
1001
DBPROPERTIES
1002
{
1000
PbThick
1002
}
  0
LINE
  5
10D
330
1F
100
AcDbEntity
  8
THICK
100
AcDbLine
 10
-198.2471019454888
 20
323.2034258927635
 30
0.0
 11
-193.558184341959
 21
325.4614896003033
 31
0.0
1001
DBPROPERTIES
1002
{
1000
PbThick
1002
}
  0
ELLIPSE
  5
10E
330
1F
100
AcDbEntity
  8
HIDDEN
100
AcDbEllipse
 10
-85.65013671233599
 20
171.8569907834946
 30
0.0
 11
83.30567791057112
 21
-172.9860226372645
 31
0.0
210
0.0
220
0.0
230
1.0
 40
0.7071067811865475
 41
2.874900821848045
 42
3.141592653589793
1001
DBPROPERTIES
1002
{
1000
PbHidd
1002
}
  0
ELLIPSE
  5
10F
330
1F
100
AcDbEntity
  8
THICK
100
AcDbEllipse
 10
-85.65013671233599
 20
171.8569907834946
 30
0.0
 11
83.30567791057112
 21
-172.9860226372645
 31
0.0
210
0.0
220
0.0
230
1.0
 40
0.7071067811865475
 41
3.141592653589793
 42
3.408284485331541
1001
DBPROPERTIES
1002
{
1000
PbThick
1002
}
  0
LINE
  5
110
330
1F
100
AcDbEntity
  8
HIDDEN
100
AcDbLine
 10
5.987126613028654
 20
88.89861818340907
 30
0.0
 11
13.88561580927017
 21
105.3
 31
0.0
1001
DBPROPERTIES
1002
{
1000
PbHidd
1002
}
  0
LINE
  5
111
330
1F
100
AcDbEntity
  8
THICK
100
AcDbLine
 10
13.88561580927017
 20
105.3
 30
0.0
 11
133.7744848969541
 21
354.2518018714354
 31
0.0
1001
DBPROPERTIES
1002
{
1000
PbThick
1002
}
  0
LINE
  5
112
330
1F
100
AcDbEntity
  8
THICK
100
AcDbLine
 10
198.247101945489
 20
323.2034258927635
 30
0.0
 11
69.46904231792777
 21
55.79302966706454
 31
0.0
1001
DBPROPERTIES
1002
{
1000
PbThick
1002
}
  0
ELLIPSE
  5
113
330
1F
100
AcDbEntity
  8
THICK
100
AcDbEllipse
 10
85.6501367123361
 20
171.8569907834946
 30
0.0
 11
83.30567791057121
 21
172.9860226372645
 31
0.0
210
0.0
220
0.0
230
1.0
 40
0.7071067811865475
 41
0.0
 42
0.2666918317417476
1001
DBPROPERTIES
1002
{
1000
PbThick
1002
}
  0
ELLIPSE
  5
114
330
1F
100
AcDbEntity
  8
THICK
100
AcDbEllipse
 10
85.6501367123361
 20
171.8569907834946
 30
0.0
 11
83.30567791057121
 21
172.9860226372645
 31
0.0
210
0.0
220
0.0
230
1.0
 40
0.7071067811865475
 41
-0.2666918317417482
 42
0.0
1001
DBPROPERTIES
1002
{
1000
PbThick
1002
}
  0
LINE
  5
115
330
1F
100
AcDbEntity
  8
HIDDEN
100
AcDbLine
 10
65.77082605803369
 20
60.10830591227689
 30
0.0
 11
193.5581843419592
 21
325.4614896003033
 31
0.0
1001
DBPROPERTIES
1002
{
1000
PbHidd
1002
}
  0
LINE
  5
116
330
1F
100
AcDbEntity
  8
HIDDEN
100
AcDbLine
 10
193.5581843419592
 20
325.4614896003033
 30
0.0
 11
198.247101945489
 21
323.2034258927635
 31
0.0
1001
DBPROPERTIES
1002
{
1000
PbHidd
1002
}
  0
LINE
  5
117
330
1F
100
AcDbEntity
  8
HIDDEN
100
AcDbLine
 10
0.3075076658631133
 20
89.09946935327629
 30
0.0
 11
8.10927203653877
 21
105.3
 31
0.0
1001
DBPROPERTIES
1002
{
1000
PbHidd
1002
}
  0
LINE
  5
118
330
1F
100
AcDbEntity
  8
THICK
100
AcDbLine
 10
8.10927203653877
 20
105.3
 30
0.0
 11
129.0855672934243
 21
356.5098655789752
 31
0.0
1001
DBPROPERTIES
1002
{
1000
PbThick
1002
}
  0
LINE
  5
119
330
1F
100
AcDbEntity
  8
THICK
100
AcDbLine
 10
129.0855672934243
 20
356.5098655789752
 30
0.0
 11
133.7744848969541
 21
354.2518018714354
 31
0.0
1001
DBPROPERTIES
1002
{
1000
PbThick
1002
}
  0
ELLIPSE
  5
11A
330
1F
100
AcDbEntity
  8
HIDDEN
100
AcDbEllipse
 10
80.9612191088063
 20
174.1150544910343
 30
0.0
 11
-83.30567791057121
 21
-172.9860226372645
 31
0.0
210
0.0
220
0.0
230
1.0
 40
0.7071067811865475
 41
2.874900821848045
 42
3.141592653589793
1001
DBPROPERTIES
1002
{
1000
PbHidd
1002
}
  0
ELLIPSE
  5
11B
330
1F
100
AcDbEntity
  8
THICK
100
AcDbEllipse
 10
80.9612191088063
 20
174.1150544910343
 30
0.0
 11
-83.30567791057121
 21
-172.9860226372645
 31
0.0
210
0.0
220
0.0
230
1.0
 40
0.7071067811865475
 41
3.141592653589793
 42
3.408284485331541
1001
DBPROPERTIES
1002
{
1000
PbThick
1002
}
  0
LINE
  5
11C
330
1F
100
AcDbEntity
  8
THICK
100
AcDbLine
 10
73.23665082935445
 20
50.74645776110093
 30
0.0
 11
216.1658518189492
 21
83.3691151867741
 31
0.0
1001
DBPROPERTIES
1002
{
1000
PbThick
1002
}
  0
LINE
  5
11D
330
1F
100
AcDbEntity
  8
HIDDEN
100
AcDbLine
 10
216.1658518189492
 20
83.3691151867741
 30
0.0
 11
220.5594100875099
 21
84.37191619092594
 31
0.0
1001
DBPROPERTIES
1002
{
1000
PbHidd
1002
}
  0
LINE
  5
11E
330
1F
100
AcDbEntity
  8
THICK
100
AcDbLine
 10
220.5594100875099
 20
84.37191619092594
 30
0.0
 11
360.3722385062711
 21
116.2832819135379
 31
0.0
1001
DBPROPERTIES
1002
{
1000
PbThick
1002
}
  0
LINE
  5
11F
330
1F
100
AcDbEntity
  8
THICK
100
AcDbLine
 10
376.2956599155463
 20
46.51821436091068
 30
0.0
 11
162.8710733352376
 21
-2.194554800460303
 31
0.0
1001
DBPROPERTIES
1002
{
1000
PbThick
1002
}
  0
LINE
  5
120
330
1F
100
AcDbEntity
  8
HIDDEN
100
AcDbLine
 10
162.8710733352376
 20
-2.194554800460303
 30
0.0
 11
158.4775150666769
 21
-3.197355804612172
 31
0.0
1001
DBPROPERTIES
1002
{
1000
PbHidd
1002
}
  0
LINE
  5
121
330
1F
100
AcDbEntity
  8
THICK
100
AcDbLine
 10
158.4775150666769
 20
-3.197355804612172
 30
0.0
 11
86.93398652610459
 21
-19.52669932884325
 31
0.0
1001
DBPROPERTIES
1002
{
1000
PbThick
1002
}
  0
ELLIPSE
  5
122
330
1F
100
AcDbEntity
  8
THICK
100
AcDbEllipse
 10
187.765192644702
 20
40.18710777224406
 30
0.0
 11
187.1861591389101
 21
42.72401931961233
 31
0.0
210
0.0
220
0.0
230
1.0
 40
0.7071067811865476
 41
0.0
 42
0.2666918317417477
1001
DBPROPERTIES
1002
{
1000
PbThick
1002
}
  0
ELLIPSE
  5
123
330
1F
100
AcDbEntity
  8
THICK
100
AcDbEllipse
 10
187.765192644702
 20
40.18710777224406
 30
0.0
 11
187.1861591389101
 21
42.72401931961233
 31
0.0
210
0.0
220
0.0
230
1.0
 40
0.7071067811865476
 41
-0.2666918317417478
 42
0.0
1001
DBPROPERTIES
1002
{
1000
PbThick
1002
}
  0
LINE
  5
124
330
1F
100
AcDbEntity
  8
HIDDEN
100
AcDbLine
 10
88.00200522704591
 20
-13.94478669678975
 30
0.0
 11
375.1375929039626
 21
51.59203745564721
 31
0.0
1001
DBPROPERTIES
1002
{
1000
PbHidd
1002
}
  0
LINE
  5
125
330
1F
100
AcDbEntity
  8
HIDDEN
100
AcDbLine
 10
375.1375929039627
 20
51.59203745564721
 30
0.0
 11
376.2956599155464
 21
46.51821436091069
 31
0.0
1001
DBPROPERTIES
1002
{
1000
PbHidd
1002
}
  0
LINE
  5
126
330
1F
100
AcDbEntity
  8
THICK
100
AcDbLine
 10
69.85249810524581
 20
55.31219131852048
 30
0.0
 11
220.3613672191146
 21
89.66485853160219
 31
0.0
1001
DBPROPERTIES
1002
{
1000
PbThick
1002
}
  0
LINE
  5
127
330
1F
100
AcDbEntity
  8
HIDDEN
100
AcDbLine
 10
220.3613672191146
 20
89.66485853160219
 30
0.0
 11
224.7549254876753
 21
90.66765953575405
 31
0.0
1001
DBPROPERTIES
1002
{
1000
PbHidd
1002
}
  0
LINE
  5
128
330
1F
100
AcDbEntity
  8
THICK
100
AcDbLine
 10
224.7549254876753
 20
90.66765953575405
 30
0.0
 11
359.2141714946874
 21
121.3571050082744
 31
0.0
1001
DBPROPERTIES
1002
{
1000
PbThick
1002
}
  0
LINE
  5
129
330
1F
100
AcDbEntity
  8
THICK
100
AcDbLine
 10
359.2141714946875
 20
121.3571050082744
 30
0.0
 11
360.3722385062711
 21
116.2832819135379
 31
0.0
1001
DBPROPERTIES
1002
{
1000
PbThick
1002
}
  0
ELLIPSE
  5
12A
330
1F
100
AcDbEntity
  8
HIDDEN
100
AcDbEllipse
 10
186.6071256331183
 20
45.26093086698058
 30
0.0
 11
-187.1861591389101
 21
-42.72401931961233
 31
0.0
210
0.0
220
0.0
230
1.0
 40
0.7071067811865476
 41
2.874900821848045
 42
3.141592653589793
1001
DBPROPERTIES
1002
{
1000
PbHidd
1002
}
  0
ELLIPSE
  5
12B
330
1F
100
AcDbEntity
  8
THICK
100
AcDbEllipse
 10
186.6071256331183
 20
45.26093086698058
 30
0.0
 11
-187.1861591389101
 21
-42.72401931961233
 31
0.0
210
0.0
220
0.0
230
1.0
 40
0.7071067811865476
 41
3.141592653589793
 42
3.408284485331541
1001
DBPROPERTIES
1002
{
1000
PbThick
1002
}
  0
LINE
  5
12C
330
1F
100
AcDbEntity
  8
THICK
100
AcDbLine
 10
85.33748321575426
 20
-25.61882039440624
 30
0.0
 11
123.3397826455307
 21
-55.92464290599392
 31
0.0
1001
DBPROPERTIES
1002
{
1000
PbThick
1002
}
  0
LINE
  5
12D
330
1F
100
AcDbEntity
  8
HIDDEN
100
AcDbLine
 10
123.3397826455307
 20
-55.92464290599392
 30
0.0
 11
125.7723205106235
 21
-57.86452712085428
 31
0.0
1001
DBPROPERTIES
1002
{
1000
PbHidd
1002
}
  0
LINE
  5
12E
330
1F
100
AcDbEntity
  8
THICK
100
AcDbLine
 10
125.7723205106235
 20
-57.86452712085428
 30
0.0
 11
315.6023462663725
 21
-209.2489210719255
 31
0.0
1001
DBPROPERTIES
1002
{
1000
PbThick
1002
}
  0
LINE
  5
12F
330
1F
100
AcDbEntity
  8
THICK
100
AcDbLine
 10
270.9859109366017
 20
-265.1961613833509
 30
0.0
 11
47.96133875294277
 21
-87.33999999999997
 31
0.0
1001
DBPROPERTIES
1002
{
1000
PbThick
1002
}
  0
LINE
  5
130
330
1F
100
AcDbEntity
  8
HIDDEN
100
AcDbLine
 10
47.96133875294277
 20
-87.33999999999997
 30
0.0
 11
38.93586574997377
 21
-80.14242545805564
 31
0.0
1001
DBPROPERTIES
1002
{
1000
PbHidd
1002
}
  0
ELLIPSE
  5
131
330
1F
100
AcDbEntity
  8
THICK
100
AcDbEllipse
 10
148.4892288036882
 20
-121.7444870591105
 30
0.0
 11
150.1116446338617
 21
-119.7100419568769
 31
0.0
210
0.0
220
0.0
230
1.0
 40
0.7071067811865476
 41
0.0
 42
0.2666918317417478
1001
DBPROPERTIES
1002
{
1000
PbThick
1002
}
  0
ELLIPSE
  5
132
330
1F
100
AcDbEntity
  8
THICK
100
AcDbEllipse
 10
148.4892288036882
 20
-121.7444870591105
 30
0.0
 11
150.1116446338617
 21
-119.7100419568769
 31
0.0
210
0.0
220
0.0
230
1.0
 40
0.7071067811865476
 41
-0.1644887606681498
 42
0.0
1001
DBPROPERTIES
1002
{
1000
PbThick
1002
}
  0
ELLIPSE
  5
133
330
1F
100
AcDbEntity
  8
HIDDEN
100
AcDbEllipse
 10
148.4892288036882
 20
-121.7444870591105
 30
0.0
 11
150.1116446338617
 21
-119.7100419568769
 31
0.0
210
0.0
220
0.0
230
1.0
 40
0.7071067811865476
 41
-0.1872193740900206
 42
-0.1644887606681498
1001
DBPROPERTIES
1002
{
1000
PbHidd
1002
}
  0
ELLIPSE
  5
134
330
1F
100
AcDbEntity
  8
THICK
100
AcDbEllipse
 10
148.4892288036882
 20
-121.7444870591105
 30
0.0
 11
150.1116446338617
 21
-119.7100419568769
 31
0.0
210
0.0
220
0.0
230
1.0
 40
0.7071067811865476
 41
-0.2666918317417477
 42
-0.1872193740900206
1001
DBPROPERTIES
1002
{
1000
PbThick
1002
}
  0
LINE
  5
135
330
1F
100
AcDbEntity
  8
HIDDEN
100
AcDbLine
 10
43.96587954633051
 20
-77.49717050136438
 30
0.0
 11
274.2307425969487
 21
-261.1272711788836
 31
0.0
1001
DBPROPERTIES
1002
{
1000
PbHidd
1002
}
  0
LINE
  5
136
330
1F
100
AcDbEntity
  8
HIDDEN
100
AcDbLine
 10
274.2307425969487
 20
-261.1272711788836
 30
0.0
 11
270.9859109366018
 21
-265.196161383351
 31
0.0
1001
DBPROPERTIES
1002
{
1000
PbHidd
1002
}
  0
LINE
  5
137
330
1F
100
AcDbEntity
  8
THICK
100
AcDbLine
 10
86.79713274009144
 20
-20.12629494216289
 30
0.0
 11
126.2363783899378
 21
-51.57804382551147
 31
0.0
1001
DBPROPERTIES
1002
{
1000
PbThick
1002
}
  0
LINE
  5
138
330
1F
100
AcDbEntity
  8
HIDDEN
100
AcDbLine
 10
126.2363783899378
 20
-51.57804382551147
 30
0.0
 11
128.6689162550306
 21
-53.51792804037183
 31
0.0
1001
DBPROPERTIES
1002
{
1000
PbHidd
1002
}
  0
LINE
  5
139
330
1F
100
AcDbEntity
  8
THICK
100
AcDbLine
 10
128.6689162550306
 20
-53.51792804037183
 30
0.0
 11
318.8471779267194
 21
-205.1800308674582
 31
0.0
1001
DBPROPERTIES
1002
{
1000
PbThick
1002
}
  0
LINE
  5
13A
330
1F
100
AcDbEntity
  8
THICK
100
AcDbLine
 10
318.8471779267194
 20
-205.1800308674581
 30
0.0
 11
315.6023462663725
 21
-209.2489210719254
 31
0.0
1001
DBPROPERTIES
1002
{
1000
PbThick
1002
}
  0
ELLIPSE
  5
13B
330
1F
100
AcDbEntity
  8
HIDDEN
100
AcDbEllipse
 10
151.7340604640352
 20
-117.6755968546432
 30
0.0
 11
-150.1116446338617
 21
119.7100419568769
 31
0.0
210
0.0
220
0.0
230
1.0
 40
0.7071067811865476
 41
2.874900821848045
 42
3.141592653589793
1001
DBPROPERTIES
1002
{
1000
PbHidd
1002
}
  0
ELLIPSE
  5
13C
330
1F
100
AcDbEntity
  8
THICK
100
AcDbEllipse
 10
151.7340604640352
 20
-117.6755968546432
 30
0.0
 11
-150.1116446338617
 21
119.7100419568769
 31
0.0
210
0.0
220
0.0
230
1.0
 40
0.7071067811865476
 41
3.141592653589793
 42
3.40828448533154
1001
DBPROPERTIES
1002
{
1000
PbThick
1002
}
  0
LINE
  5
13D
330
1F
100
AcDbEntity
  8
THICK
100
AcDbLine
 10
-38.38175608280584
 20
-377.2124185901151
 30
0.0
 11
-38.38175608280581
 21
-87.34000000000005
 31
0.0
1001
DBPROPERTIES
1002
{
1000
PbThick
1002
}
  0
LINE
  5
13E
330
1F
100
AcDbEntity
  8
HIDDEN
100
AcDbLine
 10
-38.38175608280581
 20
-87.34000000000005
 30
0.0
 11
-38.38175608280581
 21
-80.40927060979965
 31
0.0
1001
DBPROPERTIES
1002
{
1000
PbHidd
1002
}
  0
ELLIPSE
  5
13F
330
1F
100
AcDbEntity
  8
THICK
100
AcDbEllipse
 10
-2.602152954766527
 20
-192.0
 30
0.0
 11
-2.351244199338964E-14
 21
-192.0
 31
0.0
210
0.0
220
0.0
230
1.0
 40
0.7071067811865476
 41
0.0
 42
0.2666918317417478
1001
DBPROPERTIES
1002
{
1000
PbThick
1002
}
  0
ELLIPSE
  5
140
330
1F
100
AcDbEntity
  8
THICK
100
AcDbEllipse
 10
-2.602152954766527
 20
-192.0
 30
0.0
 11
-2.351244199338964E-14
 21
-192.0
 31
0.0
210
0.0
220
0.0
230
1.0
 40
0.7071067811865476
 41
-0.2666918317417479
 42
0.0
1001
DBPROPERTIES
1002
{
1000
PbThick
1002
}
  0
LINE
  5
141
330
1F
100
AcDbEntity
  8
HIDDEN
100
AcDbLine
 10
33.1774501732728
 20
-82.6926042642266
 30
0.0
 11
33.1774501732728
 21
-87.34
 31
0.0
1001
DBPROPERTIES
1002
{
1000
PbHidd
1002
}
  0
LINE
  5
142
330
1F
100
AcDbEntity
  8
THICK
100
AcDbLine
 10
33.1774501732728
 20
-87.34
 30
0.0
 11
33.17745017327278
 21
-377.212418590115
 31
0.0
1001
DBPROPERTIES
1002
{
1000
PbThick
1002
}
  0
LINE
  5
143
330
1F
100
AcDbEntity
  8
HIDDEN
100
AcDbLine
 10
-33.17745017327282
 20
-82.69260426422662
 30
0.0
 11
-33.17745017327285
 21
-377.2124185901151
 31
0.0
1001
DBPROPERTIES
1002
{
1000
PbHidd
1002
}
  0
LINE
  5
144
330
1F
100
AcDbEntity
  8
HIDDEN
100
AcDbLine
 10
-33.17745017327285
 20
-377.2124185901151
 30
0.0
 11
-38.38175608280584
 21
-377.2124185901151
 31
0.0
1001
DBPROPERTIES
1002
{
1000
PbHidd
1002
}
  0
LINE
  5
145
330
1F
100
AcDbEntity
  8
HIDDEN
100
AcDbLine
 10
38.38175608280579
 20
-80.40927060979963
 30
0.0
 11
38.38175608280579
 21
-87.33999999999999
 31
0.0
1001
DBPROPERTIES
1002
{
1000
PbHidd
1002
}
  0
LINE
  5
146
330
1F
100
AcDbEntity
  8
THICK
100
AcDbLine
 10
38.38175608280579
 20
-87.33999999999999
 30
0.0
 11
38.38175608280577
 21
-377.212418590115
 31
0.0
1001
DBPROPERTIES
1002
{
1000
PbThick
1002
}
  0
LINE
  5
147
330
1F
100
AcDbEntity
  8
THICK
100
AcDbLine
 10
38.38175608280577
 20
-377.212418590115
 30
0.0
 11
33.17745017327278
 21
-377.212418590115
 31
0.0
1001
DBPROPERTIES
1002
{
1000
PbThick
1002
}
  0
ELLIPSE
  5
148
330
1F
100
AcDbEntity
  8
HIDDEN
100
AcDbEllipse
 10
2.602152954766463
 20
-192.0
 30
0.0
 11
2.351244199338964E-14
 21
192.0
 31
0.0
210
0.0
220
0.0
230
1.0
 40
0.7071067811865476
 41
2.874900821848045
 42
3.141592653589793
1001
DBPROPERTIES
1002
{
1000
PbHidd
1002
}
  0
ELLIPSE
  5
149
330
1F
100
AcDbEntity
  8
THICK
100
AcDbEllipse
 10
2.602152954766463
 20
-192.0
 30
0.0
 11
2.351244199338964E-14
 21
192.0
 31
0.0
210
0.0
220
0.0
230
1.0
 40
0.7071067811865476
 41
3.141592653589793
 42
3.408284485331541
1001
DBPROPERTIES
1002
{
1000
PbThick
1002
}
  0
LINE
  5
14A
330
1F
100
AcDbEntity
  8
THICK
100
AcDbLine
 10
40.50000000000001
 20
87.48
 30
0.0
 11
40.50000000000001
 21
70.14805770653952
 31
0.0
1001
DBPROPERTIES
1002
{
1000
PbThick
1002
}
  0
LINE
  5
14B
330
1F
100
AcDbEntity
  8
HIDDEN
100
AcDbLine
 10
40.50000000000001
 20
70.14805770653952
 30
0.0
 11
40.50000000000001
 21
67.82882867925699
 31
0.0
1001
DBPROPERTIES
1002
{
1000
PbHidd
1002
}
  0
LINE
  5
14C
330
1F
100
AcDbEntity
  8
THICK
100
AcDbLine
 10
22.68000000000001
 20
105.3
 30
0.0
 11
40.50000000000001
 21
87.48
 31
0.0
1001
DBPROPERTIES
1002
{
1000
PbThick
1002
}
  0
LINE
  5
14D
330
1F
100
AcDbEntity
  8
THICK
100
AcDbLine
 10
-22.68
 20
105.3
 30
0.0
 11
22.68000000000001
 21
105.3
 31
0.0
1001
DBPROPERTIES
1002
{
1000
PbThick
1002
}
  0
LINE
  5
14E
330
1F
100
AcDbEntity
  8
THICK
100
AcDbLine
 10
-40.49999999999999
 20
87.48
 30
0.0
 11
-22.68
 21
105.3
 31
0.0
1001
DBPROPERTIES
1002
{
1000
PbThick
1002
}
  0
LINE
  5
14F
330
1F
100
AcDbEntity
  8
HIDDEN
100
AcDbLine
 10
-40.49999999999999
 20
67.828828679257
 30
0.0
 11
-40.49999999999999
 21
70.14805770653952
 31
0.0
1001
DBPROPERTIES
1002
{
1000
PbHidd
1002
}
  0
LINE
  5
150
330
1F
100
AcDbEntity
  8
THICK
100
AcDbLine
 10
-40.49999999999999
 20
70.14805770653952
 30
0.0
 11
-40.49999999999999
 21
87.48
 31
0.0
1001
DBPROPERTIES
1002
{
1000
PbThick
1002
}
  0
LINE
  5
151
330
1F
100
AcDbEntity
  8
HIDDEN
100
AcDbLine
 10
40.50000000000001
 20
87.48
 30
0.0
 11
40.50000000000001
 21
87.48
 31
0.0
1001
DBPROPERTIES
1002
{
1000
PbHidd
1002
}
  0
LINE
  5
152
330
1F
100
AcDbEntity
  8
HIDDEN
100
AcDbLine
 10
-40.49999999999999
 20
67.828828679257
 30
0.0
 11
-40.5
 21
67.828828679257
 31
0.0
1001
DBPROPERTIES
1002
{
1000
PbHidd
1002
}
  0
LINE
  5
153
330
1F
100
AcDbEntity
  8
HIDDEN
100
AcDbLine
 10
-40.49999999999999
 20
87.48
 30
0.0
 11
-40.49999999999999
 21
87.48
 31
0.0
1001
DBPROPERTIES
1002
{
1000
PbHidd
1002
}
  0
LINE
  5
154
330
1F
100
AcDbEntity
  8
HIDDEN
100
AcDbLine
 10
-22.68
 20
105.3
 30
0.0
 11
-22.68
 21
105.3
 31
0.0
1001
DBPROPERTIES
1002
{
1000
PbHidd
1002
}
  0
LINE
  5
155
330
1F
100
AcDbEntity
  8
HIDDEN
100
AcDbLine
 10
22.68000000000001
 20
105.3
 30
0.0
 11
22.68000000000001
 21
105.3
 31
0.0
1001
DBPROPERTIES
1002
{
1000
PbHidd
1002
}
  0
LINE
  5
156
330
1F
100
AcDbEntity
  8
HIDDEN
100
AcDbLine
 10
-41.17697900526451
 20
-67.42000000000002
 30
0.0
 11
-41.1769790052645
 21
-67.42000000000002
 31
0.0
1001
DBPROPERTIES
1002
{
1000
PbHidd
1002
}
  0
LINE
  5
157
330
1F
100
AcDbEntity
  8
HIDDEN
100
AcDbLine
 10
-77.75999999999999
 20
-67.42000000000002
 30
0.0
 11
-77.75999999999999
 21
-67.42000000000002
 31
0.0
1001
DBPROPERTIES
1002
{
1000
PbHidd
1002
}
  0
ARC
  5
158
330
1F
100
AcDbEntity
  8
HIDDEN
100
AcDbCircle
 10
-0.0000000000000137
 20
0.0
 30
0.0
 40
89.09999999999994
100
AcDbArc
 50
89.99998127603165
 51
117.0356823886337
1001
DBPROPERTIES
1002
{
1000
PbHidd
1002
}
  0
ARC
  5
159
330
1F
100
AcDbEntity
  8
THICK
100
AcDbCircle
 10
-0.0000000000000137
 20
0.0
 30
0.0
 40
89.09999999999994
100
AcDbArc
 50
117.0356823886337
 51
229.1721921585361
1001
DBPROPERTIES
1002
{
1000
PbThick
1002
}
  0
ARC
  5
15A
330
1F
100
AcDbEntity
  8
HIDDEN
100
AcDbCircle
 10
-0.0000000000000137
 20
0.0
 30
0.0
 40
89.09999999999994
100
AcDbArc
 50
229.1721921585361
 51
258.5929446849293
1001
DBPROPERTIES
1002
{
1000
PbHidd
1002
}
  0
ARC
  5
15B
330
1F
100
AcDbEntity
  8
THICK
100
AcDbCircle
 10
-0.0000000000000137
 20
0.0
 30
0.0
 40
89.09999999999994
100
AcDbArc
 50
258.5929446849293
 51
270.0000187239684
1001
DBPROPERTIES
1002
{
1000
PbThick
1002
}
  0
ARC
  5
15C
330
1F
100
AcDbEntity
  8
HIDDEN
100
AcDbCircle
 10
-0.000000000000004
 20
0.0
 30
0.0
 40
79.0
100
AcDbArc
 50
89.99998127603165
 51
270.0000187239684
1001
DBPROPERTIES
1002
{
1000
PbHidd
1002
}
  0
ARC
  5
15D
330
1F
100
AcDbEntity
  8
THICK
100
AcDbCircle
 10
-0.0000000000000015
 20
0.0
 30
0.0
 40
81.0
100
AcDbArc
 50
89.99998127603165
 51
270.0000187239684
1001
DBPROPERTIES
1002
{
1000
PbThick
1002
}
  0
ARC
  5
15E
330
1F
100
AcDbEntity
  8
THICK
100
AcDbCircle
 10
-0.0000000000000015
 20
0.0
 30
0.0
 40
72.9
100
AcDbArc
 50
89.99998127603165
 51
270.0000187239684
1001
DBPROPERTIES
1002
{
1000
PbThick
1002
}
  0
ARC
  5
15F
330
1F
100
AcDbEntity
  8
THICK
100
AcDbCircle
 10
0.0
 20
0.0
 30
0.0
 40
68.85
100
AcDbArc
 50
89.99998127603165
 51
270.0000187239684
1001
DBPROPERTIES
1002
{
1000
PbThick
1002
}
  0
LINE
  5
160
330
1F
100
AcDbEntity
  8
THICK
100
AcDbLine
 10
427.2404435383932
 20
398.9561722909312
 30
0.0
 11
428.284271247462
 21
399.9999999999999
 31
0.0
1001
DBPROPERTIES
1002
{
1000
PbThick
1002
}
  0
LINE
  5
161
330
1F
100
AcDbEntity
  8
HIDDEN
100
AcDbLine
 10
428.284271247462
 20
399.9999999999999
 30
0.0
 11
428.284271247462
 21
399.9999999999999
 31
0.0
1001
DBPROPERTIES
1002
{
1000
PbHidd
1002
}
  0
LINE
  5
162
330
1F
100
AcDbEntity
  8
THICK
100
AcDbLine
 10
371.7157287525382
 20
343.4314575050761
 30
0.0
 11
424.9449317969541
 21
396.660660549492
 31
0.0
1001
DBPROPERTIES
1002
{
1000
PbThick
1002
}
  0
LINE
  5
163
330
1F
100
AcDbEntity
  8
HIDDEN
100
AcDbLine
 10
371.7157287525382
 20
343.4314575050761
 30
0.0
 11
371.7157287525382
 21
343.4314575050761
 31
0.0
1001
DBPROPERTIES
1002
{
1000
PbHidd
1002
}
  0
LINE
  5
164
330
1F
100
AcDbEntity
  8
THICK
100
AcDbLine
 10
428.284271247462
 20
399.9999999999999
 30
0.0
 11
400.0000000000001
 21
428.2842712474618
 31
0.0
1001
DBPROPERTIES
1002
{
1000
PbThick
1002
}
  0
LINE
  5
165
330
1F
100
AcDbEntity
  8
THICK
100
AcDbLine
 10
400.0000000000001
 20
428.2842712474618
 30
0.0
 11
343.4314575050763
 21
371.715728752538
 31
0.0
1001
DBPROPERTIES
1002
{
1000
PbThick
1002
}
  0
LINE
  5
166
330
1F
100
AcDbEntity
  8
THICK
100
AcDbLine
 10
343.4314575050763
 20
371.715728752538
 30
0.0
 11
371.7157287525382
 21
343.4314575050761
 31
0.0
1001
DBPROPERTIES
1002
{
1000
PbThick
1002
}
  0
ARC
  5
167
330
1F
100
AcDbEntity
  8
THICK
100
AcDbCircle
 10
400.0
 20
400.0
 30
0.0
 40
9.0
100
AcDbArc
 50
0.0
 51
180.0000198478428
1001
DBPROPERTIES
1002
{
1000
PbThick
1002
}
  0
LINE
  5
168
330
1F
100
AcDbEntity
  8
THICK
100
AcDbLine
 10
-428.2842712474619
 20
400.0
 30
0.0
 11
-427.2404435383931
 21
398.9561722909312
 31
0.0
1001
DBPROPERTIES
1002
{
1000
PbThick
1002
}
  0
LINE
  5
169
330
1F
100
AcDbEntity
  8
HIDDEN
100
AcDbLine
 10
-428.2842712474619
 20
400.0
 30
0.0
 11
-428.2842712474619
 21
400.0
 31
0.0
1001
DBPROPERTIES
1002
{
1000
PbHidd
1002
}
  0
LINE
  5
16A
330
1F
100
AcDbEntity
  8
THICK
100
AcDbLine
 10
399.9999999999999
 20
-428.284271247462
 30
0.0
 11
426.2641761889324
 21
-402.0200950585295
 31
0.0
1001
DBPROPERTIES
1002
{
1000
PbThick
1002
}
  0
LINE
  5
16B
330
1F
100
AcDbEntity
  8
HIDDEN
100
AcDbLine
 10
399.9999999999999
 20
-428.284271247462
 30
0.0
 11
399.9999999999999
 21
-428.284271247462
 31
0.0
1001
DBPROPERTIES
1002
{
1000
PbHidd
1002
}
  0
LINE
  5
16C
330
1F
100
AcDbEntity
  8
THICK
100
AcDbLine
 10
-500.0
 20
-484.0
 30
0.0
 11
-500.0
 21
484.0
 31
0.0
1001
DBPROPERTIES
1002
{
1000
PbThick
1002
}
  0
ARC
  5
16D
330
1F
100
AcDbEntity
  8
THICK
100
AcDbCircle
 10
-484.0
 20
-484.0
 30
0.0
 40
16.0
100
AcDbArc
 50
180.0000198478428
 51
270.0000187239684
1001
DBPROPERTIES
1002
{
1000
PbThick
1002
}
  0
LINE
  5
16E
330
1F
100
AcDbEntity
  8
THICK
100
AcDbLine
 10
484.0
 20
-500.0
 30
0.0
 11
-484.0
 21
-500.0
 31
0.0
1001
DBPROPERTIES
1002
{
1000
PbThick
1002
}
  0
ARC
  5
16F
330
1F
100
AcDbEntity
  8
THICK
100
AcDbCircle
 10
484.0
 20
-484.0
 30
0.0
 40
16.0
100
AcDbArc
 50
270.0000187239684
 51
0.0
1001
DBPROPERTIES
1002
{
1000
PbThick
1002
}
  0
LINE
  5
170
330
1F
100
AcDbEntity
  8
THICK
100
AcDbLine
 10
500.0
 20
484.0
 30
0.0
 11
500.0
 21
-484.0
 31
0.0
1001
DBPROPERTIES
1002
{
1000
PbThick
1002
}
  0
ARC
  5
171
330
1F
100
AcDbEntity
  8
THICK
100
AcDbCircle
 10
484.0
 20
484.0
 30
0.0
 40
16.0
100
AcDbArc
 50
0.0
 51
89.99998127603165
1001
DBPROPERTIES
1002
{
1000
PbThick
1002
}
  0
LINE
  5
172
330
1F
100
AcDbEntity
  8
THICK
100
AcDbLine
 10
-484.0
 20
500.0
 30
0.0
 11
484.0
 21
500.0
 31
0.0
1001
DBPROPERTIES
1002
{
1000
PbThick
1002
}
  0
ARC
  5
173
330
1F
100
AcDbEntity
  8
THICK
100
AcDbCircle
 10
-484.0
 20
484.0
 30
0.0
 40
16.0
100
AcDbArc
 50
89.99998127603165
 51
180.0000198478428
1001
DBPROPERTIES
1002
{
1000
PbThick
1002
}
  0
ARC
  5
174
330
1F
100
AcDbEntity
  8
THICK
100
AcDbCircle
 10
0.0
 20
0.0
 30
0.0
 40
392.0
100
AcDbArc
 50
317.651371558952
 51
0.0
1001
DBPROPERTIES
1002
{
1000
PbThick
1002
}
  0
ARC
  5
175
330
1F
100
AcDbEntity
  8
HIDDEN
100
AcDbCircle
 10
0.0
 20
0.0
 30
0.0
 40
392.0
100
AcDbArc
 50
317.1980473514445
 51
317.651371558952
1001
DBPROPERTIES
1002
{
1000
PbHidd
1002
}
  0
ARC
  5
176
330
1F
100
AcDbEntity
  8
THICK
100
AcDbCircle
 10
0.0
 20
0.0
 30
0.0
 40
392.0
100
AcDbArc
 50
222.8019328007126
 51
317.1980473514445
1001
DBPROPERTIES
1002
{
1000
PbThick
1002
}
  0
ARC
  5
177
330
1F
100
AcDbEntity
  8
HIDDEN
100
AcDbCircle
 10
0.0
 20
0.0
 30
0.0
 40
392.0
100
AcDbArc
 50
222.3486085932051
 51
222.8019328007126
1001
DBPROPERTIES
1002
{
1000
PbHidd
1002
}
  0
ARC
  5
178
330
1F
100
AcDbEntity
  8
THICK
100
AcDbCircle
 10
0.0
 20
0.0
 30
0.0
 40
392.0
100
AcDbArc
 50
179.9999801521572
 51
222.3486085932051
1001
DBPROPERTIES
1002
{
1000
PbThick
1002
}
  0
LINE
  5
179
330
1F
100
AcDbEntity
  8
THICK
100
AcDbLine
 10
-371.7157287525381
 20
-343.4314575050762
 30
0.0
 11
-412.4547448970903
 21
-384.1704736496284
 31
0.0
1001
DBPROPERTIES
1002
{
1000
PbThick
1002
}
  0
LINE
  5
17A
330
1F
100
AcDbEntity
  8
HIDDEN
100
AcDbLine
 10
-371.7157287525381
 20
-343.4314575050762
 30
0.0
 11
-371.7157287525381
 21
-343.4314575050762
 31
0.0
1001
DBPROPERTIES
1002
{
1000
PbHidd
1002
}
  0
LINE
  5
17B
330
1F
100
AcDbEntity
  8
THICK
100
AcDbLine
 10
-426.2641761889324
 20
-402.0200950585295
 30
0.0
 11
-400.0
 21
-428.2842712474619
 31
0.0
1001
DBPROPERTIES
1002
{
1000
PbThick
1002
}
  0
LINE
  5
17C
330
1F
100
AcDbEntity
  8
THICK
100
AcDbLine
 10
-400.0
 20
-428.2842712474619
 30
0.0
 11
-343.4314575050762
 21
-371.7157287525381
 31
0.0
1001
DBPROPERTIES
1002
{
1000
PbThick
1002
}
  0
LINE
  5
17D
330
1F
100
AcDbEntity
  8
THICK
100
AcDbLine
 10
-343.4314575050762
 20
-371.7157287525381
 30
0.0
 11
-369.0807389709017
 21
-346.0664472867126
 31
0.0
1001
DBPROPERTIES
1002
{
1000
PbThick
1002
}
  0
LINE
  5
17E
330
1F
100
AcDbEntity
  8
HIDDEN
100
AcDbLine
 10
-369.0807389709017
 20
-346.0664472867126
 30
0.0
 11
-371.2728994883035
 21
-343.8742867693108
 31
0.0
1001
DBPROPERTIES
1002
{
1000
PbHidd
1002
}
  0
LINE
  5
17F
330
1F
100
AcDbEntity
  8
THICK
100
AcDbLine
 10
-371.2728994883035
 20
-343.8742867693108
 30
0.0
 11
-371.7157287525381
 21
-343.4314575050762
 31
0.0
1001
DBPROPERTIES
1002
{
1000
PbThick
1002
}
  0
ARC
  5
180
330
1F
100
AcDbEntity
  8
THICK
100
AcDbCircle
 10
-400.0
 20
-400.0
 30
0.0
 40
9.0
100
AcDbArc
 50
0.0
 51
180.0000198478428
1001
DBPROPERTIES
1002
{
1000
PbThick
1002
}
  0
ARC
  5
181
330
1F
100
AcDbEntity
  8
THICK
100
AcDbCircle
 10
400.0
 20
-400.0
 30
0.0
 40
9.0
100
AcDbArc
 50
0.0
 51
180.0000198478428
1001
DBPROPERTIES
1002
{
1000
PbThick
1002
}
  0
ARC
  5
182
330
1F
100
AcDbEntity
  8
THICK
100
AcDbCircle
 10
-400.0
 20
400.0
 30
0.0
 40
9.0
100
AcDbArc
 50
0.0
 51
180.0000198478428
1001
DBPROPERTIES
1002
{
1000
PbThick
1002
}
  0
LINE
  5
183
330
1F
100
AcDbEntity
  8
HIDDEN
100
AcDbLine
 10
400.0000000000001
 20
428.2842712474618
 30
0.0
 11
400.0000000000001
 21
428.2842712474618
 31
0.0
1001
DBPROPERTIES
1002
{
1000
PbHidd
1002
}
  0
LINE
  5
184
330
1F
100
AcDbEntity
  8
HIDDEN
100
AcDbLine
 10
343.4314575050763
 20
371.715728752538
 30
0.0
 11
343.4314575050763
 21
371.715728752538
 31
0.0
1001
DBPROPERTIES
1002
{
1000
PbHidd
1002
}
  0
LINE
  5
185
330
1F
100
AcDbEntity
  8
THICK
100
AcDbLine
 10
412.454744897086
 20
-384.1704736496242
 30
0.0
 11
371.715728752538
 21
-343.4314575050763
 31
0.0
1001
DBPROPERTIES
1002
{
1000
PbThick
1002
}
  0
LINE
  5
186
330
1F
100
AcDbEntity
  8
HIDDEN
100
AcDbLine
 10
371.715728752538
 20
-343.4314575050763
 30
0.0
 11
371.715728752538
 21
-343.4314575050763
 31
0.0
1001
DBPROPERTIES
1002
{
1000
PbHidd
1002
}
  0
LINE
  5
187
330
1F
100
AcDbEntity
  8
HIDDEN
100
AcDbLine
 10
343.4314575050761
 20
-371.7157287525382
 30
0.0
 11
343.4314575050761
 21
-371.7157287525382
 31
0.0
1001
DBPROPERTIES
1002
{
1000
PbHidd
1002
}
  0
LINE
  5
188
330
1F
100
AcDbEntity
  8
THICK
100
AcDbLine
 10
371.715728752538
 20
-343.4314575050763
 30
0.0
 11
371.2728994883034
 21
-343.8742867693109
 31
0.0
1001
DBPROPERTIES
1002
{
1000
PbThick
1002
}
  0
LINE
  5
189
330
1F
100
AcDbEntity
  8
HIDDEN
100
AcDbLine
 10
371.2728994883034
 20
-343.8742867693109
 30
0.0
 11
369.0807389709017
 21
-346.0664472867126
 31
0.0
1001
DBPROPERTIES
1002
{
1000
PbHidd
1002
}
  0
LINE
  5
18A
330
1F
100
AcDbEntity
  8
THICK
100
AcDbLine
 10
369.0807389709017
 20
-346.0664472867126
 30
0.0
 11
343.4314575050761
 21
-371.7157287525382
 31
0.0
1001
DBPROPERTIES
1002
{
1000
PbThick
1002
}
  0
LINE
  5
18B
330
1F
100
AcDbEntity
  8
THICK
100
AcDbLine
 10
343.4314575050761
 20
-371.7157287525382
 30
0.0
 11
399.9999999999999
 21
-428.284271247462
 31
0.0
1001
DBPROPERTIES
1002
{
1000
PbThick
1002
}
  0
LINE
  5
18C
330
1F
100
AcDbEntity
  8
HIDDEN
100
AcDbLine
 10
-400.0
 20
-428.2842712474619
 30
0.0
 11
-400.0
 21
-428.2842712474619
 31
0.0
1001
DBPROPERTIES
1002
{
1000
PbHidd
1002
}
  0
LINE
  5
18D
330
1F
100
AcDbEntity
  8
HIDDEN
100
AcDbLine
 10
-343.4314575050762
 20
-371.7157287525381
 30
0.0
 11
-343.4314575050762
 21
-371.7157287525381
 31
0.0
1001
DBPROPERTIES
1002
{
1000
PbHidd
1002
}
  0
LINE
  5
18E
330
1F
100
AcDbEntity
  8
THICK
100
AcDbLine
 10
-424.9449317969543
 20
396.6606605494924
 30
0.0
 11
-371.7157287525381
 21
343.4314575050762
 31
0.0
1001
DBPROPERTIES
1002
{
1000
PbThick
1002
}
  0
LINE
  5
18F
330
1F
100
AcDbEntity
  8
HIDDEN
100
AcDbLine
 10
-371.7157287525381
 20
343.4314575050762
 30
0.0
 11
-371.7157287525381
 21
343.4314575050762
 31
0.0
1001
DBPROPERTIES
1002
{
1000
PbHidd
1002
}
  0
LINE
  5
190
330
1F
100
AcDbEntity
  8
HIDDEN
100
AcDbLine
 10
-343.4314575050762
 20
371.7157287525381
 30
0.0
 11
-343.4314575050762
 21
371.7157287525381
 31
0.0
1001
DBPROPERTIES
1002
{
1000
PbHidd
1002
}
  0
LINE
  5
191
330
1F
100
AcDbEntity
  8
THICK
100
AcDbLine
 10
-371.7157287525381
 20
343.4314575050762
 30
0.0
 11
-343.4314575050762
 21
371.7157287525381
 31
0.0
1001
DBPROPERTIES
1002
{
1000
PbThick
1002
}
  0
LINE
  5
192
330
1F
100
AcDbEntity
  8
THICK
100
AcDbLine
 10
-343.4314575050762
 20
371.7157287525381
 30
0.0
 11
-400.0
 21
428.2842712474619
 31
0.0
1001
DBPROPERTIES
1002
{
1000
PbThick
1002
}
  0
LINE
  5
193
330
1F
100
AcDbEntity
  8
THICK
100
AcDbLine
 10
-400.0
 20
428.2842712474619
 30
0.0
 11
-428.2842712474619
 21
400.0
 31
0.0
1001
DBPROPERTIES
1002
{
1000
PbThick
1002
}
  0
LINE
  5
194
330
1F
100
AcDbEntity
  8
HIDDEN
100
AcDbLine
 10
-400.0
 20
428.2842712474619
 30
0.0
 11
-400.0
 21
428.2842712474619
 31
0.0
1001
DBPROPERTIES
1002
{
1000
PbHidd
1002
}
  0
ARC
  5
195
330
1F
100
AcDbEntity
  8
HIDDEN
100
AcDbCircle
 10
0.0000000000000037
 20
0.0
 30
0.0
 40
400.0
100
AcDbArc
 50
270.0000187239684
 51
0.0
1001
DBPROPERTIES
1002
{
1000
PbHidd
1002
}
  0
LINE
  5
196
330
1F
100
AcDbEntity
  8
HIDDEN
100
AcDbLine
 10
-484.0
 20
-500.0
 30
0.0
 11
-484.0
 21
-500.0
 31
0.0
1001
DBPROPERTIES
1002
{
1000
PbHidd
1002
}
  0
LINE
  5
197
330
1F
100
AcDbEntity
  8
HIDDEN
100
AcDbLine
 10
-500.0
 20
-484.0
 30
0.0
 11
-500.0
 21
-484.0
 31
0.0
1001
DBPROPERTIES
1002
{
1000
PbHidd
1002
}
  0
LINE
  5
198
330
1F
100
AcDbEntity
  8
HIDDEN
100
AcDbLine
 10
-500.0
 20
484.0
 30
0.0
 11
-500.0
 21
484.0
 31
0.0
1001
DBPROPERTIES
1002
{
1000
PbHidd
1002
}
  0
LINE
  5
199
330
1F
100
AcDbEntity
  8
HIDDEN
100
AcDbLine
 10
-484.0
 20
500.0
 30
0.0
 11
-484.0
 21
500.0
 31
0.0
1001
DBPROPERTIES
1002
{
1000
PbHidd
1002
}
  0
LINE
  5
19A
330
1F
100
AcDbEntity
  8
HIDDEN
100
AcDbLine
 10
484.0
 20
500.0
 30
0.0
 11
484.0
 21
500.0
 31
0.0
1001
DBPROPERTIES
1002
{
1000
PbHidd
1002
}
  0
LINE
  5
19B
330
1F
100
AcDbEntity
  8
HIDDEN
100
AcDbLine
 10
500.0
 20
484.0
 30
0.0
 11
500.0
 21
484.0
 31
0.0
1001
DBPROPERTIES
1002
{
1000
PbHidd
1002
}
  0
LINE
  5
19C
330
1F
100
AcDbEntity
  8
HIDDEN
100
AcDbLine
 10
500.0
 20
-484.0
 30
0.0
 11
500.0
 21
-484.0
 31
0.0
1001
DBPROPERTIES
1002
{
1000
PbHidd
1002
}
  0
LINE
  5
19D
330
1F
100
AcDbEntity
  8
HIDDEN
100
AcDbLine
 10
484.0
 20
-500.0
 30
0.0
 11
484.0
 21
-500.0
 31
0.0
1001
DBPROPERTIES
1002
{
1000
PbHidd
1002
}
  0
LINE
  5
19E
330
1F
100
AcDbEntity
  8
THICK
100
AcDbLine
 10
-301.8457058084398
 20
-237.3856379205274
 30
0.0
 11
-298.6008707353691
 21
-241.4545324044149
 31
0.0
1001
DBPROPERTIES
1002
{
1000
PbThick
1002
}
  0
LINE
  5
19F
330
1F
100
AcDbEntity
  8
THICK
100
AcDbLine
 10
-373.7932847353582
 20
87.98495034725562
 30
0.0
 11
-374.9513521614049
 21
82.91112543663763
 31
0.0
1001
DBPROPERTIES
1002
{
1000
PbThick
1002
}
  0
LINE
  5
1A0
330
1F
100
AcDbEntity
  8
THICK
100
AcDbLine
 10
-164.2668949686966
 20
347.1010781158546
 30
0.0
 11
-168.9558125268562
 21
344.8430144301639
 31
0.0
1001
DBPROPERTIES
1002
{
1000
PbThick
1002
}
  0
LINE
  5
1A1
330
1F
100
AcDbEntity
  8
THICK
100
AcDbLine
 10
168.9558125268563
 20
344.8430144301639
 30
0.0
 11
164.2668949686966
 21
347.1010781158545
 31
0.0
1001
DBPROPERTIES
1002
{
1000
PbThick
1002
}
  0
LINE
  5
1A2
330
1F
100
AcDbEntity
  8
THICK
100
AcDbLine
 10
374.9513521614049
 20
82.91112543663753
 30
0.0
 11
373.7932847353582
 21
87.9849503472555
 31
0.0
1001
DBPROPERTIES
1002
{
1000
PbThick
1002
}
  0
LINE
  5
1A3
330
1F
100
AcDbEntity
  8
THICK
100
AcDbLine
 10
298.600870735369
 20
-241.454532404415
 30
0.0
 11
301.8457058084397
 21
-237.3856379205274
 31
0.0
1001
DBPROPERTIES
1002
{
1000
PbThick
1002
}
  0
LINE
  5
1A4
330
1F
100
AcDbEntity
  8
THICK
100
AcDbLine
 10
-2.602153420448333
 20
-384.0
 30
0.0
 11
2.602153420448271
 21
-384.0
 31
0.0
1001
DBPROPERTIES
1002
{
1000
PbThick
1002
}
  0
ENDSEC
  0
SECTION
  2
OBJECTS
  0
DICTIONARY
  5
C
330
0
100
AcDbDictionary
  3
ACAD_GROUP
350
D
  3
ACAD_LAYOUT
350
1A
  3
ACAD_MATERIAL
350
43
  3
ACAD_MLEADERSTYLE
350
6B
  3
ACAD_MLINESTYLE
350
17
  3
ACAD_PLOTSETTINGS
350
19
  3
ACAD_SCALELIST
350
47
  3
ACAD_VISUALSTYLE
350
2A
  3
ACDBVARIABLEDICTIONARY
350
1A5
1001
ACAD
1000
TREAT_AS_HARD
1070
     0
  0
DICTIONARY
  5
D
102
{ACAD_REACTORS
330
C
102
}
330
C
100
AcDbDictionary
1001
ACAD
1000
TREAT_AS_HARD
1070
     0
  0
DICTIONARY
  5
1A
102
{ACAD_REACTORS
330
C
102
}
330
C
100
AcDbDictionary
1001
ACAD
1000
TREAT_AS_HARD
1070
     0
  0
DICTIONARY
  5
43
102
{ACAD_REACTORS
330
C
102
}
330
C
100
AcDbDictionary
  3
BYBLOCK
350
45
  3
BYLAYER
350
44
  3
GLOBAL
350
46
1001
ACAD
1000
TREAT_AS_HARD
1070
     0
  0
DICTIONARY
  5
6B
102
{ACAD_REACTORS
330
C
102
}
330
C
100
AcDbDictionary
  3
STANDARD
350
6C
1001
ACAD
1000
TREAT_AS_HARD
1070
     0
  0
DICTIONARY
  5
17
102
{ACAD_REACTORS
330
C
102
}
330
C
100
AcDbDictionary
  3
STANDARD
350
18
1001
ACAD
1000
TREAT_AS_HARD
1070
     0
  0
DICTIONARY
  5
19
102
{ACAD_REACTORS
330
C
102
}
330
C
100
AcDbDictionary
1001
ACAD
1000
TREAT_AS_HARD
1070
     0
  0
DICTIONARY
  5
47
102
{ACAD_REACTORS
330
C
102
}
330
C
100
AcDbDictionary
  3
A0
350
48
  3
A1
350
49
  3
A2
350
4A
  3
A3
350
4B
  3
A4
350
4C
  3
A5
350
4D
  3
A6
350
4E
  3
A7
350
4F
  3
A8
350
50
  3
A9
350
51
  3
B0
350
52
  3
B1
350
53
  3
B2
350
54
  3
B3
350
55
  3
B4
350
56
  3
B5
350
57
  3
B6
350
58
  3
B7
350
59
  3
B8
350
5A
  3
B9
350
5B
  3
C0
350
5C
  3
C1
350
5D
  3
C2
350
5E
  3
C3
350
5F
  3
C4
350
60
  3
C5
350
61
  3
C6
350
62
  3
C7
350
63
  3
C8
350
64
  3
C9
350
65
  3
D0
350
66
  3
D1
350
67
  3
D2
350
68
1001
ACAD
1000
TREAT_AS_HARD
1070
     0
  0
DICTIONARY
  5
2A
102
{ACAD_REACTORS
330
C
102
}
330
C
100
AcDbDictionary
  3
2DWIREFRAME
350
2F
  3
BASIC
350
32
  3
BRIGHTEN
350
36
  3
COLORCHANGE
350
3A
  3
CONCEPTUAL
350
34
  3
DIM
350
35
  3
EDGECOLOROFF
350
3D
  3
FACEPATTERN
350
39
  3
FLAT
350
2B
  3
FLATWITHEDGES
350
2C
  3
GOURAUD
350
2D
  3
GOURAUDWITHEDGES
350
2E
  3
HIDDEN
350
31
  3
JITTEROFF
350
3B
  3
LINEPATTERN
350
38
  3
OVERHANGOFF
350
3C
  3
REALISTIC
350
33
  3
SHADED
350
42
  3
SHADED_WITH_EDGES
350
41
  3
SHADES_OF_GRAY
350
3E
  3
SKETCHY
350
3F
  3
THICKEN
350
37
  3
WIREFRAME
350
30
  3
X-RAY
350
40
1001
ACAD
1000
TREAT_AS_HARD
1070
     0
  0
DICTIONARY
  5
1A5
102
{ACAD_REACTORS
330
C
102
}
330
C
100
AcDbDictionary
  3
CANNOSCALE
350
1B0
  3
CENTEREXE
350
1AC
  3
CENTERLTYPEFILE
350
1AD
  3
CMLEADERSTYLE
350
1A7
  3
CTABLESTYLE
350
1A6
  3
DIMASSOC
350
1AE
  3
HIDETEXT
350
1AF
  3
MSLTSCALE
350
1B1
  3
PSOLHEIGHT
350
1A9
  3
PSOLWIDTH
350
1A8
1001
ACAD
1000
TREAT_AS_HARD
1070
     0
  0
MATERIAL
  5
45
102
{ACAD_REACTORS
330
43
102
}
102
{ACAD_XDICTIONARY
360
1B4
102
}
330
43
100
AcDbMaterial
  1
BYBLOCK
  0
MATERIAL
  5
44
102
{ACAD_REACTORS
330
43
102
}
102
{ACAD_XDICTIONARY
360
1B2
102
}
330
43
100
AcDbMaterial
  1
BYLAYER
  0
MATERIAL
  5
46
102
{ACAD_REACTORS
330
43
102
}
102
{ACAD_XDICTIONARY
360
1B6
102
}
330
43
100
AcDbMaterial
  1
GLOBAL
  0
ACAD_PROXY_OBJECT
  5
6C
102
{ACAD_REACTORS
330
6B
102
}
330
6B
100
AcDbZombieObject
 90
      499
 91
      505
 93
      610
310
40901902A4063FBFFFFFE0000000000000020400000000000020404214DD185B99185C990000000000000104090141901A00000000000004100000000000000041025764000000000000039000
340
14
340
0
340
11
340
0
 94
        0
1001
ACAD_MLEADERVER
1070
     2
  0
MLINESTYLE
  5
18
102
{ACAD_REACTORS
330
17
102
}
330
17
100
AcDbMlineStyle
  2
Standard
 70
     0
  3

 62
   256
 51
90.0
 52
90.0
 71
     2
 49
0.5
 62
   256
  6
BYLAYER
 49
-0.5
 62
   256
  6
BYLAYER
  0
ACAD_PROXY_OBJECT
  5
48
102
{ACAD_REACTORS
330
47
102
}
330
47
100
AcDbZombieObject
 90
      499
 91
      503
 93
       41
310
903313A31580
  0
ACAD_PROXY_OBJECT
  5
49
102
{ACAD_REACTORS
330
47
102
}
330
47
100
AcDbZombieObject
 90
      499
 91
      503
 93
      105
310
903313A324000000000000004000
  0
ACAD_PROXY_OBJECT
  5
4A
102
{ACAD_REACTORS
330
47
102
}
330
47
100
AcDbZombieObject
 90
      499
 91
      503
 93
      105
310
903313A344000000000000104000
  0
ACAD_PROXY_OBJECT
  5
4B
102
{ACAD_REACTORS
330
47
102
}
330
47
100
AcDbZombieObject
 90
      499
 91
      503
 93
      105
310
903313A354000000000000144000
  0
ACAD_PROXY_OBJECT
  5
4C
102
{ACAD_REACTORS
330
47
102
}
330
47
100
AcDbZombieObject
 90
      499
 91
      503
 93
      105
310
903313A384000000000000204000
  0
ACAD_PROXY_OBJECT
  5
4D
102
{ACAD_REACTORS
330
47
102
}
330
47
100
AcDbZombieObject
 90
      499
 91
      503
 93
      113
310
904313A31304000000000000244000
  0
ACAD_PROXY_OBJECT
  5
4E
102
{ACAD_REACTORS
330
47
102
}
330
47
100
AcDbZombieObject
 90
      499
 91
      503
 93
      113
310
904313A31364000000000000304000
  0
ACAD_PROXY_OBJECT
  5
4F
102
{ACAD_REACTORS
330
47
102
}
330
47
100
AcDbZombieObject
 90
      499
 91
      503
 93
      113
310
904313A32304000000000000344000
  0
ACAD_PROXY_OBJECT
  5
50
102
{ACAD_REACTORS
330
47
102
}
330
47
100
AcDbZombieObject
 90
      499
 91
      503
 93
      113
310
904313A333040000000000003E4000
  0
ACAD_PROXY_OBJECT
  5
51
102
{ACAD_REACTORS
330
47
102
}
330
47
100
AcDbZombieObject
 90
      499
 91
      503
 93
      113
310
904313A34304000000000000444000
  0
ACAD_PROXY_OBJECT
  5
52
102
{ACAD_REACTORS
330
47
102
}
330
47
100
AcDbZombieObject
 90
      499
 91
      503
 93
      113
310
904313A35304000000000000494000
  0
ACAD_PROXY_OBJECT
  5
53
102
{ACAD_REACTORS
330
47
102
}
330
47
100
AcDbZombieObject
 90
      499
 91
      503
 93
      121
310
905313A3130304000000000000594000
  0
ACAD_PROXY_OBJECT
  5
54
102
{ACAD_REACTORS
330
47
102
}
330
47
100
AcDbZombieObject
 90
      499
 91
      503
 93
      105
310
903323A310000000000000010100
  0
ACAD_PROXY_OBJECT
  5
55
102
{ACAD_REACTORS
330
47
102
}
330
47
100
AcDbZombieObject
 90
      499
 91
      503
 93
      105
310
903343A310000000000000410100
  0
ACAD_PROXY_OBJECT
  5
56
102
{ACAD_REACTORS
330
47
102
}
330
47
100
AcDbZombieObject
 90
      499
 91
      503
 93
      105
310
903383A310000000000000810100
  0
ACAD_PROXY_OBJECT
  5
57
102
{ACAD_REACTORS
330
47
102
}
330
47
100
AcDbZombieObject
 90
      499
 91
      503
 93
      113
310
90431303A310000000000000910100
  0
ACAD_PROXY_OBJECT
  5
58
102
{ACAD_REACTORS
330
47
102
}
330
47
100
AcDbZombieObject
 90
      499
 91
      503
 93
      121
310
9053130303A310000000000001650100
  0
ACAD_PROXY_OBJECT
  5
59
102
{ACAD_REACTORS
330
47
102
}
330
47
100
AcDbZombieObject
 90
      499
 91
      503
 93
      257
310
90E312F31323822203D2031272D3022000000000000200FC000000000000284000
  0
ACAD_PROXY_OBJECT
  5
5A
102
{ACAD_REACTORS
330
47
102
}
330
47
100
AcDbZombieObject
 90
      499
 91
      503
 93
      249
310
90D312F363422203D2031272D3022000000000000240FC000000000000284000
  0
ACAD_PROXY_OBJECT
  5
5B
102
{ACAD_REACTORS
330
47
102
}
330
47
100
AcDbZombieObject
 90
      499
 91
      503
 93
      249
310
90D312F333222203D2031272D3022000000000000280FC000000000000284000
  0
ACAD_PROXY_OBJECT
  5
5C
102
{ACAD_REACTORS
330
47
102
}
330
47
100
AcDbZombieObject
 90
      499
 91
      503
 93
      249
310
90D312F313622203D2031272D30220000000000002C0FC000000000000284000
  0
ACAD_PROXY_OBJECT
  5
5D
102
{ACAD_REACTORS
330
47
102
}
330
47
100
AcDbZombieObject
 90
      499
 91
      503
 93
      249
310
90D332F333222203D2031272D30220000000000002E0FC000000000000284000
  0
ACAD_PROXY_OBJECT
  5
5E
102
{ACAD_REACTORS
330
47
102
}
330
47
100
AcDbZombieObject
 90
      499
 91
      503
 93
      241
310
90C312F3822203D2031272D3022000000000000300FC000000000000284000
  0
ACAD_PROXY_OBJECT
  5
5F
102
{ACAD_REACTORS
330
47
102
}
330
47
100
AcDbZombieObject
 90
      499
 91
      503
 93
      249
310
90D332F313622203D2031272D3022000000000000320FC000000000000284000
  0
ACAD_PROXY_OBJECT
  5
60
102
{ACAD_REACTORS
330
47
102
}
330
47
100
AcDbZombieObject
 90
      499
 91
      503
 93
      241
310
90C312F3422203D2031272D3022000000000000340FC000000000000284000
  0
ACAD_PROXY_OBJECT
  5
61
102
{ACAD_REACTORS
330
47
102
}
330
47
100
AcDbZombieObject
 90
      499
 91
      503
 93
      241
310
90C332F3822203D2031272D3022000000000000360FC000000000000284000
  0
ACAD_PROXY_OBJECT
  5
62
102
{ACAD_REACTORS
330
47
102
}
330
47
100
AcDbZombieObject
 90
      499
 91
      503
 93
      241
310
90C312F3222203D2031272D3022000000000000380FC000000000000284000
  0
ACAD_PROXY_OBJECT
  5
63
102
{ACAD_REACTORS
330
47
102
}
330
47
100
AcDbZombieObject
 90
      499
 91
      503
 93
      241
310
90C332F3422203D2031272D30220000000000003A0FC000000000000284000
  0
ACAD_PROXY_OBJECT
  5
64
102
{ACAD_REACTORS
330
47
102
}
330
47
100
AcDbZombieObject
 90
      499
 91
      503
 93
      161
310
90A3122203D2031272D30224000000000000284000
  0
ACAD_PROXY_OBJECT
  5
65
102
{ACAD_REACTORS
330
47
102
}
330
47
100
AcDbZombieObject
 90
      499
 91
      503
 93
      257
310
90E312D312F3222203D2031272D30220000000000003E0FC000000000000284000
  0
ACAD_PROXY_OBJECT
  5
66
102
{ACAD_REACTORS
330
47
102
}
330
47
100
AcDbZombieObject
 90
      499
 91
      503
 93
      225
310
90A3322203D2031272D302200000000000002100000000000000284000
  0
ACAD_PROXY_OBJECT
  5
67
102
{ACAD_REACTORS
330
47
102
}
330
47
100
AcDbZombieObject
 90
      499
 91
      503
 93
      225
310
90A3622203D2031272D302200000000000006100000000000000284000
  0
ACAD_PROXY_OBJECT
  5
68
102
{ACAD_REACTORS
330
47
102
}
330
47
100
AcDbZombieObject
 90
      499
 91
      503
 93
      249
310
90D31272D3022203D2031272D30220000000000000A100000000000000284000
  0
ACAD_PROXY_OBJECT
  5
2F
102
{ACAD_REACTORS
330
2A
102
}
330
2A
100
AcDbZombieObject
 90
      499
 91
      501
 93
      436
310
42CC9915DA5C99599C985B595049028333333333333E33F0000000000000F90107901411070040501600405405064090741402480A0340
1001
ACAD
1000
AcDbSavedByObjectVersion
1070
     0
  0
ACAD_PROXY_OBJECT
  5
32
102
{ACAD_REACTORS
330
2A
102
}
330
2A
100
AcDbZombieObject
 90
      499
 91
      501
 93
      388
310
4150985CDA58D07406404333333333333E33F0000000000000F90107A41107004050150841D405064090741402480A0350
1001
ACAD
1000
AcDbSavedByObjectVersion
1070
     0
  0
ACAD_PROXY_OBJECT
  5
36
102
{ACAD_REACTORS
330
2A
102
}
330
2A
100
AcDbZombieObject
 90
      499
 91
      501
 93
      428
310
42109C9A59DA1D195B90C409028333333333333E33F0000000000000F9010790141107004050150841D405064090741402480A029950
1001
ACAD
1000
AcDbSavedByObjectVersion
1070
     0
  0
ACAD_PROXY_OBJECT
  5
3A
102
{ACAD_REACTORS
330
2A
102
}
330
2A
100
AcDbZombieObject
 90
      499
 91
      501
 93
      452
310
42D0DBDB1BDC90DA185B99D95104090240C333333333333E33F0000000000000F90108901411070040501508421405064090741402480A0350
1001
ACAD
1000
AcDbSavedByObjectVersion
1070
     0
  0
ACAD_PROXY_OBJECT
  5
34
102
{ACAD_REACTORS
330
2A
102
}
330
2A
100
AcDbZombieObject
 90
      499
 91
      501
 93
      500
310
4290DBDB98D95C1D1D585B10940D028333333333333E33F0000000000000F90107902409070040501000000000018199010841D405064090740C02480A0340
1001
ACAD
1000
AcDbSavedByObjectVersion
1070
     0
  0
ACAD_PROXY_OBJECT
  5
35
102
{ACAD_REACTORS
330
2A
102
}
330
2A
100
AcDbZombieObject
 90
      499
 91
      501
 93
      412
310
40D11A5B50B409028333333333333E33F0000000000000F9010790141107004050150841D405064090741402480A02677FFFFFD0
1001
ACAD
1000
AcDbSavedByObjectVersion
1070
     0
  0
ACAD_PROXY_OBJECT
  5
3D
102
{ACAD_REACTORS
330
2A
102
}
330
2A
100
AcDbZombieObject
 90
      499
 91
      501
 93
      452
310
43115919D950DBDB1BDC93D999916409028333333333333E33F0000000000000F9010790141107004050150841D405064090741402480A0350
1001
ACAD
1000
AcDbSavedByObjectVersion
1070
     0
  0
ACAD_PROXY_OBJECT
  5
39
102
{ACAD_REACTORS
330
2A
102
}
330
2A
100
AcDbZombieObject
 90
      499
 91
      501
 93
      444
310
42D19858D95C185D1D195C9B90F409028333333333333E33F0000000000000F9010790141107004050150841D405064090741402480A0350
1001
ACAD
1000
AcDbSavedByObjectVersion
1070
     0
  0
ACAD_PROXY_OBJECT
  5
2B
102
{ACAD_REACTORS
330
2A
102
}
330
2A
100
AcDbZombieObject
 90
      499
 91
      501
 93
      380
310
41119B185D240901404333333333333E33F0000000000000F9010740A907004050150841D405064090741402480A1B50
1001
ACAD
1000
AcDbSavedByObjectVersion
1070
     0
  0
ACAD_PROXY_OBJECT
  5
2C
102
{ACAD_REACTORS
330
2A
102
}
330
2A
100
AcDbZombieObject
 90
      499
 91
      501
 93
      468
310
43519B185D15DA5D1A115919D95CD0140901404333333333333E33F0000000000000F90107409019070040501600405405064090741402480A1B50
1001
ACAD
1000
AcDbSavedByObjectVersion
1070
     0
  0
ACAD_PROXY_OBJECT
  5
2D
102
{ACAD_REACTORS
330
2A
102
}
330
2A
100
AcDbZombieObject
 90
      499
 91
      501
 93
      404
310
41D1DBDD5C985D5910240902404333333333333E33F0000000000000F9010740A9070040501641D405064090741402480A1B50
1001
ACAD
1000
AcDbSavedByObjectVersion
1070
     0
  0
ACAD_PROXY_OBJECT
  5
2E
102
{ACAD_REACTORS
330
2A
102
}
330
2A
100
AcDbZombieObject
 90
      499
 91
      501
 93
      492
310
4411DBDD5C985D5915DA5D1A115919D95CD0340902404333333333333E33F0000000000000F90107409019070040501600405405064090741402480A1B50
1001
ACAD
1000
AcDbSavedByObjectVersion
1070
     0
  0
ACAD_PROXY_OBJECT
  5
31
102
{ACAD_REACTORS
330
2A
102
}
330
2A
100
AcDbZombieObject
 90
      499
 91
      501
 93
      476
310
41921A5919195B90640502408333333333333E33F0000000000000F901079024090700405020000000000001110200405405064090740C02480A0340
1001
ACAD
1000
AcDbSavedByObjectVersion
1070
     0
  0
ACAD_PROXY_OBJECT
  5
3B
102
{ACAD_REACTORS
330
2A
102
}
330
2A
100
AcDbZombieObject
 90
      499
 91
      501
 93
      428
310
42529A5D1D195C93D999914409028333333333333E33F0000000000000F9010790141107004050150A41D405064090741402480A0350
1001
ACAD
1000
AcDbSavedByObjectVersion
1070
     0
  0
ACAD_PROXY_OBJECT
  5
38
102
{ACAD_REACTORS
330
2A
102
}
330
2A
100
AcDbZombieObject
 90
      499
 91
      501
 93
      444
310
42D31A5B995C185D1D195C9B90E409028333333333333E33F0000000000000F9010790141107004050750841D405064090741402483A0350
1001
ACAD
1000
AcDbSavedByObjectVersion
1070
     0
  0
ACAD_PROXY_OBJECT
  5
3C
102
{ACAD_REACTORS
330
2A
102
}
330
2A
100
AcDbZombieObject
 90
      499
 91
      501
 93
      444
310
42D3DD995C9A185B99D3D999915409028333333333333E33F0000000000000F9010790141107004050150941D405064090741402480A0350
1001
ACAD
1000
AcDbSavedByObjectVersion
1070
     0
  0
ACAD_PROXY_OBJECT
  5
33
102
{ACAD_REACTORS
330
2A
102
}
330
2A
100
AcDbZombieObject
 90
      499
 91
      501
 93
      428
310
425499585B1A5CDD1A58D08409038333333333333E33F0000000000000F9010740A907004050150800405405064090740C02480A1B40
1001
ACAD
1000
AcDbSavedByObjectVersion
1070
     0
  0
ACAD_PROXY_OBJECT
  5
42
102
{ACAD_REACTORS
330
2A
102
}
330
2A
100
AcDbZombieObject
 90
      499
 91
      501
 93
      420
310
4194DA1859195911B40902404333333333333E33F0000000000000F9010740A41107004050150800405405064090840C02480A0B40
1001
ACAD
1000
AcDbSavedByObjectVersion
1070
     0
  0
ACAD_PROXY_OBJECT
  5
41
102
{ACAD_REACTORS
330
2A
102
}
330
2A
100
AcDbZombieObject
 90
      499
 91
      501
 93
      516
310
4454DA18591959081DDA5D1A08195919D95CD1A40902404333333333333E33F0000000000000F901074090142907004050250800405405064090740C02480A0B40
1001
ACAD
1000
AcDbSavedByObjectVersion
1070
     0
  0
ACAD_PROXY_OBJECT
  5
3E
102
{ACAD_REACTORS
330
2A
102
}
330
2A
100
AcDbZombieObject
 90
      499
 91
      501
 93
      532
310
4394DA1859195CC81BD98811DC985E5174090240C333333333333E33F0000000000000F901079024090741D01000000000000111010841D405064090740C02480A0340
1001
ACAD
1000
AcDbSavedByObjectVersion
1070
     0
  0
ACAD_PROXY_OBJECT
  5
3F
102
{ACAD_REACTORS
330
2A
102
}
330
2A
100
AcDbZombieObject
 90
      499
 91
      501
 93
      476
310
41D4DAD95D18DA1E51840502408333333333333E33F0000000000000F901079024090741D01000000000000111010B41D405064090741802480A0340
1001
ACAD
1000
AcDbSavedByObjectVersion
1070
     0
  0
ACAD_PROXY_OBJECT
  5
37
102
{ACAD_REACTORS
330
2A
102
}
330
2A
100
AcDbZombieObject
 90
      499
 91
      501
 93
      412
310
41D51A1A58DAD95B90D409028333333333333E33F0000000000000F9010790141107004050150C41D405064090741402480A0350
1001
ACAD
1000
AcDbSavedByObjectVersion
1070
     0
  0
ACAD_PROXY_OBJECT
  5
30
102
{ACAD_REACTORS
330
2A
102
}
330
2A
100
AcDbZombieObject
 90
      499
 91
      501
 93
      420
310
4255DA5C99599C985B595059028333333333333E33F0000000000000F90107901411070040501600405405064090740C02480A0340
1001
ACAD
1000
AcDbSavedByObjectVersion
1070
     0
  0
ACAD_PROXY_OBJECT
  5
40
102
{ACAD_REACTORS
330
2A
102
}
330
2A
100
AcDbZombieObject
 90
      499
 91
      501
 93
      404
310
41560B54985E51940902404000000000000E03F0000000000000F9010740501907004050150841D405064090740C02480A1B40
1001
ACAD
1000
AcDbSavedByObjectVersion
1070
     0
  0
DICTIONARYVAR
  5
1B0
102
{ACAD_REACTORS
330
1A5
102
}
330
1A5
100
DictionaryVariables
280
     0
  1
1:1
  0
DICTIONARYVAR
  5
1AC
102
{ACAD_REACTORS
330
1A5
102
}
330
1A5
100
DictionaryVariables
280
     0
  1
3.500000
  0
DICTIONARYVAR
  5
1AD
102
{ACAD_REACTORS
330
1A5
102
}
330
1A5
100
DictionaryVariables
280
     0
  1
acadiso.lin
  0
DICTIONARYVAR
  5
1A7
102
{ACAD_REACTORS
330
1A5
102
}
330
1A5
100
DictionaryVariables
280
     0
  1
Standard
  0
DICTIONARYVAR
  5
1A6
102
{ACAD_REACTORS
330
1A5
102
}
330
1A5
100
DictionaryVariables
280
     0
  1
Standard
  0
DICTIONARYVAR
  5
1AE
102
{ACAD_REACTORS
330
1A5
102
}
330
1A5
100
DictionaryVariables
280
     0
  1
2
  0
DICTIONARYVAR
  5
1AF
102
{ACAD_REACTORS
330
1A5
102
}
330
1A5
100
DictionaryVariables
280
     0
  1
1
  0
DICTIONARYVAR
  5
1B1
102
{ACAD_REACTORS
330
1A5
102
}
330
1A5
100
DictionaryVariables
280
     0
  1
1
  0
DICTIONARYVAR
  5
1A9
102
{ACAD_REACTORS
330
1A5
102
}
330
1A5
100
DictionaryVariables
280
     0
  1
80.000000
  0
DICTIONARYVAR
  5
1A8
102
{ACAD_REACTORS
330
1A5
102
}
330
1A5
100
DictionaryVariables
280
     0
  1
5.000000
  0
DICTIONARY
  5
1B4
330
45
100
AcDbDictionary
  3
ACAD_XREC_ROUNDTRIP
360
1B5
1001
ACAD
1000
TREAT_AS_HARD
1070
     1
  0
DICTIONARY
  5
1B2
330
44
100
AcDbDictionary
  3
ACAD_XREC_ROUNDTRIP
360
1B3
1001
ACAD
1000
TREAT_AS_HARD
1070
     1
  0
DICTIONARY
  5
1B6
330
46
100
AcDbDictionary
  3
ACAD_XREC_ROUNDTRIP
360
1B7
1001
ACAD
1000
TREAT_AS_HARD
1070
     1
  0
XRECORD
  5
1B5
102
{ACAD_REACTORS
330
1B4
102
}
330
1B4
100
AcDbXrecord
102
MATERIAL
148
0.0
149
0.0
149
0.0
 93
        0
 94
      127
282
     0
 72
     1
 77
     1
171
     1
175
     1
179
     1
273
     0
  0
XRECORD
  5
1B3
102
{ACAD_REACTORS
330
1B2
102
}
330
1B2
100
AcDbXrecord
102
MATERIAL
148
0.0
149
0.0
149
0.0
 93
        0
 94
      127
282
     0
 72
     1
 77
     1
171
     1
175
     1
179
     1
273
     0
  0
XRECORD
  5
1B7
102
{ACAD_REACTORS
330
1B6
102
}
330
1B6
100
AcDbXrecord
102
MATERIAL
148
0.0
149
0.0
149
0.0
 93
        0
 94
      127
282
     0
 72
     1
 77
     1
171
     1
175
     1
179
     1
273
     0
  0
ENDSEC
  0
EOF
