  0
SECTION
  2
HEADER
  9
$ACADVER
  1
AC1012
  9
$DWGCODEPAGE
  3
ansi_1252
  9
$INSBASE
 10
0.0
 20
0.0
 30
0.0
  9
$EXTMIN
 10
1.000000000000000E+20
 20
1.000000000000000E+20
 30
1.000000000000000E+20
  9
$EXTMAX
 10
-1.000000000000000E+20
 20
-1.000000000000000E+20
 30
-1.000000000000000E+20
  9
$LIMMIN
 10
0.0
 20
0.0
  9
$LIMMAX
 10
420.0
 20
297.0
  9
$ORTHOMODE
 70
     0
  9
$REGENMODE
 70
     1
  9
$FILLMODE
 70
     1
  9
$QTEXTMODE
 70
     0
  9
$MIRRTEXT
 70
     1
  9
$DRAGMODE
 70
     2
  9
$LTSCALE
 40
1.0
  9
$OSMODE
 70
    37
  9
$ATTMODE
 70
     1
  9
$TEXTSIZE
 40
2.5
  9
$TRACEWID
 40
1.0
  9
$TEXTSTYLE
  7
STANDARD
  9
$CLAYER
  8
0
  9
$CELTYPE
  6
BYLAYER
  9
$CECOLOR
 62
   256
  9
$CELTSCALE
 40
1.0
  9
$DELOBJ
 70
     1
  9
$DISPSILH
 70
     0
  9
$DIMSCALE
 40
1.0
  9
$DIMASZ
 40
2.5
  9
$DIMEXO
 40
0.625
  9
$DIMDLI
 40
3.75
  9
$DIMRND
 40
0.0
  9
$DIMDLE
 40
0.0
  9
$DIMEXE
 40
1.25
  9
$DIMTP
 40
0.0
  9
$DIMTM
 40
0.0
  9
$DIMTXT
 40
2.5
  9
$DIMCEN
 40
2.5
  9
$DIMTSZ
 40
0.0
  9
$DIMTOL
 70
     0
  9
$DIMLIM
 70
     0
  9
$DIMTIH
 70
     0
  9
$DIMTOH
 70
     0
  9
$DIMSE1
 70
     0
  9
$DIMSE2
 70
     0
  9
$DIMTAD
 70
     1
  9
$DIMZIN
 70
     8
  9
$DIMBLK
  1

  9
$DIMASO
 70
     1
  9
$DIMSHO
 70
     1
  9
$DIMPOST
  1

  9
$DIMAPOST
  1

  9
$DIMALT
 70
     0
  9
$DIMALTD
 70
     3
  9
$DIMALTF
 40
0.03937007874016
  9
$DIMLFAC
 40
1.0
  9
$DIMTOFL
 70
     1
  9
$DIMTVP
 40
0.0
  9
$DIMTIX
 70
     0
  9
$DIMSOXD
 70
     0
  9
$DIMSAH
 70
     0
  9
$DIMBLK1
  1

  9
$DIMBLK2
  1

  9
$DIMSTYLE
  2
ISO-25
  9
$DIMCLRD
 70
     0
  9
$DIMCLRE
 70
     0
  9
$DIMCLRT
 70
     0
  9
$DIMTFAC
 40
1.0
  9
$DIMGAP
 40
0.625
  9
$DIMJUST
 70
     0
  9
$DIMSD1
 70
     0
  9
$DIMSD2
 70
     0
  9
$DIMTOLJ
 70
     0
  9
$DIMTZIN
 70
     8
  9
$DIMALTZ
 70
     0
  9
$DIMALTTZ
 70
     0
  9
$DIMFIT
 70
     3
  9
$DIMUPT
 70
     0
  9
$DIMUNIT
 70
     2
  9
$DIMDEC
 70
     2
  9
$DIMTDEC
 70
     2
  9
$DIMALTU
 70
     2
  9
$DIMALTTD
 70
     3
  9
$DIMTXSTY
  7
STANDARD
  9
$DIMAUNIT
 70
     0
  9
$LUNITS
 70
     2
  9
$LUPREC
 70
     4
  9
$SKETCHINC
 40
1.0
  9
$FILLETRAD
 40
10.0
  9
$AUNITS
 70
     0
  9
$AUPREC
 70
     0
  9
$MENU
  1
.
  9
$ELEVATION
 40
0.0
  9
$PELEVATION
 40
0.0
  9
$THICKNESS
 40
0.0
  9
$LIMCHECK
 70
     0
  9
$CHAMFERA
 40
0.0
  9
$CHAMFERB
 40
0.0
  9
$CHAMFERC
 40
0.0
  9
$CHAMFERD
 40
0.0
  9
$SKPOLY
 70
     0
  9
$TDCREATE
 40
2458001.492266157
  9
$TDUPDATE
 40
2458001.492269039
  9
$TDINDWG
 40
0.0000000116
  9
$TDUSRTIMER
 40
0.0000000116
  9
$USRTIMER
 70
     1
  9
$ANGBASE
 50
0.0
  9
$ANGDIR
 70
     0
  9
$PDMODE
 70
     0
  9
$PDSIZE
 40
0.0
  9
$PLINEWID
 40
0.0
  9
$COORDS
 70
     1
  9
$SPLFRAME
 70
     0
  9
$SPLINETYPE
 70
     6
  9
$SPLINESEGS
 70
     8
  9
$ATTDIA
 70
     0
  9
$ATTREQ
 70
     1
  9
$HANDLING
 70
     1
  9
$HANDSEED
  5
49F
  9
$SURFTAB1
 70
     6
  9
$SURFTAB2
 70
     6
  9
$SURFTYPE
 70
     6
  9
$SURFU
 70
     6
  9
$SURFV
 70
     6
  9
$UCSNAME
  2

  9
$UCSORG
 10
0.0
 20
0.0
 30
0.0
  9
$UCSXDIR
 10
1.0
 20
0.0
 30
0.0
  9
$UCSYDIR
 10
0.0
 20
1.0
 30
0.0
  9
$PUCSNAME
  2

  9
$PUCSORG
 10
0.0
 20
0.0
 30
0.0
  9
$PUCSXDIR
 10
1.0
 20
0.0
 30
0.0
  9
$PUCSYDIR
 10
0.0
 20
1.0
 30
0.0
  9
$USERI1
 70
     0
  9
$USERI2
 70
     0
  9
$USERI3
 70
     0
  9
$USERI4
 70
     0
  9
$USERI5
 70
     0
  9
$USERR1
 40
0.0
  9
$USERR2
 40
0.0
  9
$USERR3
 40
0.0
  9
$USERR4
 40
0.0
  9
$USERR5
 40
0.0
  9
$WORLDVIEW
 70
     1
  9
$SHADEDGE
 70
     3
  9
$SHADEDIF
 70
    70
  9
$TILEMODE
 70
     1
  9
$MAXACTVP
 70
    64
  9
$PINSBASE
 10
0.0
 20
0.0
 30
0.0
  9
$PLIMCHECK
 70
     0
  9
$PEXTMIN
 10
1.000000000000000E+20
 20
1.000000000000000E+20
 30
1.000000000000000E+20
  9
$PEXTMAX
 10
-1.000000000000000E+20
 20
-1.000000000000000E+20
 30
-1.000000000000000E+20
  9
$PLIMMIN
 10
0.0
 20
0.0
  9
$PLIMMAX
 10
420.0
 20
297.0
  9
$UNITMODE
 70
     0
  9
$VISRETAIN
 70
     1
  9
$PLINEGEN
 70
     0
  9
$PSLTSCALE
 70
     1
  9
$TREEDEPTH
 70
  3020
  9
$PICKSTYLE
 70
     1
  9
$CMLSTYLE
  2
STANDARD
  9
$CMLJUST
 70
     0
  9
$CMLSCALE
 40
20.0
  9
$SAVEIMAGES
 70
     1
  0
ENDSEC
  0
SECTION
  2
CLASSES
  0
CLASS
  1
ACDBDICTIONARYWDFLT
  2
AcDbDictionaryWithDefault
  3
ObjectDBX Classes
 90
    32768
280
     0
281
     0
  0
CLASS
  1
VISUALSTYLE
  2
AcDbVisualStyle
  3
ObjectDBX Classes
 90
     4095
280
     0
281
     0
  0
CLASS
  1
MATERIAL
  2
AcDbMaterial
  3
ObjectDBX Classes
 90
     1153
280
     0
281
     0
  0
CLASS
  1
SCALE
  2
AcDbScale
  3
ObjectDBX Classes
 90
     1153
280
     0
281
     0
  0
CLASS
  1
TABLESTYLE
  2
AcDbTableStyle
  3
ObjectDBX Classes
 90
     4095
280
     0
281
     0
  0
CLASS
  1
MLEADERSTYLE
  2
AcDbMLeaderStyle
  3
ACDB_MLEADERSTYLE_CLASS
 90
     4095
280
     0
281
     0
  0
CLASS
  1
SUN
  2
AcDbSun
  3
SCENEOE
 90
     1153
280
     0
281
     0
  0
CLASS
  1
DICTIONARYVAR
  2
AcDbDictionaryVar
  3
ObjectDBX Classes
 90
        0
280
     0
281
     0
  0
CLASS
  1
XRECORD
  2
AcDbXrecord
  3
ObjectDBX Classes
 90
    32768
280
     0
281
     0
  0
CLASS
  1
LWPOLYLINE
  2
AcDbPolyline
  3
ObjectDBX Classes
 90
    32768
280
     0
281
     1
  0
CLASS
  1
HATCH
  2
AcDbHatch
  3
ObjectDBX Classes
 90
    32768
280
     0
281
     1
  0
CLASS
  1
ACDBPLACEHOLDER
  2
AcDbPlaceHolder
  3
ObjectDBX Classes
 90
        0
280
     0
281
     0
  0
CLASS
  1
LAYOUT
  2
AcDbLayout
  3
ObjectDBX Classes
 90
        0
280
     0
281
     0
  0
ENDSEC
  0
SECTION
  2
TABLES
  0
TABLE
  2
VPORT
  5
8
330
0
100
AcDbSymbolTable
 70
     1
  0
VPORT
  5
29
330
8
100
AcDbSymbolTableRecord
100
AcDbViewportTableRecord
  2
*ACTIVE
 70
     0
 10
0.0
 20
0.0
 11
1.0
 21
1.0
 12
-0.0000000000001705
 22
-40.0
 13
0.0
 23
0.0
 14
10.0
 24
10.0
 15
10.0
 25
10.0
 16
0.0
 26
0.0
 36
1.0
 17
0.0
 27
0.0
 37
0.0
 40
1081.2
 41
1.075471698113208
 42
50.0
 43
0.0
 44
0.0
 50
0.0
 51
0.0
 71
     0
 72
   100
 73
     1
 74
     3
 75
     0
 76
     0
 77
     0
 78
     0
  0
ENDTAB
  0
TABLE
  2
LTYPE
  5
5
330
0
100
AcDbSymbolTable
 70
     1
  0
LTYPE
  5
14
330
5
100
AcDbSymbolTableRecord
100
AcDbLinetypeTableRecord
  2
BYBLOCK
 70
     0
  3

 72
    65
 73
     0
 40
0.0
  0
LTYPE
  5
15
330
5
100
AcDbSymbolTableRecord
100
AcDbLinetypeTableRecord
  2
BYLAYER
 70
     0
  3

 72
    65
 73
     0
 40
0.0
  0
LTYPE
  5
16
330
5
100
AcDbSymbolTableRecord
100
AcDbLinetypeTableRecord
  2
CONTINUOUS
 70
     0
  3
Solid line
 72
    65
 73
     0
 40
0.0
  0
ENDTAB
  0
TABLE
  2
LAYER
  5
2
330
0
100
AcDbSymbolTable
 70
     4
  0
LAYER
  5
10
330
2
100
AcDbSymbolTableRecord
100
AcDbLayerTableRecord
  2
0
 70
     0
 62
     7
  6
CONTINUOUS
  0
LAYER
  5
6E
330
2
100
AcDbSymbolTableRecord
100
AcDbLayerTableRecord
  2
THICK
 70
     0
 62
     7
  6
CONTINUOUS
  0
LAYER
  5
6F
330
2
100
AcDbSymbolTableRecord
100
AcDbLayerTableRecord
  2
HIDDEN
 70
     0
 62
     7
  6
CONTINUOUS
  0
LAYER
  5
70
330
2
100
AcDbSymbolTableRecord
100
AcDbLayerTableRecord
  2
HASHLINES
 70
     0
 62
     7
  6
CONTINUOUS
  0
ENDTAB
  0
TABLE
  2
STYLE
  5
3
330
0
100
AcDbSymbolTable
 70
     1
  0
STYLE
  5
11
330
3
100
AcDbSymbolTableRecord
100
AcDbTextStyleTableRecord
  2
STANDARD
 70
     0
 40
0.0
 41
1.0
 50
0.0
 71
     0
 42
2.5
  3
txt
  4

  0
ENDTAB
  0
TABLE
  2
VIEW
  5
6
330
0
100
AcDbSymbolTable
 70
     0
  0
ENDTAB
  0
TABLE
  2
UCS
  5
7
330
0
100
AcDbSymbolTable
 70
     0
  0
ENDTAB
  0
TABLE
  2
APPID
  5
9
330
0
100
AcDbSymbolTable
 70
     3
  0
APPID
  5
12
330
9
100
AcDbSymbolTableRecord
100
AcDbRegAppTableRecord
  2
ACAD
 70
     0
  0
APPID
  5
71
330
9
100
AcDbSymbolTableRecord
100
AcDbRegAppTableRecord
  2
DBPROPERTIES
 70
     0
  0
APPID
  5
49E
330
9
100
AcDbSymbolTableRecord
100
AcDbRegAppTableRecord
  2
ACAD_MLEADERVER
 70
     0
  0
ENDTAB
  0
TABLE
  2
DIMSTYLE
  5
A
330
0
100
AcDbSymbolTable
 70
     1
  0
DIMSTYLE
105
27
330
A
100
AcDbSymbolTableRecord
100
AcDbDimStyleTableRecord
  2
ISO-25
 70
     0
  3

  4

  5

  6

  7

 40
1.0
 41
2.5
 42
0.625
 43
3.75
 44
1.25
 45
0.0
 46
0.0
 47
0.0
 48
0.0
140
2.5
141
2.5
142
0.0
143
0.03937007874016
144
1.0
145
0.0
146
1.0
147
0.625
 71
     0
 72
     0
 73
     0
 74
     0
 75
     0
 76
     0
 77
     1
 78
     8
170
     0
171
     3
172
     1
173
     0
174
     0
175
     0
176
     0
177
     0
178
     0
270
     2
271
     2
272
     2
273
     2
274
     3
340
11
275
     0
280
     0
281
     0
282
     0
283
     0
284
     8
285
     0
286
     0
287
     3
288
     0
  0
ENDTAB
  0
TABLE
  2
BLOCK_RECORD
  5
1
330
0
100
AcDbSymbolTable
 70
     0
  0
BLOCK_RECORD
  5
1F
330
1
100
AcDbSymbolTableRecord
100
AcDbBlockTableRecord
  2
*MODEL_SPACE
  0
BLOCK_RECORD
  5
1B
330
1
100
AcDbSymbolTableRecord
100
AcDbBlockTableRecord
  2
*PAPER_SPACE
  0
ENDTAB
  0
ENDSEC
  0
SECTION
  2
BLOCKS
  0
BLOCK
  5
20
330
1F
100
AcDbEntity
  8
0
100
AcDbBlockBegin
  2
*MODEL_SPACE
 70
     0
 10
0.0
 20
0.0
 30
0.0
  3
*MODEL_SPACE
  1

  0
ENDBLK
  5
21
330
1F
100
AcDbEntity
  8
0
100
AcDbBlockEnd
  0
BLOCK
  5
1C
330
1B
100
AcDbEntity
 67
     1
  8
0
100
AcDbBlockBegin
  2
*PAPER_SPACE
 70
     0
 10
0.0
 20
0.0
 30
0.0
  3
*PAPER_SPACE
  1

  0
ENDBLK
  5
1D
330
1B
100
AcDbEntity
 67
     1
  8
0
100
AcDbBlockEnd
  0
ENDSEC
  0
SECTION
  2
ENTITIES
  0
LINE
  5
72
330
1F
100
AcDbEntity
  8
HIDDEN
100
AcDbLine
 10
-482.0000000000001
 20
490.0000000000001
 30
0.0
 11
-481.9999999999999
 21
489.9999999999999
 31
0.0
1001
DBPROPERTIES
1002
{
1000
PbHidd
1002
}
  0
LINE
  5
73
330
1F
100
AcDbEntity
  8
THICK
100
AcDbLine
 10
481.9999999999999
 20
490.0000000000001
 30
0.0
 11
-482.0000000000001
 21
490.0000000000001
 31
0.0
1001
DBPROPERTIES
1002
{
1000
PbThick
1002
}
  0
LINE
  5
74
330
1F
100
AcDbEntity
  8
HIDDEN
100
AcDbLine
 10
482.0000000000001
 20
489.9999999999999
 30
0.0
 11
482.0
 21
490.0000000000001
 31
0.0
1001
DBPROPERTIES
1002
{
1000
PbHidd
1002
}
  0
LINE
  5
75
330
1F
100
AcDbEntity
  8
THICK
100
AcDbLine
 10
545.0
 20
315.0
 30
0.0
 11
490.0
 21
315.0
 31
0.0
1001
DBPROPERTIES
1002
{
1000
PbThick
1002
}
  0
LINE
  5
76
330
1F
100
AcDbEntity
  8
THICK
100
AcDbLine
 10
490.0
 20
-315.0
 30
0.0
 11
545.0
 21
-315.0
 31
0.0
1001
DBPROPERTIES
1002
{
1000
PbThick
1002
}
  0
LINE
  5
77
330
1F
100
AcDbEntity
  8
THICK
100
AcDbLine
 10
-545.0
 20
315.0
 30
0.0
 11
-490.0
 21
315.0
 31
0.0
1001
DBPROPERTIES
1002
{
1000
PbThick
1002
}
  0
LINE
  5
78
330
1F
100
AcDbEntity
  8
THICK
100
AcDbLine
 10
-545.0
 20
-315.0
 30
0.0
 11
-545.0
 21
315.0
 31
0.0
1001
DBPROPERTIES
1002
{
1000
PbThick
1002
}
  0
LINE
  5
79
330
1F
100
AcDbEntity
  8
THICK
100
AcDbLine
 10
-490.0
 20
-315.0
 30
0.0
 11
-545.0
 21
-315.0
 31
0.0
1001
DBPROPERTIES
1002
{
1000
PbThick
1002
}
  0
LINE
  5
7A
330
1F
100
AcDbEntity
  8
HIDDEN
100
AcDbLine
 10
482.0
 20
311.0
 30
0.0
 11
545.0
 21
311.0
 31
0.0
1001
DBPROPERTIES
1002
{
1000
PbHidd
1002
}
  0
LINE
  5
7B
330
1F
100
AcDbEntity
  8
HIDDEN
100
AcDbLine
 10
545.0
 20
-311.0
 30
0.0
 11
482.0
 21
-311.0
 31
0.0
1001
DBPROPERTIES
1002
{
1000
PbHidd
1002
}
  0
LINE
  5
7C
330
1F
100
AcDbEntity
  8
HIDDEN
100
AcDbLine
 10
-482.0
 20
311.0
 30
0.0
 11
-545.0
 21
311.0
 31
0.0
1001
DBPROPERTIES
1002
{
1000
PbHidd
1002
}
  0
LINE
  5
7D
330
1F
100
AcDbEntity
  8
HIDDEN
100
AcDbLine
 10
-545.0
 20
-311.0
 30
0.0
 11
-482.0
 21
-311.0
 31
0.0
1001
DBPROPERTIES
1002
{
1000
PbHidd
1002
}
  0
LINE
  5
7E
330
1F
100
AcDbEntity
  8
HIDDEN
100
AcDbLine
 10
-392.0
 20
435.0
 30
0.0
 11
-392.0
 21
392.0000955687602
 31
0.0
1001
DBPROPERTIES
1002
{
1000
PbHidd
1002
}
  0
LINE
  5
7F
330
1F
100
AcDbEntity
  8
HIDDEN
100
AcDbLine
 10
-400.0
 20
435.0
 30
0.0
 11
-392.0
 21
435.0
 31
0.0
1001
DBPROPERTIES
1002
{
1000
PbHidd
1002
}
  0
LINE
  5
80
330
1F
100
AcDbEntity
  8
HIDDEN
100
AcDbLine
 10
-400.0
 20
-435.0
 30
0.0
 11
-400.0
 21
435.0
 31
0.0
1001
DBPROPERTIES
1002
{
1000
PbHidd
1002
}
  0
LINE
  5
81
330
1F
100
AcDbEntity
  8
HIDDEN
100
AcDbLine
 10
-392.0
 20
-435.0
 30
0.0
 11
-400.0
 21
-435.0
 31
0.0
1001
DBPROPERTIES
1002
{
1000
PbHidd
1002
}
  0
LINE
  5
82
330
1F
100
AcDbEntity
  8
HIDDEN
100
AcDbLine
 10
-392.0
 20
-392.0002811815411
 30
0.0
 11
-392.0
 21
-435.0
 31
0.0
1001
DBPROPERTIES
1002
{
1000
PbHidd
1002
}
  0
LINE
  5
83
330
1F
100
AcDbEntity
  8
THICK
100
AcDbLine
 10
-392.0000000000001
 20
-332.385411949828
 30
0.0
 11
-8.000000000000028
 21
-332.385411949828
 31
0.0
1001
DBPROPERTIES
1002
{
1000
PbThick
1002
}
  0
LINE
  5
84
330
1F
100
AcDbEntity
  8
HIDDEN
100
AcDbLine
 10
-8.0
 20
-435.0
 30
0.0
 11
-8.000000000000012
 21
-377.9999995354983
 31
0.0
1001
DBPROPERTIES
1002
{
1000
PbHidd
1002
}
  0
LINE
  5
85
330
1F
100
AcDbEntity
  8
THICK
100
AcDbLine
 10
-8.000000000000012
 20
-377.9999995354983
 30
0.0
 11
-8.000000000000018
 21
-332.385411949828
 31
0.0
1001
DBPROPERTIES
1002
{
1000
PbThick
1002
}
  0
LINE
  5
86
330
1F
100
AcDbEntity
  8
HIDDEN
100
AcDbLine
 10
0.0
 20
-435.0
 30
0.0
 11
-8.0
 21
-435.0
 31
0.0
1001
DBPROPERTIES
1002
{
1000
PbHidd
1002
}
  0
LINE
  5
87
330
1F
100
AcDbEntity
  8
HIDDEN
100
AcDbLine
 10
0.0
 20
435.0
 30
0.0
 11
-0.0000000000000115
 21
391.9999992780166
 31
0.0
1001
DBPROPERTIES
1002
{
1000
PbHidd
1002
}
  0
LINE
  5
88
330
1F
100
AcDbEntity
  8
THICK
100
AcDbLine
 10
-0.0000000000000115
 20
391.9999992780166
 30
0.0
 11
-0.0000000000000132
 21
-377.9999999107033
 31
0.0
1001
DBPROPERTIES
1002
{
1000
PbThick
1002
}
  0
LINE
  5
89
330
1F
100
AcDbEntity
  8
HIDDEN
100
AcDbLine
 10
-0.0000000000000132
 20
-377.9999999107033
 30
0.0
 11
0.0
 21
-435.0
 31
0.0
1001
DBPROPERTIES
1002
{
1000
PbHidd
1002
}
  0
LINE
  5
8A
330
1F
100
AcDbEntity
  8
HIDDEN
100
AcDbLine
 10
-8.0
 20
435.0
 30
0.0
 11
0.0
 21
435.0
 31
0.0
1001
DBPROPERTIES
1002
{
1000
PbHidd
1002
}
  0
LINE
  5
8B
330
1F
100
AcDbEntity
  8
THICK
100
AcDbLine
 10
-8.000000000000025
 20
172.1428571428573
 30
0.0
 11
-8.000000000000012
 21
391.9999956409224
 31
0.0
1001
DBPROPERTIES
1002
{
1000
PbThick
1002
}
  0
LINE
  5
8C
330
1F
100
AcDbEntity
  8
HIDDEN
100
AcDbLine
 10
-8.0
 20
435.0
 30
0.0
 11
-8.000000000000012
 21
391.9999956409224
 31
0.0
1001
DBPROPERTIES
1002
{
1000
PbHidd
1002
}
  0
LINE
  5
8D
330
1F
100
AcDbEntity
  8
THICK
100
AcDbLine
 10
-8.000000000000028
 20
172.1428571428572
 30
0.0
 11
-392.0
 21
172.1428571428572
 31
0.0
1001
DBPROPERTIES
1002
{
1000
PbThick
1002
}
  0
LINE
  5
8E
330
1F
100
AcDbEntity
  8
THICK
100
AcDbLine
 10
-8.000000000000028
 20
-326.7419954290649
 30
0.0
 11
-392.0
 21
-326.7419954290649
 31
0.0
1001
DBPROPERTIES
1002
{
1000
PbThick
1002
}
  0
LINE
  5
8F
330
1F
100
AcDbEntity
  8
THICK
100
AcDbLine
 10
-392.0
 20
164.168253968254
 30
0.0
 11
-8.000000000000028
 21
164.168253968254
 31
0.0
1001
DBPROPERTIES
1002
{
1000
PbThick
1002
}
  0
LINE
  5
90
330
1F
100
AcDbEntity
  8
THICK
100
AcDbLine
 10
-8.000000000000018
 20
-326.741995429065
 30
0.0
 11
-8.000000000000025
 21
164.168253968254
 31
0.0
1001
DBPROPERTIES
1002
{
1000
PbThick
1002
}
  0
LINE
  5
91
330
1F
100
AcDbEntity
  8
HIDDEN
100
AcDbLine
 10
-394.0
 20
374.0
 30
0.0
 11
-394.0000000000001
 21
-0.0000000000000229
 31
0.0
1001
DBPROPERTIES
1002
{
1000
PbHidd
1002
}
  0
LINE
  5
92
330
1F
100
AcDbEntity
  8
THICK
100
AcDbLine
 10
-390.0
 20
341.5455747774047
 30
0.0
 11
-391.9999999999999
 21
341.5455747774047
 31
0.0
1001
DBPROPERTIES
1002
{
1000
PbThick
1002
}
  0
LINE
  5
93
330
1F
100
AcDbEntity
  8
THICK
100
AcDbLine
 10
-391.9999999999999
 20
345.7285666215026
 30
0.0
 11
-390.0000000000001
 21
345.7285666215026
 31
0.0
1001
DBPROPERTIES
1002
{
1000
PbThick
1002
}
  0
LINE
  5
94
330
1F
100
AcDbEntity
  8
THICK
100
AcDbLine
 10
-390.0000000000001
 20
250.4746031746032
 30
0.0
 11
-392.0
 21
250.4746031746032
 31
0.0
1001
DBPROPERTIES
1002
{
1000
PbThick
1002
}
  0
LINE
  5
95
330
1F
100
AcDbEntity
  8
HIDDEN
100
AcDbLine
 10
-390.0000000000001
 20
242.5
 30
0.0
 11
-390.0000000000001
 21
250.4746031746031
 31
0.0
1001
DBPROPERTIES
1002
{
1000
PbHidd
1002
}
  0
LINE
  5
96
330
1F
100
AcDbEntity
  8
HIDDEN
100
AcDbLine
 10
-392.0
 20
242.5
 30
0.0
 11
-390.0
 21
242.5
 31
0.0
1001
DBPROPERTIES
1002
{
1000
PbHidd
1002
}
  0
LINE
  5
97
330
1F
100
AcDbEntity
  8
HIDDEN
100
AcDbLine
 10
-482.0
 20
315.0212765957447
 30
0.0
 11
-482.0000000000001
 21
0.0000000000000633
 31
0.0
1001
DBPROPERTIES
1002
{
1000
PbHidd
1002
}
  0
LINE
  5
98
330
1F
100
AcDbEntity
  8
THICK
100
AcDbLine
 10
245.0
 20
0.0000000000000123
 30
0.0
 11
245.0
 21
-35.07691548582911
 31
0.0
1001
DBPROPERTIES
1002
{
1000
PbThick
1002
}
  0
LINE
  5
99
330
1F
100
AcDbEntity
  8
THICK
100
AcDbLine
 10
232.3999938964844
 20
-5.984133720397949
 30
0.0
 11
232.8812866210938
 21
-5.975342750549316
 31
0.0
1001
DBPROPERTIES
1002
{
1000
PbThick
1002
}
  0
LINE
  5
9A
330
1F
100
AcDbEntity
  8
THICK
100
AcDbLine
 10
232.8812866210938
 20
-5.975342750549316
 30
0.0
 11
233.3757171630859
 21
-5.948136329650879
 31
0.0
1001
DBPROPERTIES
1002
{
1000
PbThick
1002
}
  0
LINE
  5
9B
330
1F
100
AcDbEntity
  8
THICK
100
AcDbLine
 10
233.3757171630859
 20
-5.948136329650879
 30
0.0
 11
233.87744140625
 21
-5.901395320892334
 31
0.0
1001
DBPROPERTIES
1002
{
1000
PbThick
1002
}
  0
LINE
  5
9C
330
1F
100
AcDbEntity
  8
THICK
100
AcDbLine
 10
233.87744140625
 20
-5.901395320892334
 30
0.0
 11
234.3807373046875
 21
-5.835026264190674
 31
0.0
1001
DBPROPERTIES
1002
{
1000
PbThick
1002
}
  0
LINE
  5
9D
330
1F
100
AcDbEntity
  8
THICK
100
AcDbLine
 10
234.3807373046875
 20
-5.835026264190674
 30
0.0
 11
234.8800506591797
 21
-5.749458789825439
 31
0.0
1001
DBPROPERTIES
1002
{
1000
PbThick
1002
}
  0
LINE
  5
9E
330
1F
100
AcDbEntity
  8
THICK
100
AcDbLine
 10
234.8800506591797
 20
-5.749458789825439
 30
0.0
 11
235.3702850341797
 21
-5.645917415618896
 31
0.0
1001
DBPROPERTIES
1002
{
1000
PbThick
1002
}
  0
LINE
  5
9F
330
1F
100
AcDbEntity
  8
THICK
100
AcDbLine
 10
235.3702850341797
 20
-5.645917415618896
 30
0.0
 11
235.8463745117188
 21
-5.526319980621338
 31
0.0
1001
DBPROPERTIES
1002
{
1000
PbThick
1002
}
  0
LINE
  5
A0
330
1F
100
AcDbEntity
  8
THICK
100
AcDbLine
 10
235.8463745117188
 20
-5.526319980621338
 30
0.0
 11
236.3035278320312
 21
-5.393159866333008
 31
0.0
1001
DBPROPERTIES
1002
{
1000
PbThick
1002
}
  0
LINE
  5
A1
330
1F
100
AcDbEntity
  8
THICK
100
AcDbLine
 10
236.3035278320312
 20
-5.393159866333008
 30
0.0
 11
236.7377319335938
 21
-5.249526023864746
 31
0.0
1001
DBPROPERTIES
1002
{
1000
PbThick
1002
}
  0
LINE
  5
A2
330
1F
100
AcDbEntity
  8
THICK
100
AcDbLine
 10
236.7377319335938
 20
-5.249526023864746
 30
0.0
 11
237.1649932861328
 21
-5.091036319732666
 31
0.0
1001
DBPROPERTIES
1002
{
1000
PbThick
1002
}
  0
LINE
  5
A3
330
1F
100
AcDbEntity
  8
THICK
100
AcDbLine
 10
237.1649932861328
 20
-5.091036319732666
 30
0.0
 11
237.5925903320312
 21
-4.91478443145752
 31
0.0
1001
DBPROPERTIES
1002
{
1000
PbThick
1002
}
  0
LINE
  5
A4
330
1F
100
AcDbEntity
  8
THICK
100
AcDbLine
 10
237.5925903320312
 20
-4.91478443145752
 30
0.0
 11
238.0164947509766
 21
-4.721572399139404
 31
0.0
1001
DBPROPERTIES
1002
{
1000
PbThick
1002
}
  0
LINE
  5
A5
330
1F
100
AcDbEntity
  8
THICK
100
AcDbLine
 10
238.0164947509766
 20
-4.721572399139404
 30
0.0
 11
238.4331207275391
 21
-4.512722015380859
 31
0.0
1001
DBPROPERTIES
1002
{
1000
PbThick
1002
}
  0
LINE
  5
A6
330
1F
100
AcDbEntity
  8
THICK
100
AcDbLine
 10
238.4331207275391
 20
-4.512722015380859
 30
0.0
 11
238.8393096923828
 21
-4.289966583251953
 31
0.0
1001
DBPROPERTIES
1002
{
1000
PbThick
1002
}
  0
LINE
  5
A7
330
1F
100
AcDbEntity
  8
THICK
100
AcDbLine
 10
238.8393096923828
 20
-4.289966583251953
 30
0.0
 11
239.2321014404297
 21
-4.055141448974609
 31
0.0
1001
DBPROPERTIES
1002
{
1000
PbThick
1002
}
  0
LINE
  5
A8
330
1F
100
AcDbEntity
  8
THICK
100
AcDbLine
 10
239.2321014404297
 20
-4.055141448974609
 30
0.0
 11
239.6091613769531
 21
-3.810586929321289
 31
0.0
1001
DBPROPERTIES
1002
{
1000
PbThick
1002
}
  0
LINE
  5
A9
330
1F
100
AcDbEntity
  8
THICK
100
AcDbLine
 10
239.6091613769531
 20
-3.810586929321289
 30
0.0
 11
239.9682312011719
 21
-3.558816909790039
 31
0.0
1001
DBPROPERTIES
1002
{
1000
PbThick
1002
}
  0
LINE
  5
AA
330
1F
100
AcDbEntity
  8
THICK
100
AcDbLine
 10
239.9682312011719
 20
-3.558816909790039
 30
0.0
 11
240.3074188232422
 21
-3.30260443687439
 31
0.0
1001
DBPROPERTIES
1002
{
1000
PbThick
1002
}
  0
LINE
  5
AB
330
1F
100
AcDbEntity
  8
THICK
100
AcDbLine
 10
240.3074188232422
 20
-3.30260443687439
 30
0.0
 11
240.625244140625
 21
-3.045020580291748
 31
0.0
1001
DBPROPERTIES
1002
{
1000
PbThick
1002
}
  0
LINE
  5
AC
330
1F
100
AcDbEntity
  8
THICK
100
AcDbLine
 10
240.625244140625
 20
-3.045020580291748
 30
0.0
 11
240.9267883300781
 21
-2.783412218093872
 31
0.0
1001
DBPROPERTIES
1002
{
1000
PbThick
1002
}
  0
LINE
  5
AD
330
1F
100
AcDbEntity
  8
THICK
100
AcDbLine
 10
240.9267883300781
 20
-2.783412218093872
 30
0.0
 11
241.2228698730469
 21
-2.508753538131714
 31
0.0
1001
DBPROPERTIES
1002
{
1000
PbThick
1002
}
  0
LINE
  5
AE
330
1F
100
AcDbEntity
  8
THICK
100
AcDbLine
 10
241.2228698730469
 20
-2.508753538131714
 30
0.0
 11
241.5119323730469
 21
-2.222018718719482
 31
0.0
1001
DBPROPERTIES
1002
{
1000
PbThick
1002
}
  0
LINE
  5
AF
330
1F
100
AcDbEntity
  8
THICK
100
AcDbLine
 10
241.5119323730469
 20
-2.222018718719482
 30
0.0
 11
241.7920837402344
 21
-1.924469470977783
 31
0.0
1001
DBPROPERTIES
1002
{
1000
PbThick
1002
}
  0
LINE
  5
B0
330
1F
100
AcDbEntity
  8
THICK
100
AcDbLine
 10
241.7920837402344
 20
-1.924469470977783
 30
0.0
 11
242.0618591308594
 21
-1.617567896842957
 31
0.0
1001
DBPROPERTIES
1002
{
1000
PbThick
1002
}
  0
LINE
  5
B1
330
1F
100
AcDbEntity
  8
THICK
100
AcDbLine
 10
242.0618591308594
 20
-1.617567896842957
 30
0.0
 11
242.3200988769531
 21
-1.302911639213562
 31
0.0
1001
DBPROPERTIES
1002
{
1000
PbThick
1002
}
  0
LINE
  5
B2
330
1F
100
AcDbEntity
  8
THICK
100
AcDbLine
 10
242.3200988769531
 20
-1.302911639213562
 30
0.0
 11
242.5656433105469
 21
-0.9820985794067383
 31
0.0
1001
DBPROPERTIES
1002
{
1000
PbThick
1002
}
  0
LINE
  5
B3
330
1F
100
AcDbEntity
  8
THICK
100
AcDbLine
 10
242.5656433105469
 20
-0.9820985794067383
 30
0.0
 11
242.7976837158203
 21
-0.6567904949188232
 31
0.0
1001
DBPROPERTIES
1002
{
1000
PbThick
1002
}
  0
LINE
  5
B4
330
1F
100
AcDbEntity
  8
THICK
100
AcDbLine
 10
242.7976837158203
 20
-0.6567904949188232
 30
0.0
 11
243.0157165527344
 21
-0.3288103044033051
 31
0.0
1001
DBPROPERTIES
1002
{
1000
PbThick
1002
}
  0
LINE
  5
B5
330
1F
100
AcDbEntity
  8
THICK
100
AcDbLine
 10
243.0157165527344
 20
-0.3288103044033051
 30
0.0
 11
243.21923828125
 21
0.0000000000000296
 31
0.0
1001
DBPROPERTIES
1002
{
1000
PbThick
1002
}
  0
LINE
  5
B6
330
1F
100
AcDbEntity
  8
THICK
100
AcDbLine
 10
232.4
 20
-5.984133765232319
 30
0.0
 11
232.4
 21
-29.30245249089406
 31
0.0
1001
DBPROPERTIES
1002
{
1000
PbThick
1002
}
  0
LINE
  5
B7
330
1F
100
AcDbEntity
  8
THICK
100
AcDbLine
 10
243.21923828125
 20
-33.14450454711914
 30
0.0
 11
243.0157165527344
 21
-32.93339538574219
 31
0.0
1001
DBPROPERTIES
1002
{
1000
PbThick
1002
}
  0
LINE
  5
B8
330
1F
100
AcDbEntity
  8
THICK
100
AcDbLine
 10
243.0157165527344
 20
-32.93339538574219
 30
0.0
 11
242.7976837158203
 21
-32.72281646728516
 31
0.0
1001
DBPROPERTIES
1002
{
1000
PbThick
1002
}
  0
LINE
  5
B9
330
1F
100
AcDbEntity
  8
THICK
100
AcDbLine
 10
242.7976837158203
 20
-32.72281646728516
 30
0.0
 11
242.5656433105469
 21
-32.51395797729492
 31
0.0
1001
DBPROPERTIES
1002
{
1000
PbThick
1002
}
  0
LINE
  5
BA
330
1F
100
AcDbEntity
  8
THICK
100
AcDbLine
 10
242.5656433105469
 20
-32.51395797729492
 30
0.0
 11
242.3200988769531
 21
-32.3079833984375
 31
0.0
1001
DBPROPERTIES
1002
{
1000
PbThick
1002
}
  0
LINE
  5
BB
330
1F
100
AcDbEntity
  8
THICK
100
AcDbLine
 10
242.3200988769531
 20
-32.3079833984375
 30
0.0
 11
242.0618591308594
 21
-32.10596084594727
 31
0.0
1001
DBPROPERTIES
1002
{
1000
PbThick
1002
}
  0
LINE
  5
BC
330
1F
100
AcDbEntity
  8
THICK
100
AcDbLine
 10
242.0618591308594
 20
-32.10596084594727
 30
0.0
 11
241.7920837402344
 21
-31.90891647338867
 31
0.0
1001
DBPROPERTIES
1002
{
1000
PbThick
1002
}
  0
LINE
  5
BD
330
1F
100
AcDbEntity
  8
THICK
100
AcDbLine
 10
241.7920837402344
 20
-31.90891647338867
 30
0.0
 11
241.5119323730469
 21
-31.7178783416748
 31
0.0
1001
DBPROPERTIES
1002
{
1000
PbThick
1002
}
  0
LINE
  5
BE
330
1F
100
AcDbEntity
  8
THICK
100
AcDbLine
 10
241.5119323730469
 20
-31.7178783416748
 30
0.0
 11
241.2228698730469
 21
-31.53378486633301
 31
0.0
1001
DBPROPERTIES
1002
{
1000
PbThick
1002
}
  0
LINE
  5
BF
330
1F
100
AcDbEntity
  8
THICK
100
AcDbLine
 10
241.2228698730469
 20
-31.53378486633301
 30
0.0
 11
240.9267883300781
 21
-31.35744285583496
 31
0.0
1001
DBPROPERTIES
1002
{
1000
PbThick
1002
}
  0
LINE
  5
C0
330
1F
100
AcDbEntity
  8
THICK
100
AcDbLine
 10
240.9267883300781
 20
-31.35744285583496
 30
0.0
 11
240.625244140625
 21
-31.18947982788086
 31
0.0
1001
DBPROPERTIES
1002
{
1000
PbThick
1002
}
  0
LINE
  5
C1
330
1F
100
AcDbEntity
  8
THICK
100
AcDbLine
 10
240.625244140625
 20
-31.18947982788086
 30
0.0
 11
240.3074188232422
 21
-31.02410125732422
 31
0.0
1001
DBPROPERTIES
1002
{
1000
PbThick
1002
}
  0
LINE
  5
C2
330
1F
100
AcDbEntity
  8
THICK
100
AcDbLine
 10
240.3074188232422
 20
-31.02410125732422
 30
0.0
 11
239.9682312011719
 21
-30.8596019744873
 31
0.0
1001
DBPROPERTIES
1002
{
1000
PbThick
1002
}
  0
LINE
  5
C3
330
1F
100
AcDbEntity
  8
THICK
100
AcDbLine
 10
239.9682312011719
 20
-30.8596019744873
 30
0.0
 11
239.6091613769531
 21
-30.69795608520508
 31
0.0
1001
DBPROPERTIES
1002
{
1000
PbThick
1002
}
  0
LINE
  5
C4
330
1F
100
AcDbEntity
  8
THICK
100
AcDbLine
 10
239.6091613769531
 20
-30.69795608520508
 30
0.0
 11
239.2321014404297
 21
-30.54094123840332
 31
0.0
1001
DBPROPERTIES
1002
{
1000
PbThick
1002
}
  0
LINE
  5
C5
330
1F
100
AcDbEntity
  8
THICK
100
AcDbLine
 10
239.2321014404297
 20
-30.54094123840332
 30
0.0
 11
238.8393096923828
 21
-30.39017486572266
 31
0.0
1001
DBPROPERTIES
1002
{
1000
PbThick
1002
}
  0
LINE
  5
C6
330
1F
100
AcDbEntity
  8
THICK
100
AcDbLine
 10
238.8393096923828
 20
-30.39017486572266
 30
0.0
 11
238.4331207275391
 21
-30.24715614318848
 31
0.0
1001
DBPROPERTIES
1002
{
1000
PbThick
1002
}
  0
LINE
  5
C7
330
1F
100
AcDbEntity
  8
THICK
100
AcDbLine
 10
238.4331207275391
 20
-30.24715614318848
 30
0.0
 11
238.0164947509766
 21
-30.11306762695312
 31
0.0
1001
DBPROPERTIES
1002
{
1000
PbThick
1002
}
  0
LINE
  5
C8
330
1F
100
AcDbEntity
  8
THICK
100
AcDbLine
 10
238.0164947509766
 20
-30.11306762695312
 30
0.0
 11
237.5925903320312
 21
-29.98901748657227
 31
0.0
1001
DBPROPERTIES
1002
{
1000
PbThick
1002
}
  0
LINE
  5
C9
330
1F
100
AcDbEntity
  8
THICK
100
AcDbLine
 10
237.5925903320312
 20
-29.98901748657227
 30
0.0
 11
237.1649932861328
 21
-29.87585639953613
 31
0.0
1001
DBPROPERTIES
1002
{
1000
PbThick
1002
}
  0
LINE
  5
CA
330
1F
100
AcDbEntity
  8
THICK
100
AcDbLine
 10
237.1649932861328
 20
-29.87585639953613
 30
0.0
 11
236.7377319335938
 21
-29.77409934997559
 31
0.0
1001
DBPROPERTIES
1002
{
1000
PbThick
1002
}
  0
LINE
  5
CB
330
1F
100
AcDbEntity
  8
THICK
100
AcDbLine
 10
236.7377319335938
 20
-29.77409934997559
 30
0.0
 11
236.3035278320312
 21
-29.68188095092773
 31
0.0
1001
DBPROPERTIES
1002
{
1000
PbThick
1002
}
  0
LINE
  5
CC
330
1F
100
AcDbEntity
  8
THICK
100
AcDbLine
 10
236.3035278320312
 20
-29.68188095092773
 30
0.0
 11
235.8463745117188
 21
-29.59638786315918
 31
0.0
1001
DBPROPERTIES
1002
{
1000
PbThick
1002
}
  0
LINE
  5
CD
330
1F
100
AcDbEntity
  8
THICK
100
AcDbLine
 10
235.8463745117188
 20
-29.59638786315918
 30
0.0
 11
235.3702850341797
 21
-29.51959991455078
 31
0.0
1001
DBPROPERTIES
1002
{
1000
PbThick
1002
}
  0
LINE
  5
CE
330
1F
100
AcDbEntity
  8
THICK
100
AcDbLine
 10
235.3702850341797
 20
-29.51959991455078
 30
0.0
 11
234.8800506591797
 21
-29.45312309265137
 31
0.0
1001
DBPROPERTIES
1002
{
1000
PbThick
1002
}
  0
LINE
  5
CF
330
1F
100
AcDbEntity
  8
THICK
100
AcDbLine
 10
234.8800506591797
 20
-29.45312309265137
 30
0.0
 11
234.3807373046875
 21
-29.39818572998047
 31
0.0
1001
DBPROPERTIES
1002
{
1000
PbThick
1002
}
  0
LINE
  5
D0
330
1F
100
AcDbEntity
  8
THICK
100
AcDbLine
 10
234.3807373046875
 20
-29.39818572998047
 30
0.0
 11
233.87744140625
 21
-29.3555736541748
 31
0.0
1001
DBPROPERTIES
1002
{
1000
PbThick
1002
}
  0
LINE
  5
D1
330
1F
100
AcDbEntity
  8
THICK
100
AcDbLine
 10
233.87744140625
 20
-29.3555736541748
 30
0.0
 11
233.3757171630859
 21
-29.32556343078613
 31
0.0
1001
DBPROPERTIES
1002
{
1000
PbThick
1002
}
  0
LINE
  5
D2
330
1F
100
AcDbEntity
  8
THICK
100
AcDbLine
 10
233.3757171630859
 20
-29.32556343078613
 30
0.0
 11
232.8812866210938
 21
-29.30809593200684
 31
0.0
1001
DBPROPERTIES
1002
{
1000
PbThick
1002
}
  0
LINE
  5
D3
330
1F
100
AcDbEntity
  8
THICK
100
AcDbLine
 10
232.8812866210938
 20
-29.30809593200684
 30
0.0
 11
232.3999938964844
 21
-29.30245208740234
 31
0.0
1001
DBPROPERTIES
1002
{
1000
PbThick
1002
}
  0
LINE
  5
D4
330
1F
100
AcDbEntity
  8
THICK
100
AcDbLine
 10
232.3999938964844
 20
-40.68495178222656
 30
0.0
 11
232.8812866210938
 21
-40.67387390136719
 31
0.0
1001
DBPROPERTIES
1002
{
1000
PbThick
1002
}
  0
LINE
  5
D5
330
1F
100
AcDbEntity
  8
THICK
100
AcDbLine
 10
232.8812866210938
 20
-40.67387390136719
 30
0.0
 11
233.3757171630859
 21
-40.63959121704102
 31
0.0
1001
DBPROPERTIES
1002
{
1000
PbThick
1002
}
  0
LINE
  5
D6
330
1F
100
AcDbEntity
  8
THICK
100
AcDbLine
 10
233.3757171630859
 20
-40.63959121704102
 30
0.0
 11
233.87744140625
 21
-40.58069610595703
 31
0.0
1001
DBPROPERTIES
1002
{
1000
PbThick
1002
}
  0
LINE
  5
D7
330
1F
100
AcDbEntity
  8
THICK
100
AcDbLine
 10
233.87744140625
 20
-40.58069610595703
 30
0.0
 11
234.3807373046875
 21
-40.49706649780273
 31
0.0
1001
DBPROPERTIES
1002
{
1000
PbThick
1002
}
  0
LINE
  5
D8
330
1F
100
AcDbEntity
  8
THICK
100
AcDbLine
 10
234.3807373046875
 20
-40.49706649780273
 30
0.0
 11
234.8800506591797
 21
-40.38924407958984
 31
0.0
1001
DBPROPERTIES
1002
{
1000
PbThick
1002
}
  0
LINE
  5
D9
330
1F
100
AcDbEntity
  8
THICK
100
AcDbLine
 10
234.8800506591797
 20
-40.38924407958984
 30
0.0
 11
235.3702850341797
 21
-40.25877380371094
 31
0.0
1001
DBPROPERTIES
1002
{
1000
PbThick
1002
}
  0
LINE
  5
DA
330
1F
100
AcDbEntity
  8
THICK
100
AcDbLine
 10
235.3702850341797
 20
-40.25877380371094
 30
0.0
 11
235.8463745117188
 21
-40.10807037353516
 31
0.0
1001
DBPROPERTIES
1002
{
1000
PbThick
1002
}
  0
LINE
  5
DB
330
1F
100
AcDbEntity
  8
THICK
100
AcDbLine
 10
235.8463745117188
 20
-40.10807037353516
 30
0.0
 11
236.3035278320312
 21
-39.94028091430664
 31
0.0
1001
DBPROPERTIES
1002
{
1000
PbThick
1002
}
  0
LINE
  5
DC
330
1F
100
AcDbEntity
  8
THICK
100
AcDbLine
 10
236.3035278320312
 20
-39.94028091430664
 30
0.0
 11
236.7377319335938
 21
-39.75929260253906
 31
0.0
1001
DBPROPERTIES
1002
{
1000
PbThick
1002
}
  0
LINE
  5
DD
330
1F
100
AcDbEntity
  8
THICK
100
AcDbLine
 10
236.7377319335938
 20
-39.75929260253906
 30
0.0
 11
237.1649932861328
 21
-39.5595817565918
 31
0.0
1001
DBPROPERTIES
1002
{
1000
PbThick
1002
}
  0
LINE
  5
DE
330
1F
100
AcDbEntity
  8
THICK
100
AcDbLine
 10
237.1649932861328
 20
-39.5595817565918
 30
0.0
 11
237.5925903320312
 21
-39.33749389648438
 31
0.0
1001
DBPROPERTIES
1002
{
1000
PbThick
1002
}
  0
LINE
  5
DF
330
1F
100
AcDbEntity
  8
THICK
100
AcDbLine
 10
237.5925903320312
 20
-39.33749389648438
 30
0.0
 11
238.0164947509766
 21
-39.09403228759766
 31
0.0
1001
DBPROPERTIES
1002
{
1000
PbThick
1002
}
  0
LINE
  5
E0
330
1F
100
AcDbEntity
  8
THICK
100
AcDbLine
 10
238.0164947509766
 20
-39.09403228759766
 30
0.0
 11
238.4331207275391
 21
-38.83086395263672
 31
0.0
1001
DBPROPERTIES
1002
{
1000
PbThick
1002
}
  0
LINE
  5
E1
330
1F
100
AcDbEntity
  8
THICK
100
AcDbLine
 10
238.4331207275391
 20
-38.83086395263672
 30
0.0
 11
238.8393096923828
 21
-38.55017471313477
 31
0.0
1001
DBPROPERTIES
1002
{
1000
PbThick
1002
}
  0
LINE
  5
E2
330
1F
100
AcDbEntity
  8
THICK
100
AcDbLine
 10
238.8393096923828
 20
-38.55017471313477
 30
0.0
 11
239.2321014404297
 21
-38.25428009033203
 31
0.0
1001
DBPROPERTIES
1002
{
1000
PbThick
1002
}
  0
LINE
  5
E3
330
1F
100
AcDbEntity
  8
THICK
100
AcDbLine
 10
239.2321014404297
 20
-38.25428009033203
 30
0.0
 11
239.6091613769531
 21
-37.94612121582031
 31
0.0
1001
DBPROPERTIES
1002
{
1000
PbThick
1002
}
  0
LINE
  5
E4
330
1F
100
AcDbEntity
  8
THICK
100
AcDbLine
 10
239.6091613769531
 20
-37.94612121582031
 30
0.0
 11
239.9682312011719
 21
-37.62887573242188
 31
0.0
1001
DBPROPERTIES
1002
{
1000
PbThick
1002
}
  0
LINE
  5
E5
330
1F
100
AcDbEntity
  8
THICK
100
AcDbLine
 10
239.9682312011719
 20
-37.62887573242188
 30
0.0
 11
240.3074188232422
 21
-37.30602645874023
 31
0.0
1001
DBPROPERTIES
1002
{
1000
PbThick
1002
}
  0
LINE
  5
E6
330
1F
100
AcDbEntity
  8
THICK
100
AcDbLine
 10
240.3074188232422
 20
-37.30602645874023
 30
0.0
 11
240.625244140625
 21
-36.98145294189453
 31
0.0
1001
DBPROPERTIES
1002
{
1000
PbThick
1002
}
  0
LINE
  5
E7
330
1F
100
AcDbEntity
  8
THICK
100
AcDbLine
 10
240.625244140625
 20
-36.98145294189453
 30
0.0
 11
240.9267883300781
 21
-36.65180587768555
 31
0.0
1001
DBPROPERTIES
1002
{
1000
PbThick
1002
}
  0
LINE
  5
E8
330
1F
100
AcDbEntity
  8
THICK
100
AcDbLine
 10
240.9267883300781
 20
-36.65180587768555
 30
0.0
 11
241.2228698730469
 21
-36.30571746826172
 31
0.0
1001
DBPROPERTIES
1002
{
1000
PbThick
1002
}
  0
LINE
  5
E9
330
1F
100
AcDbEntity
  8
THICK
100
AcDbLine
 10
241.2228698730469
 20
-36.30571746826172
 30
0.0
 11
241.5119323730469
 21
-35.94440841674805
 31
0.0
1001
DBPROPERTIES
1002
{
1000
PbThick
1002
}
  0
LINE
  5
EA
330
1F
100
AcDbEntity
  8
THICK
100
AcDbLine
 10
241.5119323730469
 20
-35.94440841674805
 30
0.0
 11
241.7920837402344
 21
-35.56947708129883
 31
0.0
1001
DBPROPERTIES
1002
{
1000
PbThick
1002
}
  0
LINE
  5
EB
330
1F
100
AcDbEntity
  8
THICK
100
AcDbLine
 10
241.7920837402344
 20
-35.56947708129883
 30
0.0
 11
242.0618591308594
 21
-35.18275833129883
 31
0.0
1001
DBPROPERTIES
1002
{
1000
PbThick
1002
}
  0
LINE
  5
EC
330
1F
100
AcDbEntity
  8
THICK
100
AcDbLine
 10
242.0618591308594
 20
-35.18275833129883
 30
0.0
 11
242.3200988769531
 21
-34.7862663269043
 31
0.0
1001
DBPROPERTIES
1002
{
1000
PbThick
1002
}
  0
LINE
  5
ED
330
1F
100
AcDbEntity
  8
THICK
100
AcDbLine
 10
242.3200988769531
 20
-34.7862663269043
 30
0.0
 11
242.5656433105469
 21
-34.38201904296875
 31
0.0
1001
DBPROPERTIES
1002
{
1000
PbThick
1002
}
  0
LINE
  5
EE
330
1F
100
AcDbEntity
  8
THICK
100
AcDbLine
 10
242.5656433105469
 20
-34.38201904296875
 30
0.0
 11
242.7976837158203
 21
-33.97210693359375
 31
0.0
1001
DBPROPERTIES
1002
{
1000
PbThick
1002
}
  0
LINE
  5
EF
330
1F
100
AcDbEntity
  8
THICK
100
AcDbLine
 10
242.7976837158203
 20
-33.97210693359375
 30
0.0
 11
243.0157165527344
 21
-33.5588264465332
 31
0.0
1001
DBPROPERTIES
1002
{
1000
PbThick
1002
}
  0
LINE
  5
F0
330
1F
100
AcDbEntity
  8
THICK
100
AcDbLine
 10
243.0157165527344
 20
-33.5588264465332
 30
0.0
 11
243.21923828125
 21
-33.14450454711914
 31
0.0
1001
DBPROPERTIES
1002
{
1000
PbThick
1002
}
  0
LINE
  5
F1
330
1F
100
AcDbEntity
  8
THICK
100
AcDbLine
 10
232.4
 20
-40.68495131450614
 30
0.0
 11
232.4
 21
-61.72071053502022
 31
0.0
1001
DBPROPERTIES
1002
{
1000
PbThick
1002
}
  0
LINE
  5
F2
330
1F
100
AcDbEntity
  8
THICK
100
AcDbLine
 10
235.8268737792969
 20
-61.82082366943359
 30
0.0
 11
235.496826171875
 21
-61.80215454101562
 31
0.0
1001
DBPROPERTIES
1002
{
1000
PbThick
1002
}
  0
LINE
  5
F3
330
1F
100
AcDbEntity
  8
THICK
100
AcDbLine
 10
235.496826171875
 20
-61.80215454101562
 30
0.0
 11
235.1592712402344
 21
-61.7851448059082
 31
0.0
1001
DBPROPERTIES
1002
{
1000
PbThick
1002
}
  0
LINE
  5
F4
330
1F
100
AcDbEntity
  8
THICK
100
AcDbLine
 10
235.1592712402344
 20
-61.7851448059082
 30
0.0
 11
234.8159484863281
 21
-61.76995086669922
 31
0.0
1001
DBPROPERTIES
1002
{
1000
PbThick
1002
}
  0
LINE
  5
F5
330
1F
100
AcDbEntity
  8
THICK
100
AcDbLine
 10
234.8159484863281
 20
-61.76995086669922
 30
0.0
 11
234.4685363769531
 21
-61.75670623779297
 31
0.0
1001
DBPROPERTIES
1002
{
1000
PbThick
1002
}
  0
LINE
  5
F6
330
1F
100
AcDbEntity
  8
THICK
100
AcDbLine
 10
234.4685363769531
 20
-61.75670623779297
 30
0.0
 11
234.1187591552734
 21
-61.74550247192383
 31
0.0
1001
DBPROPERTIES
1002
{
1000
PbThick
1002
}
  0
LINE
  5
F7
330
1F
100
AcDbEntity
  8
THICK
100
AcDbLine
 10
234.1187591552734
 20
-61.74550247192383
 30
0.0
 11
233.7684020996094
 21
-61.73640441894531
 31
0.0
1001
DBPROPERTIES
1002
{
1000
PbThick
1002
}
  0
LINE
  5
F8
330
1F
100
AcDbEntity
  8
THICK
100
AcDbLine
 10
233.7684020996094
 20
-61.73640441894531
 30
0.0
 11
233.4194183349609
 21
-61.72940444946289
 31
0.0
1001
DBPROPERTIES
1002
{
1000
PbThick
1002
}
  0
LINE
  5
F9
330
1F
100
AcDbEntity
  8
THICK
100
AcDbLine
 10
233.4194183349609
 20
-61.72940444946289
 30
0.0
 11
233.0736999511719
 21
-61.72451019287109
 31
0.0
1001
DBPROPERTIES
1002
{
1000
PbThick
1002
}
  0
LINE
  5
FA
330
1F
100
AcDbEntity
  8
THICK
100
AcDbLine
 10
233.0736999511719
 20
-61.72451019287109
 30
0.0
 11
232.7332305908203
 21
-61.72164535522461
 31
0.0
1001
DBPROPERTIES
1002
{
1000
PbThick
1002
}
  0
LINE
  5
FB
330
1F
100
AcDbEntity
  8
THICK
100
AcDbLine
 10
232.7332305908203
 20
-61.72164535522461
 30
0.0
 11
232.3999938964844
 21
-61.72071075439453
 31
0.0
1001
DBPROPERTIES
1002
{
1000
PbThick
1002
}
  0
LINE
  5
FC
330
1F
100
AcDbEntity
  8
THICK
100
AcDbLine
 10
235.8268737792969
 20
-61.82081985473633
 30
0.0
 11
236.5087127685547
 21
-61.42947387695312
 31
0.0
1001
DBPROPERTIES
1002
{
1000
PbThick
1002
}
  0
LINE
  5
FD
330
1F
100
AcDbEntity
  8
THICK
100
AcDbLine
 10
236.5087127685547
 20
-61.42947387695312
 30
0.0
 11
237.1599426269531
 21
-60.97884368896484
 31
0.0
1001
DBPROPERTIES
1002
{
1000
PbThick
1002
}
  0
LINE
  5
FE
330
1F
100
AcDbEntity
  8
THICK
100
AcDbLine
 10
237.1599426269531
 20
-60.97884368896484
 30
0.0
 11
237.7577667236328
 21
-60.49393463134766
 31
0.0
1001
DBPROPERTIES
1002
{
1000
PbThick
1002
}
  0
LINE
  5
FF
330
1F
100
AcDbEntity
  8
THICK
100
AcDbLine
 10
237.7577667236328
 20
-60.49393463134766
 30
0.0
 11
238.2997283935547
 21
-59.99027633666992
 31
0.0
1001
DBPROPERTIES
1002
{
1000
PbThick
1002
}
  0
LINE
  5
100
330
1F
100
AcDbEntity
  8
THICK
100
AcDbLine
 10
238.2997283935547
 20
-59.99027633666992
 30
0.0
 11
238.8296813964844
 21
-59.43357086181641
 31
0.0
1001
DBPROPERTIES
1002
{
1000
PbThick
1002
}
  0
LINE
  5
101
330
1F
100
AcDbEntity
  8
THICK
100
AcDbLine
 10
238.8296813964844
 20
-59.43357086181641
 30
0.0
 11
239.3400115966797
 21
-58.83115768432617
 31
0.0
1001
DBPROPERTIES
1002
{
1000
PbThick
1002
}
  0
LINE
  5
102
330
1F
100
AcDbEntity
  8
THICK
100
AcDbLine
 10
239.3400115966797
 20
-58.83115768432617
 30
0.0
 11
239.8205871582031
 21
-58.19782257080078
 31
0.0
1001
DBPROPERTIES
1002
{
1000
PbThick
1002
}
  0
LINE
  5
103
330
1F
100
AcDbEntity
  8
THICK
100
AcDbLine
 10
239.8205871582031
 20
-58.19782257080078
 30
0.0
 11
240.2638397216797
 21
-57.55015563964844
 31
0.0
1001
DBPROPERTIES
1002
{
1000
PbThick
1002
}
  0
LINE
  5
104
330
1F
100
AcDbEntity
  8
THICK
100
AcDbLine
 10
240.2638397216797
 20
-57.55015563964844
 30
0.0
 11
240.6641082763672
 21
-56.90629959106445
 31
0.0
1001
DBPROPERTIES
1002
{
1000
PbThick
1002
}
  0
LINE
  5
105
330
1F
100
AcDbEntity
  8
THICK
100
AcDbLine
 10
240.6641082763672
 20
-56.90629959106445
 30
0.0
 11
241.0283203125
 21
-56.26556015014648
 31
0.0
1001
DBPROPERTIES
1002
{
1000
PbThick
1002
}
  0
LINE
  5
106
330
1F
100
AcDbEntity
  8
THICK
100
AcDbLine
 10
241.0283203125
 20
-56.26556015014648
 30
0.0
 11
241.3797454833984
 21
-55.5914306640625
 31
0.0
1001
DBPROPERTIES
1002
{
1000
PbThick
1002
}
  0
LINE
  5
107
330
1F
100
AcDbEntity
  8
THICK
100
AcDbLine
 10
241.3797454833984
 20
-55.5914306640625
 30
0.0
 11
241.7156829833984
 21
-54.88837432861328
 31
0.0
1001
DBPROPERTIES
1002
{
1000
PbThick
1002
}
  0
LINE
  5
108
330
1F
100
AcDbEntity
  8
THICK
100
AcDbLine
 10
241.7156829833984
 20
-54.88837432861328
 30
0.0
 11
242.0331268310547
 21
-54.16352462768555
 31
0.0
1001
DBPROPERTIES
1002
{
1000
PbThick
1002
}
  0
LINE
  5
109
330
1F
100
AcDbEntity
  8
THICK
100
AcDbLine
 10
242.0331268310547
 20
-54.16352462768555
 30
0.0
 11
242.3299255371094
 21
-53.42440032958984
 31
0.0
1001
DBPROPERTIES
1002
{
1000
PbThick
1002
}
  0
LINE
  5
10A
330
1F
100
AcDbEntity
  8
THICK
100
AcDbLine
 10
242.3299255371094
 20
-53.42440032958984
 30
0.0
 11
242.6045227050781
 21
-52.67866897583008
 31
0.0
1001
DBPROPERTIES
1002
{
1000
PbThick
1002
}
  0
LINE
  5
10B
330
1F
100
AcDbEntity
  8
THICK
100
AcDbLine
 10
242.6045227050781
 20
-52.67866897583008
 30
0.0
 11
242.8561706542969
 21
-51.93434143066406
 31
0.0
1001
DBPROPERTIES
1002
{
1000
PbThick
1002
}
  0
LINE
  5
10C
330
1F
100
AcDbEntity
  8
THICK
100
AcDbLine
 10
242.8561706542969
 20
-51.93434143066406
 30
0.0
 11
243.0843811035156
 21
-51.19955825805664
 31
0.0
1001
DBPROPERTIES
1002
{
1000
PbThick
1002
}
  0
LINE
  5
10D
330
1F
100
AcDbEntity
  8
THICK
100
AcDbLine
 10
243.0843811035156
 20
-51.19955825805664
 30
0.0
 11
243.2893524169922
 21
-50.48266983032227
 31
0.0
1001
DBPROPERTIES
1002
{
1000
PbThick
1002
}
  0
LINE
  5
10E
330
1F
100
AcDbEntity
  8
THICK
100
AcDbLine
 10
243.2893524169922
 20
-50.48266983032227
 30
0.0
 11
243.4775695800781
 21
-49.76778030395508
 31
0.0
1001
DBPROPERTIES
1002
{
1000
PbThick
1002
}
  0
LINE
  5
10F
330
1F
100
AcDbEntity
  8
THICK
100
AcDbLine
 10
243.4775695800781
 20
-49.76778030395508
 30
0.0
 11
243.6573028564453
 21
-49.02480316162109
 31
0.0
1001
DBPROPERTIES
1002
{
1000
PbThick
1002
}
  0
LINE
  5
110
330
1F
100
AcDbEntity
  8
THICK
100
AcDbLine
 10
243.6573028564453
 20
-49.02480316162109
 30
0.0
 11
243.8264770507812
 21
-48.2603645324707
 31
0.0
1001
DBPROPERTIES
1002
{
1000
PbThick
1002
}
  0
LINE
  5
111
330
1F
100
AcDbEntity
  8
THICK
100
AcDbLine
 10
243.8264770507812
 20
-48.2603645324707
 30
0.0
 11
243.9835052490234
 21
-47.48164749145508
 31
0.0
1001
DBPROPERTIES
1002
{
1000
PbThick
1002
}
  0
LINE
  5
112
330
1F
100
AcDbEntity
  8
THICK
100
AcDbLine
 10
243.9835052490234
 20
-47.48164749145508
 30
0.0
 11
244.1272888183594
 21
-46.69594192504883
 31
0.0
1001
DBPROPERTIES
1002
{
1000
PbThick
1002
}
  0
LINE
  5
113
330
1F
100
AcDbEntity
  8
THICK
100
AcDbLine
 10
244.1272888183594
 20
-46.69594192504883
 30
0.0
 11
244.2570343017578
 21
-45.91056823730469
 31
0.0
1001
DBPROPERTIES
1002
{
1000
PbThick
1002
}
  0
LINE
  5
114
330
1F
100
AcDbEntity
  8
THICK
100
AcDbLine
 10
244.2570343017578
 20
-45.91056823730469
 30
0.0
 11
244.3728790283203
 21
-45.13301086425781
 31
0.0
1001
DBPROPERTIES
1002
{
1000
PbThick
1002
}
  0
LINE
  5
115
330
1F
100
AcDbEntity
  8
THICK
100
AcDbLine
 10
244.3728790283203
 20
-45.13301086425781
 30
0.0
 11
244.4750823974609
 21
-44.37078094482422
 31
0.0
1001
DBPROPERTIES
1002
{
1000
PbThick
1002
}
  0
LINE
  5
116
330
1F
100
AcDbEntity
  8
THICK
100
AcDbLine
 10
244.4750823974609
 20
-44.37078094482422
 30
0.0
 11
244.5639038085938
 21
-43.63139724731445
 31
0.0
1001
DBPROPERTIES
1002
{
1000
PbThick
1002
}
  0
LINE
  5
117
330
1F
100
AcDbEntity
  8
THICK
100
AcDbLine
 10
244.5639038085938
 20
-43.63139724731445
 30
0.0
 11
244.6419067382812
 21
-42.90142440795898
 31
0.0
1001
DBPROPERTIES
1002
{
1000
PbThick
1002
}
  0
LINE
  5
118
330
1F
100
AcDbEntity
  8
THICK
100
AcDbLine
 10
244.6419067382812
 20
-42.90142440795898
 30
0.0
 11
244.7123413085938
 21
-42.15627288818359
 31
0.0
1001
DBPROPERTIES
1002
{
1000
PbThick
1002
}
  0
LINE
  5
119
330
1F
100
AcDbEntity
  8
THICK
100
AcDbLine
 10
244.7123413085938
 20
-42.15627288818359
 30
0.0
 11
244.7750549316406
 21
-41.39768981933594
 31
0.0
1001
DBPROPERTIES
1002
{
1000
PbThick
1002
}
  0
LINE
  5
11A
330
1F
100
AcDbEntity
  8
THICK
100
AcDbLine
 10
244.7750549316406
 20
-41.39768981933594
 30
0.0
 11
244.8299102783203
 21
-40.62760162353516
 31
0.0
1001
DBPROPERTIES
1002
{
1000
PbThick
1002
}
  0
LINE
  5
11B
330
1F
100
AcDbEntity
  8
THICK
100
AcDbLine
 10
244.8299102783203
 20
-40.62760162353516
 30
0.0
 11
244.8767700195312
 21
-39.84791946411133
 31
0.0
1001
DBPROPERTIES
1002
{
1000
PbThick
1002
}
  0
LINE
  5
11C
330
1F
100
AcDbEntity
  8
THICK
100
AcDbLine
 10
244.8767700195312
 20
-39.84791946411133
 30
0.0
 11
244.9157104492188
 21
-39.06058502197266
 31
0.0
1001
DBPROPERTIES
1002
{
1000
PbThick
1002
}
  0
LINE
  5
11D
330
1F
100
AcDbEntity
  8
THICK
100
AcDbLine
 10
244.9157104492188
 20
-39.06058502197266
 30
0.0
 11
244.9469604492188
 21
-38.26752853393555
 31
0.0
1001
DBPROPERTIES
1002
{
1000
PbThick
1002
}
  0
LINE
  5
11E
330
1F
100
AcDbEntity
  8
THICK
100
AcDbLine
 10
244.9469604492188
 20
-38.26752853393555
 30
0.0
 11
244.9707489013672
 21
-37.47069931030273
 31
0.0
1001
DBPROPERTIES
1002
{
1000
PbThick
1002
}
  0
LINE
  5
11F
330
1F
100
AcDbEntity
  8
THICK
100
AcDbLine
 10
244.9707489013672
 20
-37.47069931030273
 30
0.0
 11
244.9872741699219
 21
-36.67203521728516
 31
0.0
1001
DBPROPERTIES
1002
{
1000
PbThick
1002
}
  0
LINE
  5
120
330
1F
100
AcDbEntity
  8
THICK
100
AcDbLine
 10
244.9872741699219
 20
-36.67203521728516
 30
0.0
 11
244.9968109130859
 21
-35.87346267700195
 31
0.0
1001
DBPROPERTIES
1002
{
1000
PbThick
1002
}
  0
LINE
  5
121
330
1F
100
AcDbEntity
  8
THICK
100
AcDbLine
 10
244.9968109130859
 20
-35.87346267700195
 30
0.0
 11
244.9998016357422
 21
-35.0769157409668
 31
0.0
1001
DBPROPERTIES
1002
{
1000
PbThick
1002
}
  0
LINE
  5
122
330
1F
100
AcDbEntity
  8
THICK
100
AcDbLine
 10
245.0
 20
100.8
 30
0.0
 11
245.0
 21
0.0000000000000123
 31
0.0
1001
DBPROPERTIES
1002
{
1000
PbThick
1002
}
  0
LINE
  5
123
330
1F
100
AcDbEntity
  8
HIDDEN
100
AcDbLine
 10
232.3999938964844
 20
5.984133720397949
 30
0.0
 11
232.8812866210938
 21
5.975342750549316
 31
0.0
1001
DBPROPERTIES
1002
{
1000
PbHidd
1002
}
  0
LINE
  5
124
330
1F
100
AcDbEntity
  8
HIDDEN
100
AcDbLine
 10
232.8812866210938
 20
5.975342750549316
 30
0.0
 11
233.3757171630859
 21
5.948136329650879
 31
0.0
1001
DBPROPERTIES
1002
{
1000
PbHidd
1002
}
  0
LINE
  5
125
330
1F
100
AcDbEntity
  8
HIDDEN
100
AcDbLine
 10
233.3757171630859
 20
5.948136329650879
 30
0.0
 11
233.87744140625
 21
5.901395320892334
 31
0.0
1001
DBPROPERTIES
1002
{
1000
PbHidd
1002
}
  0
LINE
  5
126
330
1F
100
AcDbEntity
  8
HIDDEN
100
AcDbLine
 10
233.87744140625
 20
5.901395320892334
 30
0.0
 11
234.3807373046875
 21
5.835026264190674
 31
0.0
1001
DBPROPERTIES
1002
{
1000
PbHidd
1002
}
  0
LINE
  5
127
330
1F
100
AcDbEntity
  8
HIDDEN
100
AcDbLine
 10
234.3807373046875
 20
5.835026264190674
 30
0.0
 11
234.8800506591797
 21
5.749458789825439
 31
0.0
1001
DBPROPERTIES
1002
{
1000
PbHidd
1002
}
  0
LINE
  5
128
330
1F
100
AcDbEntity
  8
HIDDEN
100
AcDbLine
 10
234.8800506591797
 20
5.749458789825439
 30
0.0
 11
235.3702850341797
 21
5.645917415618896
 31
0.0
1001
DBPROPERTIES
1002
{
1000
PbHidd
1002
}
  0
LINE
  5
129
330
1F
100
AcDbEntity
  8
HIDDEN
100
AcDbLine
 10
235.3702850341797
 20
5.645917415618896
 30
0.0
 11
235.8463745117188
 21
5.526319980621338
 31
0.0
1001
DBPROPERTIES
1002
{
1000
PbHidd
1002
}
  0
LINE
  5
12A
330
1F
100
AcDbEntity
  8
HIDDEN
100
AcDbLine
 10
235.8463745117188
 20
5.526319980621338
 30
0.0
 11
236.3035278320312
 21
5.393159866333008
 31
0.0
1001
DBPROPERTIES
1002
{
1000
PbHidd
1002
}
  0
LINE
  5
12B
330
1F
100
AcDbEntity
  8
HIDDEN
100
AcDbLine
 10
236.3035278320312
 20
5.393159866333008
 30
0.0
 11
236.7377319335938
 21
5.249526023864746
 31
0.0
1001
DBPROPERTIES
1002
{
1000
PbHidd
1002
}
  0
LINE
  5
12C
330
1F
100
AcDbEntity
  8
HIDDEN
100
AcDbLine
 10
236.7377319335938
 20
5.249526023864746
 30
0.0
 11
237.1649932861328
 21
5.091036319732666
 31
0.0
1001
DBPROPERTIES
1002
{
1000
PbHidd
1002
}
  0
LINE
  5
12D
330
1F
100
AcDbEntity
  8
HIDDEN
100
AcDbLine
 10
237.1649932861328
 20
5.091036319732666
 30
0.0
 11
237.5925903320312
 21
4.91478443145752
 31
0.0
1001
DBPROPERTIES
1002
{
1000
PbHidd
1002
}
  0
LINE
  5
12E
330
1F
100
AcDbEntity
  8
HIDDEN
100
AcDbLine
 10
237.5925903320312
 20
4.91478443145752
 30
0.0
 11
238.0164947509766
 21
4.721572399139404
 31
0.0
1001
DBPROPERTIES
1002
{
1000
PbHidd
1002
}
  0
LINE
  5
12F
330
1F
100
AcDbEntity
  8
HIDDEN
100
AcDbLine
 10
238.0164947509766
 20
4.721572399139404
 30
0.0
 11
238.4331207275391
 21
4.512722015380859
 31
0.0
1001
DBPROPERTIES
1002
{
1000
PbHidd
1002
}
  0
LINE
  5
130
330
1F
100
AcDbEntity
  8
HIDDEN
100
AcDbLine
 10
238.4331207275391
 20
4.512722015380859
 30
0.0
 11
238.8393096923828
 21
4.289966583251953
 31
0.0
1001
DBPROPERTIES
1002
{
1000
PbHidd
1002
}
  0
LINE
  5
131
330
1F
100
AcDbEntity
  8
HIDDEN
100
AcDbLine
 10
238.8393096923828
 20
4.289966583251953
 30
0.0
 11
239.2321014404297
 21
4.055141448974609
 31
0.0
1001
DBPROPERTIES
1002
{
1000
PbHidd
1002
}
  0
LINE
  5
132
330
1F
100
AcDbEntity
  8
HIDDEN
100
AcDbLine
 10
239.2321014404297
 20
4.055141448974609
 30
0.0
 11
239.6091613769531
 21
3.810586929321289
 31
0.0
1001
DBPROPERTIES
1002
{
1000
PbHidd
1002
}
  0
LINE
  5
133
330
1F
100
AcDbEntity
  8
HIDDEN
100
AcDbLine
 10
239.6091613769531
 20
3.810586929321289
 30
0.0
 11
239.9682312011719
 21
3.558816909790039
 31
0.0
1001
DBPROPERTIES
1002
{
1000
PbHidd
1002
}
  0
LINE
  5
134
330
1F
100
AcDbEntity
  8
HIDDEN
100
AcDbLine
 10
239.9682312011719
 20
3.558816909790039
 30
0.0
 11
240.3074188232422
 21
3.30260443687439
 31
0.0
1001
DBPROPERTIES
1002
{
1000
PbHidd
1002
}
  0
LINE
  5
135
330
1F
100
AcDbEntity
  8
HIDDEN
100
AcDbLine
 10
240.3074188232422
 20
3.30260443687439
 30
0.0
 11
240.625244140625
 21
3.045020580291748
 31
0.0
1001
DBPROPERTIES
1002
{
1000
PbHidd
1002
}
  0
LINE
  5
136
330
1F
100
AcDbEntity
  8
HIDDEN
100
AcDbLine
 10
240.625244140625
 20
3.045020580291748
 30
0.0
 11
240.9267883300781
 21
2.783412218093872
 31
0.0
1001
DBPROPERTIES
1002
{
1000
PbHidd
1002
}
  0
LINE
  5
137
330
1F
100
AcDbEntity
  8
HIDDEN
100
AcDbLine
 10
240.9267883300781
 20
2.783412218093872
 30
0.0
 11
241.2228698730469
 21
2.508753538131714
 31
0.0
1001
DBPROPERTIES
1002
{
1000
PbHidd
1002
}
  0
LINE
  5
138
330
1F
100
AcDbEntity
  8
HIDDEN
100
AcDbLine
 10
241.2228698730469
 20
2.508753538131714
 30
0.0
 11
241.5119323730469
 21
2.222018718719482
 31
0.0
1001
DBPROPERTIES
1002
{
1000
PbHidd
1002
}
  0
LINE
  5
139
330
1F
100
AcDbEntity
  8
HIDDEN
100
AcDbLine
 10
241.5119323730469
 20
2.222018718719482
 30
0.0
 11
241.7920837402344
 21
1.924469470977783
 31
0.0
1001
DBPROPERTIES
1002
{
1000
PbHidd
1002
}
  0
LINE
  5
13A
330
1F
100
AcDbEntity
  8
HIDDEN
100
AcDbLine
 10
241.7920837402344
 20
1.924469470977783
 30
0.0
 11
242.0618591308594
 21
1.617567896842957
 31
0.0
1001
DBPROPERTIES
1002
{
1000
PbHidd
1002
}
  0
LINE
  5
13B
330
1F
100
AcDbEntity
  8
HIDDEN
100
AcDbLine
 10
242.0618591308594
 20
1.617567896842957
 30
0.0
 11
242.3200988769531
 21
1.302911639213562
 31
0.0
1001
DBPROPERTIES
1002
{
1000
PbHidd
1002
}
  0
LINE
  5
13C
330
1F
100
AcDbEntity
  8
HIDDEN
100
AcDbLine
 10
242.3200988769531
 20
1.302911639213562
 30
0.0
 11
242.5656433105469
 21
0.9820985794067383
 31
0.0
1001
DBPROPERTIES
1002
{
1000
PbHidd
1002
}
  0
LINE
  5
13D
330
1F
100
AcDbEntity
  8
HIDDEN
100
AcDbLine
 10
242.5656433105469
 20
0.9820985794067383
 30
0.0
 11
242.7976837158203
 21
0.6567904949188232
 31
0.0
1001
DBPROPERTIES
1002
{
1000
PbHidd
1002
}
  0
LINE
  5
13E
330
1F
100
AcDbEntity
  8
HIDDEN
100
AcDbLine
 10
242.7976837158203
 20
0.6567904949188232
 30
0.0
 11
243.0157165527344
 21
0.3288103044033051
 31
0.0
1001
DBPROPERTIES
1002
{
1000
PbHidd
1002
}
  0
LINE
  5
13F
330
1F
100
AcDbEntity
  8
HIDDEN
100
AcDbLine
 10
243.0157165527344
 20
0.3288103044033051
 30
0.0
 11
243.21923828125
 21
-0.0000000000000319
 31
0.0
1001
DBPROPERTIES
1002
{
1000
PbHidd
1002
}
  0
LINE
  5
140
330
1F
100
AcDbEntity
  8
HIDDEN
100
AcDbLine
 10
232.4
 20
5.984133765232333
 30
0.0
 11
232.4
 21
29.30245249089407
 31
0.0
1001
DBPROPERTIES
1002
{
1000
PbHidd
1002
}
  0
LINE
  5
141
330
1F
100
AcDbEntity
  8
HIDDEN
100
AcDbLine
 10
243.21923828125
 20
33.14450454711914
 30
0.0
 11
243.0157165527344
 21
32.93339538574219
 31
0.0
1001
DBPROPERTIES
1002
{
1000
PbHidd
1002
}
  0
LINE
  5
142
330
1F
100
AcDbEntity
  8
HIDDEN
100
AcDbLine
 10
243.0157165527344
 20
32.93339538574219
 30
0.0
 11
242.7976837158203
 21
32.72281646728516
 31
0.0
1001
DBPROPERTIES
1002
{
1000
PbHidd
1002
}
  0
LINE
  5
143
330
1F
100
AcDbEntity
  8
HIDDEN
100
AcDbLine
 10
242.7976837158203
 20
32.72281646728516
 30
0.0
 11
242.5656433105469
 21
32.51395797729492
 31
0.0
1001
DBPROPERTIES
1002
{
1000
PbHidd
1002
}
  0
LINE
  5
144
330
1F
100
AcDbEntity
  8
HIDDEN
100
AcDbLine
 10
242.5656433105469
 20
32.51395797729492
 30
0.0
 11
242.3200988769531
 21
32.3079833984375
 31
0.0
1001
DBPROPERTIES
1002
{
1000
PbHidd
1002
}
  0
LINE
  5
145
330
1F
100
AcDbEntity
  8
HIDDEN
100
AcDbLine
 10
242.3200988769531
 20
32.3079833984375
 30
0.0
 11
242.0618591308594
 21
32.10596084594727
 31
0.0
1001
DBPROPERTIES
1002
{
1000
PbHidd
1002
}
  0
LINE
  5
146
330
1F
100
AcDbEntity
  8
HIDDEN
100
AcDbLine
 10
242.0618591308594
 20
32.10596084594727
 30
0.0
 11
241.7920837402344
 21
31.90891647338867
 31
0.0
1001
DBPROPERTIES
1002
{
1000
PbHidd
1002
}
  0
LINE
  5
147
330
1F
100
AcDbEntity
  8
HIDDEN
100
AcDbLine
 10
241.7920837402344
 20
31.90891647338867
 30
0.0
 11
241.5119323730469
 21
31.7178783416748
 31
0.0
1001
DBPROPERTIES
1002
{
1000
PbHidd
1002
}
  0
LINE
  5
148
330
1F
100
AcDbEntity
  8
HIDDEN
100
AcDbLine
 10
241.5119323730469
 20
31.7178783416748
 30
0.0
 11
241.2228698730469
 21
31.53378486633301
 31
0.0
1001
DBPROPERTIES
1002
{
1000
PbHidd
1002
}
  0
LINE
  5
149
330
1F
100
AcDbEntity
  8
HIDDEN
100
AcDbLine
 10
241.2228698730469
 20
31.53378486633301
 30
0.0
 11
240.9267883300781
 21
31.35744285583496
 31
0.0
1001
DBPROPERTIES
1002
{
1000
PbHidd
1002
}
  0
LINE
  5
14A
330
1F
100
AcDbEntity
  8
HIDDEN
100
AcDbLine
 10
240.9267883300781
 20
31.35744285583496
 30
0.0
 11
240.625244140625
 21
31.18947982788086
 31
0.0
1001
DBPROPERTIES
1002
{
1000
PbHidd
1002
}
  0
LINE
  5
14B
330
1F
100
AcDbEntity
  8
HIDDEN
100
AcDbLine
 10
240.625244140625
 20
31.18947982788086
 30
0.0
 11
240.3074188232422
 21
31.02410125732422
 31
0.0
1001
DBPROPERTIES
1002
{
1000
PbHidd
1002
}
  0
LINE
  5
14C
330
1F
100
AcDbEntity
  8
HIDDEN
100
AcDbLine
 10
240.3074188232422
 20
31.02410125732422
 30
0.0
 11
239.9682312011719
 21
30.8596019744873
 31
0.0
1001
DBPROPERTIES
1002
{
1000
PbHidd
1002
}
  0
LINE
  5
14D
330
1F
100
AcDbEntity
  8
HIDDEN
100
AcDbLine
 10
239.9682312011719
 20
30.8596019744873
 30
0.0
 11
239.6091613769531
 21
30.69795608520508
 31
0.0
1001
DBPROPERTIES
1002
{
1000
PbHidd
1002
}
  0
LINE
  5
14E
330
1F
100
AcDbEntity
  8
HIDDEN
100
AcDbLine
 10
239.6091613769531
 20
30.69795608520508
 30
0.0
 11
239.2321014404297
 21
30.54094123840332
 31
0.0
1001
DBPROPERTIES
1002
{
1000
PbHidd
1002
}
  0
LINE
  5
14F
330
1F
100
AcDbEntity
  8
HIDDEN
100
AcDbLine
 10
239.2321014404297
 20
30.54094123840332
 30
0.0
 11
238.8393096923828
 21
30.39017486572266
 31
0.0
1001
DBPROPERTIES
1002
{
1000
PbHidd
1002
}
  0
LINE
  5
150
330
1F
100
AcDbEntity
  8
HIDDEN
100
AcDbLine
 10
238.8393096923828
 20
30.39017486572266
 30
0.0
 11
238.4331207275391
 21
30.24715614318848
 31
0.0
1001
DBPROPERTIES
1002
{
1000
PbHidd
1002
}
  0
LINE
  5
151
330
1F
100
AcDbEntity
  8
HIDDEN
100
AcDbLine
 10
238.4331207275391
 20
30.24715614318848
 30
0.0
 11
238.0164947509766
 21
30.11306762695312
 31
0.0
1001
DBPROPERTIES
1002
{
1000
PbHidd
1002
}
  0
LINE
  5
152
330
1F
100
AcDbEntity
  8
HIDDEN
100
AcDbLine
 10
238.0164947509766
 20
30.11306762695312
 30
0.0
 11
237.5925903320312
 21
29.98901748657227
 31
0.0
1001
DBPROPERTIES
1002
{
1000
PbHidd
1002
}
  0
LINE
  5
153
330
1F
100
AcDbEntity
  8
HIDDEN
100
AcDbLine
 10
237.5925903320312
 20
29.98901748657227
 30
0.0
 11
237.1649932861328
 21
29.87585639953613
 31
0.0
1001
DBPROPERTIES
1002
{
1000
PbHidd
1002
}
  0
LINE
  5
154
330
1F
100
AcDbEntity
  8
HIDDEN
100
AcDbLine
 10
237.1649932861328
 20
29.87585639953613
 30
0.0
 11
236.7377319335938
 21
29.77409934997559
 31
0.0
1001
DBPROPERTIES
1002
{
1000
PbHidd
1002
}
  0
LINE
  5
155
330
1F
100
AcDbEntity
  8
HIDDEN
100
AcDbLine
 10
236.7377319335938
 20
29.77409934997559
 30
0.0
 11
236.3035278320312
 21
29.68188095092773
 31
0.0
1001
DBPROPERTIES
1002
{
1000
PbHidd
1002
}
  0
LINE
  5
156
330
1F
100
AcDbEntity
  8
HIDDEN
100
AcDbLine
 10
236.3035278320312
 20
29.68188095092773
 30
0.0
 11
235.8463745117188
 21
29.59638786315918
 31
0.0
1001
DBPROPERTIES
1002
{
1000
PbHidd
1002
}
  0
LINE
  5
157
330
1F
100
AcDbEntity
  8
HIDDEN
100
AcDbLine
 10
235.8463745117188
 20
29.59638786315918
 30
0.0
 11
235.3702850341797
 21
29.51959991455078
 31
0.0
1001
DBPROPERTIES
1002
{
1000
PbHidd
1002
}
  0
LINE
  5
158
330
1F
100
AcDbEntity
  8
HIDDEN
100
AcDbLine
 10
235.3702850341797
 20
29.51959991455078
 30
0.0
 11
234.8800506591797
 21
29.45312309265137
 31
0.0
1001
DBPROPERTIES
1002
{
1000
PbHidd
1002
}
  0
LINE
  5
159
330
1F
100
AcDbEntity
  8
HIDDEN
100
AcDbLine
 10
234.8800506591797
 20
29.45312309265137
 30
0.0
 11
234.3807373046875
 21
29.39818572998047
 31
0.0
1001
DBPROPERTIES
1002
{
1000
PbHidd
1002
}
  0
LINE
  5
15A
330
1F
100
AcDbEntity
  8
HIDDEN
100
AcDbLine
 10
234.3807373046875
 20
29.39818572998047
 30
0.0
 11
233.87744140625
 21
29.3555736541748
 31
0.0
1001
DBPROPERTIES
1002
{
1000
PbHidd
1002
}
  0
LINE
  5
15B
330
1F
100
AcDbEntity
  8
HIDDEN
100
AcDbLine
 10
233.87744140625
 20
29.3555736541748
 30
0.0
 11
233.3757171630859
 21
29.32556343078613
 31
0.0
1001
DBPROPERTIES
1002
{
1000
PbHidd
1002
}
  0
LINE
  5
15C
330
1F
100
AcDbEntity
  8
HIDDEN
100
AcDbLine
 10
233.3757171630859
 20
29.32556343078613
 30
0.0
 11
232.8812866210938
 21
29.30809593200684
 31
0.0
1001
DBPROPERTIES
1002
{
1000
PbHidd
1002
}
  0
LINE
  5
15D
330
1F
100
AcDbEntity
  8
HIDDEN
100
AcDbLine
 10
232.8812866210938
 20
29.30809593200684
 30
0.0
 11
232.3999938964844
 21
29.30245208740234
 31
0.0
1001
DBPROPERTIES
1002
{
1000
PbHidd
1002
}
  0
LINE
  5
15E
330
1F
100
AcDbEntity
  8
HIDDEN
100
AcDbLine
 10
232.3999938964844
 20
40.68495178222656
 30
0.0
 11
232.8812866210938
 21
40.67387390136719
 31
0.0
1001
DBPROPERTIES
1002
{
1000
PbHidd
1002
}
  0
LINE
  5
15F
330
1F
100
AcDbEntity
  8
HIDDEN
100
AcDbLine
 10
232.8812866210938
 20
40.67387390136719
 30
0.0
 11
233.3757171630859
 21
40.63959121704102
 31
0.0
1001
DBPROPERTIES
1002
{
1000
PbHidd
1002
}
  0
LINE
  5
160
330
1F
100
AcDbEntity
  8
HIDDEN
100
AcDbLine
 10
233.3757171630859
 20
40.63959121704102
 30
0.0
 11
233.87744140625
 21
40.58069610595703
 31
0.0
1001
DBPROPERTIES
1002
{
1000
PbHidd
1002
}
  0
LINE
  5
161
330
1F
100
AcDbEntity
  8
HIDDEN
100
AcDbLine
 10
233.87744140625
 20
40.58069610595703
 30
0.0
 11
234.3807373046875
 21
40.49706649780273
 31
0.0
1001
DBPROPERTIES
1002
{
1000
PbHidd
1002
}
  0
LINE
  5
162
330
1F
100
AcDbEntity
  8
HIDDEN
100
AcDbLine
 10
234.3807373046875
 20
40.49706649780273
 30
0.0
 11
234.8800506591797
 21
40.38924407958984
 31
0.0
1001
DBPROPERTIES
1002
{
1000
PbHidd
1002
}
  0
LINE
  5
163
330
1F
100
AcDbEntity
  8
HIDDEN
100
AcDbLine
 10
234.8800506591797
 20
40.38924407958984
 30
0.0
 11
235.3702850341797
 21
40.25877380371094
 31
0.0
1001
DBPROPERTIES
1002
{
1000
PbHidd
1002
}
  0
LINE
  5
164
330
1F
100
AcDbEntity
  8
HIDDEN
100
AcDbLine
 10
235.3702850341797
 20
40.25877380371094
 30
0.0
 11
235.8463745117188
 21
40.10807037353516
 31
0.0
1001
DBPROPERTIES
1002
{
1000
PbHidd
1002
}
  0
LINE
  5
165
330
1F
100
AcDbEntity
  8
HIDDEN
100
AcDbLine
 10
235.8463745117188
 20
40.10807037353516
 30
0.0
 11
236.3035278320312
 21
39.94028091430664
 31
0.0
1001
DBPROPERTIES
1002
{
1000
PbHidd
1002
}
  0
LINE
  5
166
330
1F
100
AcDbEntity
  8
HIDDEN
100
AcDbLine
 10
236.3035278320312
 20
39.94028091430664
 30
0.0
 11
236.7377319335938
 21
39.75929260253906
 31
0.0
1001
DBPROPERTIES
1002
{
1000
PbHidd
1002
}
  0
LINE
  5
167
330
1F
100
AcDbEntity
  8
HIDDEN
100
AcDbLine
 10
236.7377319335938
 20
39.75929260253906
 30
0.0
 11
237.1649932861328
 21
39.5595817565918
 31
0.0
1001
DBPROPERTIES
1002
{
1000
PbHidd
1002
}
  0
LINE
  5
168
330
1F
100
AcDbEntity
  8
HIDDEN
100
AcDbLine
 10
237.1649932861328
 20
39.5595817565918
 30
0.0
 11
237.5925903320312
 21
39.33749389648438
 31
0.0
1001
DBPROPERTIES
1002
{
1000
PbHidd
1002
}
  0
LINE
  5
169
330
1F
100
AcDbEntity
  8
HIDDEN
100
AcDbLine
 10
237.5925903320312
 20
39.33749389648438
 30
0.0
 11
238.0164947509766
 21
39.09403228759766
 31
0.0
1001
DBPROPERTIES
1002
{
1000
PbHidd
1002
}
  0
LINE
  5
16A
330
1F
100
AcDbEntity
  8
HIDDEN
100
AcDbLine
 10
238.0164947509766
 20
39.09403228759766
 30
0.0
 11
238.4331207275391
 21
38.83086395263672
 31
0.0
1001
DBPROPERTIES
1002
{
1000
PbHidd
1002
}
  0
LINE
  5
16B
330
1F
100
AcDbEntity
  8
HIDDEN
100
AcDbLine
 10
238.4331207275391
 20
38.83086395263672
 30
0.0
 11
238.8393096923828
 21
38.55017471313477
 31
0.0
1001
DBPROPERTIES
1002
{
1000
PbHidd
1002
}
  0
LINE
  5
16C
330
1F
100
AcDbEntity
  8
HIDDEN
100
AcDbLine
 10
238.8393096923828
 20
38.55017471313477
 30
0.0
 11
239.2321014404297
 21
38.25428009033203
 31
0.0
1001
DBPROPERTIES
1002
{
1000
PbHidd
1002
}
  0
LINE
  5
16D
330
1F
100
AcDbEntity
  8
HIDDEN
100
AcDbLine
 10
239.2321014404297
 20
38.25428009033203
 30
0.0
 11
239.6091613769531
 21
37.94612121582031
 31
0.0
1001
DBPROPERTIES
1002
{
1000
PbHidd
1002
}
  0
LINE
  5
16E
330
1F
100
AcDbEntity
  8
HIDDEN
100
AcDbLine
 10
239.6091613769531
 20
37.94612121582031
 30
0.0
 11
239.9682312011719
 21
37.62887573242188
 31
0.0
1001
DBPROPERTIES
1002
{
1000
PbHidd
1002
}
  0
LINE
  5
16F
330
1F
100
AcDbEntity
  8
HIDDEN
100
AcDbLine
 10
239.9682312011719
 20
37.62887573242188
 30
0.0
 11
240.3074188232422
 21
37.30602645874023
 31
0.0
1001
DBPROPERTIES
1002
{
1000
PbHidd
1002
}
  0
LINE
  5
170
330
1F
100
AcDbEntity
  8
HIDDEN
100
AcDbLine
 10
240.3074188232422
 20
37.30602645874023
 30
0.0
 11
240.625244140625
 21
36.98145294189453
 31
0.0
1001
DBPROPERTIES
1002
{
1000
PbHidd
1002
}
  0
LINE
  5
171
330
1F
100
AcDbEntity
  8
HIDDEN
100
AcDbLine
 10
240.625244140625
 20
36.98145294189453
 30
0.0
 11
240.9267883300781
 21
36.65180587768555
 31
0.0
1001
DBPROPERTIES
1002
{
1000
PbHidd
1002
}
  0
LINE
  5
172
330
1F
100
AcDbEntity
  8
HIDDEN
100
AcDbLine
 10
240.9267883300781
 20
36.65180587768555
 30
0.0
 11
241.2228698730469
 21
36.30571746826172
 31
0.0
1001
DBPROPERTIES
1002
{
1000
PbHidd
1002
}
  0
LINE
  5
173
330
1F
100
AcDbEntity
  8
HIDDEN
100
AcDbLine
 10
241.2228698730469
 20
36.30571746826172
 30
0.0
 11
241.5119323730469
 21
35.94440841674805
 31
0.0
1001
DBPROPERTIES
1002
{
1000
PbHidd
1002
}
  0
LINE
  5
174
330
1F
100
AcDbEntity
  8
HIDDEN
100
AcDbLine
 10
241.5119323730469
 20
35.94440841674805
 30
0.0
 11
241.7920837402344
 21
35.56947708129883
 31
0.0
1001
DBPROPERTIES
1002
{
1000
PbHidd
1002
}
  0
LINE
  5
175
330
1F
100
AcDbEntity
  8
HIDDEN
100
AcDbLine
 10
241.7920837402344
 20
35.56947708129883
 30
0.0
 11
242.0618591308594
 21
35.18275833129883
 31
0.0
1001
DBPROPERTIES
1002
{
1000
PbHidd
1002
}
  0
LINE
  5
176
330
1F
100
AcDbEntity
  8
HIDDEN
100
AcDbLine
 10
242.0618591308594
 20
35.18275833129883
 30
0.0
 11
242.3200988769531
 21
34.7862663269043
 31
0.0
1001
DBPROPERTIES
1002
{
1000
PbHidd
1002
}
  0
LINE
  5
177
330
1F
100
AcDbEntity
  8
HIDDEN
100
AcDbLine
 10
242.3200988769531
 20
34.7862663269043
 30
0.0
 11
242.5656433105469
 21
34.38201904296875
 31
0.0
1001
DBPROPERTIES
1002
{
1000
PbHidd
1002
}
  0
LINE
  5
178
330
1F
100
AcDbEntity
  8
HIDDEN
100
AcDbLine
 10
242.5656433105469
 20
34.38201904296875
 30
0.0
 11
242.7976837158203
 21
33.97210693359375
 31
0.0
1001
DBPROPERTIES
1002
{
1000
PbHidd
1002
}
  0
LINE
  5
179
330
1F
100
AcDbEntity
  8
HIDDEN
100
AcDbLine
 10
242.7976837158203
 20
33.97210693359375
 30
0.0
 11
243.0157165527344
 21
33.5588264465332
 31
0.0
1001
DBPROPERTIES
1002
{
1000
PbHidd
1002
}
  0
LINE
  5
17A
330
1F
100
AcDbEntity
  8
HIDDEN
100
AcDbLine
 10
243.0157165527344
 20
33.5588264465332
 30
0.0
 11
243.21923828125
 21
33.14450454711914
 31
0.0
1001
DBPROPERTIES
1002
{
1000
PbHidd
1002
}
  0
LINE
  5
17B
330
1F
100
AcDbEntity
  8
HIDDEN
100
AcDbLine
 10
232.4
 20
40.68495131450621
 30
0.0
 11
232.4
 21
61.72071053502024
 31
0.0
1001
DBPROPERTIES
1002
{
1000
PbHidd
1002
}
  0
LINE
  5
17C
330
1F
100
AcDbEntity
  8
HIDDEN
100
AcDbLine
 10
243.21923828125
 20
63.04458999633789
 30
0.0
 11
243.0157165527344
 21
62.97184753417969
 31
0.0
1001
DBPROPERTIES
1002
{
1000
PbHidd
1002
}
  0
LINE
  5
17D
330
1F
100
AcDbEntity
  8
HIDDEN
100
AcDbLine
 10
243.0157165527344
 20
62.97184753417969
 30
0.0
 11
242.7976837158203
 21
62.89928817749023
 31
0.0
1001
DBPROPERTIES
1002
{
1000
PbHidd
1002
}
  0
LINE
  5
17E
330
1F
100
AcDbEntity
  8
HIDDEN
100
AcDbLine
 10
242.7976837158203
 20
62.89928817749023
 30
0.0
 11
242.5656433105469
 21
62.82732009887695
 31
0.0
1001
DBPROPERTIES
1002
{
1000
PbHidd
1002
}
  0
LINE
  5
17F
330
1F
100
AcDbEntity
  8
HIDDEN
100
AcDbLine
 10
242.5656433105469
 20
62.82732009887695
 30
0.0
 11
242.3200988769531
 21
62.75634384155273
 31
0.0
1001
DBPROPERTIES
1002
{
1000
PbHidd
1002
}
  0
LINE
  5
180
330
1F
100
AcDbEntity
  8
HIDDEN
100
AcDbLine
 10
242.3200988769531
 20
62.75634384155273
 30
0.0
 11
242.0618591308594
 21
62.68673324584961
 31
0.0
1001
DBPROPERTIES
1002
{
1000
PbHidd
1002
}
  0
LINE
  5
181
330
1F
100
AcDbEntity
  8
HIDDEN
100
AcDbLine
 10
242.0618591308594
 20
62.68673324584961
 30
0.0
 11
241.7920837402344
 21
62.61883544921875
 31
0.0
1001
DBPROPERTIES
1002
{
1000
PbHidd
1002
}
  0
LINE
  5
182
330
1F
100
AcDbEntity
  8
HIDDEN
100
AcDbLine
 10
241.7920837402344
 20
62.61883544921875
 30
0.0
 11
241.5119323730469
 21
62.55300903320312
 31
0.0
1001
DBPROPERTIES
1002
{
1000
PbHidd
1002
}
  0
LINE
  5
183
330
1F
100
AcDbEntity
  8
HIDDEN
100
AcDbLine
 10
241.5119323730469
 20
62.55300903320312
 30
0.0
 11
241.2228698730469
 21
62.48957443237305
 31
0.0
1001
DBPROPERTIES
1002
{
1000
PbHidd
1002
}
  0
LINE
  5
184
330
1F
100
AcDbEntity
  8
HIDDEN
100
AcDbLine
 10
241.2228698730469
 20
62.48957443237305
 30
0.0
 11
240.9267883300781
 21
62.42881011962891
 31
0.0
1001
DBPROPERTIES
1002
{
1000
PbHidd
1002
}
  0
LINE
  5
185
330
1F
100
AcDbEntity
  8
HIDDEN
100
AcDbLine
 10
240.9267883300781
 20
62.42881011962891
 30
0.0
 11
240.625244140625
 21
62.37093734741211
 31
0.0
1001
DBPROPERTIES
1002
{
1000
PbHidd
1002
}
  0
LINE
  5
186
330
1F
100
AcDbEntity
  8
HIDDEN
100
AcDbLine
 10
240.625244140625
 20
62.37093734741211
 30
0.0
 11
240.3074188232422
 21
62.31394958496094
 31
0.0
1001
DBPROPERTIES
1002
{
1000
PbHidd
1002
}
  0
LINE
  5
187
330
1F
100
AcDbEntity
  8
HIDDEN
100
AcDbLine
 10
240.3074188232422
 20
62.31394958496094
 30
0.0
 11
239.9682312011719
 21
62.25726699829102
 31
0.0
1001
DBPROPERTIES
1002
{
1000
PbHidd
1002
}
  0
LINE
  5
188
330
1F
100
AcDbEntity
  8
HIDDEN
100
AcDbLine
 10
239.9682312011719
 20
62.25726699829102
 30
0.0
 11
239.6091613769531
 21
62.20156860351562
 31
0.0
1001
DBPROPERTIES
1002
{
1000
PbHidd
1002
}
  0
LINE
  5
189
330
1F
100
AcDbEntity
  8
HIDDEN
100
AcDbLine
 10
239.6091613769531
 20
62.20156860351562
 30
0.0
 11
239.2321014404297
 21
62.14746475219727
 31
0.0
1001
DBPROPERTIES
1002
{
1000
PbHidd
1002
}
  0
LINE
  5
18A
330
1F
100
AcDbEntity
  8
HIDDEN
100
AcDbLine
 10
239.2321014404297
 20
62.14746475219727
 30
0.0
 11
238.8393096923828
 21
62.09551239013672
 31
0.0
1001
DBPROPERTIES
1002
{
1000
PbHidd
1002
}
  0
LINE
  5
18B
330
1F
100
AcDbEntity
  8
HIDDEN
100
AcDbLine
 10
238.8393096923828
 20
62.09551239013672
 30
0.0
 11
238.4331207275391
 21
62.04623413085938
 31
0.0
1001
DBPROPERTIES
1002
{
1000
PbHidd
1002
}
  0
LINE
  5
18C
330
1F
100
AcDbEntity
  8
HIDDEN
100
AcDbLine
 10
238.4331207275391
 20
62.04623413085938
 30
0.0
 11
238.0164947509766
 21
62.00003051757812
 31
0.0
1001
DBPROPERTIES
1002
{
1000
PbHidd
1002
}
  0
LINE
  5
18D
330
1F
100
AcDbEntity
  8
HIDDEN
100
AcDbLine
 10
238.0164947509766
 20
62.00003051757812
 30
0.0
 11
237.5925903320312
 21
61.95728302001953
 31
0.0
1001
DBPROPERTIES
1002
{
1000
PbHidd
1002
}
  0
LINE
  5
18E
330
1F
100
AcDbEntity
  8
HIDDEN
100
AcDbLine
 10
237.5925903320312
 20
61.95728302001953
 30
0.0
 11
237.1649932861328
 21
61.91829299926758
 31
0.0
1001
DBPROPERTIES
1002
{
1000
PbHidd
1002
}
  0
LINE
  5
18F
330
1F
100
AcDbEntity
  8
HIDDEN
100
AcDbLine
 10
237.1649932861328
 20
61.91829299926758
 30
0.0
 11
236.7377319335938
 21
61.88322830200195
 31
0.0
1001
DBPROPERTIES
1002
{
1000
PbHidd
1002
}
  0
LINE
  5
190
330
1F
100
AcDbEntity
  8
HIDDEN
100
AcDbLine
 10
236.7377319335938
 20
61.88322830200195
 30
0.0
 11
236.3035278320312
 21
61.8514518737793
 31
0.0
1001
DBPROPERTIES
1002
{
1000
PbHidd
1002
}
  0
LINE
  5
191
330
1F
100
AcDbEntity
  8
HIDDEN
100
AcDbLine
 10
236.3035278320312
 20
61.8514518737793
 30
0.0
 11
235.8463745117188
 21
61.82199478149414
 31
0.0
1001
DBPROPERTIES
1002
{
1000
PbHidd
1002
}
  0
LINE
  5
192
330
1F
100
AcDbEntity
  8
HIDDEN
100
AcDbLine
 10
235.8463745117188
 20
61.82199478149414
 30
0.0
 11
235.3702850341797
 21
61.79553604125977
 31
0.0
1001
DBPROPERTIES
1002
{
1000
PbHidd
1002
}
  0
LINE
  5
193
330
1F
100
AcDbEntity
  8
HIDDEN
100
AcDbLine
 10
235.3702850341797
 20
61.79553604125977
 30
0.0
 11
234.8800506591797
 21
61.77262878417969
 31
0.0
1001
DBPROPERTIES
1002
{
1000
PbHidd
1002
}
  0
LINE
  5
194
330
1F
100
AcDbEntity
  8
HIDDEN
100
AcDbLine
 10
234.8800506591797
 20
61.77262878417969
 30
0.0
 11
234.3807373046875
 21
61.75369644165039
 31
0.0
1001
DBPROPERTIES
1002
{
1000
PbHidd
1002
}
  0
LINE
  5
195
330
1F
100
AcDbEntity
  8
HIDDEN
100
AcDbLine
 10
234.3807373046875
 20
61.75369644165039
 30
0.0
 11
233.87744140625
 21
61.739013671875
 31
0.0
1001
DBPROPERTIES
1002
{
1000
PbHidd
1002
}
  0
LINE
  5
196
330
1F
100
AcDbEntity
  8
HIDDEN
100
AcDbLine
 10
233.87744140625
 20
61.739013671875
 30
0.0
 11
233.3757171630859
 21
61.72867584228516
 31
0.0
1001
DBPROPERTIES
1002
{
1000
PbHidd
1002
}
  0
LINE
  5
197
330
1F
100
AcDbEntity
  8
HIDDEN
100
AcDbLine
 10
233.3757171630859
 20
61.72867584228516
 30
0.0
 11
232.8812866210938
 21
61.72265625
 31
0.0
1001
DBPROPERTIES
1002
{
1000
PbHidd
1002
}
  0
LINE
  5
198
330
1F
100
AcDbEntity
  8
HIDDEN
100
AcDbLine
 10
232.8812866210938
 20
61.72265625
 30
0.0
 11
232.3999938964844
 21
61.72071075439453
 31
0.0
1001
DBPROPERTIES
1002
{
1000
PbHidd
1002
}
  0
LINE
  5
199
330
1F
100
AcDbEntity
  8
HIDDEN
100
AcDbLine
 10
232.3999938964844
 20
71.40324401855469
 30
0.0
 11
232.8812866210938
 21
71.39096069335938
 31
0.0
1001
DBPROPERTIES
1002
{
1000
PbHidd
1002
}
  0
LINE
  5
19A
330
1F
100
AcDbEntity
  8
HIDDEN
100
AcDbLine
 10
232.8812866210938
 20
71.39096069335938
 30
0.0
 11
233.3757171630859
 21
71.35295867919922
 31
0.0
1001
DBPROPERTIES
1002
{
1000
PbHidd
1002
}
  0
LINE
  5
19B
330
1F
100
AcDbEntity
  8
HIDDEN
100
AcDbLine
 10
233.3757171630859
 20
71.35295867919922
 30
0.0
 11
233.87744140625
 21
71.28767395019531
 31
0.0
1001
DBPROPERTIES
1002
{
1000
PbHidd
1002
}
  0
LINE
  5
19C
330
1F
100
AcDbEntity
  8
HIDDEN
100
AcDbLine
 10
233.87744140625
 20
71.28767395019531
 30
0.0
 11
234.3807373046875
 21
71.1949691772461
 31
0.0
1001
DBPROPERTIES
1002
{
1000
PbHidd
1002
}
  0
LINE
  5
19D
330
1F
100
AcDbEntity
  8
HIDDEN
100
AcDbLine
 10
234.3807373046875
 20
71.1949691772461
 30
0.0
 11
234.8800506591797
 21
71.07544708251953
 31
0.0
1001
DBPROPERTIES
1002
{
1000
PbHidd
1002
}
  0
LINE
  5
19E
330
1F
100
AcDbEntity
  8
HIDDEN
100
AcDbLine
 10
234.8800506591797
 20
71.07544708251953
 30
0.0
 11
235.3702850341797
 21
70.93082427978516
 31
0.0
1001
DBPROPERTIES
1002
{
1000
PbHidd
1002
}
  0
LINE
  5
19F
330
1F
100
AcDbEntity
  8
HIDDEN
100
AcDbLine
 10
235.3702850341797
 20
70.93082427978516
 30
0.0
 11
235.8463745117188
 21
70.76376342773438
 31
0.0
1001
DBPROPERTIES
1002
{
1000
PbHidd
1002
}
  0
LINE
  5
1A0
330
1F
100
AcDbEntity
  8
HIDDEN
100
AcDbLine
 10
235.8463745117188
 20
70.76376342773438
 30
0.0
 11
236.3035278320312
 21
70.57776641845703
 31
0.0
1001
DBPROPERTIES
1002
{
1000
PbHidd
1002
}
  0
LINE
  5
1A1
330
1F
100
AcDbEntity
  8
HIDDEN
100
AcDbLine
 10
236.3035278320312
 20
70.57776641845703
 30
0.0
 11
236.7377319335938
 21
70.37714385986328
 31
0.0
1001
DBPROPERTIES
1002
{
1000
PbHidd
1002
}
  0
LINE
  5
1A2
330
1F
100
AcDbEntity
  8
HIDDEN
100
AcDbLine
 10
236.7377319335938
 20
70.37714385986328
 30
0.0
 11
237.1649932861328
 21
70.15576171875
 31
0.0
1001
DBPROPERTIES
1002
{
1000
PbHidd
1002
}
  0
LINE
  5
1A3
330
1F
100
AcDbEntity
  8
HIDDEN
100
AcDbLine
 10
237.1649932861328
 20
70.15576171875
 30
0.0
 11
237.5925903320312
 21
69.9095687866211
 31
0.0
1001
DBPROPERTIES
1002
{
1000
PbHidd
1002
}
  0
LINE
  5
1A4
330
1F
100
AcDbEntity
  8
HIDDEN
100
AcDbLine
 10
237.5925903320312
 20
69.9095687866211
 30
0.0
 11
238.0164947509766
 21
69.63969421386719
 31
0.0
1001
DBPROPERTIES
1002
{
1000
PbHidd
1002
}
  0
LINE
  5
1A5
330
1F
100
AcDbEntity
  8
HIDDEN
100
AcDbLine
 10
238.0164947509766
 20
69.63969421386719
 30
0.0
 11
238.4331207275391
 21
69.34796905517578
 31
0.0
1001
DBPROPERTIES
1002
{
1000
PbHidd
1002
}
  0
LINE
  5
1A6
330
1F
100
AcDbEntity
  8
HIDDEN
100
AcDbLine
 10
238.4331207275391
 20
69.34796905517578
 30
0.0
 11
238.8393096923828
 21
69.03682708740234
 31
0.0
1001
DBPROPERTIES
1002
{
1000
PbHidd
1002
}
  0
LINE
  5
1A7
330
1F
100
AcDbEntity
  8
HIDDEN
100
AcDbLine
 10
238.8393096923828
 20
69.03682708740234
 30
0.0
 11
239.2321014404297
 21
68.70882415771484
 31
0.0
1001
DBPROPERTIES
1002
{
1000
PbHidd
1002
}
  0
LINE
  5
1A8
330
1F
100
AcDbEntity
  8
HIDDEN
100
AcDbLine
 10
239.2321014404297
 20
68.70882415771484
 30
0.0
 11
239.6091613769531
 21
68.36722564697266
 31
0.0
1001
DBPROPERTIES
1002
{
1000
PbHidd
1002
}
  0
LINE
  5
1A9
330
1F
100
AcDbEntity
  8
HIDDEN
100
AcDbLine
 10
239.6091613769531
 20
68.36722564697266
 30
0.0
 11
239.9682312011719
 21
68.01555633544922
 31
0.0
1001
DBPROPERTIES
1002
{
1000
PbHidd
1002
}
  0
LINE
  5
1AA
330
1F
100
AcDbEntity
  8
HIDDEN
100
AcDbLine
 10
239.9682312011719
 20
68.01555633544922
 30
0.0
 11
240.3074188232422
 21
67.65767669677734
 31
0.0
1001
DBPROPERTIES
1002
{
1000
PbHidd
1002
}
  0
LINE
  5
1AB
330
1F
100
AcDbEntity
  8
HIDDEN
100
AcDbLine
 10
240.3074188232422
 20
67.65767669677734
 30
0.0
 11
240.625244140625
 21
67.29788208007812
 31
0.0
1001
DBPROPERTIES
1002
{
1000
PbHidd
1002
}
  0
LINE
  5
1AC
330
1F
100
AcDbEntity
  8
HIDDEN
100
AcDbLine
 10
240.625244140625
 20
67.29788208007812
 30
0.0
 11
240.9267883300781
 21
66.93246459960938
 31
0.0
1001
DBPROPERTIES
1002
{
1000
PbHidd
1002
}
  0
LINE
  5
1AD
330
1F
100
AcDbEntity
  8
HIDDEN
100
AcDbLine
 10
240.9267883300781
 20
66.93246459960938
 30
0.0
 11
241.2228698730469
 21
66.54882049560547
 31
0.0
1001
DBPROPERTIES
1002
{
1000
PbHidd
1002
}
  0
LINE
  5
1AE
330
1F
100
AcDbEntity
  8
HIDDEN
100
AcDbLine
 10
241.2228698730469
 20
66.54882049560547
 30
0.0
 11
241.5119323730469
 21
66.1483154296875
 31
0.0
1001
DBPROPERTIES
1002
{
1000
PbHidd
1002
}
  0
LINE
  5
1AF
330
1F
100
AcDbEntity
  8
HIDDEN
100
AcDbLine
 10
241.5119323730469
 20
66.1483154296875
 30
0.0
 11
241.7920837402344
 21
65.73269653320312
 31
0.0
1001
DBPROPERTIES
1002
{
1000
PbHidd
1002
}
  0
LINE
  5
1B0
330
1F
100
AcDbEntity
  8
HIDDEN
100
AcDbLine
 10
241.7920837402344
 20
65.73269653320312
 30
0.0
 11
242.0618591308594
 21
65.30401611328125
 31
0.0
1001
DBPROPERTIES
1002
{
1000
PbHidd
1002
}
  0
LINE
  5
1B1
330
1F
100
AcDbEntity
  8
HIDDEN
100
AcDbLine
 10
242.0618591308594
 20
65.30401611328125
 30
0.0
 11
242.3200988769531
 21
64.864501953125
 31
0.0
1001
DBPROPERTIES
1002
{
1000
PbHidd
1002
}
  0
LINE
  5
1B2
330
1F
100
AcDbEntity
  8
HIDDEN
100
AcDbLine
 10
242.3200988769531
 20
64.864501953125
 30
0.0
 11
242.5656433105469
 21
64.41638946533203
 31
0.0
1001
DBPROPERTIES
1002
{
1000
PbHidd
1002
}
  0
LINE
  5
1B3
330
1F
100
AcDbEntity
  8
HIDDEN
100
AcDbLine
 10
242.5656433105469
 20
64.41638946533203
 30
0.0
 11
242.7976837158203
 21
63.96199798583984
 31
0.0
1001
DBPROPERTIES
1002
{
1000
PbHidd
1002
}
  0
LINE
  5
1B4
330
1F
100
AcDbEntity
  8
HIDDEN
100
AcDbLine
 10
242.7976837158203
 20
63.96199798583984
 30
0.0
 11
243.0157165527344
 21
63.50387573242188
 31
0.0
1001
DBPROPERTIES
1002
{
1000
PbHidd
1002
}
  0
LINE
  5
1B5
330
1F
100
AcDbEntity
  8
HIDDEN
100
AcDbLine
 10
243.0157165527344
 20
63.50387573242188
 30
0.0
 11
243.21923828125
 21
63.04458999633789
 31
0.0
1001
DBPROPERTIES
1002
{
1000
PbHidd
1002
}
  0
LINE
  5
1B6
330
1F
100
AcDbEntity
  8
HIDDEN
100
AcDbLine
 10
232.4
 20
71.4032423603921
 30
0.0
 11
232.4
 21
88.0973153985018
 31
0.0
1001
DBPROPERTIES
1002
{
1000
PbHidd
1002
}
  0
LINE
  5
1B7
330
1F
100
AcDbEntity
  8
HIDDEN
100
AcDbLine
 10
232.3999938964844
 20
95.13208770751953
 30
0.0
 11
232.8812866210938
 21
95.11980438232422
 31
0.0
1001
DBPROPERTIES
1002
{
1000
PbHidd
1002
}
  0
LINE
  5
1B8
330
1F
100
AcDbEntity
  8
HIDDEN
100
AcDbLine
 10
232.8812866210938
 20
95.11980438232422
 30
0.0
 11
233.3757171630859
 21
95.08180236816406
 31
0.0
1001
DBPROPERTIES
1002
{
1000
PbHidd
1002
}
  0
LINE
  5
1B9
330
1F
100
AcDbEntity
  8
HIDDEN
100
AcDbLine
 10
233.3757171630859
 20
95.08180236816406
 30
0.0
 11
233.87744140625
 21
95.01651763916016
 31
0.0
1001
DBPROPERTIES
1002
{
1000
PbHidd
1002
}
  0
LINE
  5
1BA
330
1F
100
AcDbEntity
  8
HIDDEN
100
AcDbLine
 10
233.87744140625
 20
95.01651763916016
 30
0.0
 11
234.3807373046875
 21
94.92381286621094
 31
0.0
1001
DBPROPERTIES
1002
{
1000
PbHidd
1002
}
  0
LINE
  5
1BB
330
1F
100
AcDbEntity
  8
HIDDEN
100
AcDbLine
 10
234.3807373046875
 20
94.92381286621094
 30
0.0
 11
234.8800506591797
 21
94.80429077148438
 31
0.0
1001
DBPROPERTIES
1002
{
1000
PbHidd
1002
}
  0
LINE
  5
1BC
330
1F
100
AcDbEntity
  8
HIDDEN
100
AcDbLine
 10
234.8800506591797
 20
94.80429077148438
 30
0.0
 11
235.3702850341797
 21
94.65966796875
 31
0.0
1001
DBPROPERTIES
1002
{
1000
PbHidd
1002
}
  0
LINE
  5
1BD
330
1F
100
AcDbEntity
  8
HIDDEN
100
AcDbLine
 10
235.3702850341797
 20
94.65966796875
 30
0.0
 11
235.8463745117188
 21
94.49261474609375
 31
0.0
1001
DBPROPERTIES
1002
{
1000
PbHidd
1002
}
  0
LINE
  5
1BE
330
1F
100
AcDbEntity
  8
HIDDEN
100
AcDbLine
 10
235.8463745117188
 20
94.49261474609375
 30
0.0
 11
236.3035278320312
 21
94.30661010742188
 31
0.0
1001
DBPROPERTIES
1002
{
1000
PbHidd
1002
}
  0
LINE
  5
1BF
330
1F
100
AcDbEntity
  8
HIDDEN
100
AcDbLine
 10
236.3035278320312
 20
94.30661010742188
 30
0.0
 11
236.7377319335938
 21
94.10598754882812
 31
0.0
1001
DBPROPERTIES
1002
{
1000
PbHidd
1002
}
  0
LINE
  5
1C0
330
1F
100
AcDbEntity
  8
HIDDEN
100
AcDbLine
 10
236.7377319335938
 20
94.10598754882812
 30
0.0
 11
237.1649932861328
 21
93.88460540771484
 31
0.0
1001
DBPROPERTIES
1002
{
1000
PbHidd
1002
}
  0
LINE
  5
1C1
330
1F
100
AcDbEntity
  8
HIDDEN
100
AcDbLine
 10
237.1649932861328
 20
93.88460540771484
 30
0.0
 11
237.5925903320312
 21
93.63842010498047
 31
0.0
1001
DBPROPERTIES
1002
{
1000
PbHidd
1002
}
  0
LINE
  5
1C2
330
1F
100
AcDbEntity
  8
HIDDEN
100
AcDbLine
 10
237.5925903320312
 20
93.63842010498047
 30
0.0
 11
238.0164947509766
 21
93.36853790283203
 31
0.0
1001
DBPROPERTIES
1002
{
1000
PbHidd
1002
}
  0
LINE
  5
1C3
330
1F
100
AcDbEntity
  8
HIDDEN
100
AcDbLine
 10
238.0164947509766
 20
93.36853790283203
 30
0.0
 11
238.4331207275391
 21
93.07681274414062
 31
0.0
1001
DBPROPERTIES
1002
{
1000
PbHidd
1002
}
  0
LINE
  5
1C4
330
1F
100
AcDbEntity
  8
HIDDEN
100
AcDbLine
 10
238.4331207275391
 20
93.07681274414062
 30
0.0
 11
238.8393096923828
 21
92.76567077636719
 31
0.0
1001
DBPROPERTIES
1002
{
1000
PbHidd
1002
}
  0
LINE
  5
1C5
330
1F
100
AcDbEntity
  8
HIDDEN
100
AcDbLine
 10
238.8393096923828
 20
92.76567077636719
 30
0.0
 11
239.2321014404297
 21
92.43766784667969
 31
0.0
1001
DBPROPERTIES
1002
{
1000
PbHidd
1002
}
  0
LINE
  5
1C6
330
1F
100
AcDbEntity
  8
HIDDEN
100
AcDbLine
 10
239.2321014404297
 20
92.43766784667969
 30
0.0
 11
239.6091613769531
 21
92.0960693359375
 31
0.0
1001
DBPROPERTIES
1002
{
1000
PbHidd
1002
}
  0
LINE
  5
1C7
330
1F
100
AcDbEntity
  8
HIDDEN
100
AcDbLine
 10
239.6091613769531
 20
92.0960693359375
 30
0.0
 11
239.9682312011719
 21
91.74440002441406
 31
0.0
1001
DBPROPERTIES
1002
{
1000
PbHidd
1002
}
  0
LINE
  5
1C8
330
1F
100
AcDbEntity
  8
HIDDEN
100
AcDbLine
 10
239.9682312011719
 20
91.74440002441406
 30
0.0
 11
240.3074188232422
 21
91.38652038574219
 31
0.0
1001
DBPROPERTIES
1002
{
1000
PbHidd
1002
}
  0
LINE
  5
1C9
330
1F
100
AcDbEntity
  8
HIDDEN
100
AcDbLine
 10
240.3074188232422
 20
91.38652038574219
 30
0.0
 11
240.625244140625
 21
91.02672576904297
 31
0.0
1001
DBPROPERTIES
1002
{
1000
PbHidd
1002
}
  0
LINE
  5
1CA
330
1F
100
AcDbEntity
  8
HIDDEN
100
AcDbLine
 10
240.625244140625
 20
91.02672576904297
 30
0.0
 11
240.9267883300781
 21
90.66130828857422
 31
0.0
1001
DBPROPERTIES
1002
{
1000
PbHidd
1002
}
  0
LINE
  5
1CB
330
1F
100
AcDbEntity
  8
HIDDEN
100
AcDbLine
 10
240.9267883300781
 20
90.66130828857422
 30
0.0
 11
241.2228698730469
 21
90.27766418457031
 31
0.0
1001
DBPROPERTIES
1002
{
1000
PbHidd
1002
}
  0
LINE
  5
1CC
330
1F
100
AcDbEntity
  8
HIDDEN
100
AcDbLine
 10
241.2228698730469
 20
90.27766418457031
 30
0.0
 11
241.5119323730469
 21
89.87715911865234
 31
0.0
1001
DBPROPERTIES
1002
{
1000
PbHidd
1002
}
  0
LINE
  5
1CD
330
1F
100
AcDbEntity
  8
HIDDEN
100
AcDbLine
 10
241.5119323730469
 20
89.87715911865234
 30
0.0
 11
241.7920837402344
 21
89.46154022216797
 31
0.0
1001
DBPROPERTIES
1002
{
1000
PbHidd
1002
}
  0
LINE
  5
1CE
330
1F
100
AcDbEntity
  8
HIDDEN
100
AcDbLine
 10
241.7920837402344
 20
89.46154022216797
 30
0.0
 11
242.0618591308594
 21
89.0328598022461
 31
0.0
1001
DBPROPERTIES
1002
{
1000
PbHidd
1002
}
  0
LINE
  5
1CF
330
1F
100
AcDbEntity
  8
HIDDEN
100
AcDbLine
 10
242.0618591308594
 20
89.0328598022461
 30
0.0
 11
242.3200988769531
 21
88.59334564208984
 31
0.0
1001
DBPROPERTIES
1002
{
1000
PbHidd
1002
}
  0
LINE
  5
1D0
330
1F
100
AcDbEntity
  8
HIDDEN
100
AcDbLine
 10
242.3200988769531
 20
88.59334564208984
 30
0.0
 11
242.5656433105469
 21
88.14523315429688
 31
0.0
1001
DBPROPERTIES
1002
{
1000
PbHidd
1002
}
  0
LINE
  5
1D1
330
1F
100
AcDbEntity
  8
HIDDEN
100
AcDbLine
 10
242.5656433105469
 20
88.14523315429688
 30
0.0
 11
242.7976837158203
 21
87.69084167480469
 31
0.0
1001
DBPROPERTIES
1002
{
1000
PbHidd
1002
}
  0
LINE
  5
1D2
330
1F
100
AcDbEntity
  8
HIDDEN
100
AcDbLine
 10
242.7976837158203
 20
87.69084167480469
 30
0.0
 11
243.0157165527344
 21
87.23271942138672
 31
0.0
1001
DBPROPERTIES
1002
{
1000
PbHidd
1002
}
  0
LINE
  5
1D3
330
1F
100
AcDbEntity
  8
HIDDEN
100
AcDbLine
 10
243.0157165527344
 20
87.23271942138672
 30
0.0
 11
243.21923828125
 21
86.7734375
 31
0.0
1001
DBPROPERTIES
1002
{
1000
PbHidd
1002
}
  0
LINE
  5
1D4
330
1F
100
AcDbEntity
  8
HIDDEN
100
AcDbLine
 10
232.4
 20
95.13208654839983
 30
0.0
 11
232.4
 21
105.8503412206888
 31
0.0
1001
DBPROPERTIES
1002
{
1000
PbHidd
1002
}
  0
LINE
  5
1D5
330
1F
100
AcDbEntity
  8
HIDDEN
100
AcDbLine
 10
232.3999938964844
 20
109.5487365722656
 30
0.0
 11
232.8812866210938
 21
109.5376586914062
 31
0.0
1001
DBPROPERTIES
1002
{
1000
PbHidd
1002
}
  0
LINE
  5
1D6
330
1F
100
AcDbEntity
  8
HIDDEN
100
AcDbLine
 10
232.8812866210938
 20
109.5376586914062
 30
0.0
 11
233.3757171630859
 21
109.5033798217773
 31
0.0
1001
DBPROPERTIES
1002
{
1000
PbHidd
1002
}
  0
LINE
  5
1D7
330
1F
100
AcDbEntity
  8
HIDDEN
100
AcDbLine
 10
233.3757171630859
 20
109.5033798217773
 30
0.0
 11
233.87744140625
 21
109.4444808959961
 31
0.0
1001
DBPROPERTIES
1002
{
1000
PbHidd
1002
}
  0
LINE
  5
1D8
330
1F
100
AcDbEntity
  8
HIDDEN
100
AcDbLine
 10
233.87744140625
 20
109.4444808959961
 30
0.0
 11
234.3807373046875
 21
109.3608551025391
 31
0.0
1001
DBPROPERTIES
1002
{
1000
PbHidd
1002
}
  0
LINE
  5
1D9
330
1F
100
AcDbEntity
  8
HIDDEN
100
AcDbLine
 10
234.3807373046875
 20
109.3608551025391
 30
0.0
 11
234.8800506591797
 21
109.2530288696289
 31
0.0
1001
DBPROPERTIES
1002
{
1000
PbHidd
1002
}
  0
LINE
  5
1DA
330
1F
100
AcDbEntity
  8
HIDDEN
100
AcDbLine
 10
234.8800506591797
 20
109.2530288696289
 30
0.0
 11
235.3702850341797
 21
109.12255859375
 31
0.0
1001
DBPROPERTIES
1002
{
1000
PbHidd
1002
}
  0
LINE
  5
1DB
330
1F
100
AcDbEntity
  8
HIDDEN
100
AcDbLine
 10
235.3702850341797
 20
109.12255859375
 30
0.0
 11
235.8463745117188
 21
108.9718627929688
 31
0.0
1001
DBPROPERTIES
1002
{
1000
PbHidd
1002
}
  0
LINE
  5
1DC
330
1F
100
AcDbEntity
  8
HIDDEN
100
AcDbLine
 10
235.8463745117188
 20
108.9718627929688
 30
0.0
 11
236.3035278320312
 21
108.804069519043
 31
0.0
1001
DBPROPERTIES
1002
{
1000
PbHidd
1002
}
  0
LINE
  5
1DD
330
1F
100
AcDbEntity
  8
HIDDEN
100
AcDbLine
 10
236.3035278320312
 20
108.804069519043
 30
0.0
 11
236.7377319335938
 21
108.6230773925781
 31
0.0
1001
DBPROPERTIES
1002
{
1000
PbHidd
1002
}
  0
LINE
  5
1DE
330
1F
100
AcDbEntity
  8
HIDDEN
100
AcDbLine
 10
236.7377319335938
 20
108.6230773925781
 30
0.0
 11
237.1649932861328
 21
108.4233703613281
 31
0.0
1001
DBPROPERTIES
1002
{
1000
PbHidd
1002
}
  0
LINE
  5
1DF
330
1F
100
AcDbEntity
  8
HIDDEN
100
AcDbLine
 10
237.1649932861328
 20
108.4233703613281
 30
0.0
 11
237.5925903320312
 21
108.2012786865234
 31
0.0
1001
DBPROPERTIES
1002
{
1000
PbHidd
1002
}
  0
LINE
  5
1E0
330
1F
100
AcDbEntity
  8
HIDDEN
100
AcDbLine
 10
237.5925903320312
 20
108.2012786865234
 30
0.0
 11
238.0164947509766
 21
107.9578170776367
 31
0.0
1001
DBPROPERTIES
1002
{
1000
PbHidd
1002
}
  0
LINE
  5
1E1
330
1F
100
AcDbEntity
  8
HIDDEN
100
AcDbLine
 10
238.0164947509766
 20
107.9578170776367
 30
0.0
 11
238.4331207275391
 21
107.6946487426758
 31
0.0
1001
DBPROPERTIES
1002
{
1000
PbHidd
1002
}
  0
LINE
  5
1E2
330
1F
100
AcDbEntity
  8
HIDDEN
100
AcDbLine
 10
238.4331207275391
 20
107.6946487426758
 30
0.0
 11
238.8393096923828
 21
107.4139633178711
 31
0.0
1001
DBPROPERTIES
1002
{
1000
PbHidd
1002
}
  0
LINE
  5
1E3
330
1F
100
AcDbEntity
  8
HIDDEN
100
AcDbLine
 10
238.8393096923828
 20
107.4139633178711
 30
0.0
 11
239.2321014404297
 21
107.1180648803711
 31
0.0
1001
DBPROPERTIES
1002
{
1000
PbHidd
1002
}
  0
LINE
  5
1E4
330
1F
100
AcDbEntity
  8
HIDDEN
100
AcDbLine
 10
239.2321014404297
 20
107.1180648803711
 30
0.0
 11
239.6091613769531
 21
106.8099136352539
 31
0.0
1001
DBPROPERTIES
1002
{
1000
PbHidd
1002
}
  0
LINE
  5
1E5
330
1F
100
AcDbEntity
  8
HIDDEN
100
AcDbLine
 10
239.6091613769531
 20
106.8099136352539
 30
0.0
 11
239.9682312011719
 21
106.4926605224609
 31
0.0
1001
DBPROPERTIES
1002
{
1000
PbHidd
1002
}
  0
LINE
  5
1E6
330
1F
100
AcDbEntity
  8
HIDDEN
100
AcDbLine
 10
239.9682312011719
 20
106.4926605224609
 30
0.0
 11
240.3074188232422
 21
106.1698150634766
 31
0.0
1001
DBPROPERTIES
1002
{
1000
PbHidd
1002
}
  0
LINE
  5
1E7
330
1F
100
AcDbEntity
  8
HIDDEN
100
AcDbLine
 10
240.3074188232422
 20
106.1698150634766
 30
0.0
 11
240.625244140625
 21
105.8452377319336
 31
0.0
1001
DBPROPERTIES
1002
{
1000
PbHidd
1002
}
  0
LINE
  5
1E8
330
1F
100
AcDbEntity
  8
HIDDEN
100
AcDbLine
 10
240.625244140625
 20
105.8452377319336
 30
0.0
 11
240.9267883300781
 21
105.5155944824219
 31
0.0
1001
DBPROPERTIES
1002
{
1000
PbHidd
1002
}
  0
LINE
  5
1E9
330
1F
100
AcDbEntity
  8
HIDDEN
100
AcDbLine
 10
240.9267883300781
 20
105.5155944824219
 30
0.0
 11
241.2228698730469
 21
105.1695022583008
 31
0.0
1001
DBPROPERTIES
1002
{
1000
PbHidd
1002
}
  0
LINE
  5
1EA
330
1F
100
AcDbEntity
  8
HIDDEN
100
AcDbLine
 10
241.2228698730469
 20
105.1695022583008
 30
0.0
 11
241.5119323730469
 21
104.8081970214844
 31
0.0
1001
DBPROPERTIES
1002
{
1000
PbHidd
1002
}
  0
LINE
  5
1EB
330
1F
100
AcDbEntity
  8
HIDDEN
100
AcDbLine
 10
241.5119323730469
 20
104.8081970214844
 30
0.0
 11
241.7920837402344
 21
104.4332656860352
 31
0.0
1001
DBPROPERTIES
1002
{
1000
PbHidd
1002
}
  0
LINE
  5
1EC
330
1F
100
AcDbEntity
  8
HIDDEN
100
AcDbLine
 10
241.7920837402344
 20
104.4332656860352
 30
0.0
 11
242.0618591308594
 21
104.0465469360352
 31
0.0
1001
DBPROPERTIES
1002
{
1000
PbHidd
1002
}
  0
LINE
  5
1ED
330
1F
100
AcDbEntity
  8
HIDDEN
100
AcDbLine
 10
242.0618591308594
 20
104.0465469360352
 30
0.0
 11
242.3200988769531
 21
103.6500549316406
 31
0.0
1001
DBPROPERTIES
1002
{
1000
PbHidd
1002
}
  0
LINE
  5
1EE
330
1F
100
AcDbEntity
  8
HIDDEN
100
AcDbLine
 10
242.3200988769531
 20
103.6500549316406
 30
0.0
 11
242.5656433105469
 21
103.2458038330078
 31
0.0
1001
DBPROPERTIES
1002
{
1000
PbHidd
1002
}
  0
LINE
  5
1EF
330
1F
100
AcDbEntity
  8
HIDDEN
100
AcDbLine
 10
242.5656433105469
 20
103.2458038330078
 30
0.0
 11
242.7976837158203
 21
102.8358917236328
 31
0.0
1001
DBPROPERTIES
1002
{
1000
PbHidd
1002
}
  0
LINE
  5
1F0
330
1F
100
AcDbEntity
  8
HIDDEN
100
AcDbLine
 10
242.7976837158203
 20
102.8358917236328
 30
0.0
 11
243.0157165527344
 21
102.4226150512695
 31
0.0
1001
DBPROPERTIES
1002
{
1000
PbHidd
1002
}
  0
LINE
  5
1F1
330
1F
100
AcDbEntity
  8
HIDDEN
100
AcDbLine
 10
243.0157165527344
 20
102.4226150512695
 30
0.0
 11
243.21923828125
 21
102.0082931518555
 31
0.0
1001
DBPROPERTIES
1002
{
1000
PbHidd
1002
}
  0
LINE
  5
1F2
330
1F
100
AcDbEntity
  8
HIDDEN
100
AcDbLine
 10
232.4
 20
109.5487392808283
 30
0.0
 11
232.4
 21
113.2419981415014
 31
0.0
1001
DBPROPERTIES
1002
{
1000
PbHidd
1002
}
  0
LINE
  5
1F3
330
1F
100
AcDbEntity
  8
THICK
100
AcDbLine
 10
243.21923828125
 20
107.2578659057617
 30
0.0
 11
242.9714813232422
 21
107.6551361083984
 31
0.0
1001
DBPROPERTIES
1002
{
1000
PbThick
1002
}
  0
LINE
  5
1F4
330
1F
100
AcDbEntity
  8
THICK
100
AcDbLine
 10
242.9714813232422
 20
107.6551361083984
 30
0.0
 11
242.7027130126953
 21
108.0506439208984
 31
0.0
1001
DBPROPERTIES
1002
{
1000
PbThick
1002
}
  0
LINE
  5
1F5
330
1F
100
AcDbEntity
  8
THICK
100
AcDbLine
 10
242.7027130126953
 20
108.0506439208984
 30
0.0
 11
242.4137268066406
 21
108.4411087036133
 31
0.0
1001
DBPROPERTIES
1002
{
1000
PbThick
1002
}
  0
LINE
  5
1F6
330
1F
100
AcDbEntity
  8
THICK
100
AcDbLine
 10
242.4137268066406
 20
108.4411087036133
 30
0.0
 11
242.1057281494141
 21
108.823486328125
 31
0.0
1001
DBPROPERTIES
1002
{
1000
PbThick
1002
}
  0
LINE
  5
1F7
330
1F
100
AcDbEntity
  8
THICK
100
AcDbLine
 10
242.1057281494141
 20
108.823486328125
 30
0.0
 11
241.7806091308594
 21
109.1949310302734
 31
0.0
1001
DBPROPERTIES
1002
{
1000
PbThick
1002
}
  0
LINE
  5
1F8
330
1F
100
AcDbEntity
  8
THICK
100
AcDbLine
 10
241.7806091308594
 20
109.1949310302734
 30
0.0
 11
241.4404602050781
 21
109.5526428222656
 31
0.0
1001
DBPROPERTIES
1002
{
1000
PbThick
1002
}
  0
LINE
  5
1F9
330
1F
100
AcDbEntity
  8
THICK
100
AcDbLine
 10
232.3999938964844
 20
113.2419967651367
 30
0.0
 11
232.8812866210938
 21
113.2332077026367
 31
0.0
1001
DBPROPERTIES
1002
{
1000
PbThick
1002
}
  0
LINE
  5
1FA
330
1F
100
AcDbEntity
  8
THICK
100
AcDbLine
 10
232.8812866210938
 20
113.2332077026367
 30
0.0
 11
233.3757171630859
 21
113.2060012817383
 31
0.0
1001
DBPROPERTIES
1002
{
1000
PbThick
1002
}
  0
LINE
  5
1FB
330
1F
100
AcDbEntity
  8
THICK
100
AcDbLine
 10
233.3757171630859
 20
113.2060012817383
 30
0.0
 11
233.87744140625
 21
113.1592636108398
 31
0.0
1001
DBPROPERTIES
1002
{
1000
PbThick
1002
}
  0
LINE
  5
1FC
330
1F
100
AcDbEntity
  8
THICK
100
AcDbLine
 10
233.87744140625
 20
113.1592636108398
 30
0.0
 11
234.3807373046875
 21
113.092887878418
 31
0.0
1001
DBPROPERTIES
1002
{
1000
PbThick
1002
}
  0
LINE
  5
1FD
330
1F
100
AcDbEntity
  8
THICK
100
AcDbLine
 10
234.3807373046875
 20
113.092887878418
 30
0.0
 11
234.8800506591797
 21
113.00732421875
 31
0.0
1001
DBPROPERTIES
1002
{
1000
PbThick
1002
}
  0
LINE
  5
1FE
330
1F
100
AcDbEntity
  8
THICK
100
AcDbLine
 10
234.8800506591797
 20
113.00732421875
 30
0.0
 11
235.3702850341797
 21
112.9037857055664
 31
0.0
1001
DBPROPERTIES
1002
{
1000
PbThick
1002
}
  0
LINE
  5
1FF
330
1F
100
AcDbEntity
  8
THICK
100
AcDbLine
 10
235.3702850341797
 20
112.9037857055664
 30
0.0
 11
235.8463745117188
 21
112.7841873168945
 31
0.0
1001
DBPROPERTIES
1002
{
1000
PbThick
1002
}
  0
LINE
  5
200
330
1F
100
AcDbEntity
  8
THICK
100
AcDbLine
 10
235.8463745117188
 20
112.7841873168945
 30
0.0
 11
236.3035278320312
 21
112.6510238647461
 31
0.0
1001
DBPROPERTIES
1002
{
1000
PbThick
1002
}
  0
LINE
  5
201
330
1F
100
AcDbEntity
  8
THICK
100
AcDbLine
 10
236.3035278320312
 20
112.6510238647461
 30
0.0
 11
236.7377319335938
 21
112.5073928833008
 31
0.0
1001
DBPROPERTIES
1002
{
1000
PbThick
1002
}
  0
LINE
  5
202
330
1F
100
AcDbEntity
  8
THICK
100
AcDbLine
 10
236.7377319335938
 20
112.5073928833008
 30
0.0
 11
237.1649932861328
 21
112.3488998413086
 31
0.0
1001
DBPROPERTIES
1002
{
1000
PbThick
1002
}
  0
LINE
  5
203
330
1F
100
AcDbEntity
  8
THICK
100
AcDbLine
 10
237.1649932861328
 20
112.3488998413086
 30
0.0
 11
237.5925903320312
 21
112.1726455688477
 31
0.0
1001
DBPROPERTIES
1002
{
1000
PbThick
1002
}
  0
LINE
  5
204
330
1F
100
AcDbEntity
  8
THICK
100
AcDbLine
 10
237.5925903320312
 20
112.1726455688477
 30
0.0
 11
238.0164947509766
 21
111.9794387817383
 31
0.0
1001
DBPROPERTIES
1002
{
1000
PbThick
1002
}
  0
LINE
  5
205
330
1F
100
AcDbEntity
  8
THICK
100
AcDbLine
 10
238.0164947509766
 20
111.9794387817383
 30
0.0
 11
238.4331207275391
 21
111.7705841064453
 31
0.0
1001
DBPROPERTIES
1002
{
1000
PbThick
1002
}
  0
LINE
  5
206
330
1F
100
AcDbEntity
  8
THICK
100
AcDbLine
 10
238.4331207275391
 20
111.7705841064453
 30
0.0
 11
238.8393096923828
 21
111.5478286743164
 31
0.0
1001
DBPROPERTIES
1002
{
1000
PbThick
1002
}
  0
LINE
  5
207
330
1F
100
AcDbEntity
  8
THICK
100
AcDbLine
 10
238.8393096923828
 20
111.5478286743164
 30
0.0
 11
239.2321014404297
 21
111.3130035400391
 31
0.0
1001
DBPROPERTIES
1002
{
1000
PbThick
1002
}
  0
LINE
  5
208
330
1F
100
AcDbEntity
  8
THICK
100
AcDbLine
 10
239.2321014404297
 20
111.3130035400391
 30
0.0
 11
239.6091613769531
 21
111.0684509277344
 31
0.0
1001
DBPROPERTIES
1002
{
1000
PbThick
1002
}
  0
LINE
  5
209
330
1F
100
AcDbEntity
  8
THICK
100
AcDbLine
 10
239.6091613769531
 20
111.0684509277344
 30
0.0
 11
239.9682312011719
 21
110.8166809082031
 31
0.0
1001
DBPROPERTIES
1002
{
1000
PbThick
1002
}
  0
LINE
  5
20A
330
1F
100
AcDbEntity
  8
THICK
100
AcDbLine
 10
239.9682312011719
 20
110.8166809082031
 30
0.0
 11
240.3074188232422
 21
110.5604705810547
 31
0.0
1001
DBPROPERTIES
1002
{
1000
PbThick
1002
}
  0
LINE
  5
20B
330
1F
100
AcDbEntity
  8
THICK
100
AcDbLine
 10
240.3074188232422
 20
110.5604705810547
 30
0.0
 11
240.625244140625
 21
110.3028869628906
 31
0.0
1001
DBPROPERTIES
1002
{
1000
PbThick
1002
}
  0
LINE
  5
20C
330
1F
100
AcDbEntity
  8
THICK
100
AcDbLine
 10
240.625244140625
 20
110.3028869628906
 30
0.0
 11
240.9267883300781
 21
110.0412750244141
 31
0.0
1001
DBPROPERTIES
1002
{
1000
PbThick
1002
}
  0
LINE
  5
20D
330
1F
100
AcDbEntity
  8
THICK
100
AcDbLine
 10
240.9267883300781
 20
110.0412750244141
 30
0.0
 11
241.2228698730469
 21
109.7666168212891
 31
0.0
1001
DBPROPERTIES
1002
{
1000
PbThick
1002
}
  0
LINE
  5
20E
330
1F
100
AcDbEntity
  8
THICK
100
AcDbLine
 10
241.2228698730469
 20
109.7666168212891
 30
0.0
 11
241.5119323730469
 21
109.4798812866211
 31
0.0
1001
DBPROPERTIES
1002
{
1000
PbThick
1002
}
  0
LINE
  5
20F
330
1F
100
AcDbEntity
  8
THICK
100
AcDbLine
 10
241.5119323730469
 20
109.4798812866211
 30
0.0
 11
241.7920837402344
 21
109.1823348999023
 31
0.0
1001
DBPROPERTIES
1002
{
1000
PbThick
1002
}
  0
LINE
  5
210
330
1F
100
AcDbEntity
  8
THICK
100
AcDbLine
 10
241.7920837402344
 20
109.1823348999023
 30
0.0
 11
242.0618591308594
 21
108.8754348754883
 31
0.0
1001
DBPROPERTIES
1002
{
1000
PbThick
1002
}
  0
LINE
  5
211
330
1F
100
AcDbEntity
  8
THICK
100
AcDbLine
 10
242.0618591308594
 20
108.8754348754883
 30
0.0
 11
242.3200988769531
 21
108.5607757568359
 31
0.0
1001
DBPROPERTIES
1002
{
1000
PbThick
1002
}
  0
LINE
  5
212
330
1F
100
AcDbEntity
  8
THICK
100
AcDbLine
 10
242.3200988769531
 20
108.5607757568359
 30
0.0
 11
242.5656433105469
 21
108.2399597167969
 31
0.0
1001
DBPROPERTIES
1002
{
1000
PbThick
1002
}
  0
LINE
  5
213
330
1F
100
AcDbEntity
  8
THICK
100
AcDbLine
 10
242.5656433105469
 20
108.2399597167969
 30
0.0
 11
242.7976837158203
 21
107.9146575927734
 31
0.0
1001
DBPROPERTIES
1002
{
1000
PbThick
1002
}
  0
LINE
  5
214
330
1F
100
AcDbEntity
  8
THICK
100
AcDbLine
 10
242.7976837158203
 20
107.9146575927734
 30
0.0
 11
243.0157165527344
 21
107.5866775512695
 31
0.0
1001
DBPROPERTIES
1002
{
1000
PbThick
1002
}
  0
LINE
  5
215
330
1F
100
AcDbEntity
  8
THICK
100
AcDbLine
 10
243.0157165527344
 20
107.5866775512695
 30
0.0
 11
243.21923828125
 21
107.2578659057617
 31
0.0
1001
DBPROPERTIES
1002
{
1000
PbThick
1002
}
  0
LINE
  5
216
330
1F
100
AcDbEntity
  8
THICK
100
AcDbLine
 10
232.4
 20
113.2419981415014
 30
0.0
 11
232.4
 21
109.5487392808283
 31
0.0
1001
DBPROPERTIES
1002
{
1000
PbThick
1002
}
  0
LINE
  5
217
330
1F
100
AcDbEntity
  8
THICK
100
AcDbLine
 10
243.21923828125
 20
102.0082931518555
 30
0.0
 11
243.0157165527344
 21
102.4226150512695
 31
0.0
1001
DBPROPERTIES
1002
{
1000
PbThick
1002
}
  0
LINE
  5
218
330
1F
100
AcDbEntity
  8
THICK
100
AcDbLine
 10
243.0157165527344
 20
102.4226150512695
 30
0.0
 11
242.7976837158203
 21
102.8358917236328
 31
0.0
1001
DBPROPERTIES
1002
{
1000
PbThick
1002
}
  0
LINE
  5
219
330
1F
100
AcDbEntity
  8
THICK
100
AcDbLine
 10
242.7976837158203
 20
102.8358917236328
 30
0.0
 11
242.5656433105469
 21
103.2458038330078
 31
0.0
1001
DBPROPERTIES
1002
{
1000
PbThick
1002
}
  0
LINE
  5
21A
330
1F
100
AcDbEntity
  8
THICK
100
AcDbLine
 10
242.5656433105469
 20
103.2458038330078
 30
0.0
 11
242.3200988769531
 21
103.6500549316406
 31
0.0
1001
DBPROPERTIES
1002
{
1000
PbThick
1002
}
  0
LINE
  5
21B
330
1F
100
AcDbEntity
  8
THICK
100
AcDbLine
 10
242.3200988769531
 20
103.6500549316406
 30
0.0
 11
242.0618591308594
 21
104.0465469360352
 31
0.0
1001
DBPROPERTIES
1002
{
1000
PbThick
1002
}
  0
LINE
  5
21C
330
1F
100
AcDbEntity
  8
THICK
100
AcDbLine
 10
242.0618591308594
 20
104.0465469360352
 30
0.0
 11
241.7920837402344
 21
104.4332656860352
 31
0.0
1001
DBPROPERTIES
1002
{
1000
PbThick
1002
}
  0
LINE
  5
21D
330
1F
100
AcDbEntity
  8
THICK
100
AcDbLine
 10
241.7920837402344
 20
104.4332656860352
 30
0.0
 11
241.5119323730469
 21
104.8081970214844
 31
0.0
1001
DBPROPERTIES
1002
{
1000
PbThick
1002
}
  0
LINE
  5
21E
330
1F
100
AcDbEntity
  8
THICK
100
AcDbLine
 10
241.5119323730469
 20
104.8081970214844
 30
0.0
 11
241.2228698730469
 21
105.1695022583008
 31
0.0
1001
DBPROPERTIES
1002
{
1000
PbThick
1002
}
  0
LINE
  5
21F
330
1F
100
AcDbEntity
  8
THICK
100
AcDbLine
 10
241.2228698730469
 20
105.1695022583008
 30
0.0
 11
240.9267883300781
 21
105.5155944824219
 31
0.0
1001
DBPROPERTIES
1002
{
1000
PbThick
1002
}
  0
LINE
  5
220
330
1F
100
AcDbEntity
  8
THICK
100
AcDbLine
 10
240.9267883300781
 20
105.5155944824219
 30
0.0
 11
240.625244140625
 21
105.8452377319336
 31
0.0
1001
DBPROPERTIES
1002
{
1000
PbThick
1002
}
  0
LINE
  5
221
330
1F
100
AcDbEntity
  8
THICK
100
AcDbLine
 10
240.625244140625
 20
105.8452377319336
 30
0.0
 11
240.3074188232422
 21
106.1698150634766
 31
0.0
1001
DBPROPERTIES
1002
{
1000
PbThick
1002
}
  0
LINE
  5
222
330
1F
100
AcDbEntity
  8
THICK
100
AcDbLine
 10
240.3074188232422
 20
106.1698150634766
 30
0.0
 11
239.9682312011719
 21
106.4926605224609
 31
0.0
1001
DBPROPERTIES
1002
{
1000
PbThick
1002
}
  0
LINE
  5
223
330
1F
100
AcDbEntity
  8
THICK
100
AcDbLine
 10
239.9682312011719
 20
106.4926605224609
 30
0.0
 11
239.6091613769531
 21
106.8099136352539
 31
0.0
1001
DBPROPERTIES
1002
{
1000
PbThick
1002
}
  0
LINE
  5
224
330
1F
100
AcDbEntity
  8
THICK
100
AcDbLine
 10
239.6091613769531
 20
106.8099136352539
 30
0.0
 11
239.2321014404297
 21
107.1180648803711
 31
0.0
1001
DBPROPERTIES
1002
{
1000
PbThick
1002
}
  0
LINE
  5
225
330
1F
100
AcDbEntity
  8
THICK
100
AcDbLine
 10
239.2321014404297
 20
107.1180648803711
 30
0.0
 11
238.8393096923828
 21
107.4139633178711
 31
0.0
1001
DBPROPERTIES
1002
{
1000
PbThick
1002
}
  0
LINE
  5
226
330
1F
100
AcDbEntity
  8
THICK
100
AcDbLine
 10
238.8393096923828
 20
107.4139633178711
 30
0.0
 11
238.4331207275391
 21
107.6946487426758
 31
0.0
1001
DBPROPERTIES
1002
{
1000
PbThick
1002
}
  0
LINE
  5
227
330
1F
100
AcDbEntity
  8
THICK
100
AcDbLine
 10
238.4331207275391
 20
107.6946487426758
 30
0.0
 11
238.0164947509766
 21
107.9578170776367
 31
0.0
1001
DBPROPERTIES
1002
{
1000
PbThick
1002
}
  0
LINE
  5
228
330
1F
100
AcDbEntity
  8
THICK
100
AcDbLine
 10
238.0164947509766
 20
107.9578170776367
 30
0.0
 11
237.5925903320312
 21
108.2012786865234
 31
0.0
1001
DBPROPERTIES
1002
{
1000
PbThick
1002
}
  0
LINE
  5
229
330
1F
100
AcDbEntity
  8
THICK
100
AcDbLine
 10
237.5925903320312
 20
108.2012786865234
 30
0.0
 11
237.1649932861328
 21
108.4233703613281
 31
0.0
1001
DBPROPERTIES
1002
{
1000
PbThick
1002
}
  0
LINE
  5
22A
330
1F
100
AcDbEntity
  8
THICK
100
AcDbLine
 10
237.1649932861328
 20
108.4233703613281
 30
0.0
 11
236.7377319335938
 21
108.6230773925781
 31
0.0
1001
DBPROPERTIES
1002
{
1000
PbThick
1002
}
  0
LINE
  5
22B
330
1F
100
AcDbEntity
  8
THICK
100
AcDbLine
 10
236.7377319335938
 20
108.6230773925781
 30
0.0
 11
236.3035278320312
 21
108.804069519043
 31
0.0
1001
DBPROPERTIES
1002
{
1000
PbThick
1002
}
  0
LINE
  5
22C
330
1F
100
AcDbEntity
  8
THICK
100
AcDbLine
 10
236.3035278320312
 20
108.804069519043
 30
0.0
 11
235.8463745117188
 21
108.9718627929688
 31
0.0
1001
DBPROPERTIES
1002
{
1000
PbThick
1002
}
  0
LINE
  5
22D
330
1F
100
AcDbEntity
  8
THICK
100
AcDbLine
 10
235.8463745117188
 20
108.9718627929688
 30
0.0
 11
235.3702850341797
 21
109.12255859375
 31
0.0
1001
DBPROPERTIES
1002
{
1000
PbThick
1002
}
  0
LINE
  5
22E
330
1F
100
AcDbEntity
  8
THICK
100
AcDbLine
 10
235.3702850341797
 20
109.12255859375
 30
0.0
 11
234.8800506591797
 21
109.2530288696289
 31
0.0
1001
DBPROPERTIES
1002
{
1000
PbThick
1002
}
  0
LINE
  5
22F
330
1F
100
AcDbEntity
  8
THICK
100
AcDbLine
 10
234.8800506591797
 20
109.2530288696289
 30
0.0
 11
234.3807373046875
 21
109.3608551025391
 31
0.0
1001
DBPROPERTIES
1002
{
1000
PbThick
1002
}
  0
LINE
  5
230
330
1F
100
AcDbEntity
  8
THICK
100
AcDbLine
 10
234.3807373046875
 20
109.3608551025391
 30
0.0
 11
233.87744140625
 21
109.4444808959961
 31
0.0
1001
DBPROPERTIES
1002
{
1000
PbThick
1002
}
  0
LINE
  5
231
330
1F
100
AcDbEntity
  8
THICK
100
AcDbLine
 10
233.87744140625
 20
109.4444808959961
 30
0.0
 11
233.3757171630859
 21
109.5033798217773
 31
0.0
1001
DBPROPERTIES
1002
{
1000
PbThick
1002
}
  0
LINE
  5
232
330
1F
100
AcDbEntity
  8
THICK
100
AcDbLine
 10
233.3757171630859
 20
109.5033798217773
 30
0.0
 11
232.8812866210938
 21
109.5376586914062
 31
0.0
1001
DBPROPERTIES
1002
{
1000
PbThick
1002
}
  0
LINE
  5
233
330
1F
100
AcDbEntity
  8
THICK
100
AcDbLine
 10
232.8812866210938
 20
109.5376586914062
 30
0.0
 11
232.3999938964844
 21
109.5487365722656
 31
0.0
1001
DBPROPERTIES
1002
{
1000
PbThick
1002
}
  0
LINE
  5
234
330
1F
100
AcDbEntity
  8
THICK
100
AcDbLine
 10
232.3999938964844
 20
105.850341796875
 30
0.0
 11
232.8812866210938
 21
105.8446960449219
 31
0.0
1001
DBPROPERTIES
1002
{
1000
PbThick
1002
}
  0
LINE
  5
235
330
1F
100
AcDbEntity
  8
THICK
100
AcDbLine
 10
232.8812866210938
 20
105.8446960449219
 30
0.0
 11
233.3757171630859
 21
105.8272323608398
 31
0.0
1001
DBPROPERTIES
1002
{
1000
PbThick
1002
}
  0
LINE
  5
236
330
1F
100
AcDbEntity
  8
THICK
100
AcDbLine
 10
233.3757171630859
 20
105.8272323608398
 30
0.0
 11
233.87744140625
 21
105.7972183227539
 31
0.0
1001
DBPROPERTIES
1002
{
1000
PbThick
1002
}
  0
LINE
  5
237
330
1F
100
AcDbEntity
  8
THICK
100
AcDbLine
 10
233.87744140625
 20
105.7972183227539
 30
0.0
 11
234.3807373046875
 21
105.7546081542969
 31
0.0
1001
DBPROPERTIES
1002
{
1000
PbThick
1002
}
  0
LINE
  5
238
330
1F
100
AcDbEntity
  8
THICK
100
AcDbLine
 10
234.3807373046875
 20
105.7546081542969
 30
0.0
 11
234.8800506591797
 21
105.6996688842773
 31
0.0
1001
DBPROPERTIES
1002
{
1000
PbThick
1002
}
  0
LINE
  5
239
330
1F
100
AcDbEntity
  8
THICK
100
AcDbLine
 10
234.8800506591797
 20
105.6996688842773
 30
0.0
 11
235.3702850341797
 21
105.6331939697266
 31
0.0
1001
DBPROPERTIES
1002
{
1000
PbThick
1002
}
  0
LINE
  5
23A
330
1F
100
AcDbEntity
  8
THICK
100
AcDbLine
 10
235.3702850341797
 20
105.6331939697266
 30
0.0
 11
235.8463745117188
 21
105.5564041137695
 31
0.0
1001
DBPROPERTIES
1002
{
1000
PbThick
1002
}
  0
LINE
  5
23B
330
1F
100
AcDbEntity
  8
THICK
100
AcDbLine
 10
235.8463745117188
 20
105.5564041137695
 30
0.0
 11
236.3035278320312
 21
105.4709091186523
 31
0.0
1001
DBPROPERTIES
1002
{
1000
PbThick
1002
}
  0
LINE
  5
23C
330
1F
100
AcDbEntity
  8
THICK
100
AcDbLine
 10
236.3035278320312
 20
105.4709091186523
 30
0.0
 11
236.7377319335938
 21
105.3786926269531
 31
0.0
1001
DBPROPERTIES
1002
{
1000
PbThick
1002
}
  0
LINE
  5
23D
330
1F
100
AcDbEntity
  8
THICK
100
AcDbLine
 10
236.7377319335938
 20
105.3786926269531
 30
0.0
 11
237.1649932861328
 21
105.2769393920898
 31
0.0
1001
DBPROPERTIES
1002
{
1000
PbThick
1002
}
  0
LINE
  5
23E
330
1F
100
AcDbEntity
  8
THICK
100
AcDbLine
 10
237.1649932861328
 20
105.2769393920898
 30
0.0
 11
237.5925903320312
 21
105.1637802124023
 31
0.0
1001
DBPROPERTIES
1002
{
1000
PbThick
1002
}
  0
LINE
  5
23F
330
1F
100
AcDbEntity
  8
THICK
100
AcDbLine
 10
237.5925903320312
 20
105.1637802124023
 30
0.0
 11
238.0164947509766
 21
105.0397262573242
 31
0.0
1001
DBPROPERTIES
1002
{
1000
PbThick
1002
}
  0
LINE
  5
240
330
1F
100
AcDbEntity
  8
THICK
100
AcDbLine
 10
238.0164947509766
 20
105.0397262573242
 30
0.0
 11
238.4331207275391
 21
104.9056396484375
 31
0.0
1001
DBPROPERTIES
1002
{
1000
PbThick
1002
}
  0
LINE
  5
241
330
1F
100
AcDbEntity
  8
THICK
100
AcDbLine
 10
238.4331207275391
 20
104.9056396484375
 30
0.0
 11
238.8393096923828
 21
104.7626190185547
 31
0.0
1001
DBPROPERTIES
1002
{
1000
PbThick
1002
}
  0
LINE
  5
242
330
1F
100
AcDbEntity
  8
THICK
100
AcDbLine
 10
238.8393096923828
 20
104.7626190185547
 30
0.0
 11
239.2321014404297
 21
104.6118545532227
 31
0.0
1001
DBPROPERTIES
1002
{
1000
PbThick
1002
}
  0
LINE
  5
243
330
1F
100
AcDbEntity
  8
THICK
100
AcDbLine
 10
239.2321014404297
 20
104.6118545532227
 30
0.0
 11
239.6091613769531
 21
104.4548416137695
 31
0.0
1001
DBPROPERTIES
1002
{
1000
PbThick
1002
}
  0
LINE
  5
244
330
1F
100
AcDbEntity
  8
THICK
100
AcDbLine
 10
239.6091613769531
 20
104.4548416137695
 30
0.0
 11
239.9682312011719
 21
104.2931900024414
 31
0.0
1001
DBPROPERTIES
1002
{
1000
PbThick
1002
}
  0
LINE
  5
245
330
1F
100
AcDbEntity
  8
THICK
100
AcDbLine
 10
239.9682312011719
 20
104.2931900024414
 30
0.0
 11
240.3074188232422
 21
104.1286926269531
 31
0.0
1001
DBPROPERTIES
1002
{
1000
PbThick
1002
}
  0
LINE
  5
246
330
1F
100
AcDbEntity
  8
THICK
100
AcDbLine
 10
240.3074188232422
 20
104.1286926269531
 30
0.0
 11
240.625244140625
 21
103.9633178710938
 31
0.0
1001
DBPROPERTIES
1002
{
1000
PbThick
1002
}
  0
LINE
  5
247
330
1F
100
AcDbEntity
  8
THICK
100
AcDbLine
 10
240.625244140625
 20
103.9633178710938
 30
0.0
 11
240.9267883300781
 21
103.7953491210938
 31
0.0
1001
DBPROPERTIES
1002
{
1000
PbThick
1002
}
  0
LINE
  5
248
330
1F
100
AcDbEntity
  8
THICK
100
AcDbLine
 10
240.9267883300781
 20
103.7953491210938
 30
0.0
 11
241.2228698730469
 21
103.619010925293
 31
0.0
1001
DBPROPERTIES
1002
{
1000
PbThick
1002
}
  0
LINE
  5
249
330
1F
100
AcDbEntity
  8
THICK
100
AcDbLine
 10
241.2228698730469
 20
103.619010925293
 30
0.0
 11
241.5119323730469
 21
103.4349136352539
 31
0.0
1001
DBPROPERTIES
1002
{
1000
PbThick
1002
}
  0
LINE
  5
24A
330
1F
100
AcDbEntity
  8
THICK
100
AcDbLine
 10
241.5119323730469
 20
103.4349136352539
 30
0.0
 11
241.7920837402344
 21
103.2438735961914
 31
0.0
1001
DBPROPERTIES
1002
{
1000
PbThick
1002
}
  0
LINE
  5
24B
330
1F
100
AcDbEntity
  8
THICK
100
AcDbLine
 10
241.7920837402344
 20
103.2438735961914
 30
0.0
 11
242.0618591308594
 21
103.0468368530273
 31
0.0
1001
DBPROPERTIES
1002
{
1000
PbThick
1002
}
  0
LINE
  5
24C
330
1F
100
AcDbEntity
  8
THICK
100
AcDbLine
 10
242.0618591308594
 20
103.0468368530273
 30
0.0
 11
242.3200988769531
 21
102.8448104858398
 31
0.0
1001
DBPROPERTIES
1002
{
1000
PbThick
1002
}
  0
LINE
  5
24D
330
1F
100
AcDbEntity
  8
THICK
100
AcDbLine
 10
242.3200988769531
 20
102.8448104858398
 30
0.0
 11
242.5656433105469
 21
102.6388397216797
 31
0.0
1001
DBPROPERTIES
1002
{
1000
PbThick
1002
}
  0
LINE
  5
24E
330
1F
100
AcDbEntity
  8
THICK
100
AcDbLine
 10
242.5656433105469
 20
102.6388397216797
 30
0.0
 11
242.7976837158203
 21
102.4299774169922
 31
0.0
1001
DBPROPERTIES
1002
{
1000
PbThick
1002
}
  0
LINE
  5
24F
330
1F
100
AcDbEntity
  8
THICK
100
AcDbLine
 10
242.7976837158203
 20
102.4299774169922
 30
0.0
 11
243.0157165527344
 21
102.2193984985352
 31
0.0
1001
DBPROPERTIES
1002
{
1000
PbThick
1002
}
  0
LINE
  5
250
330
1F
100
AcDbEntity
  8
THICK
100
AcDbLine
 10
243.0157165527344
 20
102.2193984985352
 30
0.0
 11
243.21923828125
 21
102.0082931518555
 31
0.0
1001
DBPROPERTIES
1002
{
1000
PbThick
1002
}
  0
LINE
  5
251
330
1F
100
AcDbEntity
  8
THICK
100
AcDbLine
 10
232.4
 20
105.8503412206888
 30
0.0
 11
232.4
 21
95.13208654839983
 31
0.0
1001
DBPROPERTIES
1002
{
1000
PbThick
1002
}
  0
LINE
  5
252
330
1F
100
AcDbEntity
  8
THICK
100
AcDbLine
 10
243.21923828125
 20
86.7734375
 30
0.0
 11
243.0157165527344
 21
87.23271942138672
 31
0.0
1001
DBPROPERTIES
1002
{
1000
PbThick
1002
}
  0
LINE
  5
253
330
1F
100
AcDbEntity
  8
THICK
100
AcDbLine
 10
243.0157165527344
 20
87.23271942138672
 30
0.0
 11
242.7976837158203
 21
87.69084167480469
 31
0.0
1001
DBPROPERTIES
1002
{
1000
PbThick
1002
}
  0
LINE
  5
254
330
1F
100
AcDbEntity
  8
THICK
100
AcDbLine
 10
242.7976837158203
 20
87.69084167480469
 30
0.0
 11
242.5656433105469
 21
88.14523315429688
 31
0.0
1001
DBPROPERTIES
1002
{
1000
PbThick
1002
}
  0
LINE
  5
255
330
1F
100
AcDbEntity
  8
THICK
100
AcDbLine
 10
242.5656433105469
 20
88.14523315429688
 30
0.0
 11
242.3200988769531
 21
88.59334564208984
 31
0.0
1001
DBPROPERTIES
1002
{
1000
PbThick
1002
}
  0
LINE
  5
256
330
1F
100
AcDbEntity
  8
THICK
100
AcDbLine
 10
242.3200988769531
 20
88.59334564208984
 30
0.0
 11
242.0618591308594
 21
89.0328598022461
 31
0.0
1001
DBPROPERTIES
1002
{
1000
PbThick
1002
}
  0
LINE
  5
257
330
1F
100
AcDbEntity
  8
THICK
100
AcDbLine
 10
242.0618591308594
 20
89.0328598022461
 30
0.0
 11
241.7920837402344
 21
89.46154022216797
 31
0.0
1001
DBPROPERTIES
1002
{
1000
PbThick
1002
}
  0
LINE
  5
258
330
1F
100
AcDbEntity
  8
THICK
100
AcDbLine
 10
241.7920837402344
 20
89.46154022216797
 30
0.0
 11
241.5119323730469
 21
89.87715911865234
 31
0.0
1001
DBPROPERTIES
1002
{
1000
PbThick
1002
}
  0
LINE
  5
259
330
1F
100
AcDbEntity
  8
THICK
100
AcDbLine
 10
241.5119323730469
 20
89.87715911865234
 30
0.0
 11
241.2228698730469
 21
90.27766418457031
 31
0.0
1001
DBPROPERTIES
1002
{
1000
PbThick
1002
}
  0
LINE
  5
25A
330
1F
100
AcDbEntity
  8
THICK
100
AcDbLine
 10
241.2228698730469
 20
90.27766418457031
 30
0.0
 11
240.9267883300781
 21
90.66130828857422
 31
0.0
1001
DBPROPERTIES
1002
{
1000
PbThick
1002
}
  0
LINE
  5
25B
330
1F
100
AcDbEntity
  8
THICK
100
AcDbLine
 10
240.9267883300781
 20
90.66130828857422
 30
0.0
 11
240.625244140625
 21
91.02672576904297
 31
0.0
1001
DBPROPERTIES
1002
{
1000
PbThick
1002
}
  0
LINE
  5
25C
330
1F
100
AcDbEntity
  8
THICK
100
AcDbLine
 10
240.625244140625
 20
91.02672576904297
 30
0.0
 11
240.3074188232422
 21
91.38652038574219
 31
0.0
1001
DBPROPERTIES
1002
{
1000
PbThick
1002
}
  0
LINE
  5
25D
330
1F
100
AcDbEntity
  8
THICK
100
AcDbLine
 10
240.3074188232422
 20
91.38652038574219
 30
0.0
 11
239.9682312011719
 21
91.74440002441406
 31
0.0
1001
DBPROPERTIES
1002
{
1000
PbThick
1002
}
  0
LINE
  5
25E
330
1F
100
AcDbEntity
  8
THICK
100
AcDbLine
 10
239.9682312011719
 20
91.74440002441406
 30
0.0
 11
239.6091613769531
 21
92.0960693359375
 31
0.0
1001
DBPROPERTIES
1002
{
1000
PbThick
1002
}
  0
LINE
  5
25F
330
1F
100
AcDbEntity
  8
THICK
100
AcDbLine
 10
239.6091613769531
 20
92.0960693359375
 30
0.0
 11
239.2321014404297
 21
92.43766784667969
 31
0.0
1001
DBPROPERTIES
1002
{
1000
PbThick
1002
}
  0
LINE
  5
260
330
1F
100
AcDbEntity
  8
THICK
100
AcDbLine
 10
239.2321014404297
 20
92.43766784667969
 30
0.0
 11
238.8393096923828
 21
92.76567077636719
 31
0.0
1001
DBPROPERTIES
1002
{
1000
PbThick
1002
}
  0
LINE
  5
261
330
1F
100
AcDbEntity
  8
THICK
100
AcDbLine
 10
238.8393096923828
 20
92.76567077636719
 30
0.0
 11
238.4331207275391
 21
93.07681274414062
 31
0.0
1001
DBPROPERTIES
1002
{
1000
PbThick
1002
}
  0
LINE
  5
262
330
1F
100
AcDbEntity
  8
THICK
100
AcDbLine
 10
238.4331207275391
 20
93.07681274414062
 30
0.0
 11
238.0164947509766
 21
93.36853790283203
 31
0.0
1001
DBPROPERTIES
1002
{
1000
PbThick
1002
}
  0
LINE
  5
263
330
1F
100
AcDbEntity
  8
THICK
100
AcDbLine
 10
238.0164947509766
 20
93.36853790283203
 30
0.0
 11
237.5925903320312
 21
93.63842010498047
 31
0.0
1001
DBPROPERTIES
1002
{
1000
PbThick
1002
}
  0
LINE
  5
264
330
1F
100
AcDbEntity
  8
THICK
100
AcDbLine
 10
237.5925903320312
 20
93.63842010498047
 30
0.0
 11
237.1649932861328
 21
93.88460540771484
 31
0.0
1001
DBPROPERTIES
1002
{
1000
PbThick
1002
}
  0
LINE
  5
265
330
1F
100
AcDbEntity
  8
THICK
100
AcDbLine
 10
237.1649932861328
 20
93.88460540771484
 30
0.0
 11
236.7377319335938
 21
94.10598754882812
 31
0.0
1001
DBPROPERTIES
1002
{
1000
PbThick
1002
}
  0
LINE
  5
266
330
1F
100
AcDbEntity
  8
THICK
100
AcDbLine
 10
236.7377319335938
 20
94.10598754882812
 30
0.0
 11
236.3035278320312
 21
94.30661010742188
 31
0.0
1001
DBPROPERTIES
1002
{
1000
PbThick
1002
}
  0
LINE
  5
267
330
1F
100
AcDbEntity
  8
THICK
100
AcDbLine
 10
236.3035278320312
 20
94.30661010742188
 30
0.0
 11
235.8463745117188
 21
94.49261474609375
 31
0.0
1001
DBPROPERTIES
1002
{
1000
PbThick
1002
}
  0
LINE
  5
268
330
1F
100
AcDbEntity
  8
THICK
100
AcDbLine
 10
235.8463745117188
 20
94.49261474609375
 30
0.0
 11
235.3702850341797
 21
94.65966796875
 31
0.0
1001
DBPROPERTIES
1002
{
1000
PbThick
1002
}
  0
LINE
  5
269
330
1F
100
AcDbEntity
  8
THICK
100
AcDbLine
 10
235.3702850341797
 20
94.65966796875
 30
0.0
 11
234.8800506591797
 21
94.80429077148438
 31
0.0
1001
DBPROPERTIES
1002
{
1000
PbThick
1002
}
  0
LINE
  5
26A
330
1F
100
AcDbEntity
  8
THICK
100
AcDbLine
 10
234.8800506591797
 20
94.80429077148438
 30
0.0
 11
234.3807373046875
 21
94.92381286621094
 31
0.0
1001
DBPROPERTIES
1002
{
1000
PbThick
1002
}
  0
LINE
  5
26B
330
1F
100
AcDbEntity
  8
THICK
100
AcDbLine
 10
234.3807373046875
 20
94.92381286621094
 30
0.0
 11
233.87744140625
 21
95.01651763916016
 31
0.0
1001
DBPROPERTIES
1002
{
1000
PbThick
1002
}
  0
LINE
  5
26C
330
1F
100
AcDbEntity
  8
THICK
100
AcDbLine
 10
233.87744140625
 20
95.01651763916016
 30
0.0
 11
233.3757171630859
 21
95.08180236816406
 31
0.0
1001
DBPROPERTIES
1002
{
1000
PbThick
1002
}
  0
LINE
  5
26D
330
1F
100
AcDbEntity
  8
THICK
100
AcDbLine
 10
233.3757171630859
 20
95.08180236816406
 30
0.0
 11
232.8812866210938
 21
95.11980438232422
 31
0.0
1001
DBPROPERTIES
1002
{
1000
PbThick
1002
}
  0
LINE
  5
26E
330
1F
100
AcDbEntity
  8
THICK
100
AcDbLine
 10
232.8812866210938
 20
95.11980438232422
 30
0.0
 11
232.3999938964844
 21
95.13208770751953
 31
0.0
1001
DBPROPERTIES
1002
{
1000
PbThick
1002
}
  0
LINE
  5
26F
330
1F
100
AcDbEntity
  8
THICK
100
AcDbLine
 10
232.3999938964844
 20
88.0973129272461
 30
0.0
 11
232.8812866210938
 21
88.09536743164062
 31
0.0
1001
DBPROPERTIES
1002
{
1000
PbThick
1002
}
  0
LINE
  5
270
330
1F
100
AcDbEntity
  8
THICK
100
AcDbLine
 10
232.8812866210938
 20
88.09536743164062
 30
0.0
 11
233.3757171630859
 21
88.08934783935547
 31
0.0
1001
DBPROPERTIES
1002
{
1000
PbThick
1002
}
  0
LINE
  5
271
330
1F
100
AcDbEntity
  8
THICK
100
AcDbLine
 10
233.3757171630859
 20
88.08934783935547
 30
0.0
 11
233.87744140625
 21
88.07901000976562
 31
0.0
1001
DBPROPERTIES
1002
{
1000
PbThick
1002
}
  0
LINE
  5
272
330
1F
100
AcDbEntity
  8
THICK
100
AcDbLine
 10
233.87744140625
 20
88.07901000976562
 30
0.0
 11
234.3807373046875
 21
88.0643310546875
 31
0.0
1001
DBPROPERTIES
1002
{
1000
PbThick
1002
}
  0
LINE
  5
273
330
1F
100
AcDbEntity
  8
THICK
100
AcDbLine
 10
234.3807373046875
 20
88.0643310546875
 30
0.0
 11
234.8800506591797
 21
88.04539489746094
 31
0.0
1001
DBPROPERTIES
1002
{
1000
PbThick
1002
}
  0
LINE
  5
274
330
1F
100
AcDbEntity
  8
THICK
100
AcDbLine
 10
234.8800506591797
 20
88.04539489746094
 30
0.0
 11
235.3702850341797
 21
88.02249145507812
 31
0.0
1001
DBPROPERTIES
1002
{
1000
PbThick
1002
}
  0
LINE
  5
275
330
1F
100
AcDbEntity
  8
THICK
100
AcDbLine
 10
235.3702850341797
 20
88.02249145507812
 30
0.0
 11
235.8463745117188
 21
87.99603271484375
 31
0.0
1001
DBPROPERTIES
1002
{
1000
PbThick
1002
}
  0
LINE
  5
276
330
1F
100
AcDbEntity
  8
THICK
100
AcDbLine
 10
235.8463745117188
 20
87.99603271484375
 30
0.0
 11
236.3035278320312
 21
87.9665756225586
 31
0.0
1001
DBPROPERTIES
1002
{
1000
PbThick
1002
}
  0
LINE
  5
277
330
1F
100
AcDbEntity
  8
THICK
100
AcDbLine
 10
236.3035278320312
 20
87.9665756225586
 30
0.0
 11
236.7377319335938
 21
87.93479919433594
 31
0.0
1001
DBPROPERTIES
1002
{
1000
PbThick
1002
}
  0
LINE
  5
278
330
1F
100
AcDbEntity
  8
THICK
100
AcDbLine
 10
236.7377319335938
 20
87.93479919433594
 30
0.0
 11
237.1649932861328
 21
87.89973449707031
 31
0.0
1001
DBPROPERTIES
1002
{
1000
PbThick
1002
}
  0
LINE
  5
279
330
1F
100
AcDbEntity
  8
THICK
100
AcDbLine
 10
237.1649932861328
 20
87.89973449707031
 30
0.0
 11
237.5925903320312
 21
87.8607406616211
 31
0.0
1001
DBPROPERTIES
1002
{
1000
PbThick
1002
}
  0
LINE
  5
27A
330
1F
100
AcDbEntity
  8
THICK
100
AcDbLine
 10
237.5925903320312
 20
87.8607406616211
 30
0.0
 11
238.0164947509766
 21
87.8179931640625
 31
0.0
1001
DBPROPERTIES
1002
{
1000
PbThick
1002
}
  0
LINE
  5
27B
330
1F
100
AcDbEntity
  8
THICK
100
AcDbLine
 10
238.0164947509766
 20
87.8179931640625
 30
0.0
 11
238.4331207275391
 21
87.77178955078125
 31
0.0
1001
DBPROPERTIES
1002
{
1000
PbThick
1002
}
  0
LINE
  5
27C
330
1F
100
AcDbEntity
  8
THICK
100
AcDbLine
 10
238.4331207275391
 20
87.77178955078125
 30
0.0
 11
238.8393096923828
 21
87.7225112915039
 31
0.0
1001
DBPROPERTIES
1002
{
1000
PbThick
1002
}
  0
LINE
  5
27D
330
1F
100
AcDbEntity
  8
THICK
100
AcDbLine
 10
238.8393096923828
 20
87.7225112915039
 30
0.0
 11
239.2321014404297
 21
87.67056274414062
 31
0.0
1001
DBPROPERTIES
1002
{
1000
PbThick
1002
}
  0
LINE
  5
27E
330
1F
100
AcDbEntity
  8
THICK
100
AcDbLine
 10
239.2321014404297
 20
87.67056274414062
 30
0.0
 11
239.6091613769531
 21
87.616455078125
 31
0.0
1001
DBPROPERTIES
1002
{
1000
PbThick
1002
}
  0
LINE
  5
27F
330
1F
100
AcDbEntity
  8
THICK
100
AcDbLine
 10
239.6091613769531
 20
87.616455078125
 30
0.0
 11
239.9682312011719
 21
87.56076049804688
 31
0.0
1001
DBPROPERTIES
1002
{
1000
PbThick
1002
}
  0
LINE
  5
280
330
1F
100
AcDbEntity
  8
THICK
100
AcDbLine
 10
239.9682312011719
 20
87.56076049804688
 30
0.0
 11
240.3074188232422
 21
87.50407409667969
 31
0.0
1001
DBPROPERTIES
1002
{
1000
PbThick
1002
}
  0
LINE
  5
281
330
1F
100
AcDbEntity
  8
THICK
100
AcDbLine
 10
240.3074188232422
 20
87.50407409667969
 30
0.0
 11
240.625244140625
 21
87.44709014892578
 31
0.0
1001
DBPROPERTIES
1002
{
1000
PbThick
1002
}
  0
LINE
  5
282
330
1F
100
AcDbEntity
  8
THICK
100
AcDbLine
 10
240.625244140625
 20
87.44709014892578
 30
0.0
 11
240.9267883300781
 21
87.38921356201172
 31
0.0
1001
DBPROPERTIES
1002
{
1000
PbThick
1002
}
  0
LINE
  5
283
330
1F
100
AcDbEntity
  8
THICK
100
AcDbLine
 10
240.9267883300781
 20
87.38921356201172
 30
0.0
 11
241.2228698730469
 21
87.32845306396484
 31
0.0
1001
DBPROPERTIES
1002
{
1000
PbThick
1002
}
  0
LINE
  5
284
330
1F
100
AcDbEntity
  8
THICK
100
AcDbLine
 10
241.2228698730469
 20
87.32845306396484
 30
0.0
 11
241.5119323730469
 21
87.2650146484375
 31
0.0
1001
DBPROPERTIES
1002
{
1000
PbThick
1002
}
  0
LINE
  5
285
330
1F
100
AcDbEntity
  8
THICK
100
AcDbLine
 10
241.5119323730469
 20
87.2650146484375
 30
0.0
 11
241.7920837402344
 21
87.19918823242188
 31
0.0
1001
DBPROPERTIES
1002
{
1000
PbThick
1002
}
  0
LINE
  5
286
330
1F
100
AcDbEntity
  8
THICK
100
AcDbLine
 10
241.7920837402344
 20
87.19918823242188
 30
0.0
 11
242.0618591308594
 21
87.13129425048828
 31
0.0
1001
DBPROPERTIES
1002
{
1000
PbThick
1002
}
  0
LINE
  5
287
330
1F
100
AcDbEntity
  8
THICK
100
AcDbLine
 10
242.0618591308594
 20
87.13129425048828
 30
0.0
 11
242.3200988769531
 21
87.06168365478516
 31
0.0
1001
DBPROPERTIES
1002
{
1000
PbThick
1002
}
  0
LINE
  5
288
330
1F
100
AcDbEntity
  8
THICK
100
AcDbLine
 10
242.3200988769531
 20
87.06168365478516
 30
0.0
 11
242.5656433105469
 21
86.99070739746094
 31
0.0
1001
DBPROPERTIES
1002
{
1000
PbThick
1002
}
  0
LINE
  5
289
330
1F
100
AcDbEntity
  8
THICK
100
AcDbLine
 10
242.5656433105469
 20
86.99070739746094
 30
0.0
 11
242.7976837158203
 21
86.91873931884766
 31
0.0
1001
DBPROPERTIES
1002
{
1000
PbThick
1002
}
  0
LINE
  5
28A
330
1F
100
AcDbEntity
  8
THICK
100
AcDbLine
 10
242.7976837158203
 20
86.91873931884766
 30
0.0
 11
243.0157165527344
 21
86.84617614746094
 31
0.0
1001
DBPROPERTIES
1002
{
1000
PbThick
1002
}
  0
LINE
  5
28B
330
1F
100
AcDbEntity
  8
THICK
100
AcDbLine
 10
243.0157165527344
 20
86.84617614746094
 30
0.0
 11
243.21923828125
 21
86.7734375
 31
0.0
1001
DBPROPERTIES
1002
{
1000
PbThick
1002
}
  0
LINE
  5
28C
330
1F
100
AcDbEntity
  8
THICK
100
AcDbLine
 10
232.4
 20
88.09731539850183
 30
0.0
 11
232.4
 21
71.40324236039206
 31
0.0
1001
DBPROPERTIES
1002
{
1000
PbThick
1002
}
  0
LINE
  5
28D
330
1F
100
AcDbEntity
  8
THICK
100
AcDbLine
 10
243.21923828125
 20
63.04458999633789
 30
0.0
 11
243.0157165527344
 21
63.50387573242188
 31
0.0
1001
DBPROPERTIES
1002
{
1000
PbThick
1002
}
  0
LINE
  5
28E
330
1F
100
AcDbEntity
  8
THICK
100
AcDbLine
 10
243.0157165527344
 20
63.50387573242188
 30
0.0
 11
242.7976837158203
 21
63.96199798583984
 31
0.0
1001
DBPROPERTIES
1002
{
1000
PbThick
1002
}
  0
LINE
  5
28F
330
1F
100
AcDbEntity
  8
THICK
100
AcDbLine
 10
242.7976837158203
 20
63.96199798583984
 30
0.0
 11
242.5656433105469
 21
64.41638946533203
 31
0.0
1001
DBPROPERTIES
1002
{
1000
PbThick
1002
}
  0
LINE
  5
290
330
1F
100
AcDbEntity
  8
THICK
100
AcDbLine
 10
242.5656433105469
 20
64.41638946533203
 30
0.0
 11
242.3200988769531
 21
64.864501953125
 31
0.0
1001
DBPROPERTIES
1002
{
1000
PbThick
1002
}
  0
LINE
  5
291
330
1F
100
AcDbEntity
  8
THICK
100
AcDbLine
 10
242.3200988769531
 20
64.864501953125
 30
0.0
 11
242.0618591308594
 21
65.30401611328125
 31
0.0
1001
DBPROPERTIES
1002
{
1000
PbThick
1002
}
  0
LINE
  5
292
330
1F
100
AcDbEntity
  8
THICK
100
AcDbLine
 10
242.0618591308594
 20
65.30401611328125
 30
0.0
 11
241.7920837402344
 21
65.73269653320312
 31
0.0
1001
DBPROPERTIES
1002
{
1000
PbThick
1002
}
  0
LINE
  5
293
330
1F
100
AcDbEntity
  8
THICK
100
AcDbLine
 10
241.7920837402344
 20
65.73269653320312
 30
0.0
 11
241.5119323730469
 21
66.1483154296875
 31
0.0
1001
DBPROPERTIES
1002
{
1000
PbThick
1002
}
  0
LINE
  5
294
330
1F
100
AcDbEntity
  8
THICK
100
AcDbLine
 10
241.5119323730469
 20
66.1483154296875
 30
0.0
 11
241.2228698730469
 21
66.54882049560547
 31
0.0
1001
DBPROPERTIES
1002
{
1000
PbThick
1002
}
  0
LINE
  5
295
330
1F
100
AcDbEntity
  8
THICK
100
AcDbLine
 10
241.2228698730469
 20
66.54882049560547
 30
0.0
 11
240.9267883300781
 21
66.93246459960938
 31
0.0
1001
DBPROPERTIES
1002
{
1000
PbThick
1002
}
  0
LINE
  5
296
330
1F
100
AcDbEntity
  8
THICK
100
AcDbLine
 10
240.9267883300781
 20
66.93246459960938
 30
0.0
 11
240.625244140625
 21
67.29788208007812
 31
0.0
1001
DBPROPERTIES
1002
{
1000
PbThick
1002
}
  0
LINE
  5
297
330
1F
100
AcDbEntity
  8
THICK
100
AcDbLine
 10
240.625244140625
 20
67.29788208007812
 30
0.0
 11
240.3074188232422
 21
67.65767669677734
 31
0.0
1001
DBPROPERTIES
1002
{
1000
PbThick
1002
}
  0
LINE
  5
298
330
1F
100
AcDbEntity
  8
THICK
100
AcDbLine
 10
240.3074188232422
 20
67.65767669677734
 30
0.0
 11
239.9682312011719
 21
68.01555633544922
 31
0.0
1001
DBPROPERTIES
1002
{
1000
PbThick
1002
}
  0
LINE
  5
299
330
1F
100
AcDbEntity
  8
THICK
100
AcDbLine
 10
239.9682312011719
 20
68.01555633544922
 30
0.0
 11
239.6091613769531
 21
68.36722564697266
 31
0.0
1001
DBPROPERTIES
1002
{
1000
PbThick
1002
}
  0
LINE
  5
29A
330
1F
100
AcDbEntity
  8
THICK
100
AcDbLine
 10
239.6091613769531
 20
68.36722564697266
 30
0.0
 11
239.2321014404297
 21
68.70882415771484
 31
0.0
1001
DBPROPERTIES
1002
{
1000
PbThick
1002
}
  0
LINE
  5
29B
330
1F
100
AcDbEntity
  8
THICK
100
AcDbLine
 10
239.2321014404297
 20
68.70882415771484
 30
0.0
 11
238.8393096923828
 21
69.03682708740234
 31
0.0
1001
DBPROPERTIES
1002
{
1000
PbThick
1002
}
  0
LINE
  5
29C
330
1F
100
AcDbEntity
  8
THICK
100
AcDbLine
 10
238.8393096923828
 20
69.03682708740234
 30
0.0
 11
238.4331207275391
 21
69.34796905517578
 31
0.0
1001
DBPROPERTIES
1002
{
1000
PbThick
1002
}
  0
LINE
  5
29D
330
1F
100
AcDbEntity
  8
THICK
100
AcDbLine
 10
238.4331207275391
 20
69.34796905517578
 30
0.0
 11
238.0164947509766
 21
69.63969421386719
 31
0.0
1001
DBPROPERTIES
1002
{
1000
PbThick
1002
}
  0
LINE
  5
29E
330
1F
100
AcDbEntity
  8
THICK
100
AcDbLine
 10
238.0164947509766
 20
69.63969421386719
 30
0.0
 11
237.5925903320312
 21
69.9095687866211
 31
0.0
1001
DBPROPERTIES
1002
{
1000
PbThick
1002
}
  0
LINE
  5
29F
330
1F
100
AcDbEntity
  8
THICK
100
AcDbLine
 10
237.5925903320312
 20
69.9095687866211
 30
0.0
 11
237.1649932861328
 21
70.15576171875
 31
0.0
1001
DBPROPERTIES
1002
{
1000
PbThick
1002
}
  0
LINE
  5
2A0
330
1F
100
AcDbEntity
  8
THICK
100
AcDbLine
 10
237.1649932861328
 20
70.15576171875
 30
0.0
 11
236.7377319335938
 21
70.37714385986328
 31
0.0
1001
DBPROPERTIES
1002
{
1000
PbThick
1002
}
  0
LINE
  5
2A1
330
1F
100
AcDbEntity
  8
THICK
100
AcDbLine
 10
236.7377319335938
 20
70.37714385986328
 30
0.0
 11
236.3035278320312
 21
70.57776641845703
 31
0.0
1001
DBPROPERTIES
1002
{
1000
PbThick
1002
}
  0
LINE
  5
2A2
330
1F
100
AcDbEntity
  8
THICK
100
AcDbLine
 10
236.3035278320312
 20
70.57776641845703
 30
0.0
 11
235.8463745117188
 21
70.76376342773438
 31
0.0
1001
DBPROPERTIES
1002
{
1000
PbThick
1002
}
  0
LINE
  5
2A3
330
1F
100
AcDbEntity
  8
THICK
100
AcDbLine
 10
235.8463745117188
 20
70.76376342773438
 30
0.0
 11
235.3702850341797
 21
70.93082427978516
 31
0.0
1001
DBPROPERTIES
1002
{
1000
PbThick
1002
}
  0
LINE
  5
2A4
330
1F
100
AcDbEntity
  8
THICK
100
AcDbLine
 10
235.3702850341797
 20
70.93082427978516
 30
0.0
 11
234.8800506591797
 21
71.07544708251953
 31
0.0
1001
DBPROPERTIES
1002
{
1000
PbThick
1002
}
  0
LINE
  5
2A5
330
1F
100
AcDbEntity
  8
THICK
100
AcDbLine
 10
234.8800506591797
 20
71.07544708251953
 30
0.0
 11
234.3807373046875
 21
71.1949691772461
 31
0.0
1001
DBPROPERTIES
1002
{
1000
PbThick
1002
}
  0
LINE
  5
2A6
330
1F
100
AcDbEntity
  8
THICK
100
AcDbLine
 10
234.3807373046875
 20
71.1949691772461
 30
0.0
 11
233.87744140625
 21
71.28767395019531
 31
0.0
1001
DBPROPERTIES
1002
{
1000
PbThick
1002
}
  0
LINE
  5
2A7
330
1F
100
AcDbEntity
  8
THICK
100
AcDbLine
 10
233.87744140625
 20
71.28767395019531
 30
0.0
 11
233.3757171630859
 21
71.35295867919922
 31
0.0
1001
DBPROPERTIES
1002
{
1000
PbThick
1002
}
  0
LINE
  5
2A8
330
1F
100
AcDbEntity
  8
THICK
100
AcDbLine
 10
233.3757171630859
 20
71.35295867919922
 30
0.0
 11
232.8812866210938
 21
71.39096069335938
 31
0.0
1001
DBPROPERTIES
1002
{
1000
PbThick
1002
}
  0
LINE
  5
2A9
330
1F
100
AcDbEntity
  8
THICK
100
AcDbLine
 10
232.8812866210938
 20
71.39096069335938
 30
0.0
 11
232.3999938964844
 21
71.40324401855469
 31
0.0
1001
DBPROPERTIES
1002
{
1000
PbThick
1002
}
  0
LINE
  5
2AA
330
1F
100
AcDbEntity
  8
THICK
100
AcDbLine
 10
232.3999938964844
 20
61.72071075439453
 30
0.0
 11
232.8812866210938
 21
61.72265625
 31
0.0
1001
DBPROPERTIES
1002
{
1000
PbThick
1002
}
  0
LINE
  5
2AB
330
1F
100
AcDbEntity
  8
THICK
100
AcDbLine
 10
232.8812866210938
 20
61.72265625
 30
0.0
 11
233.3757171630859
 21
61.72867584228516
 31
0.0
1001
DBPROPERTIES
1002
{
1000
PbThick
1002
}
  0
LINE
  5
2AC
330
1F
100
AcDbEntity
  8
THICK
100
AcDbLine
 10
233.3757171630859
 20
61.72867584228516
 30
0.0
 11
233.87744140625
 21
61.739013671875
 31
0.0
1001
DBPROPERTIES
1002
{
1000
PbThick
1002
}
  0
LINE
  5
2AD
330
1F
100
AcDbEntity
  8
THICK
100
AcDbLine
 10
233.87744140625
 20
61.739013671875
 30
0.0
 11
234.3807373046875
 21
61.75369644165039
 31
0.0
1001
DBPROPERTIES
1002
{
1000
PbThick
1002
}
  0
LINE
  5
2AE
330
1F
100
AcDbEntity
  8
THICK
100
AcDbLine
 10
234.3807373046875
 20
61.75369644165039
 30
0.0
 11
234.8800506591797
 21
61.77262878417969
 31
0.0
1001
DBPROPERTIES
1002
{
1000
PbThick
1002
}
  0
LINE
  5
2AF
330
1F
100
AcDbEntity
  8
THICK
100
AcDbLine
 10
234.8800506591797
 20
61.77262878417969
 30
0.0
 11
235.3702850341797
 21
61.79553604125977
 31
0.0
1001
DBPROPERTIES
1002
{
1000
PbThick
1002
}
  0
LINE
  5
2B0
330
1F
100
AcDbEntity
  8
THICK
100
AcDbLine
 10
235.3702850341797
 20
61.79553604125977
 30
0.0
 11
235.8463745117188
 21
61.82199478149414
 31
0.0
1001
DBPROPERTIES
1002
{
1000
PbThick
1002
}
  0
LINE
  5
2B1
330
1F
100
AcDbEntity
  8
THICK
100
AcDbLine
 10
235.8463745117188
 20
61.82199478149414
 30
0.0
 11
236.3035278320312
 21
61.8514518737793
 31
0.0
1001
DBPROPERTIES
1002
{
1000
PbThick
1002
}
  0
LINE
  5
2B2
330
1F
100
AcDbEntity
  8
THICK
100
AcDbLine
 10
236.3035278320312
 20
61.8514518737793
 30
0.0
 11
236.7377319335938
 21
61.88322830200195
 31
0.0
1001
DBPROPERTIES
1002
{
1000
PbThick
1002
}
  0
LINE
  5
2B3
330
1F
100
AcDbEntity
  8
THICK
100
AcDbLine
 10
236.7377319335938
 20
61.88322830200195
 30
0.0
 11
237.1649932861328
 21
61.91829299926758
 31
0.0
1001
DBPROPERTIES
1002
{
1000
PbThick
1002
}
  0
LINE
  5
2B4
330
1F
100
AcDbEntity
  8
THICK
100
AcDbLine
 10
237.1649932861328
 20
61.91829299926758
 30
0.0
 11
237.5925903320312
 21
61.95728302001953
 31
0.0
1001
DBPROPERTIES
1002
{
1000
PbThick
1002
}
  0
LINE
  5
2B5
330
1F
100
AcDbEntity
  8
THICK
100
AcDbLine
 10
237.5925903320312
 20
61.95728302001953
 30
0.0
 11
238.0164947509766
 21
62.00003051757812
 31
0.0
1001
DBPROPERTIES
1002
{
1000
PbThick
1002
}
  0
LINE
  5
2B6
330
1F
100
AcDbEntity
  8
THICK
100
AcDbLine
 10
238.0164947509766
 20
62.00003051757812
 30
0.0
 11
238.4331207275391
 21
62.04623413085938
 31
0.0
1001
DBPROPERTIES
1002
{
1000
PbThick
1002
}
  0
LINE
  5
2B7
330
1F
100
AcDbEntity
  8
THICK
100
AcDbLine
 10
238.4331207275391
 20
62.04623413085938
 30
0.0
 11
238.8393096923828
 21
62.09551239013672
 31
0.0
1001
DBPROPERTIES
1002
{
1000
PbThick
1002
}
  0
LINE
  5
2B8
330
1F
100
AcDbEntity
  8
THICK
100
AcDbLine
 10
238.8393096923828
 20
62.09551239013672
 30
0.0
 11
239.2321014404297
 21
62.14746475219727
 31
0.0
1001
DBPROPERTIES
1002
{
1000
PbThick
1002
}
  0
LINE
  5
2B9
330
1F
100
AcDbEntity
  8
THICK
100
AcDbLine
 10
239.2321014404297
 20
62.14746475219727
 30
0.0
 11
239.6091613769531
 21
62.20156860351562
 31
0.0
1001
DBPROPERTIES
1002
{
1000
PbThick
1002
}
  0
LINE
  5
2BA
330
1F
100
AcDbEntity
  8
THICK
100
AcDbLine
 10
239.6091613769531
 20
62.20156860351562
 30
0.0
 11
239.9682312011719
 21
62.25726699829102
 31
0.0
1001
DBPROPERTIES
1002
{
1000
PbThick
1002
}
  0
LINE
  5
2BB
330
1F
100
AcDbEntity
  8
THICK
100
AcDbLine
 10
239.9682312011719
 20
62.25726699829102
 30
0.0
 11
240.3074188232422
 21
62.31394958496094
 31
0.0
1001
DBPROPERTIES
1002
{
1000
PbThick
1002
}
  0
LINE
  5
2BC
330
1F
100
AcDbEntity
  8
THICK
100
AcDbLine
 10
240.3074188232422
 20
62.31394958496094
 30
0.0
 11
240.625244140625
 21
62.37093734741211
 31
0.0
1001
DBPROPERTIES
1002
{
1000
PbThick
1002
}
  0
LINE
  5
2BD
330
1F
100
AcDbEntity
  8
THICK
100
AcDbLine
 10
240.625244140625
 20
62.37093734741211
 30
0.0
 11
240.9267883300781
 21
62.42881011962891
 31
0.0
1001
DBPROPERTIES
1002
{
1000
PbThick
1002
}
  0
LINE
  5
2BE
330
1F
100
AcDbEntity
  8
THICK
100
AcDbLine
 10
240.9267883300781
 20
62.42881011962891
 30
0.0
 11
241.2228698730469
 21
62.48957443237305
 31
0.0
1001
DBPROPERTIES
1002
{
1000
PbThick
1002
}
  0
LINE
  5
2BF
330
1F
100
AcDbEntity
  8
THICK
100
AcDbLine
 10
241.2228698730469
 20
62.48957443237305
 30
0.0
 11
241.5119323730469
 21
62.55300903320312
 31
0.0
1001
DBPROPERTIES
1002
{
1000
PbThick
1002
}
  0
LINE
  5
2C0
330
1F
100
AcDbEntity
  8
THICK
100
AcDbLine
 10
241.5119323730469
 20
62.55300903320312
 30
0.0
 11
241.7920837402344
 21
62.61883544921875
 31
0.0
1001
DBPROPERTIES
1002
{
1000
PbThick
1002
}
  0
LINE
  5
2C1
330
1F
100
AcDbEntity
  8
THICK
100
AcDbLine
 10
241.7920837402344
 20
62.61883544921875
 30
0.0
 11
242.0618591308594
 21
62.68673324584961
 31
0.0
1001
DBPROPERTIES
1002
{
1000
PbThick
1002
}
  0
LINE
  5
2C2
330
1F
100
AcDbEntity
  8
THICK
100
AcDbLine
 10
242.0618591308594
 20
62.68673324584961
 30
0.0
 11
242.3200988769531
 21
62.75634384155273
 31
0.0
1001
DBPROPERTIES
1002
{
1000
PbThick
1002
}
  0
LINE
  5
2C3
330
1F
100
AcDbEntity
  8
THICK
100
AcDbLine
 10
242.3200988769531
 20
62.75634384155273
 30
0.0
 11
242.5656433105469
 21
62.82732009887695
 31
0.0
1001
DBPROPERTIES
1002
{
1000
PbThick
1002
}
  0
LINE
  5
2C4
330
1F
100
AcDbEntity
  8
THICK
100
AcDbLine
 10
242.5656433105469
 20
62.82732009887695
 30
0.0
 11
242.7976837158203
 21
62.89928817749023
 31
0.0
1001
DBPROPERTIES
1002
{
1000
PbThick
1002
}
  0
LINE
  5
2C5
330
1F
100
AcDbEntity
  8
THICK
100
AcDbLine
 10
242.7976837158203
 20
62.89928817749023
 30
0.0
 11
243.0157165527344
 21
62.97184753417969
 31
0.0
1001
DBPROPERTIES
1002
{
1000
PbThick
1002
}
  0
LINE
  5
2C6
330
1F
100
AcDbEntity
  8
THICK
100
AcDbLine
 10
243.0157165527344
 20
62.97184753417969
 30
0.0
 11
243.21923828125
 21
63.04458999633789
 31
0.0
1001
DBPROPERTIES
1002
{
1000
PbThick
1002
}
  0
LINE
  5
2C7
330
1F
100
AcDbEntity
  8
THICK
100
AcDbLine
 10
232.4
 20
61.72071053502028
 30
0.0
 11
232.4
 21
40.68495131450626
 31
0.0
1001
DBPROPERTIES
1002
{
1000
PbThick
1002
}
  0
LINE
  5
2C8
330
1F
100
AcDbEntity
  8
THICK
100
AcDbLine
 10
243.21923828125
 20
33.14450454711914
 30
0.0
 11
243.0157165527344
 21
33.5588264465332
 31
0.0
1001
DBPROPERTIES
1002
{
1000
PbThick
1002
}
  0
LINE
  5
2C9
330
1F
100
AcDbEntity
  8
THICK
100
AcDbLine
 10
243.0157165527344
 20
33.5588264465332
 30
0.0
 11
242.7976837158203
 21
33.97210693359375
 31
0.0
1001
DBPROPERTIES
1002
{
1000
PbThick
1002
}
  0
LINE
  5
2CA
330
1F
100
AcDbEntity
  8
THICK
100
AcDbLine
 10
242.7976837158203
 20
33.97210693359375
 30
0.0
 11
242.5656433105469
 21
34.38201904296875
 31
0.0
1001
DBPROPERTIES
1002
{
1000
PbThick
1002
}
  0
LINE
  5
2CB
330
1F
100
AcDbEntity
  8
THICK
100
AcDbLine
 10
242.5656433105469
 20
34.38201904296875
 30
0.0
 11
242.3200988769531
 21
34.7862663269043
 31
0.0
1001
DBPROPERTIES
1002
{
1000
PbThick
1002
}
  0
LINE
  5
2CC
330
1F
100
AcDbEntity
  8
THICK
100
AcDbLine
 10
242.3200988769531
 20
34.7862663269043
 30
0.0
 11
242.0618591308594
 21
35.18275833129883
 31
0.0
1001
DBPROPERTIES
1002
{
1000
PbThick
1002
}
  0
LINE
  5
2CD
330
1F
100
AcDbEntity
  8
THICK
100
AcDbLine
 10
242.0618591308594
 20
35.18275833129883
 30
0.0
 11
241.7920837402344
 21
35.56947708129883
 31
0.0
1001
DBPROPERTIES
1002
{
1000
PbThick
1002
}
  0
LINE
  5
2CE
330
1F
100
AcDbEntity
  8
THICK
100
AcDbLine
 10
241.7920837402344
 20
35.56947708129883
 30
0.0
 11
241.5119323730469
 21
35.94440841674805
 31
0.0
1001
DBPROPERTIES
1002
{
1000
PbThick
1002
}
  0
LINE
  5
2CF
330
1F
100
AcDbEntity
  8
THICK
100
AcDbLine
 10
241.5119323730469
 20
35.94440841674805
 30
0.0
 11
241.2228698730469
 21
36.30571746826172
 31
0.0
1001
DBPROPERTIES
1002
{
1000
PbThick
1002
}
  0
LINE
  5
2D0
330
1F
100
AcDbEntity
  8
THICK
100
AcDbLine
 10
241.2228698730469
 20
36.30571746826172
 30
0.0
 11
240.9267883300781
 21
36.65180587768555
 31
0.0
1001
DBPROPERTIES
1002
{
1000
PbThick
1002
}
  0
LINE
  5
2D1
330
1F
100
AcDbEntity
  8
THICK
100
AcDbLine
 10
240.9267883300781
 20
36.65180587768555
 30
0.0
 11
240.625244140625
 21
36.98145294189453
 31
0.0
1001
DBPROPERTIES
1002
{
1000
PbThick
1002
}
  0
LINE
  5
2D2
330
1F
100
AcDbEntity
  8
THICK
100
AcDbLine
 10
240.625244140625
 20
36.98145294189453
 30
0.0
 11
240.3074188232422
 21
37.30602645874023
 31
0.0
1001
DBPROPERTIES
1002
{
1000
PbThick
1002
}
  0
LINE
  5
2D3
330
1F
100
AcDbEntity
  8
THICK
100
AcDbLine
 10
240.3074188232422
 20
37.30602645874023
 30
0.0
 11
239.9682312011719
 21
37.62887573242188
 31
0.0
1001
DBPROPERTIES
1002
{
1000
PbThick
1002
}
  0
LINE
  5
2D4
330
1F
100
AcDbEntity
  8
THICK
100
AcDbLine
 10
239.9682312011719
 20
37.62887573242188
 30
0.0
 11
239.6091613769531
 21
37.94612121582031
 31
0.0
1001
DBPROPERTIES
1002
{
1000
PbThick
1002
}
  0
LINE
  5
2D5
330
1F
100
AcDbEntity
  8
THICK
100
AcDbLine
 10
239.6091613769531
 20
37.94612121582031
 30
0.0
 11
239.2321014404297
 21
38.25428009033203
 31
0.0
1001
DBPROPERTIES
1002
{
1000
PbThick
1002
}
  0
LINE
  5
2D6
330
1F
100
AcDbEntity
  8
THICK
100
AcDbLine
 10
239.2321014404297
 20
38.25428009033203
 30
0.0
 11
238.8393096923828
 21
38.55017471313477
 31
0.0
1001
DBPROPERTIES
1002
{
1000
PbThick
1002
}
  0
LINE
  5
2D7
330
1F
100
AcDbEntity
  8
THICK
100
AcDbLine
 10
238.8393096923828
 20
38.55017471313477
 30
0.0
 11
238.4331207275391
 21
38.83086395263672
 31
0.0
1001
DBPROPERTIES
1002
{
1000
PbThick
1002
}
  0
LINE
  5
2D8
330
1F
100
AcDbEntity
  8
THICK
100
AcDbLine
 10
238.4331207275391
 20
38.83086395263672
 30
0.0
 11
238.0164947509766
 21
39.09403228759766
 31
0.0
1001
DBPROPERTIES
1002
{
1000
PbThick
1002
}
  0
LINE
  5
2D9
330
1F
100
AcDbEntity
  8
THICK
100
AcDbLine
 10
238.0164947509766
 20
39.09403228759766
 30
0.0
 11
237.5925903320312
 21
39.33749389648438
 31
0.0
1001
DBPROPERTIES
1002
{
1000
PbThick
1002
}
  0
LINE
  5
2DA
330
1F
100
AcDbEntity
  8
THICK
100
AcDbLine
 10
237.5925903320312
 20
39.33749389648438
 30
0.0
 11
237.1649932861328
 21
39.5595817565918
 31
0.0
1001
DBPROPERTIES
1002
{
1000
PbThick
1002
}
  0
LINE
  5
2DB
330
1F
100
AcDbEntity
  8
THICK
100
AcDbLine
 10
237.1649932861328
 20
39.5595817565918
 30
0.0
 11
236.7377319335938
 21
39.75929260253906
 31
0.0
1001
DBPROPERTIES
1002
{
1000
PbThick
1002
}
  0
LINE
  5
2DC
330
1F
100
AcDbEntity
  8
THICK
100
AcDbLine
 10
236.7377319335938
 20
39.75929260253906
 30
0.0
 11
236.3035278320312
 21
39.94028091430664
 31
0.0
1001
DBPROPERTIES
1002
{
1000
PbThick
1002
}
  0
LINE
  5
2DD
330
1F
100
AcDbEntity
  8
THICK
100
AcDbLine
 10
236.3035278320312
 20
39.94028091430664
 30
0.0
 11
235.8463745117188
 21
40.10807037353516
 31
0.0
1001
DBPROPERTIES
1002
{
1000
PbThick
1002
}
  0
LINE
  5
2DE
330
1F
100
AcDbEntity
  8
THICK
100
AcDbLine
 10
235.8463745117188
 20
40.10807037353516
 30
0.0
 11
235.3702850341797
 21
40.25877380371094
 31
0.0
1001
DBPROPERTIES
1002
{
1000
PbThick
1002
}
  0
LINE
  5
2DF
330
1F
100
AcDbEntity
  8
THICK
100
AcDbLine
 10
235.3702850341797
 20
40.25877380371094
 30
0.0
 11
234.8800506591797
 21
40.38924407958984
 31
0.0
1001
DBPROPERTIES
1002
{
1000
PbThick
1002
}
  0
LINE
  5
2E0
330
1F
100
AcDbEntity
  8
THICK
100
AcDbLine
 10
234.8800506591797
 20
40.38924407958984
 30
0.0
 11
234.3807373046875
 21
40.49706649780273
 31
0.0
1001
DBPROPERTIES
1002
{
1000
PbThick
1002
}
  0
LINE
  5
2E1
330
1F
100
AcDbEntity
  8
THICK
100
AcDbLine
 10
234.3807373046875
 20
40.49706649780273
 30
0.0
 11
233.87744140625
 21
40.58069610595703
 31
0.0
1001
DBPROPERTIES
1002
{
1000
PbThick
1002
}
  0
LINE
  5
2E2
330
1F
100
AcDbEntity
  8
THICK
100
AcDbLine
 10
233.87744140625
 20
40.58069610595703
 30
0.0
 11
233.3757171630859
 21
40.63959121704102
 31
0.0
1001
DBPROPERTIES
1002
{
1000
PbThick
1002
}
  0
LINE
  5
2E3
330
1F
100
AcDbEntity
  8
THICK
100
AcDbLine
 10
233.3757171630859
 20
40.63959121704102
 30
0.0
 11
232.8812866210938
 21
40.67387390136719
 31
0.0
1001
DBPROPERTIES
1002
{
1000
PbThick
1002
}
  0
LINE
  5
2E4
330
1F
100
AcDbEntity
  8
THICK
100
AcDbLine
 10
232.8812866210938
 20
40.67387390136719
 30
0.0
 11
232.3999938964844
 21
40.68495178222656
 31
0.0
1001
DBPROPERTIES
1002
{
1000
PbThick
1002
}
  0
LINE
  5
2E5
330
1F
100
AcDbEntity
  8
THICK
100
AcDbLine
 10
232.3999938964844
 20
29.30245208740234
 30
0.0
 11
232.8812866210938
 21
29.30809593200684
 31
0.0
1001
DBPROPERTIES
1002
{
1000
PbThick
1002
}
  0
LINE
  5
2E6
330
1F
100
AcDbEntity
  8
THICK
100
AcDbLine
 10
232.8812866210938
 20
29.30809593200684
 30
0.0
 11
233.3757171630859
 21
29.32556343078613
 31
0.0
1001
DBPROPERTIES
1002
{
1000
PbThick
1002
}
  0
LINE
  5
2E7
330
1F
100
AcDbEntity
  8
THICK
100
AcDbLine
 10
233.3757171630859
 20
29.32556343078613
 30
0.0
 11
233.87744140625
 21
29.3555736541748
 31
0.0
1001
DBPROPERTIES
1002
{
1000
PbThick
1002
}
  0
LINE
  5
2E8
330
1F
100
AcDbEntity
  8
THICK
100
AcDbLine
 10
233.87744140625
 20
29.3555736541748
 30
0.0
 11
234.3807373046875
 21
29.39818572998047
 31
0.0
1001
DBPROPERTIES
1002
{
1000
PbThick
1002
}
  0
LINE
  5
2E9
330
1F
100
AcDbEntity
  8
THICK
100
AcDbLine
 10
234.3807373046875
 20
29.39818572998047
 30
0.0
 11
234.8800506591797
 21
29.45312309265137
 31
0.0
1001
DBPROPERTIES
1002
{
1000
PbThick
1002
}
  0
LINE
  5
2EA
330
1F
100
AcDbEntity
  8
THICK
100
AcDbLine
 10
234.8800506591797
 20
29.45312309265137
 30
0.0
 11
235.3702850341797
 21
29.51959991455078
 31
0.0
1001
DBPROPERTIES
1002
{
1000
PbThick
1002
}
  0
LINE
  5
2EB
330
1F
100
AcDbEntity
  8
THICK
100
AcDbLine
 10
235.3702850341797
 20
29.51959991455078
 30
0.0
 11
235.8463745117188
 21
29.59638786315918
 31
0.0
1001
DBPROPERTIES
1002
{
1000
PbThick
1002
}
  0
LINE
  5
2EC
330
1F
100
AcDbEntity
  8
THICK
100
AcDbLine
 10
235.8463745117188
 20
29.59638786315918
 30
0.0
 11
236.3035278320312
 21
29.68188095092773
 31
0.0
1001
DBPROPERTIES
1002
{
1000
PbThick
1002
}
  0
LINE
  5
2ED
330
1F
100
AcDbEntity
  8
THICK
100
AcDbLine
 10
236.3035278320312
 20
29.68188095092773
 30
0.0
 11
236.7377319335938
 21
29.77409934997559
 31
0.0
1001
DBPROPERTIES
1002
{
1000
PbThick
1002
}
  0
LINE
  5
2EE
330
1F
100
AcDbEntity
  8
THICK
100
AcDbLine
 10
236.7377319335938
 20
29.77409934997559
 30
0.0
 11
237.1649932861328
 21
29.87585639953613
 31
0.0
1001
DBPROPERTIES
1002
{
1000
PbThick
1002
}
  0
LINE
  5
2EF
330
1F
100
AcDbEntity
  8
THICK
100
AcDbLine
 10
237.1649932861328
 20
29.87585639953613
 30
0.0
 11
237.5925903320312
 21
29.98901748657227
 31
0.0
1001
DBPROPERTIES
1002
{
1000
PbThick
1002
}
  0
LINE
  5
2F0
330
1F
100
AcDbEntity
  8
THICK
100
AcDbLine
 10
237.5925903320312
 20
29.98901748657227
 30
0.0
 11
238.0164947509766
 21
30.11306762695312
 31
0.0
1001
DBPROPERTIES
1002
{
1000
PbThick
1002
}
  0
LINE
  5
2F1
330
1F
100
AcDbEntity
  8
THICK
100
AcDbLine
 10
238.0164947509766
 20
30.11306762695312
 30
0.0
 11
238.4331207275391
 21
30.24715614318848
 31
0.0
1001
DBPROPERTIES
1002
{
1000
PbThick
1002
}
  0
LINE
  5
2F2
330
1F
100
AcDbEntity
  8
THICK
100
AcDbLine
 10
238.4331207275391
 20
30.24715614318848
 30
0.0
 11
238.8393096923828
 21
30.39017486572266
 31
0.0
1001
DBPROPERTIES
1002
{
1000
PbThick
1002
}
  0
LINE
  5
2F3
330
1F
100
AcDbEntity
  8
THICK
100
AcDbLine
 10
238.8393096923828
 20
30.39017486572266
 30
0.0
 11
239.2321014404297
 21
30.54094123840332
 31
0.0
1001
DBPROPERTIES
1002
{
1000
PbThick
1002
}
  0
LINE
  5
2F4
330
1F
100
AcDbEntity
  8
THICK
100
AcDbLine
 10
239.2321014404297
 20
30.54094123840332
 30
0.0
 11
239.6091613769531
 21
30.69795608520508
 31
0.0
1001
DBPROPERTIES
1002
{
1000
PbThick
1002
}
  0
LINE
  5
2F5
330
1F
100
AcDbEntity
  8
THICK
100
AcDbLine
 10
239.6091613769531
 20
30.69795608520508
 30
0.0
 11
239.9682312011719
 21
30.8596019744873
 31
0.0
1001
DBPROPERTIES
1002
{
1000
PbThick
1002
}
  0
LINE
  5
2F6
330
1F
100
AcDbEntity
  8
THICK
100
AcDbLine
 10
239.9682312011719
 20
30.8596019744873
 30
0.0
 11
240.3074188232422
 21
31.02410125732422
 31
0.0
1001
DBPROPERTIES
1002
{
1000
PbThick
1002
}
  0
LINE
  5
2F7
330
1F
100
AcDbEntity
  8
THICK
100
AcDbLine
 10
240.3074188232422
 20
31.02410125732422
 30
0.0
 11
240.625244140625
 21
31.18947982788086
 31
0.0
1001
DBPROPERTIES
1002
{
1000
PbThick
1002
}
  0
LINE
  5
2F8
330
1F
100
AcDbEntity
  8
THICK
100
AcDbLine
 10
240.625244140625
 20
31.18947982788086
 30
0.0
 11
240.9267883300781
 21
31.35744285583496
 31
0.0
1001
DBPROPERTIES
1002
{
1000
PbThick
1002
}
  0
LINE
  5
2F9
330
1F
100
AcDbEntity
  8
THICK
100
AcDbLine
 10
240.9267883300781
 20
31.35744285583496
 30
0.0
 11
241.2228698730469
 21
31.53378486633301
 31
0.0
1001
DBPROPERTIES
1002
{
1000
PbThick
1002
}
  0
LINE
  5
2FA
330
1F
100
AcDbEntity
  8
THICK
100
AcDbLine
 10
241.2228698730469
 20
31.53378486633301
 30
0.0
 11
241.5119323730469
 21
31.7178783416748
 31
0.0
1001
DBPROPERTIES
1002
{
1000
PbThick
1002
}
  0
LINE
  5
2FB
330
1F
100
AcDbEntity
  8
THICK
100
AcDbLine
 10
241.5119323730469
 20
31.7178783416748
 30
0.0
 11
241.7920837402344
 21
31.90891647338867
 31
0.0
1001
DBPROPERTIES
1002
{
1000
PbThick
1002
}
  0
LINE
  5
2FC
330
1F
100
AcDbEntity
  8
THICK
100
AcDbLine
 10
241.7920837402344
 20
31.90891647338867
 30
0.0
 11
242.0618591308594
 21
32.10596084594727
 31
0.0
1001
DBPROPERTIES
1002
{
1000
PbThick
1002
}
  0
LINE
  5
2FD
330
1F
100
AcDbEntity
  8
THICK
100
AcDbLine
 10
242.0618591308594
 20
32.10596084594727
 30
0.0
 11
242.3200988769531
 21
32.3079833984375
 31
0.0
1001
DBPROPERTIES
1002
{
1000
PbThick
1002
}
  0
LINE
  5
2FE
330
1F
100
AcDbEntity
  8
THICK
100
AcDbLine
 10
242.3200988769531
 20
32.3079833984375
 30
0.0
 11
242.5656433105469
 21
32.51395797729492
 31
0.0
1001
DBPROPERTIES
1002
{
1000
PbThick
1002
}
  0
LINE
  5
2FF
330
1F
100
AcDbEntity
  8
THICK
100
AcDbLine
 10
242.5656433105469
 20
32.51395797729492
 30
0.0
 11
242.7976837158203
 21
32.72281646728516
 31
0.0
1001
DBPROPERTIES
1002
{
1000
PbThick
1002
}
  0
LINE
  5
300
330
1F
100
AcDbEntity
  8
THICK
100
AcDbLine
 10
242.7976837158203
 20
32.72281646728516
 30
0.0
 11
243.0157165527344
 21
32.93339538574219
 31
0.0
1001
DBPROPERTIES
1002
{
1000
PbThick
1002
}
  0
LINE
  5
301
330
1F
100
AcDbEntity
  8
THICK
100
AcDbLine
 10
243.0157165527344
 20
32.93339538574219
 30
0.0
 11
243.21923828125
 21
33.14450454711914
 31
0.0
1001
DBPROPERTIES
1002
{
1000
PbThick
1002
}
  0
LINE
  5
302
330
1F
100
AcDbEntity
  8
THICK
100
AcDbLine
 10
232.4
 20
29.30245249089408
 30
0.0
 11
232.4
 21
5.984133765232348
 31
0.0
1001
DBPROPERTIES
1002
{
1000
PbThick
1002
}
  0
LINE
  5
303
330
1F
100
AcDbEntity
  8
THICK
100
AcDbLine
 10
243.21923828125
 20
0.0000000000000143
 30
0.0
 11
243.0157165527344
 21
0.3288103044033051
 31
0.0
1001
DBPROPERTIES
1002
{
1000
PbThick
1002
}
  0
LINE
  5
304
330
1F
100
AcDbEntity
  8
THICK
100
AcDbLine
 10
243.0157165527344
 20
0.3288103044033051
 30
0.0
 11
242.7976837158203
 21
0.6567904949188232
 31
0.0
1001
DBPROPERTIES
1002
{
1000
PbThick
1002
}
  0
LINE
  5
305
330
1F
100
AcDbEntity
  8
THICK
100
AcDbLine
 10
242.7976837158203
 20
0.6567904949188232
 30
0.0
 11
242.5656433105469
 21
0.9820985794067383
 31
0.0
1001
DBPROPERTIES
1002
{
1000
PbThick
1002
}
  0
LINE
  5
306
330
1F
100
AcDbEntity
  8
THICK
100
AcDbLine
 10
242.5656433105469
 20
0.9820985794067383
 30
0.0
 11
242.3200988769531
 21
1.302911639213562
 31
0.0
1001
DBPROPERTIES
1002
{
1000
PbThick
1002
}
  0
LINE
  5
307
330
1F
100
AcDbEntity
  8
THICK
100
AcDbLine
 10
242.3200988769531
 20
1.302911639213562
 30
0.0
 11
242.0618591308594
 21
1.617567896842957
 31
0.0
1001
DBPROPERTIES
1002
{
1000
PbThick
1002
}
  0
LINE
  5
308
330
1F
100
AcDbEntity
  8
THICK
100
AcDbLine
 10
242.0618591308594
 20
1.617567896842957
 30
0.0
 11
241.7920837402344
 21
1.924469470977783
 31
0.0
1001
DBPROPERTIES
1002
{
1000
PbThick
1002
}
  0
LINE
  5
309
330
1F
100
AcDbEntity
  8
THICK
100
AcDbLine
 10
241.7920837402344
 20
1.924469470977783
 30
0.0
 11
241.5119323730469
 21
2.222018718719482
 31
0.0
1001
DBPROPERTIES
1002
{
1000
PbThick
1002
}
  0
LINE
  5
30A
330
1F
100
AcDbEntity
  8
THICK
100
AcDbLine
 10
241.5119323730469
 20
2.222018718719482
 30
0.0
 11
241.2228698730469
 21
2.508753538131714
 31
0.0
1001
DBPROPERTIES
1002
{
1000
PbThick
1002
}
  0
LINE
  5
30B
330
1F
100
AcDbEntity
  8
THICK
100
AcDbLine
 10
241.2228698730469
 20
2.508753538131714
 30
0.0
 11
240.9267883300781
 21
2.783412218093872
 31
0.0
1001
DBPROPERTIES
1002
{
1000
PbThick
1002
}
  0
LINE
  5
30C
330
1F
100
AcDbEntity
  8
THICK
100
AcDbLine
 10
240.9267883300781
 20
2.783412218093872
 30
0.0
 11
240.625244140625
 21
3.045020580291748
 31
0.0
1001
DBPROPERTIES
1002
{
1000
PbThick
1002
}
  0
LINE
  5
30D
330
1F
100
AcDbEntity
  8
THICK
100
AcDbLine
 10
240.625244140625
 20
3.045020580291748
 30
0.0
 11
240.3074188232422
 21
3.30260443687439
 31
0.0
1001
DBPROPERTIES
1002
{
1000
PbThick
1002
}
  0
LINE
  5
30E
330
1F
100
AcDbEntity
  8
THICK
100
AcDbLine
 10
240.3074188232422
 20
3.30260443687439
 30
0.0
 11
239.9682312011719
 21
3.558816909790039
 31
0.0
1001
DBPROPERTIES
1002
{
1000
PbThick
1002
}
  0
LINE
  5
30F
330
1F
100
AcDbEntity
  8
THICK
100
AcDbLine
 10
239.9682312011719
 20
3.558816909790039
 30
0.0
 11
239.6091613769531
 21
3.810586929321289
 31
0.0
1001
DBPROPERTIES
1002
{
1000
PbThick
1002
}
  0
LINE
  5
310
330
1F
100
AcDbEntity
  8
THICK
100
AcDbLine
 10
239.6091613769531
 20
3.810586929321289
 30
0.0
 11
239.2321014404297
 21
4.055141448974609
 31
0.0
1001
DBPROPERTIES
1002
{
1000
PbThick
1002
}
  0
LINE
  5
311
330
1F
100
AcDbEntity
  8
THICK
100
AcDbLine
 10
239.2321014404297
 20
4.055141448974609
 30
0.0
 11
238.8393096923828
 21
4.289966583251953
 31
0.0
1001
DBPROPERTIES
1002
{
1000
PbThick
1002
}
  0
LINE
  5
312
330
1F
100
AcDbEntity
  8
THICK
100
AcDbLine
 10
238.8393096923828
 20
4.289966583251953
 30
0.0
 11
238.4331207275391
 21
4.512722015380859
 31
0.0
1001
DBPROPERTIES
1002
{
1000
PbThick
1002
}
  0
LINE
  5
313
330
1F
100
AcDbEntity
  8
THICK
100
AcDbLine
 10
238.4331207275391
 20
4.512722015380859
 30
0.0
 11
238.0164947509766
 21
4.721572399139404
 31
0.0
1001
DBPROPERTIES
1002
{
1000
PbThick
1002
}
  0
LINE
  5
314
330
1F
100
AcDbEntity
  8
THICK
100
AcDbLine
 10
238.0164947509766
 20
4.721572399139404
 30
0.0
 11
237.5925903320312
 21
4.91478443145752
 31
0.0
1001
DBPROPERTIES
1002
{
1000
PbThick
1002
}
  0
LINE
  5
315
330
1F
100
AcDbEntity
  8
THICK
100
AcDbLine
 10
237.5925903320312
 20
4.91478443145752
 30
0.0
 11
237.1649932861328
 21
5.091036319732666
 31
0.0
1001
DBPROPERTIES
1002
{
1000
PbThick
1002
}
  0
LINE
  5
316
330
1F
100
AcDbEntity
  8
THICK
100
AcDbLine
 10
237.1649932861328
 20
5.091036319732666
 30
0.0
 11
236.7377319335938
 21
5.249526023864746
 31
0.0
1001
DBPROPERTIES
1002
{
1000
PbThick
1002
}
  0
LINE
  5
317
330
1F
100
AcDbEntity
  8
THICK
100
AcDbLine
 10
236.7377319335938
 20
5.249526023864746
 30
0.0
 11
236.3035278320312
 21
5.393159866333008
 31
0.0
1001
DBPROPERTIES
1002
{
1000
PbThick
1002
}
  0
LINE
  5
318
330
1F
100
AcDbEntity
  8
THICK
100
AcDbLine
 10
236.3035278320312
 20
5.393159866333008
 30
0.0
 11
235.8463745117188
 21
5.526319980621338
 31
0.0
1001
DBPROPERTIES
1002
{
1000
PbThick
1002
}
  0
LINE
  5
319
330
1F
100
AcDbEntity
  8
THICK
100
AcDbLine
 10
235.8463745117188
 20
5.526319980621338
 30
0.0
 11
235.3702850341797
 21
5.645917415618896
 31
0.0
1001
DBPROPERTIES
1002
{
1000
PbThick
1002
}
  0
LINE
  5
31A
330
1F
100
AcDbEntity
  8
THICK
100
AcDbLine
 10
235.3702850341797
 20
5.645917415618896
 30
0.0
 11
234.8800506591797
 21
5.749458789825439
 31
0.0
1001
DBPROPERTIES
1002
{
1000
PbThick
1002
}
  0
LINE
  5
31B
330
1F
100
AcDbEntity
  8
THICK
100
AcDbLine
 10
234.8800506591797
 20
5.749458789825439
 30
0.0
 11
234.3807373046875
 21
5.835026264190674
 31
0.0
1001
DBPROPERTIES
1002
{
1000
PbThick
1002
}
  0
LINE
  5
31C
330
1F
100
AcDbEntity
  8
THICK
100
AcDbLine
 10
234.3807373046875
 20
5.835026264190674
 30
0.0
 11
233.87744140625
 21
5.901395320892334
 31
0.0
1001
DBPROPERTIES
1002
{
1000
PbThick
1002
}
  0
LINE
  5
31D
330
1F
100
AcDbEntity
  8
THICK
100
AcDbLine
 10
233.87744140625
 20
5.901395320892334
 30
0.0
 11
233.3757171630859
 21
5.948136329650879
 31
0.0
1001
DBPROPERTIES
1002
{
1000
PbThick
1002
}
  0
LINE
  5
31E
330
1F
100
AcDbEntity
  8
THICK
100
AcDbLine
 10
233.3757171630859
 20
5.948136329650879
 30
0.0
 11
232.8812866210938
 21
5.975342750549316
 31
0.0
1001
DBPROPERTIES
1002
{
1000
PbThick
1002
}
  0
LINE
  5
31F
330
1F
100
AcDbEntity
  8
THICK
100
AcDbLine
 10
232.8812866210938
 20
5.975342750549316
 30
0.0
 11
232.3999938964844
 21
5.984133720397949
 31
0.0
1001
DBPROPERTIES
1002
{
1000
PbThick
1002
}
  0
LINE
  5
320
330
1F
100
AcDbEntity
  8
THICK
100
AcDbLine
 10
281.3999938964844
 20
94.5
 30
0.0
 11
245.0
 21
94.5
 31
0.0
1001
DBPROPERTIES
1002
{
1000
PbThick
1002
}
  0
LINE
  5
321
330
1F
100
AcDbEntity
  8
HIDDEN
100
AcDbLine
 10
281.4
 20
-0.0000000000000231
 30
0.0
 11
281.4
 21
94.5
 31
0.0
1001
DBPROPERTIES
1002
{
1000
PbHidd
1002
}
  0
LINE
  5
322
330
1F
100
AcDbEntity
  8
HIDDEN
100
AcDbLine
 10
281.4
 20
-94.5
 30
0.0
 11
281.4
 21
-0.0000000000000231
 31
0.0
1001
DBPROPERTIES
1002
{
1000
PbHidd
1002
}
  0
LINE
  5
323
330
1F
100
AcDbEntity
  8
THICK
100
AcDbLine
 10
245.0
 20
-94.5
 30
0.0
 11
281.3999938964844
 21
-94.5
 31
0.0
1001
DBPROPERTIES
1002
{
1000
PbThick
1002
}
  0
LINE
  5
324
330
1F
100
AcDbEntity
  8
THICK
100
AcDbLine
 10
281.4
 20
94.5
 30
0.0
 11
281.4
 21
0.0000000000000116
 31
0.0
1001
DBPROPERTIES
1002
{
1000
PbThick
1002
}
  0
LINE
  5
325
330
1F
100
AcDbEntity
  8
THICK
100
AcDbLine
 10
294.0
 20
81.9
 30
0.0
 11
294.0
 21
0.00000000000001
 31
0.0
1001
DBPROPERTIES
1002
{
1000
PbThick
1002
}
  0
LINE
  5
326
330
1F
100
AcDbEntity
  8
THICK
100
AcDbLine
 10
-570.0000000000001
 20
-493.9999999999999
 30
0.0
 11
569.9999999999999
 21
-493.9999999999999
 31
0.0
1001
DBPROPERTIES
1002
{
1000
PbThick
1002
}
  0
LINE
  5
327
330
1F
100
AcDbEntity
  8
HIDDEN
100
AcDbLine
 10
-570.0
 20
-494.0
 30
0.0
 11
-570.0
 21
-494.0
 31
0.0
1001
DBPROPERTIES
1002
{
1000
PbHidd
1002
}
  0
LINE
  5
328
330
1F
100
AcDbEntity
  8
HIDDEN
100
AcDbLine
 10
570.0
 20
-494.0
 30
0.0
 11
570.0
 21
-494.0
 31
0.0
1001
DBPROPERTIES
1002
{
1000
PbHidd
1002
}
  0
LINE
  5
329
330
1F
100
AcDbEntity
  8
HIDDEN
100
AcDbLine
 10
-570.0
 20
-566.0
 30
0.0
 11
-570.0
 21
-566.0
 31
0.0
1001
DBPROPERTIES
1002
{
1000
PbHidd
1002
}
  0
LINE
  5
32A
330
1F
100
AcDbEntity
  8
THICK
100
AcDbLine
 10
569.9999999999999
 20
-566.0
 30
0.0
 11
-570.0000000000001
 21
-566.0
 31
0.0
1001
DBPROPERTIES
1002
{
1000
PbThick
1002
}
  0
LINE
  5
32B
330
1F
100
AcDbEntity
  8
HIDDEN
100
AcDbLine
 10
570.0
 20
-566.0
 30
0.0
 11
570.0
 21
-566.0
 31
0.0
1001
DBPROPERTIES
1002
{
1000
PbHidd
1002
}
  0
LINE
  5
32C
330
1F
100
AcDbEntity
  8
THICK
100
AcDbLine
 10
-570.0
 20
-566.0
 30
0.0
 11
-570.0
 21
-494.0
 31
0.0
1001
DBPROPERTIES
1002
{
1000
PbThick
1002
}
  0
LINE
  5
32D
330
1F
100
AcDbEntity
  8
THICK
100
AcDbLine
 10
570.0
 20
-494.0
 30
0.0
 11
570.0
 21
-566.0
 31
0.0
1001
DBPROPERTIES
1002
{
1000
PbThick
1002
}
  0
LINE
  5
32E
330
1F
100
AcDbEntity
  8
THICK
100
AcDbLine
 10
569.9999999999999
 20
-490.0
 30
0.0
 11
569.9999999999999
 21
-494.0
 31
0.0
1001
DBPROPERTIES
1002
{
1000
PbThick
1002
}
  0
LINE
  5
32F
330
1F
100
AcDbEntity
  8
THICK
100
AcDbLine
 10
569.9999999999999
 20
-566.0
 30
0.0
 11
569.9999999999999
 21
-570.0
 31
0.0
1001
DBPROPERTIES
1002
{
1000
PbThick
1002
}
  0
LINE
  5
330
330
1F
100
AcDbEntity
  8
HIDDEN
100
AcDbLine
 10
570.0
 20
-570.0
 30
0.0
 11
570.0
 21
-570.0
 31
0.0
1001
DBPROPERTIES
1002
{
1000
PbHidd
1002
}
  0
LINE
  5
331
330
1F
100
AcDbEntity
  8
HIDDEN
100
AcDbLine
 10
570.0
 20
-490.0
 30
0.0
 11
570.0
 21
-490.0
 31
0.0
1001
DBPROPERTIES
1002
{
1000
PbHidd
1002
}
  0
LINE
  5
332
330
1F
100
AcDbEntity
  8
THICK
100
AcDbLine
 10
-570.0000000000001
 20
-570.0
 30
0.0
 11
-570.0000000000001
 21
-566.0
 31
0.0
1001
DBPROPERTIES
1002
{
1000
PbThick
1002
}
  0
LINE
  5
333
330
1F
100
AcDbEntity
  8
THICK
100
AcDbLine
 10
-570.0000000000001
 20
-570.0
 30
0.0
 11
569.9999999999999
 21
-570.0
 31
0.0
1001
DBPROPERTIES
1002
{
1000
PbThick
1002
}
  0
LINE
  5
334
330
1F
100
AcDbEntity
  8
THICK
100
AcDbLine
 10
-570.0000000000001
 20
-494.0
 30
0.0
 11
-570.0000000000001
 21
-490.0
 31
0.0
1001
DBPROPERTIES
1002
{
1000
PbThick
1002
}
  0
LINE
  5
335
330
1F
100
AcDbEntity
  8
THICK
100
AcDbLine
 10
-570.0000000000001
 20
-489.9999999999999
 30
0.0
 11
569.9999999999999
 21
-489.9999999999999
 31
0.0
1001
DBPROPERTIES
1002
{
1000
PbThick
1002
}
  0
LINE
  5
336
330
1F
100
AcDbEntity
  8
HIDDEN
100
AcDbLine
 10
-570.0
 20
-490.0
 30
0.0
 11
-570.0
 21
-490.0
 31
0.0
1001
DBPROPERTIES
1002
{
1000
PbHidd
1002
}
  0
LINE
  5
337
330
1F
100
AcDbEntity
  8
HIDDEN
100
AcDbLine
 10
-570.0
 20
-570.0
 30
0.0
 11
-570.0
 21
-570.0
 31
0.0
1001
DBPROPERTIES
1002
{
1000
PbHidd
1002
}
  0
LINE
  5
338
330
1F
100
AcDbEntity
  8
HIDDEN
100
AcDbLine
 10
490.0
 20
-490.0
 30
0.0
 11
-490.0
 21
-490.0
 31
0.0
1001
DBPROPERTIES
1002
{
1000
PbHidd
1002
}
  0
LINE
  5
339
330
1F
100
AcDbEntity
  8
HIDDEN
100
AcDbLine
 10
-490.0
 20
-490.0
 30
0.0
 11
-490.0000000000001
 21
-489.9999999999999
 31
0.0
1001
DBPROPERTIES
1002
{
1000
PbHidd
1002
}
  0
LINE
  5
33A
330
1F
100
AcDbEntity
  8
HIDDEN
100
AcDbLine
 10
489.9999999999999
 20
-489.9999999999999
 30
0.0
 11
490.0
 21
-490.0
 31
0.0
1001
DBPROPERTIES
1002
{
1000
PbHidd
1002
}
  0
LINE
  5
33B
330
1F
100
AcDbEntity
  8
HIDDEN
100
AcDbLine
 10
570.0
 20
-494.0
 30
0.0
 11
570.0
 21
-494.0
 31
0.0
1001
DBPROPERTIES
1002
{
1000
PbHidd
1002
}
  0
LINE
  5
33C
330
1F
100
AcDbEntity
  8
HIDDEN
100
AcDbLine
 10
-570.0
 20
-494.0
 30
0.0
 11
-570.0
 21
-494.0
 31
0.0
1001
DBPROPERTIES
1002
{
1000
PbHidd
1002
}
  0
LINE
  5
33D
330
1F
100
AcDbEntity
  8
HIDDEN
100
AcDbLine
 10
570.0
 20
-566.0
 30
0.0
 11
570.0
 21
-566.0
 31
0.0
1001
DBPROPERTIES
1002
{
1000
PbHidd
1002
}
  0
LINE
  5
33E
330
1F
100
AcDbEntity
  8
HIDDEN
100
AcDbLine
 10
-570.0
 20
-566.0
 30
0.0
 11
-570.0
 21
-566.0
 31
0.0
1001
DBPROPERTIES
1002
{
1000
PbHidd
1002
}
  0
LINE
  5
33F
330
1F
100
AcDbEntity
  8
HIDDEN
100
AcDbLine
 10
-570.0
 20
-570.0
 30
0.0
 11
-570.0
 21
-570.0
 31
0.0
1001
DBPROPERTIES
1002
{
1000
PbHidd
1002
}
  0
LINE
  5
340
330
1F
100
AcDbEntity
  8
HIDDEN
100
AcDbLine
 10
-570.0
 20
-490.0
 30
0.0
 11
-570.0
 21
-490.0
 31
0.0
1001
DBPROPERTIES
1002
{
1000
PbHidd
1002
}
  0
LINE
  5
341
330
1F
100
AcDbEntity
  8
HIDDEN
100
AcDbLine
 10
570.0
 20
-490.0
 30
0.0
 11
570.0
 21
-490.0
 31
0.0
1001
DBPROPERTIES
1002
{
1000
PbHidd
1002
}
  0
LINE
  5
342
330
1F
100
AcDbEntity
  8
HIDDEN
100
AcDbLine
 10
570.0
 20
-570.0
 30
0.0
 11
570.0
 21
-570.0
 31
0.0
1001
DBPROPERTIES
1002
{
1000
PbHidd
1002
}
  0
LINE
  5
343
330
1F
100
AcDbEntity
  8
HIDDEN
100
AcDbLine
 10
490.0
 20
-490.0
 30
0.0
 11
490.0000000000001
 21
-490.0000000000001
 31
0.0
1001
DBPROPERTIES
1002
{
1000
PbHidd
1002
}
  0
LINE
  5
344
330
1F
100
AcDbEntity
  8
HIDDEN
100
AcDbLine
 10
-489.9999999999999
 20
-490.0000000000001
 30
0.0
 11
-490.0
 21
-490.0
 31
0.0
1001
DBPROPERTIES
1002
{
1000
PbHidd
1002
}
  0
LINE
  5
345
330
1F
100
AcDbEntity
  8
HIDDEN
100
AcDbLine
 10
343.0
 20
-441.0
 30
0.0
 11
343.0
 21
-441.0
 31
0.0
1001
DBPROPERTIES
1002
{
1000
PbHidd
1002
}
  0
LINE
  5
346
330
1F
100
AcDbEntity
  8
HIDDEN
100
AcDbLine
 10
343.0
 20
-441.0
 30
0.0
 11
343.0
 21
-442.0
 31
0.0
1001
DBPROPERTIES
1002
{
1000
PbHidd
1002
}
  0
LINE
  5
347
330
1F
100
AcDbEntity
  8
HIDDEN
100
AcDbLine
 10
343.0
 20
-442.0
 30
0.0
 11
343.0
 21
-442.0
 31
0.0
1001
DBPROPERTIES
1002
{
1000
PbHidd
1002
}
  0
LINE
  5
348
330
1F
100
AcDbEntity
  8
HIDDEN
100
AcDbLine
 10
48.99999999999999
 20
-442.0
 30
0.0
 11
48.99999999999999
 21
-441.0
 31
0.0
1001
DBPROPERTIES
1002
{
1000
PbHidd
1002
}
  0
LINE
  5
349
330
1F
100
AcDbEntity
  8
HIDDEN
100
AcDbLine
 10
343.0
 20
-442.0
 30
0.0
 11
49.0
 21
-442.0
 31
0.0
1001
DBPROPERTIES
1002
{
1000
PbHidd
1002
}
  0
LINE
  5
34A
330
1F
100
AcDbEntity
  8
HIDDEN
100
AcDbLine
 10
49.00000000000001
 20
-441.0
 30
0.0
 11
48.99999999999999
 21
-441.0
 31
0.0
1001
DBPROPERTIES
1002
{
1000
PbHidd
1002
}
  0
LINE
  5
34B
330
1F
100
AcDbEntity
  8
HIDDEN
100
AcDbLine
 10
49.00000000000001
 20
-442.0
 30
0.0
 11
48.99999999999999
 21
-442.0
 31
0.0
1001
DBPROPERTIES
1002
{
1000
PbHidd
1002
}
  0
LINE
  5
34C
330
1F
100
AcDbEntity
  8
HIDDEN
100
AcDbLine
 10
48.99999999999999
 20
-436.0
 30
0.0
 11
49.00000000000001
 21
-436.0
 31
0.0
1001
DBPROPERTIES
1002
{
1000
PbHidd
1002
}
  0
LINE
  5
34D
330
1F
100
AcDbEntity
  8
HIDDEN
100
AcDbLine
 10
48.99999999999999
 20
-436.0
 30
0.0
 11
48.99999999999999
 21
-378.0
 31
0.0
1001
DBPROPERTIES
1002
{
1000
PbHidd
1002
}
  0
LINE
  5
34E
330
1F
100
AcDbEntity
  8
THICK
100
AcDbLine
 10
48.99999999999999
 20
-378.0
 30
0.0
 11
48.99999999999999
 21
-190.0
 31
0.0
1001
DBPROPERTIES
1002
{
1000
PbThick
1002
}
  0
LINE
  5
34F
330
1F
100
AcDbEntity
  8
HIDDEN
100
AcDbLine
 10
48.99999999999999
 20
-190.0
 30
0.0
 11
49.00000000000001
 21
-190.0
 31
0.0
1001
DBPROPERTIES
1002
{
1000
PbHidd
1002
}
  0
LINE
  5
350
330
1F
100
AcDbEntity
  8
HIDDEN
100
AcDbLine
 10
343.0
 20
-190.0
 30
0.0
 11
343.0
 21
-190.0
 31
0.0
1001
DBPROPERTIES
1002
{
1000
PbHidd
1002
}
  0
LINE
  5
351
330
1F
100
AcDbEntity
  8
THICK
100
AcDbLine
 10
343.0
 20
-190.0
 30
0.0
 11
49.0
 21
-190.0
 31
0.0
1001
DBPROPERTIES
1002
{
1000
PbThick
1002
}
  0
LINE
  5
352
330
1F
100
AcDbEntity
  8
HIDDEN
100
AcDbLine
 10
73.50000000000001
 20
-190.0
 30
0.0
 11
73.49999999999999
 21
-190.0
 31
0.0
1001
DBPROPERTIES
1002
{
1000
PbHidd
1002
}
  0
LINE
  5
353
330
1F
100
AcDbEntity
  8
HIDDEN
100
AcDbLine
 10
269.5
 20
-190.0
 30
0.0
 11
269.5
 21
-190.0
 31
0.0
1001
DBPROPERTIES
1002
{
1000
PbHidd
1002
}
  0
LINE
  5
354
330
1F
100
AcDbEntity
  8
THICK
100
AcDbLine
 10
343.0
 20
-190.0
 30
0.0
 11
343.0
 21
-378.0
 31
0.0
1001
DBPROPERTIES
1002
{
1000
PbThick
1002
}
  0
LINE
  5
355
330
1F
100
AcDbEntity
  8
HIDDEN
100
AcDbLine
 10
343.0
 20
-378.0
 30
0.0
 11
343.0
 21
-436.0
 31
0.0
1001
DBPROPERTIES
1002
{
1000
PbHidd
1002
}
  0
LINE
  5
356
330
1F
100
AcDbEntity
  8
HIDDEN
100
AcDbLine
 10
343.0
 20
-436.0
 30
0.0
 11
343.0
 21
-436.0
 31
0.0
1001
DBPROPERTIES
1002
{
1000
PbHidd
1002
}
  0
LINE
  5
357
330
1F
100
AcDbEntity
  8
HIDDEN
100
AcDbLine
 10
235.8268726541136
 20
-61.82082320922525
 30
0.0
 11
98.0
 21
-61.82082320922525
 31
0.0
1001
DBPROPERTIES
1002
{
1000
PbHidd
1002
}
  0
LINE
  5
358
330
1F
100
AcDbEntity
  8
HIDDEN
100
AcDbLine
 10
245.0
 20
-35.0769157409668
 30
0.0
 11
244.9968109130859
 21
-35.87346267700195
 31
0.0
1001
DBPROPERTIES
1002
{
1000
PbHidd
1002
}
  0
LINE
  5
359
330
1F
100
AcDbEntity
  8
HIDDEN
100
AcDbLine
 10
244.9968109130859
 20
-35.87346267700195
 30
0.0
 11
244.9872741699219
 21
-36.67203521728516
 31
0.0
1001
DBPROPERTIES
1002
{
1000
PbHidd
1002
}
  0
LINE
  5
35A
330
1F
100
AcDbEntity
  8
HIDDEN
100
AcDbLine
 10
244.9872741699219
 20
-36.67203521728516
 30
0.0
 11
244.9707489013672
 21
-37.47069931030273
 31
0.0
1001
DBPROPERTIES
1002
{
1000
PbHidd
1002
}
  0
LINE
  5
35B
330
1F
100
AcDbEntity
  8
HIDDEN
100
AcDbLine
 10
244.9707489013672
 20
-37.47069931030273
 30
0.0
 11
244.9469604492188
 21
-38.26752853393555
 31
0.0
1001
DBPROPERTIES
1002
{
1000
PbHidd
1002
}
  0
LINE
  5
35C
330
1F
100
AcDbEntity
  8
HIDDEN
100
AcDbLine
 10
244.9469604492188
 20
-38.26752853393555
 30
0.0
 11
244.9157104492188
 21
-39.06058502197266
 31
0.0
1001
DBPROPERTIES
1002
{
1000
PbHidd
1002
}
  0
LINE
  5
35D
330
1F
100
AcDbEntity
  8
HIDDEN
100
AcDbLine
 10
244.9157104492188
 20
-39.06058502197266
 30
0.0
 11
244.8767700195312
 21
-39.84791946411133
 31
0.0
1001
DBPROPERTIES
1002
{
1000
PbHidd
1002
}
  0
LINE
  5
35E
330
1F
100
AcDbEntity
  8
HIDDEN
100
AcDbLine
 10
244.8767700195312
 20
-39.84791946411133
 30
0.0
 11
244.8299102783203
 21
-40.62760162353516
 31
0.0
1001
DBPROPERTIES
1002
{
1000
PbHidd
1002
}
  0
LINE
  5
35F
330
1F
100
AcDbEntity
  8
HIDDEN
100
AcDbLine
 10
244.8299102783203
 20
-40.62760162353516
 30
0.0
 11
244.7750549316406
 21
-41.39768981933594
 31
0.0
1001
DBPROPERTIES
1002
{
1000
PbHidd
1002
}
  0
LINE
  5
360
330
1F
100
AcDbEntity
  8
HIDDEN
100
AcDbLine
 10
244.7750549316406
 20
-41.39768981933594
 30
0.0
 11
244.7123413085938
 21
-42.15627288818359
 31
0.0
1001
DBPROPERTIES
1002
{
1000
PbHidd
1002
}
  0
LINE
  5
361
330
1F
100
AcDbEntity
  8
HIDDEN
100
AcDbLine
 10
244.7123413085938
 20
-42.15627288818359
 30
0.0
 11
244.6419067382812
 21
-42.90142440795898
 31
0.0
1001
DBPROPERTIES
1002
{
1000
PbHidd
1002
}
  0
LINE
  5
362
330
1F
100
AcDbEntity
  8
HIDDEN
100
AcDbLine
 10
244.6419067382812
 20
-42.90142440795898
 30
0.0
 11
244.5639038085938
 21
-43.63139724731445
 31
0.0
1001
DBPROPERTIES
1002
{
1000
PbHidd
1002
}
  0
LINE
  5
363
330
1F
100
AcDbEntity
  8
HIDDEN
100
AcDbLine
 10
244.5639038085938
 20
-43.63139724731445
 30
0.0
 11
244.4750823974609
 21
-44.37078094482422
 31
0.0
1001
DBPROPERTIES
1002
{
1000
PbHidd
1002
}
  0
LINE
  5
364
330
1F
100
AcDbEntity
  8
HIDDEN
100
AcDbLine
 10
244.4750823974609
 20
-44.37078094482422
 30
0.0
 11
244.3728790283203
 21
-45.13301086425781
 31
0.0
1001
DBPROPERTIES
1002
{
1000
PbHidd
1002
}
  0
LINE
  5
365
330
1F
100
AcDbEntity
  8
HIDDEN
100
AcDbLine
 10
244.3728790283203
 20
-45.13301086425781
 30
0.0
 11
244.2570343017578
 21
-45.91056823730469
 31
0.0
1001
DBPROPERTIES
1002
{
1000
PbHidd
1002
}
  0
LINE
  5
366
330
1F
100
AcDbEntity
  8
HIDDEN
100
AcDbLine
 10
244.2570343017578
 20
-45.91056823730469
 30
0.0
 11
244.1272888183594
 21
-46.69594192504883
 31
0.0
1001
DBPROPERTIES
1002
{
1000
PbHidd
1002
}
  0
LINE
  5
367
330
1F
100
AcDbEntity
  8
HIDDEN
100
AcDbLine
 10
244.1272888183594
 20
-46.69594192504883
 30
0.0
 11
243.9835052490234
 21
-47.48164749145508
 31
0.0
1001
DBPROPERTIES
1002
{
1000
PbHidd
1002
}
  0
LINE
  5
368
330
1F
100
AcDbEntity
  8
HIDDEN
100
AcDbLine
 10
243.9835052490234
 20
-47.48164749145508
 30
0.0
 11
243.8264770507812
 21
-48.2603645324707
 31
0.0
1001
DBPROPERTIES
1002
{
1000
PbHidd
1002
}
  0
LINE
  5
369
330
1F
100
AcDbEntity
  8
HIDDEN
100
AcDbLine
 10
243.8264770507812
 20
-48.2603645324707
 30
0.0
 11
243.6573028564453
 21
-49.02480316162109
 31
0.0
1001
DBPROPERTIES
1002
{
1000
PbHidd
1002
}
  0
LINE
  5
36A
330
1F
100
AcDbEntity
  8
HIDDEN
100
AcDbLine
 10
243.6573028564453
 20
-49.02480316162109
 30
0.0
 11
243.4775390625
 21
-49.76777267456055
 31
0.0
1001
DBPROPERTIES
1002
{
1000
PbHidd
1002
}
  0
LINE
  5
36B
330
1F
100
AcDbEntity
  8
HIDDEN
100
AcDbLine
 10
243.4775390625
 20
-49.76777267456055
 30
0.0
 11
243.2893524169922
 21
-50.48266983032227
 31
0.0
1001
DBPROPERTIES
1002
{
1000
PbHidd
1002
}
  0
LINE
  5
36C
330
1F
100
AcDbEntity
  8
HIDDEN
100
AcDbLine
 10
243.2893524169922
 20
-50.48266983032227
 30
0.0
 11
243.0843811035156
 21
-51.19955825805664
 31
0.0
1001
DBPROPERTIES
1002
{
1000
PbHidd
1002
}
  0
LINE
  5
36D
330
1F
100
AcDbEntity
  8
HIDDEN
100
AcDbLine
 10
243.0843811035156
 20
-51.19955825805664
 30
0.0
 11
242.8561706542969
 21
-51.93434143066406
 31
0.0
1001
DBPROPERTIES
1002
{
1000
PbHidd
1002
}
  0
LINE
  5
36E
330
1F
100
AcDbEntity
  8
HIDDEN
100
AcDbLine
 10
242.8561706542969
 20
-51.93434143066406
 30
0.0
 11
242.6045227050781
 21
-52.67866897583008
 31
0.0
1001
DBPROPERTIES
1002
{
1000
PbHidd
1002
}
  0
LINE
  5
36F
330
1F
100
AcDbEntity
  8
HIDDEN
100
AcDbLine
 10
242.6045227050781
 20
-52.67866897583008
 30
0.0
 11
242.3299255371094
 21
-53.42440032958984
 31
0.0
1001
DBPROPERTIES
1002
{
1000
PbHidd
1002
}
  0
LINE
  5
370
330
1F
100
AcDbEntity
  8
HIDDEN
100
AcDbLine
 10
242.3299255371094
 20
-53.42440032958984
 30
0.0
 11
242.0331268310547
 21
-54.16352462768555
 31
0.0
1001
DBPROPERTIES
1002
{
1000
PbHidd
1002
}
  0
LINE
  5
371
330
1F
100
AcDbEntity
  8
HIDDEN
100
AcDbLine
 10
242.0331268310547
 20
-54.16352462768555
 30
0.0
 11
241.7156829833984
 21
-54.88837432861328
 31
0.0
1001
DBPROPERTIES
1002
{
1000
PbHidd
1002
}
  0
LINE
  5
372
330
1F
100
AcDbEntity
  8
HIDDEN
100
AcDbLine
 10
241.7156829833984
 20
-54.88837432861328
 30
0.0
 11
241.3797454833984
 21
-55.5914306640625
 31
0.0
1001
DBPROPERTIES
1002
{
1000
PbHidd
1002
}
  0
LINE
  5
373
330
1F
100
AcDbEntity
  8
HIDDEN
100
AcDbLine
 10
241.3797454833984
 20
-55.5914306640625
 30
0.0
 11
241.0283203125
 21
-56.26556015014648
 31
0.0
1001
DBPROPERTIES
1002
{
1000
PbHidd
1002
}
  0
LINE
  5
374
330
1F
100
AcDbEntity
  8
HIDDEN
100
AcDbLine
 10
241.0283203125
 20
-56.26556015014648
 30
0.0
 11
240.6641082763672
 21
-56.90629959106445
 31
0.0
1001
DBPROPERTIES
1002
{
1000
PbHidd
1002
}
  0
LINE
  5
375
330
1F
100
AcDbEntity
  8
HIDDEN
100
AcDbLine
 10
240.6641082763672
 20
-56.90629959106445
 30
0.0
 11
240.2638397216797
 21
-57.55015563964844
 31
0.0
1001
DBPROPERTIES
1002
{
1000
PbHidd
1002
}
  0
LINE
  5
376
330
1F
100
AcDbEntity
  8
HIDDEN
100
AcDbLine
 10
240.2638397216797
 20
-57.55015563964844
 30
0.0
 11
239.8205871582031
 21
-58.19782257080078
 31
0.0
1001
DBPROPERTIES
1002
{
1000
PbHidd
1002
}
  0
LINE
  5
377
330
1F
100
AcDbEntity
  8
HIDDEN
100
AcDbLine
 10
239.8205871582031
 20
-58.19782257080078
 30
0.0
 11
239.3400115966797
 21
-58.83115768432617
 31
0.0
1001
DBPROPERTIES
1002
{
1000
PbHidd
1002
}
  0
LINE
  5
378
330
1F
100
AcDbEntity
  8
HIDDEN
100
AcDbLine
 10
239.3400115966797
 20
-58.83115768432617
 30
0.0
 11
238.8296813964844
 21
-59.43357086181641
 31
0.0
1001
DBPROPERTIES
1002
{
1000
PbHidd
1002
}
  0
LINE
  5
379
330
1F
100
AcDbEntity
  8
HIDDEN
100
AcDbLine
 10
238.8296813964844
 20
-59.43357086181641
 30
0.0
 11
238.2997283935547
 21
-59.99027633666992
 31
0.0
1001
DBPROPERTIES
1002
{
1000
PbHidd
1002
}
  0
LINE
  5
37A
330
1F
100
AcDbEntity
  8
HIDDEN
100
AcDbLine
 10
238.2997283935547
 20
-59.99027633666992
 30
0.0
 11
237.7577667236328
 21
-60.49393463134766
 31
0.0
1001
DBPROPERTIES
1002
{
1000
PbHidd
1002
}
  0
LINE
  5
37B
330
1F
100
AcDbEntity
  8
HIDDEN
100
AcDbLine
 10
237.7577667236328
 20
-60.49393463134766
 30
0.0
 11
237.1599426269531
 21
-60.97884368896484
 31
0.0
1001
DBPROPERTIES
1002
{
1000
PbHidd
1002
}
  0
LINE
  5
37C
330
1F
100
AcDbEntity
  8
HIDDEN
100
AcDbLine
 10
237.1599426269531
 20
-60.97884368896484
 30
0.0
 11
236.5087127685547
 21
-61.42947387695312
 31
0.0
1001
DBPROPERTIES
1002
{
1000
PbHidd
1002
}
  0
LINE
  5
37D
330
1F
100
AcDbEntity
  8
HIDDEN
100
AcDbLine
 10
236.5087127685547
 20
-61.42947387695312
 30
0.0
 11
235.8268737792969
 21
-61.82082366943359
 31
0.0
1001
DBPROPERTIES
1002
{
1000
PbHidd
1002
}
  0
LINE
  5
37E
330
1F
100
AcDbEntity
  8
HIDDEN
100
AcDbLine
 10
98.0
 20
-183.7
 30
0.0
 11
98.0
 21
-183.7
 31
0.0
1001
DBPROPERTIES
1002
{
1000
PbHidd
1002
}
  0
LINE
  5
37F
330
1F
100
AcDbEntity
  8
THICK
100
AcDbLine
 10
98.0
 20
-183.7
 30
0.0
 11
98.0
 21
-61.82082320922521
 31
0.0
1001
DBPROPERTIES
1002
{
1000
PbThick
1002
}
  0
LINE
  5
380
330
1F
100
AcDbEntity
  8
THICK
100
AcDbLine
 10
98.0
 20
-61.8208232092252
 30
0.0
 11
235.8268726541137
 21
-61.8208232092252
 31
0.0
1001
DBPROPERTIES
1002
{
1000
PbThick
1002
}
  0
LINE
  5
381
330
1F
100
AcDbEntity
  8
THICK
100
AcDbLine
 10
245.0
 20
-35.07691548582913
 30
0.0
 11
245.0
 21
-183.7
 31
0.0
1001
DBPROPERTIES
1002
{
1000
PbThick
1002
}
  0
LINE
  5
382
330
1F
100
AcDbEntity
  8
HIDDEN
100
AcDbLine
 10
269.5
 20
-183.7
 30
0.0
 11
269.5
 21
-183.7
 31
0.0
1001
DBPROPERTIES
1002
{
1000
PbHidd
1002
}
  0
LINE
  5
383
330
1F
100
AcDbEntity
  8
THICK
100
AcDbLine
 10
269.5
 20
-183.7
 30
0.0
 11
269.5
 21
-190.0
 31
0.0
1001
DBPROPERTIES
1002
{
1000
PbThick
1002
}
  0
LINE
  5
384
330
1F
100
AcDbEntity
  8
THICK
100
AcDbLine
 10
73.49999999999999
 20
-190.0
 30
0.0
 11
73.49999999999999
 21
-183.7
 31
0.0
1001
DBPROPERTIES
1002
{
1000
PbThick
1002
}
  0
LINE
  5
385
330
1F
100
AcDbEntity
  8
HIDDEN
100
AcDbLine
 10
73.49999999999999
 20
-183.7
 30
0.0
 11
73.50000000000001
 21
-183.7
 31
0.0
1001
DBPROPERTIES
1002
{
1000
PbHidd
1002
}
  0
LINE
  5
386
330
1F
100
AcDbEntity
  8
THICK
100
AcDbLine
 10
269.5
 20
-183.7
 30
0.0
 11
73.5
 21
-183.7
 31
0.0
1001
DBPROPERTIES
1002
{
1000
PbThick
1002
}
  0
LINE
  5
387
330
1F
100
AcDbEntity
  8
HIDDEN
100
AcDbLine
 10
245.0
 20
-183.7
 30
0.0
 11
245.0
 21
-183.7
 31
0.0
1001
DBPROPERTIES
1002
{
1000
PbHidd
1002
}
  0
LINE
  5
388
330
1F
100
AcDbEntity
  8
HIDDEN
100
AcDbLine
 10
98.0
 20
-107.257864376269
 30
0.0
 11
0.0
 21
-107.257864376269
 31
0.0
1001
DBPROPERTIES
1002
{
1000
PbHidd
1002
}
  0
LINE
  5
389
330
1F
100
AcDbEntity
  8
THICK
100
AcDbLine
 10
0.0
 20
-113.2419981415014
 30
0.0
 11
98.0
 21
-113.2419981415014
 31
0.0
1001
DBPROPERTIES
1002
{
1000
PbThick
1002
}
  0
LINE
  5
38A
330
1F
100
AcDbEntity
  8
THICK
100
AcDbLine
 10
98.0
 20
-109.5487392808283
 30
0.0
 11
0.0
 21
-109.5487392808283
 31
0.0
1001
DBPROPERTIES
1002
{
1000
PbThick
1002
}
  0
LINE
  5
38B
330
1F
100
AcDbEntity
  8
HIDDEN
100
AcDbLine
 10
98.0
 20
-102.0082908389525
 30
0.0
 11
0.0
 21
-102.0082908389525
 31
0.0
1001
DBPROPERTIES
1002
{
1000
PbHidd
1002
}
  0
LINE
  5
38C
330
1F
100
AcDbEntity
  8
THICK
100
AcDbLine
 10
0.0
 20
-105.8503412206888
 30
0.0
 11
98.0
 21
-105.8503412206888
 31
0.0
1001
DBPROPERTIES
1002
{
1000
PbThick
1002
}
  0
LINE
  5
38D
330
1F
100
AcDbEntity
  8
THICK
100
AcDbLine
 10
98.0
 20
-95.13208654839983
 30
0.0
 11
0.0
 21
-95.13208654839983
 31
0.0
1001
DBPROPERTIES
1002
{
1000
PbThick
1002
}
  0
LINE
  5
38E
330
1F
100
AcDbEntity
  8
HIDDEN
100
AcDbLine
 10
98.0
 20
-86.7734350607649
 30
0.0
 11
0.0
 21
-86.7734350607649
 31
0.0
1001
DBPROPERTIES
1002
{
1000
PbHidd
1002
}
  0
LINE
  5
38F
330
1F
100
AcDbEntity
  8
THICK
100
AcDbLine
 10
0.0
 20
-88.0973153985018
 30
0.0
 11
98.0
 21
-88.0973153985018
 31
0.0
1001
DBPROPERTIES
1002
{
1000
PbThick
1002
}
  0
LINE
  5
390
330
1F
100
AcDbEntity
  8
THICK
100
AcDbLine
 10
98.0
 20
-71.40324236039211
 30
0.0
 11
0.0
 21
-71.40324236039211
 31
0.0
1001
DBPROPERTIES
1002
{
1000
PbThick
1002
}
  0
LINE
  5
391
330
1F
100
AcDbEntity
  8
THICK
100
AcDbLine
 10
98.0
 20
-63.04459087275713
 30
0.0
 11
0.0
 21
-63.04459087275713
 31
0.0
1001
DBPROPERTIES
1002
{
1000
PbThick
1002
}
  0
LINE
  5
392
330
1F
100
AcDbEntity
  8
THICK
100
AcDbLine
 10
0.0
 20
-61.72071053502023
 30
0.0
 11
232.4
 21
-61.72071053502023
 31
0.0
1001
DBPROPERTIES
1002
{
1000
PbThick
1002
}
  0
LINE
  5
393
330
1F
100
AcDbEntity
  8
THICK
100
AcDbLine
 10
294.0
 20
0.00000000000001
 30
0.0
 11
294.0
 21
-81.9
 31
0.0
1001
DBPROPERTIES
1002
{
1000
PbThick
1002
}
  0
LINE
  5
394
330
1F
100
AcDbEntity
  8
THICK
100
AcDbLine
 10
281.4
 20
0.0000000000000116
 30
0.0
 11
281.4
 21
-94.5
 31
0.0
1001
DBPROPERTIES
1002
{
1000
PbThick
1002
}
  0
LINE
  5
395
330
1F
100
AcDbEntity
  8
HIDDEN
100
AcDbLine
 10
243.21923828125
 20
-0.0000000000000251
 30
0.0
 11
243.0157165527344
 21
-0.3288103044033051
 31
0.0
1001
DBPROPERTIES
1002
{
1000
PbHidd
1002
}
  0
LINE
  5
396
330
1F
100
AcDbEntity
  8
HIDDEN
100
AcDbLine
 10
243.0157165527344
 20
-0.3288103044033051
 30
0.0
 11
242.7976837158203
 21
-0.6567904949188232
 31
0.0
1001
DBPROPERTIES
1002
{
1000
PbHidd
1002
}
  0
LINE
  5
397
330
1F
100
AcDbEntity
  8
HIDDEN
100
AcDbLine
 10
242.7976837158203
 20
-0.6567904949188232
 30
0.0
 11
242.5656433105469
 21
-0.9820985794067383
 31
0.0
1001
DBPROPERTIES
1002
{
1000
PbHidd
1002
}
  0
LINE
  5
398
330
1F
100
AcDbEntity
  8
HIDDEN
100
AcDbLine
 10
242.5656433105469
 20
-0.9820985794067383
 30
0.0
 11
242.3200988769531
 21
-1.302911639213562
 31
0.0
1001
DBPROPERTIES
1002
{
1000
PbHidd
1002
}
  0
LINE
  5
399
330
1F
100
AcDbEntity
  8
HIDDEN
100
AcDbLine
 10
242.3200988769531
 20
-1.302911639213562
 30
0.0
 11
242.0618591308594
 21
-1.617567896842957
 31
0.0
1001
DBPROPERTIES
1002
{
1000
PbHidd
1002
}
  0
LINE
  5
39A
330
1F
100
AcDbEntity
  8
HIDDEN
100
AcDbLine
 10
242.0618591308594
 20
-1.617567896842957
 30
0.0
 11
241.7920837402344
 21
-1.924469470977783
 31
0.0
1001
DBPROPERTIES
1002
{
1000
PbHidd
1002
}
  0
LINE
  5
39B
330
1F
100
AcDbEntity
  8
HIDDEN
100
AcDbLine
 10
241.7920837402344
 20
-1.924469470977783
 30
0.0
 11
241.5119323730469
 21
-2.222018718719482
 31
0.0
1001
DBPROPERTIES
1002
{
1000
PbHidd
1002
}
  0
LINE
  5
39C
330
1F
100
AcDbEntity
  8
HIDDEN
100
AcDbLine
 10
241.5119323730469
 20
-2.222018718719482
 30
0.0
 11
241.2228698730469
 21
-2.508753538131714
 31
0.0
1001
DBPROPERTIES
1002
{
1000
PbHidd
1002
}
  0
LINE
  5
39D
330
1F
100
AcDbEntity
  8
HIDDEN
100
AcDbLine
 10
241.2228698730469
 20
-2.508753538131714
 30
0.0
 11
240.9267883300781
 21
-2.783412218093872
 31
0.0
1001
DBPROPERTIES
1002
{
1000
PbHidd
1002
}
  0
LINE
  5
39E
330
1F
100
AcDbEntity
  8
HIDDEN
100
AcDbLine
 10
240.9267883300781
 20
-2.783412218093872
 30
0.0
 11
240.625244140625
 21
-3.045020580291748
 31
0.0
1001
DBPROPERTIES
1002
{
1000
PbHidd
1002
}
  0
LINE
  5
39F
330
1F
100
AcDbEntity
  8
HIDDEN
100
AcDbLine
 10
240.625244140625
 20
-3.045020580291748
 30
0.0
 11
240.3074188232422
 21
-3.30260443687439
 31
0.0
1001
DBPROPERTIES
1002
{
1000
PbHidd
1002
}
  0
LINE
  5
3A0
330
1F
100
AcDbEntity
  8
HIDDEN
100
AcDbLine
 10
240.3074188232422
 20
-3.30260443687439
 30
0.0
 11
239.9682312011719
 21
-3.558816909790039
 31
0.0
1001
DBPROPERTIES
1002
{
1000
PbHidd
1002
}
  0
LINE
  5
3A1
330
1F
100
AcDbEntity
  8
HIDDEN
100
AcDbLine
 10
239.9682312011719
 20
-3.558816909790039
 30
0.0
 11
239.6091613769531
 21
-3.810586929321289
 31
0.0
1001
DBPROPERTIES
1002
{
1000
PbHidd
1002
}
  0
LINE
  5
3A2
330
1F
100
AcDbEntity
  8
HIDDEN
100
AcDbLine
 10
239.6091613769531
 20
-3.810586929321289
 30
0.0
 11
239.2321014404297
 21
-4.055141448974609
 31
0.0
1001
DBPROPERTIES
1002
{
1000
PbHidd
1002
}
  0
LINE
  5
3A3
330
1F
100
AcDbEntity
  8
HIDDEN
100
AcDbLine
 10
239.2321014404297
 20
-4.055141448974609
 30
0.0
 11
238.8393096923828
 21
-4.289966583251953
 31
0.0
1001
DBPROPERTIES
1002
{
1000
PbHidd
1002
}
  0
LINE
  5
3A4
330
1F
100
AcDbEntity
  8
HIDDEN
100
AcDbLine
 10
238.8393096923828
 20
-4.289966583251953
 30
0.0
 11
238.4331207275391
 21
-4.512722015380859
 31
0.0
1001
DBPROPERTIES
1002
{
1000
PbHidd
1002
}
  0
LINE
  5
3A5
330
1F
100
AcDbEntity
  8
HIDDEN
100
AcDbLine
 10
238.4331207275391
 20
-4.512722015380859
 30
0.0
 11
238.0164947509766
 21
-4.721572399139404
 31
0.0
1001
DBPROPERTIES
1002
{
1000
PbHidd
1002
}
  0
LINE
  5
3A6
330
1F
100
AcDbEntity
  8
HIDDEN
100
AcDbLine
 10
238.0164947509766
 20
-4.721572399139404
 30
0.0
 11
237.5925903320312
 21
-4.91478443145752
 31
0.0
1001
DBPROPERTIES
1002
{
1000
PbHidd
1002
}
  0
LINE
  5
3A7
330
1F
100
AcDbEntity
  8
HIDDEN
100
AcDbLine
 10
237.5925903320312
 20
-4.91478443145752
 30
0.0
 11
237.1649932861328
 21
-5.091036319732666
 31
0.0
1001
DBPROPERTIES
1002
{
1000
PbHidd
1002
}
  0
LINE
  5
3A8
330
1F
100
AcDbEntity
  8
HIDDEN
100
AcDbLine
 10
237.1649932861328
 20
-5.091036319732666
 30
0.0
 11
236.7377319335938
 21
-5.249526023864746
 31
0.0
1001
DBPROPERTIES
1002
{
1000
PbHidd
1002
}
  0
LINE
  5
3A9
330
1F
100
AcDbEntity
  8
HIDDEN
100
AcDbLine
 10
236.7377319335938
 20
-5.249526023864746
 30
0.0
 11
236.3035278320312
 21
-5.393159866333008
 31
0.0
1001
DBPROPERTIES
1002
{
1000
PbHidd
1002
}
  0
LINE
  5
3AA
330
1F
100
AcDbEntity
  8
HIDDEN
100
AcDbLine
 10
236.3035278320312
 20
-5.393159866333008
 30
0.0
 11
235.8463745117188
 21
-5.526319980621338
 31
0.0
1001
DBPROPERTIES
1002
{
1000
PbHidd
1002
}
  0
LINE
  5
3AB
330
1F
100
AcDbEntity
  8
HIDDEN
100
AcDbLine
 10
235.8463745117188
 20
-5.526319980621338
 30
0.0
 11
235.3702850341797
 21
-5.645917415618896
 31
0.0
1001
DBPROPERTIES
1002
{
1000
PbHidd
1002
}
  0
LINE
  5
3AC
330
1F
100
AcDbEntity
  8
HIDDEN
100
AcDbLine
 10
235.3702850341797
 20
-5.645917415618896
 30
0.0
 11
234.8800506591797
 21
-5.749458789825439
 31
0.0
1001
DBPROPERTIES
1002
{
1000
PbHidd
1002
}
  0
LINE
  5
3AD
330
1F
100
AcDbEntity
  8
HIDDEN
100
AcDbLine
 10
234.8800506591797
 20
-5.749458789825439
 30
0.0
 11
234.3807373046875
 21
-5.835026264190674
 31
0.0
1001
DBPROPERTIES
1002
{
1000
PbHidd
1002
}
  0
LINE
  5
3AE
330
1F
100
AcDbEntity
  8
HIDDEN
100
AcDbLine
 10
234.3807373046875
 20
-5.835026264190674
 30
0.0
 11
233.87744140625
 21
-5.901395320892334
 31
0.0
1001
DBPROPERTIES
1002
{
1000
PbHidd
1002
}
  0
LINE
  5
3AF
330
1F
100
AcDbEntity
  8
HIDDEN
100
AcDbLine
 10
233.87744140625
 20
-5.901395320892334
 30
0.0
 11
233.3757171630859
 21
-5.948136329650879
 31
0.0
1001
DBPROPERTIES
1002
{
1000
PbHidd
1002
}
  0
LINE
  5
3B0
330
1F
100
AcDbEntity
  8
HIDDEN
100
AcDbLine
 10
233.3757171630859
 20
-5.948136329650879
 30
0.0
 11
232.8812866210938
 21
-5.975342750549316
 31
0.0
1001
DBPROPERTIES
1002
{
1000
PbHidd
1002
}
  0
LINE
  5
3B1
330
1F
100
AcDbEntity
  8
HIDDEN
100
AcDbLine
 10
232.8812866210938
 20
-5.975342750549316
 30
0.0
 11
232.3999938964844
 21
-5.984133720397949
 31
0.0
1001
DBPROPERTIES
1002
{
1000
PbHidd
1002
}
  0
LINE
  5
3B2
330
1F
100
AcDbEntity
  8
HIDDEN
100
AcDbLine
 10
232.3999938964844
 20
-61.72071075439453
 30
0.0
 11
232.7332305908203
 21
-61.72164535522461
 31
0.0
1001
DBPROPERTIES
1002
{
1000
PbHidd
1002
}
  0
LINE
  5
3B3
330
1F
100
AcDbEntity
  8
HIDDEN
100
AcDbLine
 10
232.7332305908203
 20
-61.72164535522461
 30
0.0
 11
233.0736999511719
 21
-61.72451019287109
 31
0.0
1001
DBPROPERTIES
1002
{
1000
PbHidd
1002
}
  0
LINE
  5
3B4
330
1F
100
AcDbEntity
  8
HIDDEN
100
AcDbLine
 10
233.0736999511719
 20
-61.72451019287109
 30
0.0
 11
233.4194183349609
 21
-61.72940444946289
 31
0.0
1001
DBPROPERTIES
1002
{
1000
PbHidd
1002
}
  0
LINE
  5
3B5
330
1F
100
AcDbEntity
  8
HIDDEN
100
AcDbLine
 10
233.4194183349609
 20
-61.72940444946289
 30
0.0
 11
233.7684020996094
 21
-61.73640441894531
 31
0.0
1001
DBPROPERTIES
1002
{
1000
PbHidd
1002
}
  0
LINE
  5
3B6
330
1F
100
AcDbEntity
  8
HIDDEN
100
AcDbLine
 10
233.7684020996094
 20
-61.73640441894531
 30
0.0
 11
234.1187591552734
 21
-61.74550247192383
 31
0.0
1001
DBPROPERTIES
1002
{
1000
PbHidd
1002
}
  0
LINE
  5
3B7
330
1F
100
AcDbEntity
  8
HIDDEN
100
AcDbLine
 10
234.1187591552734
 20
-61.74550247192383
 30
0.0
 11
234.4685363769531
 21
-61.75670623779297
 31
0.0
1001
DBPROPERTIES
1002
{
1000
PbHidd
1002
}
  0
LINE
  5
3B8
330
1F
100
AcDbEntity
  8
HIDDEN
100
AcDbLine
 10
234.4685363769531
 20
-61.75670623779297
 30
0.0
 11
234.8159484863281
 21
-61.76995086669922
 31
0.0
1001
DBPROPERTIES
1002
{
1000
PbHidd
1002
}
  0
LINE
  5
3B9
330
1F
100
AcDbEntity
  8
HIDDEN
100
AcDbLine
 10
234.8159484863281
 20
-61.76995086669922
 30
0.0
 11
235.1592712402344
 21
-61.7851448059082
 31
0.0
1001
DBPROPERTIES
1002
{
1000
PbHidd
1002
}
  0
LINE
  5
3BA
330
1F
100
AcDbEntity
  8
HIDDEN
100
AcDbLine
 10
235.1592712402344
 20
-61.7851448059082
 30
0.0
 11
235.496826171875
 21
-61.80215454101562
 31
0.0
1001
DBPROPERTIES
1002
{
1000
PbHidd
1002
}
  0
LINE
  5
3BB
330
1F
100
AcDbEntity
  8
HIDDEN
100
AcDbLine
 10
235.496826171875
 20
-61.80215454101562
 30
0.0
 11
235.8268737792969
 21
-61.82082366943359
 31
0.0
1001
DBPROPERTIES
1002
{
1000
PbHidd
1002
}
  0
LINE
  5
3BC
330
1F
100
AcDbEntity
  8
HIDDEN
100
AcDbLine
 10
232.4
 20
-61.72071053502023
 30
0.0
 11
232.4
 21
-40.68495131450624
 31
0.0
1001
DBPROPERTIES
1002
{
1000
PbHidd
1002
}
  0
LINE
  5
3BD
330
1F
100
AcDbEntity
  8
HIDDEN
100
AcDbLine
 10
243.21923828125
 20
-33.14450454711914
 30
0.0
 11
243.0157165527344
 21
-33.5588264465332
 31
0.0
1001
DBPROPERTIES
1002
{
1000
PbHidd
1002
}
  0
LINE
  5
3BE
330
1F
100
AcDbEntity
  8
HIDDEN
100
AcDbLine
 10
243.0157165527344
 20
-33.5588264465332
 30
0.0
 11
242.7976837158203
 21
-33.97210693359375
 31
0.0
1001
DBPROPERTIES
1002
{
1000
PbHidd
1002
}
  0
LINE
  5
3BF
330
1F
100
AcDbEntity
  8
HIDDEN
100
AcDbLine
 10
242.7976837158203
 20
-33.97210693359375
 30
0.0
 11
242.5656433105469
 21
-34.38201904296875
 31
0.0
1001
DBPROPERTIES
1002
{
1000
PbHidd
1002
}
  0
LINE
  5
3C0
330
1F
100
AcDbEntity
  8
HIDDEN
100
AcDbLine
 10
242.5656433105469
 20
-34.38201904296875
 30
0.0
 11
242.3200988769531
 21
-34.7862663269043
 31
0.0
1001
DBPROPERTIES
1002
{
1000
PbHidd
1002
}
  0
LINE
  5
3C1
330
1F
100
AcDbEntity
  8
HIDDEN
100
AcDbLine
 10
242.3200988769531
 20
-34.7862663269043
 30
0.0
 11
242.0618591308594
 21
-35.18275833129883
 31
0.0
1001
DBPROPERTIES
1002
{
1000
PbHidd
1002
}
  0
LINE
  5
3C2
330
1F
100
AcDbEntity
  8
HIDDEN
100
AcDbLine
 10
242.0618591308594
 20
-35.18275833129883
 30
0.0
 11
241.7920837402344
 21
-35.56947708129883
 31
0.0
1001
DBPROPERTIES
1002
{
1000
PbHidd
1002
}
  0
LINE
  5
3C3
330
1F
100
AcDbEntity
  8
HIDDEN
100
AcDbLine
 10
241.7920837402344
 20
-35.56947708129883
 30
0.0
 11
241.5119323730469
 21
-35.94440841674805
 31
0.0
1001
DBPROPERTIES
1002
{
1000
PbHidd
1002
}
  0
LINE
  5
3C4
330
1F
100
AcDbEntity
  8
HIDDEN
100
AcDbLine
 10
241.5119323730469
 20
-35.94440841674805
 30
0.0
 11
241.2228698730469
 21
-36.30571746826172
 31
0.0
1001
DBPROPERTIES
1002
{
1000
PbHidd
1002
}
  0
LINE
  5
3C5
330
1F
100
AcDbEntity
  8
HIDDEN
100
AcDbLine
 10
241.2228698730469
 20
-36.30571746826172
 30
0.0
 11
240.9267883300781
 21
-36.65180587768555
 31
0.0
1001
DBPROPERTIES
1002
{
1000
PbHidd
1002
}
  0
LINE
  5
3C6
330
1F
100
AcDbEntity
  8
HIDDEN
100
AcDbLine
 10
240.9267883300781
 20
-36.65180587768555
 30
0.0
 11
240.625244140625
 21
-36.98145294189453
 31
0.0
1001
DBPROPERTIES
1002
{
1000
PbHidd
1002
}
  0
LINE
  5
3C7
330
1F
100
AcDbEntity
  8
HIDDEN
100
AcDbLine
 10
240.625244140625
 20
-36.98145294189453
 30
0.0
 11
240.3074188232422
 21
-37.30602645874023
 31
0.0
1001
DBPROPERTIES
1002
{
1000
PbHidd
1002
}
  0
LINE
  5
3C8
330
1F
100
AcDbEntity
  8
HIDDEN
100
AcDbLine
 10
240.3074188232422
 20
-37.30602645874023
 30
0.0
 11
239.9682312011719
 21
-37.62887573242188
 31
0.0
1001
DBPROPERTIES
1002
{
1000
PbHidd
1002
}
  0
LINE
  5
3C9
330
1F
100
AcDbEntity
  8
HIDDEN
100
AcDbLine
 10
239.9682312011719
 20
-37.62887573242188
 30
0.0
 11
239.6091613769531
 21
-37.94612121582031
 31
0.0
1001
DBPROPERTIES
1002
{
1000
PbHidd
1002
}
  0
LINE
  5
3CA
330
1F
100
AcDbEntity
  8
HIDDEN
100
AcDbLine
 10
239.6091613769531
 20
-37.94612121582031
 30
0.0
 11
239.2321014404297
 21
-38.25428009033203
 31
0.0
1001
DBPROPERTIES
1002
{
1000
PbHidd
1002
}
  0
LINE
  5
3CB
330
1F
100
AcDbEntity
  8
HIDDEN
100
AcDbLine
 10
239.2321014404297
 20
-38.25428009033203
 30
0.0
 11
238.8393096923828
 21
-38.55017471313477
 31
0.0
1001
DBPROPERTIES
1002
{
1000
PbHidd
1002
}
  0
LINE
  5
3CC
330
1F
100
AcDbEntity
  8
HIDDEN
100
AcDbLine
 10
238.8393096923828
 20
-38.55017471313477
 30
0.0
 11
238.4331207275391
 21
-38.83086395263672
 31
0.0
1001
DBPROPERTIES
1002
{
1000
PbHidd
1002
}
  0
LINE
  5
3CD
330
1F
100
AcDbEntity
  8
HIDDEN
100
AcDbLine
 10
238.4331207275391
 20
-38.83086395263672
 30
0.0
 11
238.0164947509766
 21
-39.09403228759766
 31
0.0
1001
DBPROPERTIES
1002
{
1000
PbHidd
1002
}
  0
LINE
  5
3CE
330
1F
100
AcDbEntity
  8
HIDDEN
100
AcDbLine
 10
238.0164947509766
 20
-39.09403228759766
 30
0.0
 11
237.5925903320312
 21
-39.33749389648438
 31
0.0
1001
DBPROPERTIES
1002
{
1000
PbHidd
1002
}
  0
LINE
  5
3CF
330
1F
100
AcDbEntity
  8
HIDDEN
100
AcDbLine
 10
237.5925903320312
 20
-39.33749389648438
 30
0.0
 11
237.1649932861328
 21
-39.5595817565918
 31
0.0
1001
DBPROPERTIES
1002
{
1000
PbHidd
1002
}
  0
LINE
  5
3D0
330
1F
100
AcDbEntity
  8
HIDDEN
100
AcDbLine
 10
237.1649932861328
 20
-39.5595817565918
 30
0.0
 11
236.7377319335938
 21
-39.75929260253906
 31
0.0
1001
DBPROPERTIES
1002
{
1000
PbHidd
1002
}
  0
LINE
  5
3D1
330
1F
100
AcDbEntity
  8
HIDDEN
100
AcDbLine
 10
236.7377319335938
 20
-39.75929260253906
 30
0.0
 11
236.3035278320312
 21
-39.94028091430664
 31
0.0
1001
DBPROPERTIES
1002
{
1000
PbHidd
1002
}
  0
LINE
  5
3D2
330
1F
100
AcDbEntity
  8
HIDDEN
100
AcDbLine
 10
236.3035278320312
 20
-39.94028091430664
 30
0.0
 11
235.8463745117188
 21
-40.10807037353516
 31
0.0
1001
DBPROPERTIES
1002
{
1000
PbHidd
1002
}
  0
LINE
  5
3D3
330
1F
100
AcDbEntity
  8
HIDDEN
100
AcDbLine
 10
235.8463745117188
 20
-40.10807037353516
 30
0.0
 11
235.3702850341797
 21
-40.25877380371094
 31
0.0
1001
DBPROPERTIES
1002
{
1000
PbHidd
1002
}
  0
LINE
  5
3D4
330
1F
100
AcDbEntity
  8
HIDDEN
100
AcDbLine
 10
235.3702850341797
 20
-40.25877380371094
 30
0.0
 11
234.8800506591797
 21
-40.38924407958984
 31
0.0
1001
DBPROPERTIES
1002
{
1000
PbHidd
1002
}
  0
LINE
  5
3D5
330
1F
100
AcDbEntity
  8
HIDDEN
100
AcDbLine
 10
234.8800506591797
 20
-40.38924407958984
 30
0.0
 11
234.3807373046875
 21
-40.49706649780273
 31
0.0
1001
DBPROPERTIES
1002
{
1000
PbHidd
1002
}
  0
LINE
  5
3D6
330
1F
100
AcDbEntity
  8
HIDDEN
100
AcDbLine
 10
234.3807373046875
 20
-40.49706649780273
 30
0.0
 11
233.87744140625
 21
-40.58069610595703
 31
0.0
1001
DBPROPERTIES
1002
{
1000
PbHidd
1002
}
  0
LINE
  5
3D7
330
1F
100
AcDbEntity
  8
HIDDEN
100
AcDbLine
 10
233.87744140625
 20
-40.58069610595703
 30
0.0
 11
233.3757171630859
 21
-40.63959121704102
 31
0.0
1001
DBPROPERTIES
1002
{
1000
PbHidd
1002
}
  0
LINE
  5
3D8
330
1F
100
AcDbEntity
  8
HIDDEN
100
AcDbLine
 10
233.3757171630859
 20
-40.63959121704102
 30
0.0
 11
232.8812866210938
 21
-40.67387390136719
 31
0.0
1001
DBPROPERTIES
1002
{
1000
PbHidd
1002
}
  0
LINE
  5
3D9
330
1F
100
AcDbEntity
  8
HIDDEN
100
AcDbLine
 10
232.8812866210938
 20
-40.67387390136719
 30
0.0
 11
232.3999938964844
 21
-40.68495178222656
 31
0.0
1001
DBPROPERTIES
1002
{
1000
PbHidd
1002
}
  0
LINE
  5
3DA
330
1F
100
AcDbEntity
  8
HIDDEN
100
AcDbLine
 10
232.3999938964844
 20
-29.30245208740234
 30
0.0
 11
232.8812866210938
 21
-29.30809593200684
 31
0.0
1001
DBPROPERTIES
1002
{
1000
PbHidd
1002
}
  0
LINE
  5
3DB
330
1F
100
AcDbEntity
  8
HIDDEN
100
AcDbLine
 10
232.8812866210938
 20
-29.30809593200684
 30
0.0
 11
233.3757171630859
 21
-29.32556343078613
 31
0.0
1001
DBPROPERTIES
1002
{
1000
PbHidd
1002
}
  0
LINE
  5
3DC
330
1F
100
AcDbEntity
  8
HIDDEN
100
AcDbLine
 10
233.3757171630859
 20
-29.32556343078613
 30
0.0
 11
233.87744140625
 21
-29.3555736541748
 31
0.0
1001
DBPROPERTIES
1002
{
1000
PbHidd
1002
}
  0
LINE
  5
3DD
330
1F
100
AcDbEntity
  8
HIDDEN
100
AcDbLine
 10
233.87744140625
 20
-29.3555736541748
 30
0.0
 11
234.3807373046875
 21
-29.39818572998047
 31
0.0
1001
DBPROPERTIES
1002
{
1000
PbHidd
1002
}
  0
LINE
  5
3DE
330
1F
100
AcDbEntity
  8
HIDDEN
100
AcDbLine
 10
234.3807373046875
 20
-29.39818572998047
 30
0.0
 11
234.8800506591797
 21
-29.45312309265137
 31
0.0
1001
DBPROPERTIES
1002
{
1000
PbHidd
1002
}
  0
LINE
  5
3DF
330
1F
100
AcDbEntity
  8
HIDDEN
100
AcDbLine
 10
234.8800506591797
 20
-29.45312309265137
 30
0.0
 11
235.3702850341797
 21
-29.51959991455078
 31
0.0
1001
DBPROPERTIES
1002
{
1000
PbHidd
1002
}
  0
LINE
  5
3E0
330
1F
100
AcDbEntity
  8
HIDDEN
100
AcDbLine
 10
235.3702850341797
 20
-29.51959991455078
 30
0.0
 11
235.8463745117188
 21
-29.59638786315918
 31
0.0
1001
DBPROPERTIES
1002
{
1000
PbHidd
1002
}
  0
LINE
  5
3E1
330
1F
100
AcDbEntity
  8
HIDDEN
100
AcDbLine
 10
235.8463745117188
 20
-29.59638786315918
 30
0.0
 11
236.3035278320312
 21
-29.68188095092773
 31
0.0
1001
DBPROPERTIES
1002
{
1000
PbHidd
1002
}
  0
LINE
  5
3E2
330
1F
100
AcDbEntity
  8
HIDDEN
100
AcDbLine
 10
236.3035278320312
 20
-29.68188095092773
 30
0.0
 11
236.7377319335938
 21
-29.77409934997559
 31
0.0
1001
DBPROPERTIES
1002
{
1000
PbHidd
1002
}
  0
LINE
  5
3E3
330
1F
100
AcDbEntity
  8
HIDDEN
100
AcDbLine
 10
236.7377319335938
 20
-29.77409934997559
 30
0.0
 11
237.1649932861328
 21
-29.87585639953613
 31
0.0
1001
DBPROPERTIES
1002
{
1000
PbHidd
1002
}
  0
LINE
  5
3E4
330
1F
100
AcDbEntity
  8
HIDDEN
100
AcDbLine
 10
237.1649932861328
 20
-29.87585639953613
 30
0.0
 11
237.5925903320312
 21
-29.98901748657227
 31
0.0
1001
DBPROPERTIES
1002
{
1000
PbHidd
1002
}
  0
LINE
  5
3E5
330
1F
100
AcDbEntity
  8
HIDDEN
100
AcDbLine
 10
237.5925903320312
 20
-29.98901748657227
 30
0.0
 11
238.0164947509766
 21
-30.11306762695312
 31
0.0
1001
DBPROPERTIES
1002
{
1000
PbHidd
1002
}
  0
LINE
  5
3E6
330
1F
100
AcDbEntity
  8
HIDDEN
100
AcDbLine
 10
238.0164947509766
 20
-30.11306762695312
 30
0.0
 11
238.4331207275391
 21
-30.24715614318848
 31
0.0
1001
DBPROPERTIES
1002
{
1000
PbHidd
1002
}
  0
LINE
  5
3E7
330
1F
100
AcDbEntity
  8
HIDDEN
100
AcDbLine
 10
238.4331207275391
 20
-30.24715614318848
 30
0.0
 11
238.8393096923828
 21
-30.39017486572266
 31
0.0
1001
DBPROPERTIES
1002
{
1000
PbHidd
1002
}
  0
LINE
  5
3E8
330
1F
100
AcDbEntity
  8
HIDDEN
100
AcDbLine
 10
238.8393096923828
 20
-30.39017486572266
 30
0.0
 11
239.2321014404297
 21
-30.54094123840332
 31
0.0
1001
DBPROPERTIES
1002
{
1000
PbHidd
1002
}
  0
LINE
  5
3E9
330
1F
100
AcDbEntity
  8
HIDDEN
100
AcDbLine
 10
239.2321014404297
 20
-30.54094123840332
 30
0.0
 11
239.6091613769531
 21
-30.69795608520508
 31
0.0
1001
DBPROPERTIES
1002
{
1000
PbHidd
1002
}
  0
LINE
  5
3EA
330
1F
100
AcDbEntity
  8
HIDDEN
100
AcDbLine
 10
239.6091613769531
 20
-30.69795608520508
 30
0.0
 11
239.9682312011719
 21
-30.8596019744873
 31
0.0
1001
DBPROPERTIES
1002
{
1000
PbHidd
1002
}
  0
LINE
  5
3EB
330
1F
100
AcDbEntity
  8
HIDDEN
100
AcDbLine
 10
239.9682312011719
 20
-30.8596019744873
 30
0.0
 11
240.3074188232422
 21
-31.02410125732422
 31
0.0
1001
DBPROPERTIES
1002
{
1000
PbHidd
1002
}
  0
LINE
  5
3EC
330
1F
100
AcDbEntity
  8
HIDDEN
100
AcDbLine
 10
240.3074188232422
 20
-31.02410125732422
 30
0.0
 11
240.625244140625
 21
-31.18947982788086
 31
0.0
1001
DBPROPERTIES
1002
{
1000
PbHidd
1002
}
  0
LINE
  5
3ED
330
1F
100
AcDbEntity
  8
HIDDEN
100
AcDbLine
 10
240.625244140625
 20
-31.18947982788086
 30
0.0
 11
240.9267883300781
 21
-31.35744285583496
 31
0.0
1001
DBPROPERTIES
1002
{
1000
PbHidd
1002
}
  0
LINE
  5
3EE
330
1F
100
AcDbEntity
  8
HIDDEN
100
AcDbLine
 10
240.9267883300781
 20
-31.35744285583496
 30
0.0
 11
241.2228698730469
 21
-31.53378486633301
 31
0.0
1001
DBPROPERTIES
1002
{
1000
PbHidd
1002
}
  0
LINE
  5
3EF
330
1F
100
AcDbEntity
  8
HIDDEN
100
AcDbLine
 10
241.2228698730469
 20
-31.53378486633301
 30
0.0
 11
241.5119323730469
 21
-31.7178783416748
 31
0.0
1001
DBPROPERTIES
1002
{
1000
PbHidd
1002
}
  0
LINE
  5
3F0
330
1F
100
AcDbEntity
  8
HIDDEN
100
AcDbLine
 10
241.5119323730469
 20
-31.7178783416748
 30
0.0
 11
241.7920837402344
 21
-31.90891647338867
 31
0.0
1001
DBPROPERTIES
1002
{
1000
PbHidd
1002
}
  0
LINE
  5
3F1
330
1F
100
AcDbEntity
  8
HIDDEN
100
AcDbLine
 10
241.7920837402344
 20
-31.90891647338867
 30
0.0
 11
242.0618591308594
 21
-32.10596084594727
 31
0.0
1001
DBPROPERTIES
1002
{
1000
PbHidd
1002
}
  0
LINE
  5
3F2
330
1F
100
AcDbEntity
  8
HIDDEN
100
AcDbLine
 10
242.0618591308594
 20
-32.10596084594727
 30
0.0
 11
242.3200988769531
 21
-32.3079833984375
 31
0.0
1001
DBPROPERTIES
1002
{
1000
PbHidd
1002
}
  0
LINE
  5
3F3
330
1F
100
AcDbEntity
  8
HIDDEN
100
AcDbLine
 10
242.3200988769531
 20
-32.3079833984375
 30
0.0
 11
242.5656433105469
 21
-32.51395797729492
 31
0.0
1001
DBPROPERTIES
1002
{
1000
PbHidd
1002
}
  0
LINE
  5
3F4
330
1F
100
AcDbEntity
  8
HIDDEN
100
AcDbLine
 10
242.5656433105469
 20
-32.51395797729492
 30
0.0
 11
242.7976837158203
 21
-32.72281646728516
 31
0.0
1001
DBPROPERTIES
1002
{
1000
PbHidd
1002
}
  0
LINE
  5
3F5
330
1F
100
AcDbEntity
  8
HIDDEN
100
AcDbLine
 10
242.7976837158203
 20
-32.72281646728516
 30
0.0
 11
243.0157165527344
 21
-32.93339538574219
 31
0.0
1001
DBPROPERTIES
1002
{
1000
PbHidd
1002
}
  0
LINE
  5
3F6
330
1F
100
AcDbEntity
  8
HIDDEN
100
AcDbLine
 10
243.0157165527344
 20
-32.93339538574219
 30
0.0
 11
243.21923828125
 21
-33.14450454711914
 31
0.0
1001
DBPROPERTIES
1002
{
1000
PbHidd
1002
}
  0
LINE
  5
3F7
330
1F
100
AcDbEntity
  8
HIDDEN
100
AcDbLine
 10
232.4
 20
-29.30245249089407
 30
0.0
 11
232.4
 21
-5.984133765232333
 31
0.0
1001
DBPROPERTIES
1002
{
1000
PbHidd
1002
}
  0
LINE
  5
3F8
330
1F
100
AcDbEntity
  8
THICK
100
AcDbLine
 10
232.4
 20
-40.68495131450616
 30
0.0
 11
0.0
 21
-40.68495131450616
 31
0.0
1001
DBPROPERTIES
1002
{
1000
PbThick
1002
}
  0
LINE
  5
3F9
330
1F
100
AcDbEntity
  8
THICK
100
AcDbLine
 10
243.2192415490974
 20
-33.14450287263039
 30
0.0
 11
0.0
 21
-33.14450287263039
 31
0.0
1001
DBPROPERTIES
1002
{
1000
PbThick
1002
}
  0
LINE
  5
3FA
330
1F
100
AcDbEntity
  8
THICK
100
AcDbLine
 10
0.0
 20
-29.30245249089405
 30
0.0
 11
232.4
 21
-29.30245249089405
 31
0.0
1001
DBPROPERTIES
1002
{
1000
PbThick
1002
}
  0
LINE
  5
3FB
330
1F
100
AcDbEntity
  8
THICK
100
AcDbLine
 10
232.4
 20
-5.984133765232336
 30
0.0
 11
0.0
 21
-5.984133765232336
 31
0.0
1001
DBPROPERTIES
1002
{
1000
PbThick
1002
}
  0
LINE
  5
3FC
330
1F
100
AcDbEntity
  8
THICK
100
AcDbLine
 10
243.2192415490974
 20
0.0000000000000131
 30
0.0
 11
0.0
 21
0.0000000000000131
 31
0.0
1001
DBPROPERTIES
1002
{
1000
PbThick
1002
}
  0
LINE
  5
3FD
330
1F
100
AcDbEntity
  8
THICK
100
AcDbLine
 10
0.0
 20
5.984133765232357
 30
0.0
 11
232.4
 21
5.984133765232357
 31
0.0
1001
DBPROPERTIES
1002
{
1000
PbThick
1002
}
  0
LINE
  5
3FE
330
1F
100
AcDbEntity
  8
THICK
100
AcDbLine
 10
232.4
 20
29.30245249089406
 30
0.0
 11
0.0
 21
29.30245249089406
 31
0.0
1001
DBPROPERTIES
1002
{
1000
PbThick
1002
}
  0
LINE
  5
3FF
330
1F
100
AcDbEntity
  8
THICK
100
AcDbLine
 10
243.2192415490974
 20
33.14450287263041
 30
0.0
 11
0.0
 21
33.14450287263041
 31
0.0
1001
DBPROPERTIES
1002
{
1000
PbThick
1002
}
  0
LINE
  5
400
330
1F
100
AcDbEntity
  8
THICK
100
AcDbLine
 10
0.0
 20
40.68495131450624
 30
0.0
 11
232.4
 21
40.68495131450624
 31
0.0
1001
DBPROPERTIES
1002
{
1000
PbThick
1002
}
  0
LINE
  5
401
330
1F
100
AcDbEntity
  8
THICK
100
AcDbLine
 10
232.4
 20
61.72071053502028
 30
0.0
 11
0.0
 21
61.72071053502028
 31
0.0
1001
DBPROPERTIES
1002
{
1000
PbThick
1002
}
  0
LINE
  5
402
330
1F
100
AcDbEntity
  8
THICK
100
AcDbLine
 10
243.2192415490974
 20
63.04459087275717
 30
0.0
 11
0.0
 21
63.04459087275717
 31
0.0
1001
DBPROPERTIES
1002
{
1000
PbThick
1002
}
  0
LINE
  5
403
330
1F
100
AcDbEntity
  8
THICK
100
AcDbLine
 10
0.0
 20
71.40324236039207
 30
0.0
 11
232.4
 21
71.40324236039207
 31
0.0
1001
DBPROPERTIES
1002
{
1000
PbThick
1002
}
  0
LINE
  5
404
330
1F
100
AcDbEntity
  8
THICK
100
AcDbLine
 10
232.4
 20
88.09731539850183
 30
0.0
 11
0.0
 21
88.09731539850183
 31
0.0
1001
DBPROPERTIES
1002
{
1000
PbThick
1002
}
  0
LINE
  5
405
330
1F
100
AcDbEntity
  8
HIDDEN
100
AcDbLine
 10
243.2192415490974
 20
86.77343506076492
 30
0.0
 11
0.0
 21
86.77343506076492
 31
0.0
1001
DBPROPERTIES
1002
{
1000
PbHidd
1002
}
  0
LINE
  5
406
330
1F
100
AcDbEntity
  8
THICK
100
AcDbLine
 10
0.0
 20
95.13208654839983
 30
0.0
 11
232.4
 21
95.13208654839983
 31
0.0
1001
DBPROPERTIES
1002
{
1000
PbThick
1002
}
  0
LINE
  5
407
330
1F
100
AcDbEntity
  8
THICK
100
AcDbLine
 10
232.4
 20
105.8503412206888
 30
0.0
 11
0.0
 21
105.8503412206888
 31
0.0
1001
DBPROPERTIES
1002
{
1000
PbThick
1002
}
  0
LINE
  5
408
330
1F
100
AcDbEntity
  8
HIDDEN
100
AcDbLine
 10
243.2192415490974
 20
102.0082908389525
 30
0.0
 11
0.0
 21
102.0082908389525
 31
0.0
1001
DBPROPERTIES
1002
{
1000
PbHidd
1002
}
  0
LINE
  5
409
330
1F
100
AcDbEntity
  8
THICK
100
AcDbLine
 10
0.0
 20
109.5487392808283
 30
0.0
 11
232.4
 21
109.5487392808283
 31
0.0
1001
DBPROPERTIES
1002
{
1000
PbThick
1002
}
  0
LINE
  5
40A
330
1F
100
AcDbEntity
  8
THICK
100
AcDbLine
 10
232.4
 20
113.2419981415014
 30
0.0
 11
0.0
 21
113.2419981415014
 31
0.0
1001
DBPROPERTIES
1002
{
1000
PbThick
1002
}
  0
LINE
  5
40B
330
1F
100
AcDbEntity
  8
HIDDEN
100
AcDbLine
 10
243.2192415490974
 20
107.257864376269
 30
0.0
 11
0.0
 21
107.257864376269
 31
0.0
1001
DBPROPERTIES
1002
{
1000
PbHidd
1002
}
  0
LINE
  5
40C
330
1F
100
AcDbEntity
  8
HIDDEN
100
AcDbLine
 10
243.2192415490974
 20
102.0082908389525
 30
0.0
 11
0.0
 21
102.0082908389525
 31
0.0
1001
DBPROPERTIES
1002
{
1000
PbHidd
1002
}
  0
LINE
  5
40D
330
1F
100
AcDbEntity
  8
HIDDEN
100
AcDbLine
 10
232.4
 20
109.5487392808283
 30
0.0
 11
0.0
 21
109.5487392808283
 31
0.0
1001
DBPROPERTIES
1002
{
1000
PbHidd
1002
}
  0
LINE
  5
40E
330
1F
100
AcDbEntity
  8
HIDDEN
100
AcDbLine
 10
232.4
 20
95.13208654839983
 30
0.0
 11
0.0
 21
95.13208654839983
 31
0.0
1001
DBPROPERTIES
1002
{
1000
PbHidd
1002
}
  0
LINE
  5
40F
330
1F
100
AcDbEntity
  8
HIDDEN
100
AcDbLine
 10
243.2192415490974
 20
86.7734350607649
 30
0.0
 11
0.0
 21
86.7734350607649
 31
0.0
1001
DBPROPERTIES
1002
{
1000
PbHidd
1002
}
  0
LINE
  5
410
330
1F
100
AcDbEntity
  8
HIDDEN
100
AcDbLine
 10
232.4
 20
71.40324236039211
 30
0.0
 11
0.0
 21
71.40324236039211
 31
0.0
1001
DBPROPERTIES
1002
{
1000
PbHidd
1002
}
  0
LINE
  5
411
330
1F
100
AcDbEntity
  8
HIDDEN
100
AcDbLine
 10
243.2192415490974
 20
63.04459087275713
 30
0.0
 11
0.0
 21
63.04459087275713
 31
0.0
1001
DBPROPERTIES
1002
{
1000
PbHidd
1002
}
  0
LINE
  5
412
330
1F
100
AcDbEntity
  8
HIDDEN
100
AcDbLine
 10
0.0
 20
61.72071053502023
 30
0.0
 11
232.4
 21
61.72071053502023
 31
0.0
1001
DBPROPERTIES
1002
{
1000
PbHidd
1002
}
  0
LINE
  5
413
330
1F
100
AcDbEntity
  8
HIDDEN
100
AcDbLine
 10
232.4
 20
40.68495131450619
 30
0.0
 11
0.0
 21
40.68495131450619
 31
0.0
1001
DBPROPERTIES
1002
{
1000
PbHidd
1002
}
  0
LINE
  5
414
330
1F
100
AcDbEntity
  8
HIDDEN
100
AcDbLine
 10
243.2192415490974
 20
33.14450287263038
 30
0.0
 11
0.0
 21
33.14450287263038
 31
0.0
1001
DBPROPERTIES
1002
{
1000
PbHidd
1002
}
  0
LINE
  5
415
330
1F
100
AcDbEntity
  8
HIDDEN
100
AcDbLine
 10
0.0
 20
29.30245249089405
 30
0.0
 11
232.4
 21
29.30245249089405
 31
0.0
1001
DBPROPERTIES
1002
{
1000
PbHidd
1002
}
  0
LINE
  5
416
330
1F
100
AcDbEntity
  8
HIDDEN
100
AcDbLine
 10
232.4
 20
5.984133765232301
 30
0.0
 11
0.0
 21
5.984133765232301
 31
0.0
1001
DBPROPERTIES
1002
{
1000
PbHidd
1002
}
  0
LINE
  5
417
330
1F
100
AcDbEntity
  8
HIDDEN
100
AcDbLine
 10
243.2192415490974
 20
-0.0000000000000263
 30
0.0
 11
0.0
 21
-0.0000000000000263
 31
0.0
1001
DBPROPERTIES
1002
{
1000
PbHidd
1002
}
  0
LINE
  5
418
330
1F
100
AcDbEntity
  8
HIDDEN
100
AcDbLine
 10
0.0
 20
-5.984133765232365
 30
0.0
 11
232.4
 21
-5.984133765232365
 31
0.0
1001
DBPROPERTIES
1002
{
1000
PbHidd
1002
}
  0
LINE
  5
419
330
1F
100
AcDbEntity
  8
HIDDEN
100
AcDbLine
 10
232.4
 20
-29.30245249089409
 30
0.0
 11
0.0
 21
-29.30245249089409
 31
0.0
1001
DBPROPERTIES
1002
{
1000
PbHidd
1002
}
  0
LINE
  5
41A
330
1F
100
AcDbEntity
  8
HIDDEN
100
AcDbLine
 10
243.2192415490973
 20
-33.14450287263043
 30
0.0
 11
0.0000000000001421
 21
-33.14450287263043
 31
0.0
1001
DBPROPERTIES
1002
{
1000
PbHidd
1002
}
  0
LINE
  5
41B
330
1F
100
AcDbEntity
  8
HIDDEN
100
AcDbLine
 10
0.0
 20
-40.68495131450624
 30
0.0
 11
232.4
 21
-40.68495131450624
 31
0.0
1001
DBPROPERTIES
1002
{
1000
PbHidd
1002
}
  0
LINE
  5
41C
330
1F
100
AcDbEntity
  8
HIDDEN
100
AcDbLine
 10
232.4
 20
-61.72071053502027
 30
0.0
 11
0.0
 21
-61.72071053502027
 31
0.0
1001
DBPROPERTIES
1002
{
1000
PbHidd
1002
}
  0
LINE
  5
41D
330
1F
100
AcDbEntity
  8
HIDDEN
100
AcDbLine
 10
98.0
 20
-63.04459087275717
 30
0.0
 11
0.0
 21
-63.04459087275717
 31
0.0
1001
DBPROPERTIES
1002
{
1000
PbHidd
1002
}
  0
LINE
  5
41E
330
1F
100
AcDbEntity
  8
HIDDEN
100
AcDbLine
 10
0.0
 20
-71.40324236039211
 30
0.0
 11
98.0
 21
-71.40324236039211
 31
0.0
1001
DBPROPERTIES
1002
{
1000
PbHidd
1002
}
  0
LINE
  5
41F
330
1F
100
AcDbEntity
  8
HIDDEN
100
AcDbLine
 10
98.0
 20
-86.77343506076492
 30
0.0
 11
0.0
 21
-86.77343506076492
 31
0.0
1001
DBPROPERTIES
1002
{
1000
PbHidd
1002
}
  0
LINE
  5
420
330
1F
100
AcDbEntity
  8
HIDDEN
100
AcDbLine
 10
0.0
 20
-95.13208654839985
 30
0.0
 11
98.0
 21
-95.13208654839985
 31
0.0
1001
DBPROPERTIES
1002
{
1000
PbHidd
1002
}
  0
LINE
  5
421
330
1F
100
AcDbEntity
  8
HIDDEN
100
AcDbLine
 10
98.0
 20
-102.0082908389525
 30
0.0
 11
0.0
 21
-102.0082908389525
 31
0.0
1001
DBPROPERTIES
1002
{
1000
PbHidd
1002
}
  0
LINE
  5
422
330
1F
100
AcDbEntity
  8
HIDDEN
100
AcDbLine
 10
0.0
 20
-109.5487392808283
 30
0.0
 11
98.0
 21
-109.5487392808283
 31
0.0
1001
DBPROPERTIES
1002
{
1000
PbHidd
1002
}
  0
LINE
  5
423
330
1F
100
AcDbEntity
  8
HIDDEN
100
AcDbLine
 10
-394.0000000000001
 20
-0.0000000000000229
 30
0.0
 11
-394.0
 21
-374.0
 31
0.0
1001
DBPROPERTIES
1002
{
1000
PbHidd
1002
}
  0
LINE
  5
424
330
1F
100
AcDbEntity
  8
HIDDEN
100
AcDbLine
 10
-482.0000000000001
 20
-0.0000000000000139
 30
0.0
 11
-482.0
 21
-315.0212765957447
 31
0.0
1001
DBPROPERTIES
1002
{
1000
PbHidd
1002
}
  0
LINE
  5
425
330
1F
100
AcDbEntity
  8
HIDDEN
100
AcDbLine
 10
-390.0000000000001
 20
-251.6042852506083
 30
0.0
 11
-390.0000000000001
 21
-254.8403532281081
 31
0.0
1001
DBPROPERTIES
1002
{
1000
PbHidd
1002
}
  0
LINE
  5
426
330
1F
100
AcDbEntity
  8
HIDDEN
100
AcDbLine
 10
-390.0
 20
-254.8403532281084
 30
0.0
 11
-390.0
 21
-332.3854118698399
 31
0.0
1001
DBPROPERTIES
1002
{
1000
PbHidd
1002
}
  0
LINE
  5
427
330
1F
100
AcDbEntity
  8
THICK
100
AcDbLine
 10
-390.0
 20
-332.3854118698399
 30
0.0
 11
-389.9999999999999
 21
-365.8885920001021
 31
0.0
1001
DBPROPERTIES
1002
{
1000
PbThick
1002
}
  0
LINE
  5
428
330
1F
100
AcDbEntity
  8
HIDDEN
100
AcDbLine
 10
-390.0000000000001
 20
-195.8553243496534
 30
0.0
 11
-390.0000000000001
 21
-186.7437566968579
 31
0.0
1001
DBPROPERTIES
1002
{
1000
PbHidd
1002
}
  0
LINE
  5
429
330
1F
100
AcDbEntity
  8
THICK
100
AcDbLine
 10
-390.0000000000001
 20
97.34035322810846
 30
0.0
 11
-390.0000000000001
 21
-186.7437566968578
 31
0.0
1001
DBPROPERTIES
1002
{
1000
PbThick
1002
}
  0
LINE
  5
42A
330
1F
100
AcDbEntity
  8
THICK
100
AcDbLine
 10
-390.0
 20
315.0
 30
0.0
 11
-390.0000000000001
 21
250.4746031746031
 31
0.0
1001
DBPROPERTIES
1002
{
1000
PbThick
1002
}
  0
LINE
  5
42B
330
1F
100
AcDbEntity
  8
THICK
100
AcDbLine
 10
-389.9999999999999
 20
345.7285666215025
 30
0.0
 11
-389.9999999999999
 21
315.0000314094477
 31
0.0
1001
DBPROPERTIES
1002
{
1000
PbThick
1002
}
  0
LINE
  5
42C
330
1F
100
AcDbEntity
  8
HIDDEN
100
AcDbLine
 10
-389.9999999999999
 20
242.5001746172161
 30
0.0
 11
-389.9999999999999
 21
164.1682539662257
 31
0.0
1001
DBPROPERTIES
1002
{
1000
PbHidd
1002
}
  0
LINE
  5
42D
330
1F
100
AcDbEntity
  8
THICK
100
AcDbLine
 10
-389.9999999999999
 20
164.1682539662257
 30
0.0
 11
-389.9999999999999
 21
97.34035516482061
 31
0.0
1001
DBPROPERTIES
1002
{
1000
PbThick
1002
}
  0
LINE
  5
42E
330
1F
100
AcDbEntity
  8
HIDDEN
100
AcDbLine
 10
-390.0
 20
-195.8555132505787
 30
0.0
 11
-390.0
 21
-251.6042852506087
 31
0.0
1001
DBPROPERTIES
1002
{
1000
PbHidd
1002
}
  0
LINE
  5
42F
330
1F
100
AcDbEntity
  8
THICK
100
AcDbLine
 10
-390.0
 20
-186.7437566968578
 30
0.0
 11
-392.0000000000001
 21
-186.7437566968578
 31
0.0
1001
DBPROPERTIES
1002
{
1000
PbThick
1002
}
  0
LINE
  5
430
330
1F
100
AcDbEntity
  8
HIDDEN
100
AcDbLine
 10
-392.0000000000001
 20
-195.8553243496532
 30
0.0
 11
-389.9999999999999
 21
-195.8553243496532
 31
0.0
1001
DBPROPERTIES
1002
{
1000
PbHidd
1002
}
  0
LINE
  5
431
330
1F
100
AcDbEntity
  8
THICK
100
AcDbLine
 10
-390.0
 20
-365.8885920001021
 30
0.0
 11
-392.0000000000001
 21
-365.8885920001021
 31
0.0
1001
DBPROPERTIES
1002
{
1000
PbThick
1002
}
  0
LINE
  5
432
330
1F
100
AcDbEntity
  8
THICK
100
AcDbLine
 10
-392.0000000000001
 20
-363.5452473257205
 30
0.0
 11
-389.9999999999999
 21
-363.5452473257205
 31
0.0
1001
DBPROPERTIES
1002
{
1000
PbThick
1002
}
  0
LINE
  5
433
330
1F
100
AcDbEntity
  8
THICK
100
AcDbLine
 10
-389.9999999999999
 20
-39.38782925504827
 30
0.0
 11
-392.0
 21
-39.38782925504827
 31
0.0
1001
DBPROPERTIES
1002
{
1000
PbThick
1002
}
  0
LINE
  5
434
330
1F
100
AcDbEntity
  8
THICK
100
AcDbLine
 10
-391.9999999999999
 20
-28.82799494612885
 30
0.0
 11
-389.9999999999999
 21
-28.82799494612885
 31
0.0
1001
DBPROPERTIES
1002
{
1000
PbThick
1002
}
  0
LINE
  5
435
330
1F
100
AcDbEntity
  8
HIDDEN
100
AcDbLine
 10
-390.0
 20
-254.8403532281085
 30
0.0
 11
-8.0
 21
-254.8403532281085
 31
0.0
1001
DBPROPERTIES
1002
{
1000
PbHidd
1002
}
  0
LINE
  5
436
330
1F
100
AcDbEntity
  8
HIDDEN
100
AcDbLine
 10
-7.999999999999972
 20
95.54752209232146
 30
0.0
 11
-391.9999999999999
 21
95.54752209232146
 31
0.0
1001
DBPROPERTIES
1002
{
1000
PbHidd
1002
}
  0
LINE
  5
437
330
1F
100
AcDbEntity
  8
HIDDEN
100
AcDbLine
 10
-8.0
 20
-251.6042852506086
 30
0.0
 11
-390.0000000000001
 21
-251.6042852506086
 31
0.0
1001
DBPROPERTIES
1002
{
1000
PbHidd
1002
}
  0
LINE
  5
438
330
1F
100
AcDbEntity
  8
HIDDEN
100
AcDbLine
 10
-392.0000000000001
 20
-369.5937359178831
 30
0.0
 11
-8.0
 21
-369.5937359178831
 31
0.0
1001
DBPROPERTIES
1002
{
1000
PbHidd
1002
}
  0
LINE
  5
439
330
1F
100
AcDbEntity
  8
HIDDEN
100
AcDbLine
 10
-390.0000000000001
 20
-254.8403532281084
 30
0.0
 11
-8.0
 21
-254.8403532281084
 31
0.0
1001
DBPROPERTIES
1002
{
1000
PbHidd
1002
}
  0
LINE
  5
43A
330
1F
100
AcDbEntity
  8
HIDDEN
100
AcDbLine
 10
-8.0
 20
-374.080515869982
 30
0.0
 11
-392.0
 21
-374.080515869982
 31
0.0
1001
DBPROPERTIES
1002
{
1000
PbHidd
1002
}
  0
LINE
  5
43B
330
1F
100
AcDbEntity
  8
HIDDEN
100
AcDbLine
 10
-8.000000000000028
 20
96.10428525060867
 30
0.0
 11
-390.0000000000001
 21
96.10428525060867
 31
0.0
1001
DBPROPERTIES
1002
{
1000
PbHidd
1002
}
  0
LINE
  5
43C
330
1F
100
AcDbEntity
  8
HIDDEN
100
AcDbLine
 10
-8.000000000000016
 20
-332.385411949828
 30
0.0
 11
-8.000000000000016
 21
-326.7420272478118
 31
0.0
1001
DBPROPERTIES
1002
{
1000
PbHidd
1002
}
  0
LINE
  5
43D
330
1F
100
AcDbEntity
  8
THICK
100
AcDbLine
 10
-390.0000000000001
 20
97.34035322810846
 30
0.0
 11
-8.000000000000028
 21
97.34035322810846
 31
0.0
1001
DBPROPERTIES
1002
{
1000
PbThick
1002
}
  0
LINE
  5
43E
330
1F
100
AcDbEntity
  8
HIDDEN
100
AcDbLine
 10
-391.9999999999999
 20
392.0000499315099
 30
0.0
 11
-392.0
 21
433.1321320638681
 31
0.0
1001
DBPROPERTIES
1002
{
1000
PbHidd
1002
}
  0
LINE
  5
43F
330
1F
100
AcDbEntity
  8
HIDDEN
100
AcDbLine
 10
-8.0
 20
311.0
 30
0.0
 11
-390.0
 21
311.0
 31
0.0
1001
DBPROPERTIES
1002
{
1000
PbHidd
1002
}
  0
LINE
  5
440
330
1F
100
AcDbEntity
  8
THICK
100
AcDbLine
 10
-390.0
 20
315.0
 30
0.0
 11
-8.0
 21
315.0
 31
0.0
1001
DBPROPERTIES
1002
{
1000
PbThick
1002
}
  0
LINE
  5
441
330
1F
100
AcDbEntity
  8
HIDDEN
100
AcDbLine
 10
-7.999999999999972
 20
96.10428525060857
 30
0.0
 11
-390.0
 21
96.10428525060857
 31
0.0
1001
DBPROPERTIES
1002
{
1000
PbHidd
1002
}
  0
LINE
  5
442
330
1F
100
AcDbEntity
  8
HIDDEN
100
AcDbLine
 10
-392.0
 20
433.8469727759338
 30
0.0
 11
-8.0
 21
433.8469727759338
 31
0.0
1001
DBPROPERTIES
1002
{
1000
PbHidd
1002
}
  0
LINE
  5
443
330
1F
100
AcDbEntity
  8
THICK
100
AcDbLine
 10
-392.0
 20
103.9639211235233
 30
0.0
 11
-389.9999999999999
 21
103.9639211235233
 31
0.0
1001
DBPROPERTIES
1002
{
1000
PbThick
1002
}
  0
LINE
  5
444
330
1F
100
AcDbEntity
  8
HIDDEN
100
AcDbLine
 10
-389.9999999999999
 20
103.9639211235233
 30
0.0
 11
-7.999999999999972
 21
103.9639211235233
 31
0.0
1001
DBPROPERTIES
1002
{
1000
PbHidd
1002
}
  0
LINE
  5
445
330
1F
100
AcDbEntity
  8
HIDDEN
100
AcDbLine
 10
-390.0
 20
97.34035322810837
 30
0.0
 11
-7.999999999999972
 21
97.34035322810837
 31
0.0
1001
DBPROPERTIES
1002
{
1000
PbHidd
1002
}
  0
LINE
  5
446
330
1F
100
AcDbEntity
  8
HIDDEN
100
AcDbLine
 10
-8.0
 20
433.1321320638683
 30
0.0
 11
-391.9999999999999
 21
433.1321320638683
 31
0.0
1001
DBPROPERTIES
1002
{
1000
PbHidd
1002
}
  0
LINE
  5
447
330
1F
100
AcDbEntity
  8
HIDDEN
100
AcDbLine
 10
-8.000000000000025
 20
164.168253968254
 30
0.0
 11
-8.000000000000025
 21
172.1429631098435
 31
0.0
1001
DBPROPERTIES
1002
{
1000
PbHidd
1002
}
  0
LINE
  5
448
330
1F
100
AcDbEntity
  8
HIDDEN
100
AcDbLine
 10
-482.0
 20
-436.0
 30
0.0
 11
-482.0
 21
-436.0
 31
0.0
1001
DBPROPERTIES
1002
{
1000
PbHidd
1002
}
  0
LINE
  5
449
330
1F
100
AcDbEntity
  8
HIDDEN
100
AcDbLine
 10
-482.0000000000001
 20
482.0000000000001
 30
0.0
 11
-481.9999999999999
 21
481.9999999999999
 31
0.0
1001
DBPROPERTIES
1002
{
1000
PbHidd
1002
}
  0
LINE
  5
44A
330
1F
100
AcDbEntity
  8
HIDDEN
100
AcDbLine
 10
-482.0000000000001
 20
-481.9999999999999
 30
0.0
 11
-482.0000000000001
 21
482.0000000000001
 31
0.0
1001
DBPROPERTIES
1002
{
1000
PbHidd
1002
}
  0
LINE
  5
44B
330
1F
100
AcDbEntity
  8
HIDDEN
100
AcDbLine
 10
-481.9999999999999
 20
-482.0000000000001
 30
0.0
 11
-482.0000000000001
 21
-481.9999999999999
 31
0.0
1001
DBPROPERTIES
1002
{
1000
PbHidd
1002
}
  0
LINE
  5
44C
330
1F
100
AcDbEntity
  8
HIDDEN
100
AcDbLine
 10
-482.0
 20
-441.0
 30
0.0
 11
-482.0
 21
-441.0
 31
0.0
1001
DBPROPERTIES
1002
{
1000
PbHidd
1002
}
  0
LINE
  5
44D
330
1F
100
AcDbEntity
  8
HIDDEN
100
AcDbLine
 10
482.0
 20
-436.0
 30
0.0
 11
-482.0
 21
-436.0
 31
0.0
1001
DBPROPERTIES
1002
{
1000
PbHidd
1002
}
  0
LINE
  5
44E
330
1F
100
AcDbEntity
  8
HIDDEN
100
AcDbLine
 10
482.0
 20
-436.0
 30
0.0
 11
482.0
 21
-436.0
 31
0.0
1001
DBPROPERTIES
1002
{
1000
PbHidd
1002
}
  0
LINE
  5
44F
330
1F
100
AcDbEntity
  8
HIDDEN
100
AcDbLine
 10
482.0
 20
-441.0
 30
0.0
 11
-482.0
 21
-441.0
 31
0.0
1001
DBPROPERTIES
1002
{
1000
PbHidd
1002
}
  0
LINE
  5
450
330
1F
100
AcDbEntity
  8
HIDDEN
100
AcDbLine
 10
482.0
 20
-432.9999999999999
 30
0.0
 11
-482.0
 21
-432.9999999999999
 31
0.0
1001
DBPROPERTIES
1002
{
1000
PbHidd
1002
}
  0
LINE
  5
451
330
1F
100
AcDbEntity
  8
HIDDEN
100
AcDbLine
 10
482.0
 20
-386.0
 30
0.0
 11
391.9999999999999
 21
-386.0
 31
0.0
1001
DBPROPERTIES
1002
{
1000
PbHidd
1002
}
  0
LINE
  5
452
330
1F
100
AcDbEntity
  8
THICK
100
AcDbLine
 10
391.9999999999999
 20
-386.0
 30
0.0
 11
-392.0
 21
-386.0
 31
0.0
1001
DBPROPERTIES
1002
{
1000
PbThick
1002
}
  0
LINE
  5
453
330
1F
100
AcDbEntity
  8
HIDDEN
100
AcDbLine
 10
-392.0
 20
-386.0
 30
0.0
 11
-482.0
 21
-386.0
 31
0.0
1001
DBPROPERTIES
1002
{
1000
PbHidd
1002
}
  0
LINE
  5
454
330
1F
100
AcDbEntity
  8
HIDDEN
100
AcDbLine
 10
482.0
 20
-378.0
 30
0.0
 11
391.9999999999999
 21
-378.0
 31
0.0
1001
DBPROPERTIES
1002
{
1000
PbHidd
1002
}
  0
LINE
  5
455
330
1F
100
AcDbEntity
  8
THICK
100
AcDbLine
 10
391.9999999999999
 20
-378.0
 30
0.0
 11
-392.0
 21
-378.0
 31
0.0
1001
DBPROPERTIES
1002
{
1000
PbThick
1002
}
  0
LINE
  5
456
330
1F
100
AcDbEntity
  8
HIDDEN
100
AcDbLine
 10
-392.0
 20
-378.0
 30
0.0
 11
-482.0
 21
-378.0
 31
0.0
1001
DBPROPERTIES
1002
{
1000
PbHidd
1002
}
  0
LINE
  5
457
330
1F
100
AcDbEntity
  8
HIDDEN
100
AcDbLine
 10
482.0
 20
-441.0
 30
0.0
 11
482.0
 21
-441.0
 31
0.0
1001
DBPROPERTIES
1002
{
1000
PbHidd
1002
}
  0
LINE
  5
458
330
1F
100
AcDbEntity
  8
HIDDEN
100
AcDbLine
 10
481.9999999999999
 20
-481.9999999999999
 30
0.0
 11
482.0000000000001
 21
-482.0000000000001
 31
0.0
1001
DBPROPERTIES
1002
{
1000
PbHidd
1002
}
  0
LINE
  5
459
330
1F
100
AcDbEntity
  8
HIDDEN
100
AcDbLine
 10
481.9999999999999
 20
482.0000000000001
 30
0.0
 11
481.9999999999999
 21
-481.9999999999999
 31
0.0
1001
DBPROPERTIES
1002
{
1000
PbHidd
1002
}
  0
LINE
  5
45A
330
1F
100
AcDbEntity
  8
HIDDEN
100
AcDbLine
 10
482.0000000000001
 20
481.9999999999999
 30
0.0
 11
481.9999999999999
 21
482.0000000000001
 31
0.0
1001
DBPROPERTIES
1002
{
1000
PbHidd
1002
}
  0
LINE
  5
45B
330
1F
100
AcDbEntity
  8
THICK
100
AcDbLine
 10
-490.0
 20
482.0000000000001
 30
0.0
 11
-490.0000000000001
 21
-489.9999999999999
 31
0.0
1001
DBPROPERTIES
1002
{
1000
PbThick
1002
}
  0
LINE
  5
45C
330
1F
100
AcDbEntity
  8
THICK
100
AcDbLine
 10
-482.0000000000002
 20
-481.9999999999999
 30
0.0
 11
-490.0000000000002
 21
-489.9999999999999
 31
0.0
1001
DBPROPERTIES
1002
{
1000
PbThick
1002
}
  0
LINE
  5
45D
330
1F
100
AcDbEntity
  8
THICK
100
AcDbLine
 10
-482.0000000000001
 20
482.0000000000001
 30
0.0
 11
-482.0000000000002
 21
-481.9999999999999
 31
0.0
1001
DBPROPERTIES
1002
{
1000
PbThick
1002
}
  0
LINE
  5
45E
330
1F
100
AcDbEntity
  8
THICK
100
AcDbLine
 10
-487.6568542494925
 20
487.6568542494924
 30
0.0
 11
-482.0000000000002
 21
482.0000000000001
 31
0.0
1001
DBPROPERTIES
1002
{
1000
PbThick
1002
}
  0
ELLIPSE
  5
45F
330
1F
100
AcDbEntity
  8
THICK
100
AcDbEllipse
 10
-482.0000000000002
 20
482.0000000000001
 30
0.0
 11
-1.469527624586846E-15
 21
8.000000000000115
 31
0.0
210
0.0
220
0.0
230
1.0
 40
0.9999999999999856
 41
0.7853981633974354
 42
1.570796326794904
1001
DBPROPERTIES
1002
{
1000
PbThick
1002
}
  0
LINE
  5
460
330
1F
100
AcDbEntity
  8
THICK
100
AcDbLine
 10
481.9999999999999
 20
-481.9999999999999
 30
0.0
 11
-482.0000000000002
 21
-481.9999999999999
 31
0.0
1001
DBPROPERTIES
1002
{
1000
PbThick
1002
}
  0
LINE
  5
461
330
1F
100
AcDbEntity
  8
THICK
100
AcDbLine
 10
489.9999999999999
 20
-489.9999999999999
 30
0.0
 11
481.9999999999999
 21
-481.9999999999999
 31
0.0
1001
DBPROPERTIES
1002
{
1000
PbThick
1002
}
  0
LINE
  5
462
330
1F
100
AcDbEntity
  8
HIDDEN
100
AcDbLine
 10
-490.0000000000001
 20
482.0000000000001
 30
0.0
 11
-489.9999999999999
 21
481.9999999999999
 31
0.0
1001
DBPROPERTIES
1002
{
1000
PbHidd
1002
}
  0
LINE
  5
463
330
1F
100
AcDbEntity
  8
HIDDEN
100
AcDbLine
 10
-490.0
 20
-490.0
 30
0.0
 11
-490.0
 21
-490.0
 31
0.0
1001
DBPROPERTIES
1002
{
1000
PbHidd
1002
}
  0
LINE
  5
464
330
1F
100
AcDbEntity
  8
HIDDEN
100
AcDbLine
 10
-481.9999999999999
 20
481.9999999999998
 30
0.0
 11
-481.9999999999998
 21
-482.0000000000002
 31
0.0
1001
DBPROPERTIES
1002
{
1000
PbHidd
1002
}
  0
LINE
  5
465
330
1F
100
AcDbEntity
  8
HIDDEN
100
AcDbLine
 10
-489.9999999999998
 20
-490.0000000000002
 30
0.0
 11
-481.9999999999998
 21
-482.0000000000002
 31
0.0
1001
DBPROPERTIES
1002
{
1000
PbHidd
1002
}
  0
LINE
  5
466
330
1F
100
AcDbEntity
  8
HIDDEN
100
AcDbLine
 10
-489.9999999999999
 20
489.9999999999997
 30
0.0
 11
-481.9999999999999
 21
481.9999999999998
 31
0.0
1001
DBPROPERTIES
1002
{
1000
PbHidd
1002
}
  0
LINE
  5
467
330
1F
100
AcDbEntity
  8
HIDDEN
100
AcDbLine
 10
482.0000000000001
 20
-482.0000000000002
 30
0.0
 11
-481.9999999999998
 21
-482.0000000000002
 31
0.0
1001
DBPROPERTIES
1002
{
1000
PbHidd
1002
}
  0
LINE
  5
468
330
1F
100
AcDbEntity
  8
HIDDEN
100
AcDbLine
 10
482.0000000000001
 20
481.9999999999998
 30
0.0
 11
-481.9999999999999
 21
481.9999999999998
 31
0.0
1001
DBPROPERTIES
1002
{
1000
PbHidd
1002
}
  0
LINE
  5
469
330
1F
100
AcDbEntity
  8
HIDDEN
100
AcDbLine
 10
482.0
 20
481.9999999999998
 30
0.0
 11
482.0000000000001
 21
-482.0000000000002
 31
0.0
1001
DBPROPERTIES
1002
{
1000
PbHidd
1002
}
  0
LINE
  5
46A
330
1F
100
AcDbEntity
  8
HIDDEN
100
AcDbLine
 10
487.6568542494924
 20
487.6568542494921
 30
0.0
 11
482.0000000000001
 21
481.9999999999998
 31
0.0
1001
DBPROPERTIES
1002
{
1000
PbHidd
1002
}
  0
LINE
  5
46B
330
1F
100
AcDbEntity
  8
HIDDEN
100
AcDbLine
 10
482.0000000000001
 20
-482.0000000000002
 30
0.0
 11
490.0000000000001
 21
-490.0000000000002
 31
0.0
1001
DBPROPERTIES
1002
{
1000
PbHidd
1002
}
  0
LINE
  5
46C
330
1F
100
AcDbEntity
  8
HIDDEN
100
AcDbLine
 10
490.0000000000001
 20
481.9999999999999
 30
0.0
 11
489.9999999999999
 21
482.0000000000001
 31
0.0
1001
DBPROPERTIES
1002
{
1000
PbHidd
1002
}
  0
LINE
  5
46D
330
1F
100
AcDbEntity
  8
THICK
100
AcDbLine
 10
490.0
 20
482.0000000000001
 30
0.0
 11
489.9999999999999
 21
-489.9999999999999
 31
0.0
1001
DBPROPERTIES
1002
{
1000
PbThick
1002
}
  0
LINE
  5
46E
330
1F
100
AcDbEntity
  8
HIDDEN
100
AcDbLine
 10
490.0
 20
-490.0
 30
0.0
 11
490.0
 21
-490.0
 31
0.0
1001
DBPROPERTIES
1002
{
1000
PbHidd
1002
}
  0
LINE
  5
46F
330
1F
100
AcDbEntity
  8
THICK
100
AcDbLine
 10
482.0000000000001
 20
482.0000000000001
 30
0.0
 11
481.9999999999999
 21
-481.9999999999999
 31
0.0
1001
DBPROPERTIES
1002
{
1000
PbThick
1002
}
  0
ELLIPSE
  5
470
330
1F
100
AcDbEntity
  8
THICK
100
AcDbEllipse
 10
482.0
 20
482.0000000000001
 30
0.0
 11
9.860761315262648E-32
 21
8.0
 31
0.0
210
0.0
220
0.0
230
1.0
 40
1.0
 41
-1.570796326794897
 42
-0.7853981633974433
1001
DBPROPERTIES
1002
{
1000
PbThick
1002
}
  0
LINE
  5
471
330
1F
100
AcDbEntity
  8
THICK
100
AcDbLine
 10
482.0
 20
482.0000000000001
 30
0.0
 11
487.6568542494923
 21
487.6568542494924
 31
0.0
1001
DBPROPERTIES
1002
{
1000
PbThick
1002
}
  0
LINE
  5
472
330
1F
100
AcDbEntity
  8
THICK
100
AcDbLine
 10
482.0
 20
482.0000000000001
 30
0.0
 11
-482.0000000000002
 21
482.0000000000001
 31
0.0
1001
DBPROPERTIES
1002
{
1000
PbThick
1002
}
  0
LINE
  5
473
330
1F
100
AcDbEntity
  8
THICK
100
AcDbLine
 10
391.9999999999999
 20
-391.9999999999999
 30
0.0
 11
-392.0000000000001
 21
-391.9999999999999
 31
0.0
1001
DBPROPERTIES
1002
{
1000
PbThick
1002
}
  0
LINE
  5
474
330
1F
100
AcDbEntity
  8
THICK
100
AcDbLine
 10
-392.0000000000001
 20
-391.9999999999999
 30
0.0
 11
-392.0000000000001
 21
392.0000000000001
 31
0.0
1001
DBPROPERTIES
1002
{
1000
PbThick
1002
}
  0
LINE
  5
475
330
1F
100
AcDbEntity
  8
THICK
100
AcDbLine
 10
-392.0000000000001
 20
392.0000000000001
 30
0.0
 11
391.9999999999999
 21
392.0000000000001
 31
0.0
1001
DBPROPERTIES
1002
{
1000
PbThick
1002
}
  0
LINE
  5
476
330
1F
100
AcDbEntity
  8
THICK
100
AcDbLine
 10
391.9999999999999
 20
392.0000000000001
 30
0.0
 11
391.9999999999999
 21
-391.9999999999999
 31
0.0
1001
DBPROPERTIES
1002
{
1000
PbThick
1002
}
  0
ELLIPSE
  5
477
330
1F
100
AcDbEntity
  8
THICK
100
AcDbEllipse
 10
-482.0000000000001
 20
482.0000000000001
 30
0.0
 11
-8.000000000000002
 21
4.898425415289543E-16
 31
0.0
210
0.0
220
0.0
230
1.0
 40
0.9999999999999998
 41
-1.570796326794889
 42
-0.7853981633974535
1001
DBPROPERTIES
1002
{
1000
PbThick
1002
}
  0
ELLIPSE
  5
478
330
1F
100
AcDbEntity
  8
THICK
100
AcDbEllipse
 10
481.9999999999999
 20
482.0000000000001
 30
0.0
 11
0.0
 21
8.0
 31
0.0
210
0.0
220
0.0
230
1.0
 40
0.9999999999999998
 41
-0.7853981633974535
 42
0.0
1001
DBPROPERTIES
1002
{
1000
PbThick
1002
}
  0
LINE
  5
479
330
1F
100
AcDbEntity
  8
THICK
100
AcDbLine
 10
545.0
 20
315.0
 30
0.0
 11
545.0
 21
-315.0
 31
0.0
1001
DBPROPERTIES
1002
{
1000
PbThick
1002
}
  0
LINE
  5
47A
330
1F
100
AcDbEntity
  8
HIDDEN
100
AcDbLine
 10
392.0
 20
-392.0
 30
0.0
 11
392.0
 21
-392.0
 31
0.0
1001
DBPROPERTIES
1002
{
1000
PbHidd
1002
}
  0
LINE
  5
47B
330
1F
100
AcDbEntity
  8
HIDDEN
100
AcDbLine
 10
392.0
 20
392.0
 30
0.0
 11
392.0
 21
392.0
 31
0.0
1001
DBPROPERTIES
1002
{
1000
PbHidd
1002
}
  0
LINE
  5
47C
330
1F
100
AcDbEntity
  8
HIDDEN
100
AcDbLine
 10
-392.0
 20
-392.0
 30
0.0
 11
-392.0
 21
-392.0
 31
0.0
1001
DBPROPERTIES
1002
{
1000
PbHidd
1002
}
  0
LINE
  5
47D
330
1F
100
AcDbEntity
  8
HIDDEN
100
AcDbLine
 10
-392.0
 20
392.0
 30
0.0
 11
-392.0
 21
392.0
 31
0.0
1001
DBPROPERTIES
1002
{
1000
PbHidd
1002
}
  0
LINE
  5
47E
330
1F
100
AcDbEntity
  8
HIDDEN
100
AcDbLine
 10
481.9999999999999
 20
-481.9999999999999
 30
0.0
 11
-482.0000000000001
 21
-481.9999999999999
 31
0.0
1001
DBPROPERTIES
1002
{
1000
PbHidd
1002
}
  0
LINE
  5
47F
330
1F
100
AcDbEntity
  8
HIDDEN
100
AcDbLine
 10
481.9999999999999
 20
482.0000000000001
 30
0.0
 11
-482.0000000000001
 21
482.0000000000001
 31
0.0
1001
DBPROPERTIES
1002
{
1000
PbHidd
1002
}
  0
LINE
  5
480
330
1F
100
AcDbEntity
  8
HIDDEN
100
AcDbLine
 10
-394.0
 20
374.0
 30
0.0
 11
-392.0
 21
374.0
 31
0.0
1001
DBPROPERTIES
1002
{
1000
PbHidd
1002
}
  0
LINE
  5
481
330
1F
100
AcDbEntity
  8
HIDDEN
100
AcDbLine
 10
-399.999997297389
 20
373.9787252155797
 30
0.0
 11
-482.000002702611
 21
319.0212747844203
 31
0.0
1001
DBPROPERTIES
1002
{
1000
PbHidd
1002
}
  0
LINE
  5
482
330
1F
100
AcDbEntity
  8
HIDDEN
100
AcDbLine
 10
-394.0
 20
374.0
 30
0.0
 11
-482.000002702611
 21
315.0212747844203
 31
0.0
1001
DBPROPERTIES
1002
{
1000
PbHidd
1002
}
  0
ARC
  5
483
330
1F
100
AcDbEntity
  8
THICK
100
AcDbCircle
 10
232.4
 20
100.8
 30
0.0
 40
12.6
100
AcDbArc
 50
0.0
 51
30.83246323781596
1001
DBPROPERTIES
1002
{
1000
PbThick
1002
}
  0
ARC
  5
484
330
1F
100
AcDbEntity
  8
THICK
100
AcDbCircle
 10
281.4
 20
81.9
 30
0.0
 40
12.6
100
AcDbArc
 50
0.0
 51
90.00003857181116
1001
DBPROPERTIES
1002
{
1000
PbThick
1002
}
  0
ARC
  5
485
330
1F
100
AcDbEntity
  8
THICK
100
AcDbCircle
 10
281.4
 20
-81.9
 30
0.0
 40
12.6
100
AcDbArc
 50
269.9999614281888
 51
0.0
1001
DBPROPERTIES
1002
{
1000
PbThick
1002
}
  0
LINE
  5
486
330
1F
100
AcDbEntity
  8
HIDDEN
100
AcDbLine
 10
-482.000002702611
 20
-315.0212747844203
 30
0.0
 11
-394.0
 21
-374.0
 31
0.0
1001
DBPROPERTIES
1002
{
1000
PbHidd
1002
}
  0
LINE
  5
487
330
1F
100
AcDbEntity
  8
HIDDEN
100
AcDbLine
 10
-482.000002702611
 20
-319.0212747844203
 30
0.0
 11
-399.999997297389
 21
-373.9787252155797
 31
0.0
1001
DBPROPERTIES
1002
{
1000
PbHidd
1002
}
  0
LINE
  5
488
330
1F
100
AcDbEntity
  8
HIDDEN
100
AcDbLine
 10
-394.0
 20
-374.0
 30
0.0
 11
-392.0
 21
-374.0
 31
0.0
1001
DBPROPERTIES
1002
{
1000
PbHidd
1002
}
  0
LINE
  5
489
330
1F
100
AcDbEntity
  8
HIDDEN
100
AcDbLine
 10
-392.0
 20
-371.1596467718915
 30
0.0
 11
-8.0
 21
-371.1596467718915
 31
0.0
1001
DBPROPERTIES
1002
{
1000
PbHidd
1002
}
  0
LINE
  5
48A
330
1F
100
AcDbEntity
  8
THICK
100
AcDbLine
 10
-392.0
 20
-375.1593627929688
 30
0.0
 11
-7.999999999999943
 21
-375.1596374511719
 31
0.0
1001
DBPROPERTIES
1002
{
1000
PbThick
1002
}
  0
ENDSEC
  0
SECTION
  2
OBJECTS
  0
DICTIONARY
  5
C
330
0
100
AcDbDictionary
  3
ACAD_GROUP
350
D
  3
ACAD_LAYOUT
350
1A
  3
ACAD_MATERIAL
350
43
  3
ACAD_MLEADERSTYLE
350
6B
  3
ACAD_MLINESTYLE
350
17
  3
ACAD_PLOTSETTINGS
350
19
  3
ACAD_SCALELIST
350
47
  3
ACAD_VISUALSTYLE
350
2A
  3
ACDBVARIABLEDICTIONARY
350
48B
1001
ACAD
1000
TREAT_AS_HARD
1070
     0
  0
DICTIONARY
  5
D
102
{ACAD_REACTORS
330
C
102
}
330
C
100
AcDbDictionary
1001
ACAD
1000
TREAT_AS_HARD
1070
     0
  0
DICTIONARY
  5
1A
102
{ACAD_REACTORS
330
C
102
}
330
C
100
AcDbDictionary
1001
ACAD
1000
TREAT_AS_HARD
1070
     0
  0
DICTIONARY
  5
43
102
{ACAD_REACTORS
330
C
102
}
330
C
100
AcDbDictionary
  3
BYBLOCK
350
45
  3
BYLAYER
350
44
  3
GLOBAL
350
46
1001
ACAD
1000
TREAT_AS_HARD
1070
     0
  0
DICTIONARY
  5
6B
102
{ACAD_REACTORS
330
C
102
}
330
C
100
AcDbDictionary
  3
STANDARD
350
6C
1001
ACAD
1000
TREAT_AS_HARD
1070
     0
  0
DICTIONARY
  5
17
102
{ACAD_REACTORS
330
C
102
}
330
C
100
AcDbDictionary
  3
STANDARD
350
18
1001
ACAD
1000
TREAT_AS_HARD
1070
     0
  0
DICTIONARY
  5
19
102
{ACAD_REACTORS
330
C
102
}
330
C
100
AcDbDictionary
1001
ACAD
1000
TREAT_AS_HARD
1070
     0
  0
DICTIONARY
  5
47
102
{ACAD_REACTORS
330
C
102
}
330
C
100
AcDbDictionary
  3
A0
350
48
  3
A1
350
49
  3
A2
350
4A
  3
A3
350
4B
  3
A4
350
4C
  3
A5
350
4D
  3
A6
350
4E
  3
A7
350
4F
  3
A8
350
50
  3
A9
350
51
  3
B0
350
52
  3
B1
350
53
  3
B2
350
54
  3
B3
350
55
  3
B4
350
56
  3
B5
350
57
  3
B6
350
58
  3
B7
350
59
  3
B8
350
5A
  3
B9
350
5B
  3
C0
350
5C
  3
C1
350
5D
  3
C2
350
5E
  3
C3
350
5F
  3
C4
350
60
  3
C5
350
61
  3
C6
350
62
  3
C7
350
63
  3
C8
350
64
  3
C9
350
65
  3
D0
350
66
  3
D1
350
67
  3
D2
350
68
1001
ACAD
1000
TREAT_AS_HARD
1070
     0
  0
DICTIONARY
  5
2A
102
{ACAD_REACTORS
330
C
102
}
330
C
100
AcDbDictionary
  3
2DWIREFRAME
350
2F
  3
BASIC
350
32
  3
BRIGHTEN
350
36
  3
COLORCHANGE
350
3A
  3
CONCEPTUAL
350
34
  3
DIM
350
35
  3
EDGECOLOROFF
350
3D
  3
FACEPATTERN
350
39
  3
FLAT
350
2B
  3
FLATWITHEDGES
350
2C
  3
GOURAUD
350
2D
  3
GOURAUDWITHEDGES
350
2E
  3
HIDDEN
350
31
  3
JITTEROFF
350
3B
  3
LINEPATTERN
350
38
  3
OVERHANGOFF
350
3C
  3
REALISTIC
350
33
  3
SHADED
350
42
  3
SHADED_WITH_EDGES
350
41
  3
SHADES_OF_GRAY
350
3E
  3
SKETCHY
350
3F
  3
THICKEN
350
37
  3
WIREFRAME
350
30
  3
X-RAY
350
40
1001
ACAD
1000
TREAT_AS_HARD
1070
     0
  0
DICTIONARY
  5
48B
102
{ACAD_REACTORS
330
C
102
}
330
C
100
AcDbDictionary
  3
CANNOSCALE
350
496
  3
CENTEREXE
350
492
  3
CENTERLTYPEFILE
350
493
  3
CMLEADERSTYLE
350
48D
  3
CTABLESTYLE
350
48C
  3
DIMASSOC
350
494
  3
HIDETEXT
350
495
  3
MSLTSCALE
350
497
  3
PSOLHEIGHT
350
48F
  3
PSOLWIDTH
350
48E
1001
ACAD
1000
TREAT_AS_HARD
1070
     0
  0
MATERIAL
  5
45
102
{ACAD_REACTORS
330
43
102
}
102
{ACAD_XDICTIONARY
360
49A
102
}
330
43
100
AcDbMaterial
  1
BYBLOCK
  0
MATERIAL
  5
44
102
{ACAD_REACTORS
330
43
102
}
102
{ACAD_XDICTIONARY
360
498
102
}
330
43
100
AcDbMaterial
  1
BYLAYER
  0
MATERIAL
  5
46
102
{ACAD_REACTORS
330
43
102
}
102
{ACAD_XDICTIONARY
360
49C
102
}
330
43
100
AcDbMaterial
  1
GLOBAL
  0
ACAD_PROXY_OBJECT
  5
6C
102
{ACAD_REACTORS
330
6B
102
}
330
6B
100
AcDbZombieObject
 90
      499
 91
      505
 93
      610
310
40901902A4063FBFFFFFE0000000000000020400000000000020404214DD185B99185C990000000000000104090141901A00000000000004100000000000000041025764000000000000039000
340
14
340
0
340
11
340
0
 94
        0
1001
ACAD_MLEADERVER
1070
     2
  0
MLINESTYLE
  5
18
102
{ACAD_REACTORS
330
17
102
}
330
17
100
AcDbMlineStyle
  2
Standard
 70
     0
  3

 62
   256
 51
90.0
 52
90.0
 71
     2
 49
0.5
 62
   256
  6
BYLAYER
 49
-0.5
 62
   256
  6
BYLAYER
  0
ACAD_PROXY_OBJECT
  5
48
102
{ACAD_REACTORS
330
47
102
}
330
47
100
AcDbZombieObject
 90
      499
 91
      503
 93
       41
310
903313A31580
  0
ACAD_PROXY_OBJECT
  5
49
102
{ACAD_REACTORS
330
47
102
}
330
47
100
AcDbZombieObject
 90
      499
 91
      503
 93
      105
310
903313A324000000000000004000
  0
ACAD_PROXY_OBJECT
  5
4A
102
{ACAD_REACTORS
330
47
102
}
330
47
100
AcDbZombieObject
 90
      499
 91
      503
 93
      105
310
903313A344000000000000104000
  0
ACAD_PROXY_OBJECT
  5
4B
102
{ACAD_REACTORS
330
47
102
}
330
47
100
AcDbZombieObject
 90
      499
 91
      503
 93
      105
310
903313A354000000000000144000
  0
ACAD_PROXY_OBJECT
  5
4C
102
{ACAD_REACTORS
330
47
102
}
330
47
100
AcDbZombieObject
 90
      499
 91
      503
 93
      105
310
903313A384000000000000204000
  0
ACAD_PROXY_OBJECT
  5
4D
102
{ACAD_REACTORS
330
47
102
}
330
47
100
AcDbZombieObject
 90
      499
 91
      503
 93
      113
310
904313A31304000000000000244000
  0
ACAD_PROXY_OBJECT
  5
4E
102
{ACAD_REACTORS
330
47
102
}
330
47
100
AcDbZombieObject
 90
      499
 91
      503
 93
      113
310
904313A31364000000000000304000
  0
ACAD_PROXY_OBJECT
  5
4F
102
{ACAD_REACTORS
330
47
102
}
330
47
100
AcDbZombieObject
 90
      499
 91
      503
 93
      113
310
904313A32304000000000000344000
  0
ACAD_PROXY_OBJECT
  5
50
102
{ACAD_REACTORS
330
47
102
}
330
47
100
AcDbZombieObject
 90
      499
 91
      503
 93
      113
310
904313A333040000000000003E4000
  0
ACAD_PROXY_OBJECT
  5
51
102
{ACAD_REACTORS
330
47
102
}
330
47
100
AcDbZombieObject
 90
      499
 91
      503
 93
      113
310
904313A34304000000000000444000
  0
ACAD_PROXY_OBJECT
  5
52
102
{ACAD_REACTORS
330
47
102
}
330
47
100
AcDbZombieObject
 90
      499
 91
      503
 93
      113
310
904313A35304000000000000494000
  0
ACAD_PROXY_OBJECT
  5
53
102
{ACAD_REACTORS
330
47
102
}
330
47
100
AcDbZombieObject
 90
      499
 91
      503
 93
      121
310
905313A3130304000000000000594000
  0
ACAD_PROXY_OBJECT
  5
54
102
{ACAD_REACTORS
330
47
102
}
330
47
100
AcDbZombieObject
 90
      499
 91
      503
 93
      105
310
903323A310000000000000010100
  0
ACAD_PROXY_OBJECT
  5
55
102
{ACAD_REACTORS
330
47
102
}
330
47
100
AcDbZombieObject
 90
      499
 91
      503
 93
      105
310
903343A310000000000000410100
  0
ACAD_PROXY_OBJECT
  5
56
102
{ACAD_REACTORS
330
47
102
}
330
47
100
AcDbZombieObject
 90
      499
 91
      503
 93
      105
310
903383A310000000000000810100
  0
ACAD_PROXY_OBJECT
  5
57
102
{ACAD_REACTORS
330
47
102
}
330
47
100
AcDbZombieObject
 90
      499
 91
      503
 93
      113
310
90431303A310000000000000910100
  0
ACAD_PROXY_OBJECT
  5
58
102
{ACAD_REACTORS
330
47
102
}
330
47
100
AcDbZombieObject
 90
      499
 91
      503
 93
      121
310
9053130303A310000000000001650100
  0
ACAD_PROXY_OBJECT
  5
59
102
{ACAD_REACTORS
330
47
102
}
330
47
100
AcDbZombieObject
 90
      499
 91
      503
 93
      257
310
90E312F31323822203D2031272D3022000000000000200FC000000000000284000
  0
ACAD_PROXY_OBJECT
  5
5A
102
{ACAD_REACTORS
330
47
102
}
330
47
100
AcDbZombieObject
 90
      499
 91
      503
 93
      249
310
90D312F363422203D2031272D3022000000000000240FC000000000000284000
  0
ACAD_PROXY_OBJECT
  5
5B
102
{ACAD_REACTORS
330
47
102
}
330
47
100
AcDbZombieObject
 90
      499
 91
      503
 93
      249
310
90D312F333222203D2031272D3022000000000000280FC000000000000284000
  0
ACAD_PROXY_OBJECT
  5
5C
102
{ACAD_REACTORS
330
47
102
}
330
47
100
AcDbZombieObject
 90
      499
 91
      503
 93
      249
310
90D312F313622203D2031272D30220000000000002C0FC000000000000284000
  0
ACAD_PROXY_OBJECT
  5
5D
102
{ACAD_REACTORS
330
47
102
}
330
47
100
AcDbZombieObject
 90
      499
 91
      503
 93
      249
310
90D332F333222203D2031272D30220000000000002E0FC000000000000284000
  0
ACAD_PROXY_OBJECT
  5
5E
102
{ACAD_REACTORS
330
47
102
}
330
47
100
AcDbZombieObject
 90
      499
 91
      503
 93
      241
310
90C312F3822203D2031272D3022000000000000300FC000000000000284000
  0
ACAD_PROXY_OBJECT
  5
5F
102
{ACAD_REACTORS
330
47
102
}
330
47
100
AcDbZombieObject
 90
      499
 91
      503
 93
      249
310
90D332F313622203D2031272D3022000000000000320FC000000000000284000
  0
ACAD_PROXY_OBJECT
  5
60
102
{ACAD_REACTORS
330
47
102
}
330
47
100
AcDbZombieObject
 90
      499
 91
      503
 93
      241
310
90C312F3422203D2031272D3022000000000000340FC000000000000284000
  0
ACAD_PROXY_OBJECT
  5
61
102
{ACAD_REACTORS
330
47
102
}
330
47
100
AcDbZombieObject
 90
      499
 91
      503
 93
      241
310
90C332F3822203D2031272D3022000000000000360FC000000000000284000
  0
ACAD_PROXY_OBJECT
  5
62
102
{ACAD_REACTORS
330
47
102
}
330
47
100
AcDbZombieObject
 90
      499
 91
      503
 93
      241
310
90C312F3222203D2031272D3022000000000000380FC000000000000284000
  0
ACAD_PROXY_OBJECT
  5
63
102
{ACAD_REACTORS
330
47
102
}
330
47
100
AcDbZombieObject
 90
      499
 91
      503
 93
      241
310
90C332F3422203D2031272D30220000000000003A0FC000000000000284000
  0
ACAD_PROXY_OBJECT
  5
64
102
{ACAD_REACTORS
330
47
102
}
330
47
100
AcDbZombieObject
 90
      499
 91
      503
 93
      161
310
90A3122203D2031272D30224000000000000284000
  0
ACAD_PROXY_OBJECT
  5
65
102
{ACAD_REACTORS
330
47
102
}
330
47
100
AcDbZombieObject
 90
      499
 91
      503
 93
      257
310
90E312D312F3222203D2031272D30220000000000003E0FC000000000000284000
  0
ACAD_PROXY_OBJECT
  5
66
102
{ACAD_REACTORS
330
47
102
}
330
47
100
AcDbZombieObject
 90
      499
 91
      503
 93
      225
310
90A3322203D2031272D302200000000000002100000000000000284000
  0
ACAD_PROXY_OBJECT
  5
67
102
{ACAD_REACTORS
330
47
102
}
330
47
100
AcDbZombieObject
 90
      499
 91
      503
 93
      225
310
90A3622203D2031272D302200000000000006100000000000000284000
  0
ACAD_PROXY_OBJECT
  5
68
102
{ACAD_REACTORS
330
47
102
}
330
47
100
AcDbZombieObject
 90
      499
 91
      503
 93
      249
310
90D31272D3022203D2031272D30220000000000000A100000000000000284000
  0
ACAD_PROXY_OBJECT
  5
2F
102
{ACAD_REACTORS
330
2A
102
}
330
2A
100
AcDbZombieObject
 90
      499
 91
      501
 93
      436
310
42CC9915DA5C99599C985B595049028333333333333E33F0000000000000F90107901411070040501600405405064090741402480A0340
1001
ACAD
1000
AcDbSavedByObjectVersion
1070
     0
  0
ACAD_PROXY_OBJECT
  5
32
102
{ACAD_REACTORS
330
2A
102
}
330
2A
100
AcDbZombieObject
 90
      499
 91
      501
 93
      388
310
4150985CDA58D07406404333333333333E33F0000000000000F90107A41107004050150841D405064090741402480A0350
1001
ACAD
1000
AcDbSavedByObjectVersion
1070
     0
  0
ACAD_PROXY_OBJECT
  5
36
102
{ACAD_REACTORS
330
2A
102
}
330
2A
100
AcDbZombieObject
 90
      499
 91
      501
 93
      428
310
42109C9A59DA1D195B90C409028333333333333E33F0000000000000F9010790141107004050150841D405064090741402480A029950
1001
ACAD
1000
AcDbSavedByObjectVersion
1070
     0
  0
ACAD_PROXY_OBJECT
  5
3A
102
{ACAD_REACTORS
330
2A
102
}
330
2A
100
AcDbZombieObject
 90
      499
 91
      501
 93
      452
310
42D0DBDB1BDC90DA185B99D95104090240C333333333333E33F0000000000000F90108901411070040501508421405064090741402480A0350
1001
ACAD
1000
AcDbSavedByObjectVersion
1070
     0
  0
ACAD_PROXY_OBJECT
  5
34
102
{ACAD_REACTORS
330
2A
102
}
330
2A
100
AcDbZombieObject
 90
      499
 91
      501
 93
      500
310
4290DBDB98D95C1D1D585B10940D028333333333333E33F0000000000000F90107902409070040501000000000018199010841D405064090740C02480A0340
1001
ACAD
1000
AcDbSavedByObjectVersion
1070
     0
  0
ACAD_PROXY_OBJECT
  5
35
102
{ACAD_REACTORS
330
2A
102
}
330
2A
100
AcDbZombieObject
 90
      499
 91
      501
 93
      412
310
40D11A5B50B409028333333333333E33F0000000000000F9010790141107004050150841D405064090741402480A02677FFFFFD0
1001
ACAD
1000
AcDbSavedByObjectVersion
1070
     0
  0
ACAD_PROXY_OBJECT
  5
3D
102
{ACAD_REACTORS
330
2A
102
}
330
2A
100
AcDbZombieObject
 90
      499
 91
      501
 93
      452
310
43115919D950DBDB1BDC93D999916409028333333333333E33F0000000000000F9010790141107004050150841D405064090741402480A0350
1001
ACAD
1000
AcDbSavedByObjectVersion
1070
     0
  0
ACAD_PROXY_OBJECT
  5
39
102
{ACAD_REACTORS
330
2A
102
}
330
2A
100
AcDbZombieObject
 90
      499
 91
      501
 93
      444
310
42D19858D95C185D1D195C9B90F409028333333333333E33F0000000000000F9010790141107004050150841D405064090741402480A0350
1001
ACAD
1000
AcDbSavedByObjectVersion
1070
     0
  0
ACAD_PROXY_OBJECT
  5
2B
102
{ACAD_REACTORS
330
2A
102
}
330
2A
100
AcDbZombieObject
 90
      499
 91
      501
 93
      380
310
41119B185D240901404333333333333E33F0000000000000F9010740A907004050150841D405064090741402480A1B50
1001
ACAD
1000
AcDbSavedByObjectVersion
1070
     0
  0
ACAD_PROXY_OBJECT
  5
2C
102
{ACAD_REACTORS
330
2A
102
}
330
2A
100
AcDbZombieObject
 90
      499
 91
      501
 93
      468
310
43519B185D15DA5D1A115919D95CD0140901404333333333333E33F0000000000000F90107409019070040501600405405064090741402480A1B50
1001
ACAD
1000
AcDbSavedByObjectVersion
1070
     0
  0
ACAD_PROXY_OBJECT
  5
2D
102
{ACAD_REACTORS
330
2A
102
}
330
2A
100
AcDbZombieObject
 90
      499
 91
      501
 93
      404
310
41D1DBDD5C985D5910240902404333333333333E33F0000000000000F9010740A9070040501641D405064090741402480A1B50
1001
ACAD
1000
AcDbSavedByObjectVersion
1070
     0
  0
ACAD_PROXY_OBJECT
  5
2E
102
{ACAD_REACTORS
330
2A
102
}
330
2A
100
AcDbZombieObject
 90
      499
 91
      501
 93
      492
310
4411DBDD5C985D5915DA5D1A115919D95CD0340902404333333333333E33F0000000000000F90107409019070040501600405405064090741402480A1B50
1001
ACAD
1000
AcDbSavedByObjectVersion
1070
     0
  0
ACAD_PROXY_OBJECT
  5
31
102
{ACAD_REACTORS
330
2A
102
}
330
2A
100
AcDbZombieObject
 90
      499
 91
      501
 93
      476
310
41921A5919195B90640502408333333333333E33F0000000000000F901079024090700405020000000000001110200405405064090740C02480A0340
1001
ACAD
1000
AcDbSavedByObjectVersion
1070
     0
  0
ACAD_PROXY_OBJECT
  5
3B
102
{ACAD_REACTORS
330
2A
102
}
330
2A
100
AcDbZombieObject
 90
      499
 91
      501
 93
      428
310
42529A5D1D195C93D999914409028333333333333E33F0000000000000F9010790141107004050150A41D405064090741402480A0350
1001
ACAD
1000
AcDbSavedByObjectVersion
1070
     0
  0
ACAD_PROXY_OBJECT
  5
38
102
{ACAD_REACTORS
330
2A
102
}
330
2A
100
AcDbZombieObject
 90
      499
 91
      501
 93
      444
310
42D31A5B995C185D1D195C9B90E409028333333333333E33F0000000000000F9010790141107004050750841D405064090741402483A0350
1001
ACAD
1000
AcDbSavedByObjectVersion
1070
     0
  0
ACAD_PROXY_OBJECT
  5
3C
102
{ACAD_REACTORS
330
2A
102
}
330
2A
100
AcDbZombieObject
 90
      499
 91
      501
 93
      444
310
42D3DD995C9A185B99D3D999915409028333333333333E33F0000000000000F9010790141107004050150941D405064090741402480A0350
1001
ACAD
1000
AcDbSavedByObjectVersion
1070
     0
  0
ACAD_PROXY_OBJECT
  5
33
102
{ACAD_REACTORS
330
2A
102
}
330
2A
100
AcDbZombieObject
 90
      499
 91
      501
 93
      428
310
425499585B1A5CDD1A58D08409038333333333333E33F0000000000000F9010740A907004050150800405405064090740C02480A1B40
1001
ACAD
1000
AcDbSavedByObjectVersion
1070
     0
  0
ACAD_PROXY_OBJECT
  5
42
102
{ACAD_REACTORS
330
2A
102
}
330
2A
100
AcDbZombieObject
 90
      499
 91
      501
 93
      420
310
4194DA1859195911B40902404333333333333E33F0000000000000F9010740A41107004050150800405405064090840C02480A0B40
1001
ACAD
1000
AcDbSavedByObjectVersion
1070
     0
  0
ACAD_PROXY_OBJECT
  5
41
102
{ACAD_REACTORS
330
2A
102
}
330
2A
100
AcDbZombieObject
 90
      499
 91
      501
 93
      516
310
4454DA18591959081DDA5D1A08195919D95CD1A40902404333333333333E33F0000000000000F901074090142907004050250800405405064090740C02480A0B40
1001
ACAD
1000
AcDbSavedByObjectVersion
1070
     0
  0
ACAD_PROXY_OBJECT
  5
3E
102
{ACAD_REACTORS
330
2A
102
}
330
2A
100
AcDbZombieObject
 90
      499
 91
      501
 93
      532
310
4394DA1859195CC81BD98811DC985E5174090240C333333333333E33F0000000000000F901079024090741D01000000000000111010841D405064090740C02480A0340
1001
ACAD
1000
AcDbSavedByObjectVersion
1070
     0
  0
ACAD_PROXY_OBJECT
  5
3F
102
{ACAD_REACTORS
330
2A
102
}
330
2A
100
AcDbZombieObject
 90
      499
 91
      501
 93
      476
310
41D4DAD95D18DA1E51840502408333333333333E33F0000000000000F901079024090741D01000000000000111010B41D405064090741802480A0340
1001
ACAD
1000
AcDbSavedByObjectVersion
1070
     0
  0
ACAD_PROXY_OBJECT
  5
37
102
{ACAD_REACTORS
330
2A
102
}
330
2A
100
AcDbZombieObject
 90
      499
 91
      501
 93
      412
310
41D51A1A58DAD95B90D409028333333333333E33F0000000000000F9010790141107004050150C41D405064090741402480A0350
1001
ACAD
1000
AcDbSavedByObjectVersion
1070
     0
  0
ACAD_PROXY_OBJECT
  5
30
102
{ACAD_REACTORS
330
2A
102
}
330
2A
100
AcDbZombieObject
 90
      499
 91
      501
 93
      420
310
4255DA5C99599C985B595059028333333333333E33F0000000000000F90107901411070040501600405405064090740C02480A0340
1001
ACAD
1000
AcDbSavedByObjectVersion
1070
     0
  0
ACAD_PROXY_OBJECT
  5
40
102
{ACAD_REACTORS
330
2A
102
}
330
2A
100
AcDbZombieObject
 90
      499
 91
      501
 93
      404
310
41560B54985E51940902404000000000000E03F0000000000000F9010740501907004050150841D405064090740C02480A1B40
1001
ACAD
1000
AcDbSavedByObjectVersion
1070
     0
  0
DICTIONARYVAR
  5
496
102
{ACAD_REACTORS
330
48B
102
}
330
48B
100
DictionaryVariables
280
     0
  1
1:1
  0
DICTIONARYVAR
  5
492
102
{ACAD_REACTORS
330
48B
102
}
330
48B
100
DictionaryVariables
280
     0
  1
3.500000
  0
DICTIONARYVAR
  5
493
102
{ACAD_REACTORS
330
48B
102
}
330
48B
100
DictionaryVariables
280
     0
  1
acadiso.lin
  0
DICTIONARYVAR
  5
48D
102
{ACAD_REACTORS
330
48B
102
}
330
48B
100
DictionaryVariables
280
     0
  1
Standard
  0
DICTIONARYVAR
  5
48C
102
{ACAD_REACTORS
330
48B
102
}
330
48B
100
DictionaryVariables
280
     0
  1
Standard
  0
DICTIONARYVAR
  5
494
102
{ACAD_REACTORS
330
48B
102
}
330
48B
100
DictionaryVariables
280
     0
  1
2
  0
DICTIONARYVAR
  5
495
102
{ACAD_REACTORS
330
48B
102
}
330
48B
100
DictionaryVariables
280
     0
  1
1
  0
DICTIONARYVAR
  5
497
102
{ACAD_REACTORS
330
48B
102
}
330
48B
100
DictionaryVariables
280
     0
  1
1
  0
DICTIONARYVAR
  5
48F
102
{ACAD_REACTORS
330
48B
102
}
330
48B
100
DictionaryVariables
280
     0
  1
80.000000
  0
DICTIONARYVAR
  5
48E
102
{ACAD_REACTORS
330
48B
102
}
330
48B
100
DictionaryVariables
280
     0
  1
5.000000
  0
DICTIONARY
  5
49A
330
45
100
AcDbDictionary
  3
ACAD_XREC_ROUNDTRIP
360
49B
1001
ACAD
1000
TREAT_AS_HARD
1070
     1
  0
DICTIONARY
  5
498
330
44
100
AcDbDictionary
  3
ACAD_XREC_ROUNDTRIP
360
499
1001
ACAD
1000
TREAT_AS_HARD
1070
     1
  0
DICTIONARY
  5
49C
330
46
100
AcDbDictionary
  3
ACAD_XREC_ROUNDTRIP
360
49D
1001
ACAD
1000
TREAT_AS_HARD
1070
     1
  0
XRECORD
  5
49B
102
{ACAD_REACTORS
330
49A
102
}
330
49A
100
AcDbXrecord
102
MATERIAL
148
0.0
149
0.0
149
0.0
 93
        0
 94
      127
282
     0
 72
     1
 77
     1
171
     1
175
     1
179
     1
273
     0
  0
XRECORD
  5
499
102
{ACAD_REACTORS
330
498
102
}
330
498
100
AcDbXrecord
102
MATERIAL
148
0.0
149
0.0
149
0.0
 93
        0
 94
      127
282
     0
 72
     1
 77
     1
171
     1
175
     1
179
     1
273
     0
  0
XRECORD
  5
49D
102
{ACAD_REACTORS
330
49C
102
}
330
49C
100
AcDbXrecord
102
MATERIAL
148
0.0
149
0.0
149
0.0
 93
        0
 94
      127
282
     0
 72
     1
 77
     1
171
     1
175
     1
179
     1
273
     0
  0
ENDSEC
  0
EOF
