  0
SECTION
  2
HEADER
  9
$ACADVER
  1
AC1012
  9
$DWGCODEPAGE
  3
ansi_1252
  9
$INSBASE
 10
0.0
 20
0.0
 30
0.0
  9
$EXTMIN
 10
1.000000000000000E+20
 20
1.000000000000000E+20
 30
1.000000000000000E+20
  9
$EXTMAX
 10
-1.000000000000000E+20
 20
-1.000000000000000E+20
 30
-1.000000000000000E+20
  9
$LIMMIN
 10
0.0
 20
0.0
  9
$LIMMAX
 10
420.0
 20
297.0
  9
$ORTHOMODE
 70
     0
  9
$REGENMODE
 70
     1
  9
$FILLMODE
 70
     1
  9
$QTEXTMODE
 70
     0
  9
$MIRRTEXT
 70
     1
  9
$DRAGMODE
 70
     2
  9
$LTSCALE
 40
1.0
  9
$OSMODE
 70
    37
  9
$ATTMODE
 70
     1
  9
$TEXTSIZE
 40
2.5
  9
$TRACEWID
 40
1.0
  9
$TEXTSTYLE
  7
STANDARD
  9
$CLAYER
  8
0
  9
$CELTYPE
  6
BYLAYER
  9
$CECOLOR
 62
   256
  9
$CELTSCALE
 40
1.0
  9
$DELOBJ
 70
     1
  9
$DISPSILH
 70
     0
  9
$DIMSCALE
 40
1.0
  9
$DIMASZ
 40
2.5
  9
$DIMEXO
 40
0.625
  9
$DIMDLI
 40
3.75
  9
$DIMRND
 40
0.0
  9
$DIMDLE
 40
0.0
  9
$DIMEXE
 40
1.25
  9
$DIMTP
 40
0.0
  9
$DIMTM
 40
0.0
  9
$DIMTXT
 40
2.5
  9
$DIMCEN
 40
2.5
  9
$DIMTSZ
 40
0.0
  9
$DIMTOL
 70
     0
  9
$DIMLIM
 70
     0
  9
$DIMTIH
 70
     0
  9
$DIMTOH
 70
     0
  9
$DIMSE1
 70
     0
  9
$DIMSE2
 70
     0
  9
$DIMTAD
 70
     1
  9
$DIMZIN
 70
     8
  9
$DIMBLK
  1

  9
$DIMASO
 70
     1
  9
$DIMSHO
 70
     1
  9
$DIMPOST
  1

  9
$DIMAPOST
  1

  9
$DIMALT
 70
     0
  9
$DIMALTD
 70
     3
  9
$DIMALTF
 40
0.03937007874016
  9
$DIMLFAC
 40
1.0
  9
$DIMTOFL
 70
     1
  9
$DIMTVP
 40
0.0
  9
$DIMTIX
 70
     0
  9
$DIMSOXD
 70
     0
  9
$DIMSAH
 70
     0
  9
$DIMBLK1
  1

  9
$DIMBLK2
  1

  9
$DIMSTYLE
  2
ISO-25
  9
$DIMCLRD
 70
     0
  9
$DIMCLRE
 70
     0
  9
$DIMCLRT
 70
     0
  9
$DIMTFAC
 40
1.0
  9
$DIMGAP
 40
0.625
  9
$DIMJUST
 70
     0
  9
$DIMSD1
 70
     0
  9
$DIMSD2
 70
     0
  9
$DIMTOLJ
 70
     0
  9
$DIMTZIN
 70
     8
  9
$DIMALTZ
 70
     0
  9
$DIMALTTZ
 70
     0
  9
$DIMFIT
 70
     3
  9
$DIMUPT
 70
     0
  9
$DIMUNIT
 70
     2
  9
$DIMDEC
 70
     2
  9
$DIMTDEC
 70
     2
  9
$DIMALTU
 70
     2
  9
$DIMALTTD
 70
     3
  9
$DIMTXSTY
  7
STANDARD
  9
$DIMAUNIT
 70
     0
  9
$LUNITS
 70
     2
  9
$LUPREC
 70
     4
  9
$SKETCHINC
 40
1.0
  9
$FILLETRAD
 40
10.0
  9
$AUNITS
 70
     0
  9
$AUPREC
 70
     0
  9
$MENU
  1
.
  9
$ELEVATION
 40
0.0
  9
$PELEVATION
 40
0.0
  9
$THICKNESS
 40
0.0
  9
$LIMCHECK
 70
     0
  9
$CHAMFERA
 40
0.0
  9
$CHAMFERB
 40
0.0
  9
$CHAMFERC
 40
0.0
  9
$CHAMFERD
 40
0.0
  9
$SKPOLY
 70
     0
  9
$TDCREATE
 40
2458036.4850075
  9
$TDUPDATE
 40
2458036.48500912
  9
$TDINDWG
 40
0.0000000116
  9
$TDUSRTIMER
 40
0.0000000116
  9
$USRTIMER
 70
     1
  9
$ANGBASE
 50
0.0
  9
$ANGDIR
 70
     0
  9
$PDMODE
 70
     0
  9
$PDSIZE
 40
0.0
  9
$PLINEWID
 40
0.0
  9
$COORDS
 70
     1
  9
$SPLFRAME
 70
     0
  9
$SPLINETYPE
 70
     6
  9
$SPLINESEGS
 70
     8
  9
$ATTDIA
 70
     0
  9
$ATTREQ
 70
     1
  9
$HANDLING
 70
     1
  9
$HANDSEED
  5
28B
  9
$SURFTAB1
 70
     6
  9
$SURFTAB2
 70
     6
  9
$SURFTYPE
 70
     6
  9
$SURFU
 70
     6
  9
$SURFV
 70
     6
  9
$UCSNAME
  2

  9
$UCSORG
 10
0.0
 20
0.0
 30
0.0
  9
$UCSXDIR
 10
1.0
 20
0.0
 30
0.0
  9
$UCSYDIR
 10
0.0
 20
1.0
 30
0.0
  9
$PUCSNAME
  2

  9
$PUCSORG
 10
0.0
 20
0.0
 30
0.0
  9
$PUCSXDIR
 10
1.0
 20
0.0
 30
0.0
  9
$PUCSYDIR
 10
0.0
 20
1.0
 30
0.0
  9
$USERI1
 70
     0
  9
$USERI2
 70
     0
  9
$USERI3
 70
     0
  9
$USERI4
 70
     0
  9
$USERI5
 70
     0
  9
$USERR1
 40
0.0
  9
$USERR2
 40
0.0
  9
$USERR3
 40
0.0
  9
$USERR4
 40
0.0
  9
$USERR5
 40
0.0
  9
$WORLDVIEW
 70
     1
  9
$SHADEDGE
 70
     3
  9
$SHADEDIF
 70
    70
  9
$TILEMODE
 70
     1
  9
$MAXACTVP
 70
    64
  9
$PINSBASE
 10
0.0
 20
0.0
 30
0.0
  9
$PLIMCHECK
 70
     0
  9
$PEXTMIN
 10
1.000000000000000E+20
 20
1.000000000000000E+20
 30
1.000000000000000E+20
  9
$PEXTMAX
 10
-1.000000000000000E+20
 20
-1.000000000000000E+20
 30
-1.000000000000000E+20
  9
$PLIMMIN
 10
0.0
 20
0.0
  9
$PLIMMAX
 10
420.0
 20
297.0
  9
$UNITMODE
 70
     0
  9
$VISRETAIN
 70
     1
  9
$PLINEGEN
 70
     0
  9
$PSLTSCALE
 70
     1
  9
$TREEDEPTH
 70
  3020
  9
$PICKSTYLE
 70
     1
  9
$CMLSTYLE
  2
STANDARD
  9
$CMLJUST
 70
     0
  9
$CMLSCALE
 40
20.0
  9
$SAVEIMAGES
 70
     1
  0
ENDSEC
  0
SECTION
  2
CLASSES
  0
CLASS
  1
ACDBDICTIONARYWDFLT
  2
AcDbDictionaryWithDefault
  3
ObjectDBX Classes
 90
    32768
280
     0
281
     0
  0
CLASS
  1
VISUALSTYLE
  2
AcDbVisualStyle
  3
ObjectDBX Classes
 90
     4095
280
     0
281
     0
  0
CLASS
  1
MATERIAL
  2
AcDbMaterial
  3
ObjectDBX Classes
 90
     1153
280
     0
281
     0
  0
CLASS
  1
SCALE
  2
AcDbScale
  3
ObjectDBX Classes
 90
     1153
280
     0
281
     0
  0
CLASS
  1
TABLESTYLE
  2
AcDbTableStyle
  3
ObjectDBX Classes
 90
     4095
280
     0
281
     0
  0
CLASS
  1
MLEADERSTYLE
  2
AcDbMLeaderStyle
  3
ACDB_MLEADERSTYLE_CLASS
 90
     4095
280
     0
281
     0
  0
CLASS
  1
SUN
  2
AcDbSun
  3
SCENEOE
 90
     1153
280
     0
281
     0
  0
CLASS
  1
DICTIONARYVAR
  2
AcDbDictionaryVar
  3
ObjectDBX Classes
 90
        0
280
     0
281
     0
  0
CLASS
  1
XRECORD
  2
AcDbXrecord
  3
ObjectDBX Classes
 90
    32768
280
     0
281
     0
  0
CLASS
  1
LWPOLYLINE
  2
AcDbPolyline
  3
ObjectDBX Classes
 90
    32768
280
     0
281
     1
  0
CLASS
  1
HATCH
  2
AcDbHatch
  3
ObjectDBX Classes
 90
    32768
280
     0
281
     1
  0
CLASS
  1
ACDBPLACEHOLDER
  2
AcDbPlaceHolder
  3
ObjectDBX Classes
 90
        0
280
     0
281
     0
  0
CLASS
  1
LAYOUT
  2
AcDbLayout
  3
ObjectDBX Classes
 90
        0
280
     0
281
     0
  0
ENDSEC
  0
SECTION
  2
TABLES
  0
TABLE
  2
VPORT
  5
8
330
0
100
AcDbSymbolTable
 70
     1
  0
VPORT
  5
29
330
8
100
AcDbSymbolTableRecord
100
AcDbViewportTableRecord
  2
*ACTIVE
 70
     0
 10
0.0
 20
0.0
 11
1.0
 21
1.0
 12
-83.50000000000006
 22
-40.0
 13
0.0
 23
0.0
 14
10.0
 24
10.0
 15
10.0
 25
10.0
 16
0.0
 26
0.0
 36
1.0
 17
0.0
 27
0.0
 37
0.0
 40
856.8000000000001
 41
1.086904761904762
 42
50.0
 43
0.0
 44
0.0
 50
0.0
 51
0.0
 71
     0
 72
   100
 73
     1
 74
     3
 75
     0
 76
     0
 77
     0
 78
     0
  0
ENDTAB
  0
TABLE
  2
LTYPE
  5
5
330
0
100
AcDbSymbolTable
 70
     1
  0
LTYPE
  5
14
330
5
100
AcDbSymbolTableRecord
100
AcDbLinetypeTableRecord
  2
BYBLOCK
 70
     0
  3

 72
    65
 73
     0
 40
0.0
  0
LTYPE
  5
15
330
5
100
AcDbSymbolTableRecord
100
AcDbLinetypeTableRecord
  2
BYLAYER
 70
     0
  3

 72
    65
 73
     0
 40
0.0
  0
LTYPE
  5
16
330
5
100
AcDbSymbolTableRecord
100
AcDbLinetypeTableRecord
  2
CONTINUOUS
 70
     0
  3
Solid line
 72
    65
 73
     0
 40
0.0
  0
ENDTAB
  0
TABLE
  2
LAYER
  5
2
330
0
100
AcDbSymbolTable
 70
     4
  0
LAYER
  5
10
330
2
100
AcDbSymbolTableRecord
100
AcDbLayerTableRecord
  2
0
 70
     0
 62
     7
  6
CONTINUOUS
  0
LAYER
  5
6E
330
2
100
AcDbSymbolTableRecord
100
AcDbLayerTableRecord
  2
THICK
 70
     0
 62
     7
  6
CONTINUOUS
  0
LAYER
  5
6F
330
2
100
AcDbSymbolTableRecord
100
AcDbLayerTableRecord
  2
HIDDEN
 70
     0
 62
     7
  6
CONTINUOUS
  0
LAYER
  5
70
330
2
100
AcDbSymbolTableRecord
100
AcDbLayerTableRecord
  2
HASHLINES
 70
     0
 62
     7
  6
CONTINUOUS
  0
ENDTAB
  0
TABLE
  2
STYLE
  5
3
330
0
100
AcDbSymbolTable
 70
     1
  0
STYLE
  5
11
330
3
100
AcDbSymbolTableRecord
100
AcDbTextStyleTableRecord
  2
STANDARD
 70
     0
 40
0.0
 41
1.0
 50
0.0
 71
     0
 42
2.5
  3
txt
  4

  0
ENDTAB
  0
TABLE
  2
VIEW
  5
6
330
0
100
AcDbSymbolTable
 70
     0
  0
ENDTAB
  0
TABLE
  2
UCS
  5
7
330
0
100
AcDbSymbolTable
 70
     0
  0
ENDTAB
  0
TABLE
  2
APPID
  5
9
330
0
100
AcDbSymbolTable
 70
     3
  0
APPID
  5
12
330
9
100
AcDbSymbolTableRecord
100
AcDbRegAppTableRecord
  2
ACAD
 70
     0
  0
APPID
  5
71
330
9
100
AcDbSymbolTableRecord
100
AcDbRegAppTableRecord
  2
DBPROPERTIES
 70
     0
  0
APPID
  5
28A
330
9
100
AcDbSymbolTableRecord
100
AcDbRegAppTableRecord
  2
ACAD_MLEADERVER
 70
     0
  0
ENDTAB
  0
TABLE
  2
DIMSTYLE
  5
A
330
0
100
AcDbSymbolTable
 70
     1
  0
DIMSTYLE
105
27
330
A
100
AcDbSymbolTableRecord
100
AcDbDimStyleTableRecord
  2
ISO-25
 70
     0
  3

  4

  5

  6

  7

 40
1.0
 41
2.5
 42
0.625
 43
3.75
 44
1.25
 45
0.0
 46
0.0
 47
0.0
 48
0.0
140
2.5
141
2.5
142
0.0
143
0.03937007874016
144
1.0
145
0.0
146
1.0
147
0.625
 71
     0
 72
     0
 73
     0
 74
     0
 75
     0
 76
     0
 77
     1
 78
     8
170
     0
171
     3
172
     1
173
     0
174
     0
175
     0
176
     0
177
     0
178
     0
270
     2
271
     2
272
     2
273
     2
274
     3
340
11
275
     0
280
     0
281
     0
282
     0
283
     0
284
     8
285
     0
286
     0
287
     3
288
     0
  0
ENDTAB
  0
TABLE
  2
BLOCK_RECORD
  5
1
330
0
100
AcDbSymbolTable
 70
     0
  0
BLOCK_RECORD
  5
1F
330
1
100
AcDbSymbolTableRecord
100
AcDbBlockTableRecord
  2
*MODEL_SPACE
  0
BLOCK_RECORD
  5
1B
330
1
100
AcDbSymbolTableRecord
100
AcDbBlockTableRecord
  2
*PAPER_SPACE
  0
ENDTAB
  0
ENDSEC
  0
SECTION
  2
BLOCKS
  0
BLOCK
  5
20
330
1F
100
AcDbEntity
  8
0
100
AcDbBlockBegin
  2
*MODEL_SPACE
 70
     0
 10
0.0
 20
0.0
 30
0.0
  3
*MODEL_SPACE
  1

  0
ENDBLK
  5
21
330
1F
100
AcDbEntity
  8
0
100
AcDbBlockEnd
  0
BLOCK
  5
1C
330
1B
100
AcDbEntity
 67
     1
  8
0
100
AcDbBlockBegin
  2
*PAPER_SPACE
 70
     0
 10
0.0
 20
0.0
 30
0.0
  3
*PAPER_SPACE
  1

  0
ENDBLK
  5
1D
330
1B
100
AcDbEntity
 67
     1
  8
0
100
AcDbBlockEnd
  0
ENDSEC
  0
SECTION
  2
ENTITIES
  0
ARC
  5
72
330
1F
100
AcDbEntity
  8
HIDDEN
100
AcDbCircle
 10
0.0
 20
0.0
 30
0.0
 40
92.0
100
AcDbArc
 50
270.0000187239684
 51
0.0
1001
DBPROPERTIES
1002
{
1000
PbHidd
1002
}
  0
ARC
  5
73
330
1F
100
AcDbEntity
  8
HIDDEN
100
AcDbCircle
 10
0.0
 20
0.0
 30
0.0
 40
92.0
100
AcDbArc
 50
0.0
 51
89.99998127603165
1001
DBPROPERTIES
1002
{
1000
PbHidd
1002
}
  0
ARC
  5
74
330
1F
100
AcDbEntity
  8
HIDDEN
100
AcDbCircle
 10
0.0
 20
0.0
 30
0.0
 40
92.0
100
AcDbArc
 50
89.99998127603165
 51
270.0000187239684
1001
DBPROPERTIES
1002
{
1000
PbHidd
1002
}
  0
ARC
  5
75
330
1F
100
AcDbEntity
  8
THICK
100
AcDbCircle
 10
0.0
 20
-0.0000000000000019
 30
0.0
 40
209.1936218335951
100
AcDbArc
 50
270.0000187239684
 51
89.99998127603165
1001
DBPROPERTIES
1002
{
1000
PbThick
1002
}
  0
ARC
  5
76
330
1F
100
AcDbEntity
  8
THICK
100
AcDbCircle
 10
0.0
 20
-0.0000000000000019
 30
0.0
 40
236.2469962853603
100
AcDbArc
 50
270.0000187239684
 51
89.99998127603165
1001
DBPROPERTIES
1002
{
1000
PbThick
1002
}
  0
ARC
  5
77
330
1F
100
AcDbEntity
  8
HIDDEN
100
AcDbCircle
 10
0.0
 20
0.0
 30
0.0
 40
236.25
100
AcDbArc
 50
179.9999801521572
 51
0.0
1001
DBPROPERTIES
1002
{
1000
PbHidd
1002
}
  0
ARC
  5
78
330
1F
100
AcDbEntity
  8
THICK
100
AcDbCircle
 10
0.0
 20
0.0
 30
0.0
 40
184.7798002192098
100
AcDbArc
 50
179.9999801521572
 51
0.0
1001
DBPROPERTIES
1002
{
1000
PbThick
1002
}
  0
ARC
  5
79
330
1F
100
AcDbEntity
  8
THICK
100
AcDbCircle
 10
0.0
 20
0.0
 30
0.0
 40
157.5
100
AcDbArc
 50
180.0000198478428
 51
0.0
1001
DBPROPERTIES
1002
{
1000
PbThick
1002
}
  0
ARC
  5
7A
330
1F
100
AcDbEntity
  8
THICK
100
AcDbCircle
 10
0.0
 20
0.0
 30
0.0
 40
154.35
100
AcDbArc
 50
179.9999801521572
 51
0.0
1001
DBPROPERTIES
1002
{
1000
PbThick
1002
}
  0
ARC
  5
7B
330
1F
100
AcDbEntity
  8
HIDDEN
100
AcDbCircle
 10
0.0
 20
0.0
 30
0.0
 40
141.75
100
AcDbArc
 50
179.9999801521572
 51
0.0
1001
DBPROPERTIES
1002
{
1000
PbHidd
1002
}
  0
LINE
  5
7C
330
1F
100
AcDbEntity
  8
HIDDEN
100
AcDbLine
 10
-139.0310819431481
 20
-27.63006973783553
 30
0.0
 11
-139.0310819431481
 21
-27.63006973783553
 31
0.0
1001
DBPROPERTIES
1002
{
1000
PbHidd
1002
}
  0
LINE
  5
7D
330
1F
100
AcDbEntity
  8
HIDDEN
100
AcDbLine
 10
-137.2509144714975
 20
-35.42949303529012
 30
0.0
 11
-137.2509144714975
 21
-35.42949303529012
 31
0.0
1001
DBPROPERTIES
1002
{
1000
PbHidd
1002
}
  0
LINE
  5
7E
330
1F
100
AcDbEntity
  8
HIDDEN
100
AcDbLine
 10
-65.08240334911173
 20
-125.9259436109316
 30
0.0
 11
-65.08240334911173
 21
-125.9259436109316
 31
0.0
1001
DBPROPERTIES
1002
{
1000
PbHidd
1002
}
  0
LINE
  5
7F
330
1F
100
AcDbEntity
  8
HIDDEN
100
AcDbLine
 10
-57.87465240589238
 20
-129.3970135238721
 30
0.0
 11
-57.87465240589238
 21
-129.3970135238721
 31
0.0
1001
DBPROPERTIES
1002
{
1000
PbHidd
1002
}
  0
LINE
  5
80
330
1F
100
AcDbEntity
  8
HIDDEN
100
AcDbLine
 10
57.87465240589237
 20
-129.3970135238721
 30
0.0
 11
57.87465240589237
 21
-129.3970135238721
 31
0.0
1001
DBPROPERTIES
1002
{
1000
PbHidd
1002
}
  0
LINE
  5
81
330
1F
100
AcDbEntity
  8
HIDDEN
100
AcDbLine
 10
65.0824033491117
 20
-125.9259436109317
 30
0.0
 11
65.0824033491117
 21
-125.9259436109317
 31
0.0
1001
DBPROPERTIES
1002
{
1000
PbHidd
1002
}
  0
LINE
  5
82
330
1F
100
AcDbEntity
  8
HIDDEN
100
AcDbLine
 10
137.2509144714975
 20
-35.42949303529015
 30
0.0
 11
137.2509144714975
 21
-35.42949303529015
 31
0.0
1001
DBPROPERTIES
1002
{
1000
PbHidd
1002
}
  0
LINE
  5
83
330
1F
100
AcDbEntity
  8
HIDDEN
100
AcDbLine
 10
139.0310819431481
 20
-27.63006973783556
 30
0.0
 11
139.0310819431481
 21
-27.63006973783556
 31
0.0
1001
DBPROPERTIES
1002
{
1000
PbHidd
1002
}
  0
ARC
  5
84
330
1F
100
AcDbEntity
  8
THICK
100
AcDbCircle
 10
0.0
 20
195.3
 30
0.0
 40
3.0
100
AcDbArc
 50
0.0
 51
180.0000198478428
1001
DBPROPERTIES
1002
{
1000
PbThick
1002
}
  0
ARC
  5
85
330
1F
100
AcDbEntity
  8
THICK
100
AcDbCircle
 10
-169.1347613591009
 20
97.65
 30
0.0
 40
3.0
100
AcDbArc
 50
60.00002571454078
 51
240.0000058666979
1001
DBPROPERTIES
1002
{
1000
PbThick
1002
}
  0
ARC
  5
86
330
1F
100
AcDbEntity
  8
THICK
100
AcDbCircle
 10
-169.1347613591009
 20
-97.64999999999996
 30
0.0
 40
3.0
100
AcDbArc
 50
119.999994133302
 51
299.9999742854592
1001
DBPROPERTIES
1002
{
1000
PbThick
1002
}
  0
ARC
  5
87
330
1F
100
AcDbEntity
  8
THICK
100
AcDbCircle
 10
-0.0000000000000239
 20
-195.3
 30
0.0
 40
3.0
100
AcDbArc
 50
180.0000198478428
 51
0.0
1001
DBPROPERTIES
1002
{
1000
PbThick
1002
}
  0
ARC
  5
88
330
1F
100
AcDbEntity
  8
THICK
100
AcDbCircle
 10
169.1347613591008
 20
-97.65000000000009
 30
0.0
 40
3.0
100
AcDbArc
 50
240.0000058666979
 51
60.00002571454078
1001
DBPROPERTIES
1002
{
1000
PbThick
1002
}
  0
ARC
  5
89
330
1F
100
AcDbEntity
  8
THICK
100
AcDbCircle
 10
169.134761359101
 20
97.64999999999988
 30
0.0
 40
3.0
100
AcDbArc
 50
299.9999742854592
 51
119.999994133302
1001
DBPROPERTIES
1002
{
1000
PbThick
1002
}
  0
ARC
  5
8A
330
1F
100
AcDbEntity
  8
HIDDEN
100
AcDbCircle
 10
0.0
 20
-0.0000000000000014
 30
0.0
 40
115.0
100
AcDbArc
 50
270.0000187239684
 51
0.0
1001
DBPROPERTIES
1002
{
1000
PbHidd
1002
}
  0
ARC
  5
8B
330
1F
100
AcDbEntity
  8
HIDDEN
100
AcDbCircle
 10
0.0
 20
-0.0000000000000014
 30
0.0
 40
115.0
100
AcDbArc
 50
0.0
 51
89.99998127603165
1001
DBPROPERTIES
1002
{
1000
PbHidd
1002
}
  0
ARC
  5
8C
330
1F
100
AcDbEntity
  8
HIDDEN
100
AcDbCircle
 10
0.0
 20
0.0
 30
0.0
 40
124.2
100
AcDbArc
 50
180.0000198478428
 51
0.0
1001
DBPROPERTIES
1002
{
1000
PbHidd
1002
}
  0
ARC
  5
8D
330
1F
100
AcDbEntity
  8
HIDDEN
100
AcDbCircle
 10
0.0
 20
-0.0000000000000014
 30
0.0
 40
115.0
100
AcDbArc
 50
180.0000198478428
 51
270.0000187239684
1001
DBPROPERTIES
1002
{
1000
PbHidd
1002
}
  0
LINE
  5
8E
330
1F
100
AcDbEntity
  8
HIDDEN
100
AcDbLine
 10
-114.7908272707524
 20
-6.93296289448336
 30
0.0
 11
-114.7908272707524
 21
-6.93296289448336
 31
0.0
1001
DBPROPERTIES
1002
{
1000
PbHidd
1002
}
  0
LINE
  5
8F
330
1F
100
AcDbEntity
  8
HIDDEN
100
AcDbLine
 10
114.7908272707524
 20
-6.932962894483389
 30
0.0
 11
114.7908272707524
 21
-6.932962894483389
 31
0.0
1001
DBPROPERTIES
1002
{
1000
PbHidd
1002
}
  0
LINE
  5
90
330
1F
100
AcDbEntity
  8
HIDDEN
100
AcDbLine
 10
88.7926367163296
 20
-73.08124017120889
 30
0.0
 11
88.7926367163296
 21
-73.08124017120889
 31
0.0
1001
DBPROPERTIES
1002
{
1000
PbHidd
1002
}
  0
LINE
  5
91
330
1F
100
AcDbEntity
  8
HIDDEN
100
AcDbLine
 10
73.08124017120889
 20
-88.79263671632961
 30
0.0
 11
73.08124017120889
 21
-88.79263671632961
 31
0.0
1001
DBPROPERTIES
1002
{
1000
PbHidd
1002
}
  0
LINE
  5
92
330
1F
100
AcDbEntity
  8
HIDDEN
100
AcDbLine
 10
61.86347056519293
 20
-96.94282340446614
 30
0.0
 11
61.86347056519293
 21
-96.94282340446614
 31
0.0
1001
DBPROPERTIES
1002
{
1000
PbHidd
1002
}
  0
LINE
  5
93
330
1F
100
AcDbEntity
  8
HIDDEN
100
AcDbLine
 10
42.06595596305256
 20
-107.0301609309942
 30
0.0
 11
42.06595596305256
 21
-107.0301609309942
 31
0.0
1001
DBPROPERTIES
1002
{
1000
PbHidd
1002
}
  0
LINE
  5
94
330
1F
100
AcDbEntity
  8
HIDDEN
100
AcDbLine
 10
28.87867688699072
 20
-111.3149676425268
 30
0.0
 11
28.87867688699072
 21
-111.3149676425268
 31
0.0
1001
DBPROPERTIES
1002
{
1000
PbHidd
1002
}
  0
LINE
  5
95
330
1F
100
AcDbEntity
  8
HIDDEN
100
AcDbLine
 10
6.932962894483346
 20
-114.7908272707524
 30
0.0
 11
6.932962894483346
 21
-114.7908272707524
 31
0.0
1001
DBPROPERTIES
1002
{
1000
PbHidd
1002
}
  0
LINE
  5
96
330
1F
100
AcDbEntity
  8
HIDDEN
100
AcDbLine
 10
-6.932962894483389
 20
-114.7908272707524
 30
0.0
 11
-6.932962894483389
 21
-114.7908272707524
 31
0.0
1001
DBPROPERTIES
1002
{
1000
PbHidd
1002
}
  0
LINE
  5
97
330
1F
100
AcDbEntity
  8
HIDDEN
100
AcDbLine
 10
-28.87867688699073
 20
-111.3149676425268
 30
0.0
 11
-28.87867688699073
 21
-111.3149676425268
 31
0.0
1001
DBPROPERTIES
1002
{
1000
PbHidd
1002
}
  0
LINE
  5
98
330
1F
100
AcDbEntity
  8
HIDDEN
100
AcDbLine
 10
-42.0659559630526
 20
-107.0301609309942
 30
0.0
 11
-42.0659559630526
 21
-107.0301609309942
 31
0.0
1001
DBPROPERTIES
1002
{
1000
PbHidd
1002
}
  0
LINE
  5
99
330
1F
100
AcDbEntity
  8
HIDDEN
100
AcDbLine
 10
-61.86347056519295
 20
-96.94282340446614
 30
0.0
 11
-61.86347056519295
 21
-96.94282340446614
 31
0.0
1001
DBPROPERTIES
1002
{
1000
PbHidd
1002
}
  0
LINE
  5
9A
330
1F
100
AcDbEntity
  8
HIDDEN
100
AcDbLine
 10
-73.08124017120889
 20
-88.7926367163296
 30
0.0
 11
-73.08124017120889
 21
-88.7926367163296
 31
0.0
1001
DBPROPERTIES
1002
{
1000
PbHidd
1002
}
  0
LINE
  5
9B
330
1F
100
AcDbEntity
  8
HIDDEN
100
AcDbLine
 10
-88.79263671632961
 20
-73.08124017120889
 30
0.0
 11
-88.79263671632961
 21
-73.08124017120889
 31
0.0
1001
DBPROPERTIES
1002
{
1000
PbHidd
1002
}
  0
LINE
  5
9C
330
1F
100
AcDbEntity
  8
HIDDEN
100
AcDbLine
 10
-96.94282340446614
 20
-61.86347056519293
 30
0.0
 11
-96.94282340446614
 21
-61.86347056519293
 31
0.0
1001
DBPROPERTIES
1002
{
1000
PbHidd
1002
}
  0
LINE
  5
9D
330
1F
100
AcDbEntity
  8
HIDDEN
100
AcDbLine
 10
-98.44481943835575
 20
-59.44423879359155
 30
0.0
 11
-98.44481943835575
 21
-59.44423879359155
 31
0.0
1001
DBPROPERTIES
1002
{
1000
PbHidd
1002
}
  0
LINE
  5
9E
330
1F
100
AcDbEntity
  8
HIDDEN
100
AcDbLine
 10
-96.94282340446614
 20
-61.86347056519293
 30
0.0
 11
-96.94282340446614
 21
-61.86347056519293
 31
0.0
1001
DBPROPERTIES
1002
{
1000
PbHidd
1002
}
  0
LINE
  5
9F
330
1F
100
AcDbEntity
  8
HIDDEN
100
AcDbLine
 10
-88.79263671632961
 20
-73.08124017120889
 30
0.0
 11
-88.79263671632961
 21
-73.08124017120889
 31
0.0
1001
DBPROPERTIES
1002
{
1000
PbHidd
1002
}
  0
LINE
  5
A0
330
1F
100
AcDbEntity
  8
HIDDEN
100
AcDbLine
 10
-73.08124017120889
 20
-88.7926367163296
 30
0.0
 11
-73.08124017120889
 21
-88.7926367163296
 31
0.0
1001
DBPROPERTIES
1002
{
1000
PbHidd
1002
}
  0
LINE
  5
A1
330
1F
100
AcDbEntity
  8
HIDDEN
100
AcDbLine
 10
-61.86347056519295
 20
-96.94282340446614
 30
0.0
 11
-61.86347056519295
 21
-96.94282340446614
 31
0.0
1001
DBPROPERTIES
1002
{
1000
PbHidd
1002
}
  0
LINE
  5
A2
330
1F
100
AcDbEntity
  8
HIDDEN
100
AcDbLine
 10
-42.0659559630526
 20
-107.0301609309942
 30
0.0
 11
-42.0659559630526
 21
-107.0301609309942
 31
0.0
1001
DBPROPERTIES
1002
{
1000
PbHidd
1002
}
  0
LINE
  5
A3
330
1F
100
AcDbEntity
  8
HIDDEN
100
AcDbLine
 10
-28.87867688699073
 20
-111.3149676425268
 30
0.0
 11
-28.87867688699073
 21
-111.3149676425268
 31
0.0
1001
DBPROPERTIES
1002
{
1000
PbHidd
1002
}
  0
LINE
  5
A4
330
1F
100
AcDbEntity
  8
HIDDEN
100
AcDbLine
 10
-6.932962894483389
 20
-114.7908272707524
 30
0.0
 11
-6.932962894483389
 21
-114.7908272707524
 31
0.0
1001
DBPROPERTIES
1002
{
1000
PbHidd
1002
}
  0
LINE
  5
A5
330
1F
100
AcDbEntity
  8
HIDDEN
100
AcDbLine
 10
6.932962894483346
 20
-114.7908272707524
 30
0.0
 11
6.932962894483346
 21
-114.7908272707524
 31
0.0
1001
DBPROPERTIES
1002
{
1000
PbHidd
1002
}
  0
LINE
  5
A6
330
1F
100
AcDbEntity
  8
HIDDEN
100
AcDbLine
 10
28.87867688699072
 20
-111.3149676425268
 30
0.0
 11
28.87867688699072
 21
-111.3149676425268
 31
0.0
1001
DBPROPERTIES
1002
{
1000
PbHidd
1002
}
  0
LINE
  5
A7
330
1F
100
AcDbEntity
  8
HIDDEN
100
AcDbLine
 10
42.06595596305256
 20
-107.0301609309942
 30
0.0
 11
42.06595596305256
 21
-107.0301609309942
 31
0.0
1001
DBPROPERTIES
1002
{
1000
PbHidd
1002
}
  0
LINE
  5
A8
330
1F
100
AcDbEntity
  8
HIDDEN
100
AcDbLine
 10
61.86347056519293
 20
-96.94282340446614
 30
0.0
 11
61.86347056519293
 21
-96.94282340446614
 31
0.0
1001
DBPROPERTIES
1002
{
1000
PbHidd
1002
}
  0
LINE
  5
A9
330
1F
100
AcDbEntity
  8
HIDDEN
100
AcDbLine
 10
73.08124017120889
 20
-88.79263671632961
 30
0.0
 11
73.08124017120889
 21
-88.79263671632961
 31
0.0
1001
DBPROPERTIES
1002
{
1000
PbHidd
1002
}
  0
LINE
  5
AA
330
1F
100
AcDbEntity
  8
HIDDEN
100
AcDbLine
 10
88.7926367163296
 20
-73.08124017120889
 30
0.0
 11
88.7926367163296
 21
-73.08124017120889
 31
0.0
1001
DBPROPERTIES
1002
{
1000
PbHidd
1002
}
  0
LINE
  5
AB
330
1F
100
AcDbEntity
  8
HIDDEN
100
AcDbLine
 10
96.94282340446614
 20
-61.86347056519295
 30
0.0
 11
96.94282340446614
 21
-61.86347056519295
 31
0.0
1001
DBPROPERTIES
1002
{
1000
PbHidd
1002
}
  0
LINE
  5
AC
330
1F
100
AcDbEntity
  8
HIDDEN
100
AcDbLine
 10
98.44481943835572
 20
-59.44423879359159
 30
0.0
 11
98.44481943835572
 21
-59.44423879359159
 31
0.0
1001
DBPROPERTIES
1002
{
1000
PbHidd
1002
}
  0
LINE
  5
AD
330
1F
100
AcDbEntity
  8
HIDDEN
100
AcDbLine
 10
96.94282340446614
 20
-61.86347056519295
 30
0.0
 11
96.94282340446614
 21
-61.86347056519295
 31
0.0
1001
DBPROPERTIES
1002
{
1000
PbHidd
1002
}
  0
LINE
  5
AE
330
1F
100
AcDbEntity
  8
HIDDEN
100
AcDbLine
 10
111.3149676425268
 20
-28.87867688699077
 30
0.0
 11
111.3149676425268
 21
-28.87867688699077
 31
0.0
1001
DBPROPERTIES
1002
{
1000
PbHidd
1002
}
  0
LINE
  5
AF
330
1F
100
AcDbEntity
  8
HIDDEN
100
AcDbLine
 10
107.0301609309942
 20
-42.06595596305261
 30
0.0
 11
107.0301609309942
 21
-42.06595596305261
 31
0.0
1001
DBPROPERTIES
1002
{
1000
PbHidd
1002
}
  0
LINE
  5
B0
330
1F
100
AcDbEntity
  8
HIDDEN
100
AcDbLine
 10
-107.0301609309942
 20
-42.06595596305254
 30
0.0
 11
-107.0301609309942
 21
-42.06595596305254
 31
0.0
1001
DBPROPERTIES
1002
{
1000
PbHidd
1002
}
  0
LINE
  5
B1
330
1F
100
AcDbEntity
  8
HIDDEN
100
AcDbLine
 10
-111.3149676425268
 20
-28.87867688699075
 30
0.0
 11
-111.3149676425268
 21
-28.87867688699075
 31
0.0
1001
DBPROPERTIES
1002
{
1000
PbHidd
1002
}
  0
LINE
  5
B2
330
1F
100
AcDbEntity
  8
HIDDEN
100
AcDbLine
 10
-183.5
 20
-459.0
 30
0.0
 11
-183.5
 21
-460.0
 31
0.0
1001
DBPROPERTIES
1002
{
1000
PbHidd
1002
}
  0
LINE
  5
B3
330
1F
100
AcDbEntity
  8
HIDDEN
100
AcDbLine
 10
-191.5
 20
-460.0
 30
0.0
 11
-191.5
 21
-459.0
 31
0.0
1001
DBPROPERTIES
1002
{
1000
PbHidd
1002
}
  0
LINE
  5
B4
330
1F
100
AcDbEntity
  8
HIDDEN
100
AcDbLine
 10
191.5
 20
-459.0
 30
0.0
 11
191.5
 21
-460.0
 31
0.0
1001
DBPROPERTIES
1002
{
1000
PbHidd
1002
}
  0
LINE
  5
B5
330
1F
100
AcDbEntity
  8
HIDDEN
100
AcDbLine
 10
183.5
 20
-460.0
 30
0.0
 11
183.5
 21
-459.0
 31
0.0
1001
DBPROPERTIES
1002
{
1000
PbHidd
1002
}
  0
LINE
  5
B6
330
1F
100
AcDbEntity
  8
HIDDEN
100
AcDbLine
 10
-198.5
 20
-459.0
 30
0.0
 11
-198.5
 21
-460.0
 31
0.0
1001
DBPROPERTIES
1002
{
1000
PbHidd
1002
}
  0
LINE
  5
B7
330
1F
100
AcDbEntity
  8
HIDDEN
100
AcDbLine
 10
-206.5
 20
-460.0
 30
0.0
 11
-206.5
 21
-459.0
 31
0.0
1001
DBPROPERTIES
1002
{
1000
PbHidd
1002
}
  0
LINE
  5
B8
330
1F
100
AcDbEntity
  8
HIDDEN
100
AcDbLine
 10
206.5
 20
-459.0
 30
0.0
 11
206.5
 21
-460.0
 31
0.0
1001
DBPROPERTIES
1002
{
1000
PbHidd
1002
}
  0
LINE
  5
B9
330
1F
100
AcDbEntity
  8
HIDDEN
100
AcDbLine
 10
198.5
 20
-460.0
 30
0.0
 11
198.5
 21
-459.0
 31
0.0
1001
DBPROPERTIES
1002
{
1000
PbHidd
1002
}
  0
LINE
  5
BA
330
1F
100
AcDbEntity
  8
HIDDEN
100
AcDbLine
 10
-198.5
 20
-459.0
 30
0.0
 11
-198.5
 21
-460.0
 31
0.0
1001
DBPROPERTIES
1002
{
1000
PbHidd
1002
}
  0
LINE
  5
BB
330
1F
100
AcDbEntity
  8
HIDDEN
100
AcDbLine
 10
-206.5
 20
-460.0
 30
0.0
 11
-206.5
 21
-459.0
 31
0.0
1001
DBPROPERTIES
1002
{
1000
PbHidd
1002
}
  0
LINE
  5
BC
330
1F
100
AcDbEntity
  8
HIDDEN
100
AcDbLine
 10
206.5
 20
-459.0
 30
0.0
 11
206.5
 21
-460.0
 31
0.0
1001
DBPROPERTIES
1002
{
1000
PbHidd
1002
}
  0
LINE
  5
BD
330
1F
100
AcDbEntity
  8
HIDDEN
100
AcDbLine
 10
198.5
 20
-460.0
 30
0.0
 11
198.5
 21
-459.0
 31
0.0
1001
DBPROPERTIES
1002
{
1000
PbHidd
1002
}
  0
LINE
  5
BE
330
1F
100
AcDbEntity
  8
HIDDEN
100
AcDbLine
 10
-183.5
 20
-153.3333333333333
 30
0.0
 11
-183.5
 21
-153.3333333333333
 31
0.0
1001
DBPROPERTIES
1002
{
1000
PbHidd
1002
}
  0
LINE
  5
BF
330
1F
100
AcDbEntity
  8
HIDDEN
100
AcDbLine
 10
-183.5000000000001
 20
-153.3333333333333
 30
0.0
 11
183.5
 21
-153.3333333333333
 31
0.0
1001
DBPROPERTIES
1002
{
1000
PbHidd
1002
}
  0
LINE
  5
C0
330
1F
100
AcDbEntity
  8
HIDDEN
100
AcDbLine
 10
183.5
 20
-153.3333333333333
 30
0.0
 11
183.5
 21
-153.3333333333333
 31
0.0
1001
DBPROPERTIES
1002
{
1000
PbHidd
1002
}
  0
LINE
  5
C1
330
1F
100
AcDbEntity
  8
HIDDEN
100
AcDbLine
 10
115.0
 20
-153.3333333333334
 30
0.0
 11
115.0
 21
-153.3333333333334
 31
0.0
1001
DBPROPERTIES
1002
{
1000
PbHidd
1002
}
  0
LINE
  5
C2
330
1F
100
AcDbEntity
  8
HIDDEN
100
AcDbLine
 10
-115.0
 20
-153.3333333333334
 30
0.0
 11
-115.0
 21
-153.3333333333334
 31
0.0
1001
DBPROPERTIES
1002
{
1000
PbHidd
1002
}
  0
LINE
  5
C3
330
1F
100
AcDbEntity
  8
THICK
100
AcDbLine
 10
-183.5
 20
-459.0
 30
0.0
 11
-210.0
 21
-459.0
 31
0.0
1001
DBPROPERTIES
1002
{
1000
PbThick
1002
}
  0
LINE
  5
C4
330
1F
100
AcDbEntity
  8
HIDDEN
100
AcDbLine
 10
-195.0
 20
-459.0
 30
0.0
 11
-195.0
 21
-459.0
 31
0.0
1001
DBPROPERTIES
1002
{
1000
PbHidd
1002
}
  0
LINE
  5
C5
330
1F
100
AcDbEntity
  8
HIDDEN
100
AcDbLine
 10
183.5
 20
-459.0
 30
0.0
 11
-183.5
 21
-459.0
 31
0.0
1001
DBPROPERTIES
1002
{
1000
PbHidd
1002
}
  0
LINE
  5
C6
330
1F
100
AcDbEntity
  8
HIDDEN
100
AcDbLine
 10
195.0
 20
-459.0
 30
0.0
 11
195.0
 21
-459.0
 31
0.0
1001
DBPROPERTIES
1002
{
1000
PbHidd
1002
}
  0
LINE
  5
C7
330
1F
100
AcDbEntity
  8
THICK
100
AcDbLine
 10
210.0
 20
-459.0
 30
0.0
 11
183.5
 21
-459.0
 31
0.0
1001
DBPROPERTIES
1002
{
1000
PbThick
1002
}
  0
LINE
  5
C8
330
1F
100
AcDbEntity
  8
HIDDEN
100
AcDbLine
 10
210.0
 20
-459.0
 30
0.0
 11
210.0
 21
-459.0
 31
0.0
1001
DBPROPERTIES
1002
{
1000
PbHidd
1002
}
  0
LINE
  5
C9
330
1F
100
AcDbEntity
  8
HIDDEN
100
AcDbLine
 10
-210.0
 20
-459.0
 30
0.0
 11
-210.0
 21
-459.0
 31
0.0
1001
DBPROPERTIES
1002
{
1000
PbHidd
1002
}
  0
LINE
  5
CA
330
1F
100
AcDbEntity
  8
THICK
100
AcDbLine
 10
-210.0
 20
-459.0
 30
0.0
 11
-210.0
 21
-460.0
 31
0.0
1001
DBPROPERTIES
1002
{
1000
PbThick
1002
}
  0
LINE
  5
CB
330
1F
100
AcDbEntity
  8
HIDDEN
100
AcDbLine
 10
-210.0
 20
-460.0
 30
0.0
 11
-210.0
 21
-460.0
 31
0.0
1001
DBPROPERTIES
1002
{
1000
PbHidd
1002
}
  0
LINE
  5
CC
330
1F
100
AcDbEntity
  8
THICK
100
AcDbLine
 10
210.0
 20
-460.0
 30
0.0
 11
210.0
 21
-459.0
 31
0.0
1001
DBPROPERTIES
1002
{
1000
PbThick
1002
}
  0
LINE
  5
CD
330
1F
100
AcDbEntity
  8
HIDDEN
100
AcDbLine
 10
210.0
 20
-460.0
 30
0.0
 11
210.0
 21
-460.0
 31
0.0
1001
DBPROPERTIES
1002
{
1000
PbHidd
1002
}
  0
LINE
  5
CE
330
1F
100
AcDbEntity
  8
THICK
100
AcDbLine
 10
-195.0
 20
-459.0
 30
0.0
 11
-195.0
 21
-346.3069255052192
 31
0.0
1001
DBPROPERTIES
1002
{
1000
PbThick
1002
}
  0
LINE
  5
CF
330
1F
100
AcDbEntity
  8
HIDDEN
100
AcDbLine
 10
-195.0
 20
-346.3069255052192
 30
0.0
 11
-195.0
 21
-164.8333333333333
 31
0.0
1001
DBPROPERTIES
1002
{
1000
PbHidd
1002
}
  0
LINE
  5
D0
330
1F
100
AcDbEntity
  8
HIDDEN
100
AcDbLine
 10
-183.5
 20
-164.8333333333333
 30
0.0
 11
-183.5
 21
-350.0154418558467
 31
0.0
1001
DBPROPERTIES
1002
{
1000
PbHidd
1002
}
  0
LINE
  5
D1
330
1F
100
AcDbEntity
  8
THICK
100
AcDbLine
 10
-183.5
 20
-350.0154418558467
 30
0.0
 11
-183.5
 21
-459.0
 31
0.0
1001
DBPROPERTIES
1002
{
1000
PbThick
1002
}
  0
LINE
  5
D2
330
1F
100
AcDbEntity
  8
HIDDEN
100
AcDbLine
 10
-191.6317279836453
 20
-156.701605349688
 30
0.0
 11
-172.0
 21
-176.3333333333333
 31
0.0
1001
DBPROPERTIES
1002
{
1000
PbHidd
1002
}
  0
ELLIPSE
  5
D3
330
1F
100
AcDbEntity
  8
HIDDEN
100
AcDbEllipse
 10
-183.5000000000001
 20
-164.8333333333333
 30
0.0
 11
11.5
 21
7.041486534478669E-16
 31
0.0
210
0.0
220
0.0
230
1.0
 40
0.9999999999999999
 41
2.35619449019234
 42
3.141592653589791
1001
DBPROPERTIES
1002
{
1000
PbHidd
1002
}
  0
LINE
  5
D4
330
1F
100
AcDbEntity
  8
HIDDEN
100
AcDbLine
 10
183.5
 20
-164.8333333333333
 30
0.0
 11
-183.5
 21
-164.8333333333333
 31
0.0
1001
DBPROPERTIES
1002
{
1000
PbHidd
1002
}
  0
LINE
  5
D5
330
1F
100
AcDbEntity
  8
THICK
100
AcDbLine
 10
-210.0
 20
-460.0
 30
0.0
 11
210.0
 21
-460.0
 31
0.0
1001
DBPROPERTIES
1002
{
1000
PbThick
1002
}
  0
LINE
  5
D6
330
1F
100
AcDbEntity
  8
THICK
100
AcDbLine
 10
183.5
 20
-459.0
 30
0.0
 11
183.5
 21
-313.067940055385
 31
0.0
1001
DBPROPERTIES
1002
{
1000
PbThick
1002
}
  0
LINE
  5
D7
330
1F
100
AcDbEntity
  8
HIDDEN
100
AcDbLine
 10
183.5
 20
-313.067940055385
 30
0.0
 11
183.5
 21
-164.8333333333333
 31
0.0
1001
DBPROPERTIES
1002
{
1000
PbHidd
1002
}
  0
LINE
  5
D8
330
1F
100
AcDbEntity
  8
HIDDEN
100
AcDbLine
 10
195.0
 20
-164.8333333333333
 30
0.0
 11
195.0
 21
-305.9212026023751
 31
0.0
1001
DBPROPERTIES
1002
{
1000
PbHidd
1002
}
  0
LINE
  5
D9
330
1F
100
AcDbEntity
  8
THICK
100
AcDbLine
 10
195.0
 20
-305.9212026023751
 30
0.0
 11
195.0
 21
-459.0
 31
0.0
1001
DBPROPERTIES
1002
{
1000
PbThick
1002
}
  0
ELLIPSE
  5
DA
330
1F
100
AcDbEntity
  8
HIDDEN
100
AcDbEllipse
 10
183.5
 20
-164.8333333333333
 30
0.0
 11
-11.5
 21
-7.041486534478668E-16
 31
0.0
210
0.0
220
0.0
230
1.0
 40
0.9999999999999999
 41
-3.141592653589791
 42
-2.35619449019235
1001
DBPROPERTIES
1002
{
1000
PbHidd
1002
}
  0
LINE
  5
DB
330
1F
100
AcDbEntity
  8
HIDDEN
100
AcDbLine
 10
191.6317279836453
 20
-156.701605349688
 30
0.0
 11
183.5
 21
-164.8333333333333
 31
0.0
1001
DBPROPERTIES
1002
{
1000
PbHidd
1002
}
  0
LINE
  5
DC
330
1F
100
AcDbEntity
  8
HIDDEN
100
AcDbLine
 10
195.0
 20
-164.8333333333333
 30
0.0
 11
195.0
 21
-164.8333333333333
 31
0.0
1001
DBPROPERTIES
1002
{
1000
PbHidd
1002
}
  0
LINE
  5
DD
330
1F
100
AcDbEntity
  8
HIDDEN
100
AcDbLine
 10
-195.0
 20
-164.8333333333333
 30
0.0
 11
-195.0
 21
-164.8333333333333
 31
0.0
1001
DBPROPERTIES
1002
{
1000
PbHidd
1002
}
  0
ELLIPSE
  5
DE
330
1F
100
AcDbEntity
  8
HIDDEN
100
AcDbEllipse
 10
-183.5000000000001
 20
-164.8333333333333
 30
0.0
 11
-11.5
 21
0.0
 31
0.0
210
0.0
220
0.0
230
1.0
 40
0.9999999999999997
 41
-1.570796326794894
 42
-0.7853981633974502
1001
DBPROPERTIES
1002
{
1000
PbHidd
1002
}
  0
LINE
  5
DF
330
1F
100
AcDbEntity
  8
HIDDEN
100
AcDbLine
 10
-183.5
 20
-459.0
 30
0.0
 11
-183.5
 21
-164.8333333333333
 31
0.0
1001
DBPROPERTIES
1002
{
1000
PbHidd
1002
}
  0
LINE
  5
E0
330
1F
100
AcDbEntity
  8
HIDDEN
100
AcDbLine
 10
-191.6317279836453
 20
-156.701605349688
 30
0.0
 11
-183.5
 21
-164.8333333333333
 31
0.0
1001
DBPROPERTIES
1002
{
1000
PbHidd
1002
}
  0
LINE
  5
E1
330
1F
100
AcDbEntity
  8
HIDDEN
100
AcDbLine
 10
183.5
 20
-164.8333333333333
 30
0.0
 11
191.6317279836453
 21
-156.701605349688
 31
0.0
1001
DBPROPERTIES
1002
{
1000
PbHidd
1002
}
  0
LINE
  5
E2
330
1F
100
AcDbEntity
  8
HIDDEN
100
AcDbLine
 10
-183.5
 20
-164.8333333333333
 30
0.0
 11
183.5
 21
-164.8333333333333
 31
0.0
1001
DBPROPERTIES
1002
{
1000
PbHidd
1002
}
  0
ELLIPSE
  5
E3
330
1F
100
AcDbEntity
  8
HIDDEN
100
AcDbEllipse
 10
183.5
 20
-164.8333333333333
 30
0.0
 11
7.041486534478668E-16
 21
-11.5
 31
0.0
210
0.0
220
0.0
230
1.0
 40
0.9999999999999999
 41
2.356194490192338
 42
3.141592653589791
1001
DBPROPERTIES
1002
{
1000
PbHidd
1002
}
  0
LINE
  5
E4
330
1F
100
AcDbEntity
  8
HIDDEN
100
AcDbLine
 10
183.5
 20
-164.8333333333333
 30
0.0
 11
183.5
 21
-459.0
 31
0.0
1001
DBPROPERTIES
1002
{
1000
PbHidd
1002
}
  0
LINE
  5
E5
330
1F
100
AcDbEntity
  8
HIDDEN
100
AcDbLine
 10
115.0000000000001
 20
-153.3333333333334
 30
0.0
 11
98.44481943835575
 21
-59.44423879359157
 31
0.0
1001
DBPROPERTIES
1002
{
1000
PbHidd
1002
}
  0
LINE
  5
E6
330
1F
100
AcDbEntity
  8
HIDDEN
100
AcDbLine
 10
-98.44481943835575
 20
-59.44423879359157
 30
0.0
 11
-115.0
 21
-153.3333333333333
 31
0.0
1001
DBPROPERTIES
1002
{
1000
PbHidd
1002
}
  0
LINE
  5
E7
330
1F
100
AcDbEntity
  8
HIDDEN
100
AcDbLine
 10
87.25884525738988
 20
-63.39726202413265
 30
0.0
 11
87.25884525738988
 21
-63.39726202413265
 31
0.0
1001
DBPROPERTIES
1002
{
1000
PbHidd
1002
}
  0
LINE
  5
E8
330
1F
100
AcDbEntity
  8
HIDDEN
100
AcDbLine
 10
96.94282340446614
 20
-61.86347056519295
 30
0.0
 11
87.25884525738988
 21
-63.39726202413266
 31
0.0
1001
DBPROPERTIES
1002
{
1000
PbHidd
1002
}
  0
LINE
  5
E9
330
1F
100
AcDbEntity
  8
HIDDEN
100
AcDbLine
 10
87.25884525738988
 20
-63.39726202413266
 30
0.0
 11
88.79263671632958
 21
-73.08124017120892
 31
0.0
1001
DBPROPERTIES
1002
{
1000
PbHidd
1002
}
  0
LINE
  5
EA
330
1F
100
AcDbEntity
  8
HIDDEN
100
AcDbLine
 10
87.25884525738988
 20
-63.39726202413265
 30
0.0
 11
87.25884525738988
 21
-63.39726202413265
 31
0.0
1001
DBPROPERTIES
1002
{
1000
PbHidd
1002
}
  0
LINE
  5
EB
330
1F
100
AcDbEntity
  8
HIDDEN
100
AcDbLine
 10
63.39726202413263
 20
-87.25884525738991
 30
0.0
 11
63.39726202413263
 21
-87.25884525738991
 31
0.0
1001
DBPROPERTIES
1002
{
1000
PbHidd
1002
}
  0
LINE
  5
EC
330
1F
100
AcDbEntity
  8
HIDDEN
100
AcDbLine
 10
73.08124017120886
 20
-88.79263671632961
 30
0.0
 11
63.39726202413264
 21
-87.25884525738991
 31
0.0
1001
DBPROPERTIES
1002
{
1000
PbHidd
1002
}
  0
LINE
  5
ED
330
1F
100
AcDbEntity
  8
HIDDEN
100
AcDbLine
 10
63.39726202413263
 20
-87.25884525738991
 30
0.0
 11
63.39726202413263
 21
-87.25884525738991
 31
0.0
1001
DBPROPERTIES
1002
{
1000
PbHidd
1002
}
  0
LINE
  5
EE
330
1F
100
AcDbEntity
  8
HIDDEN
100
AcDbLine
 10
63.39726202413264
 20
-87.25884525738991
 30
0.0
 11
61.86347056519293
 21
-96.94282340446614
 31
0.0
1001
DBPROPERTIES
1002
{
1000
PbHidd
1002
}
  0
LINE
  5
EF
330
1F
100
AcDbEntity
  8
HIDDEN
100
AcDbLine
 10
33.32991306925535
 20
-102.5789247487296
 30
0.0
 11
33.32991306925535
 21
-102.5789247487296
 31
0.0
1001
DBPROPERTIES
1002
{
1000
PbHidd
1002
}
  0
LINE
  5
F0
330
1F
100
AcDbEntity
  8
HIDDEN
100
AcDbLine
 10
42.06595596305254
 20
-107.0301609309942
 30
0.0
 11
33.32991306925535
 21
-102.5789247487296
 31
0.0
1001
DBPROPERTIES
1002
{
1000
PbHidd
1002
}
  0
LINE
  5
F1
330
1F
100
AcDbEntity
  8
HIDDEN
100
AcDbLine
 10
33.32991306925535
 20
-102.5789247487296
 30
0.0
 11
33.32991306925535
 21
-102.5789247487296
 31
0.0
1001
DBPROPERTIES
1002
{
1000
PbHidd
1002
}
  0
LINE
  5
F2
330
1F
100
AcDbEntity
  8
HIDDEN
100
AcDbLine
 10
33.32991306925535
 20
-102.5789247487296
 30
0.0
 11
28.87867688699072
 21
-111.3149676425268
 31
0.0
1001
DBPROPERTIES
1002
{
1000
PbHidd
1002
}
  0
LINE
  5
F3
330
1F
100
AcDbEntity
  8
HIDDEN
100
AcDbLine
 10
-0.0000000000000132
 20
-107.857864376269
 30
0.0
 11
-0.0000000000000132
 21
-107.857864376269
 31
0.0
1001
DBPROPERTIES
1002
{
1000
PbHidd
1002
}
  0
LINE
  5
F4
330
1F
100
AcDbEntity
  8
HIDDEN
100
AcDbLine
 10
6.932962894483349
 20
-114.7908272707524
 30
0.0
 11
-0.000000000000008
 21
-107.857864376269
 31
0.0
1001
DBPROPERTIES
1002
{
1000
PbHidd
1002
}
  0
LINE
  5
F5
330
1F
100
AcDbEntity
  8
HIDDEN
100
AcDbLine
 10
-0.0000000000000132
 20
-107.857864376269
 30
0.0
 11
-0.0000000000000132
 21
-107.857864376269
 31
0.0
1001
DBPROPERTIES
1002
{
1000
PbHidd
1002
}
  0
LINE
  5
F6
330
1F
100
AcDbEntity
  8
HIDDEN
100
AcDbLine
 10
-0.0000000000000187
 20
-107.857864376269
 30
0.0
 11
-6.932962894483373
 21
-114.7908272707524
 31
0.0
1001
DBPROPERTIES
1002
{
1000
PbHidd
1002
}
  0
LINE
  5
F7
330
1F
100
AcDbEntity
  8
HIDDEN
100
AcDbLine
 10
-33.32991306925538
 20
-102.5789247487296
 30
0.0
 11
-33.32991306925538
 21
-102.5789247487296
 31
0.0
1001
DBPROPERTIES
1002
{
1000
PbHidd
1002
}
  0
LINE
  5
F8
330
1F
100
AcDbEntity
  8
HIDDEN
100
AcDbLine
 10
-28.87867688699074
 20
-111.3149676425268
 30
0.0
 11
-33.32991306925538
 21
-102.5789247487296
 31
0.0
1001
DBPROPERTIES
1002
{
1000
PbHidd
1002
}
  0
LINE
  5
F9
330
1F
100
AcDbEntity
  8
HIDDEN
100
AcDbLine
 10
-33.32991306925538
 20
-102.5789247487296
 30
0.0
 11
-33.32991306925538
 21
-102.5789247487296
 31
0.0
1001
DBPROPERTIES
1002
{
1000
PbHidd
1002
}
  0
LINE
  5
FA
330
1F
100
AcDbEntity
  8
HIDDEN
100
AcDbLine
 10
-33.32991306925538
 20
-102.5789247487296
 30
0.0
 11
-42.06595596305262
 21
-107.0301609309942
 31
0.0
1001
DBPROPERTIES
1002
{
1000
PbHidd
1002
}
  0
LINE
  5
FB
330
1F
100
AcDbEntity
  8
HIDDEN
100
AcDbLine
 10
114.7908272707524
 20
6.932962894483332
 30
0.0
 11
114.7908272707524
 21
6.932962894483332
 31
0.0
1001
DBPROPERTIES
1002
{
1000
PbHidd
1002
}
  0
LINE
  5
FC
330
1F
100
AcDbEntity
  8
HIDDEN
100
AcDbLine
 10
-114.7908272707524
 20
6.932962894483367
 30
0.0
 11
-114.7908272707524
 21
6.932962894483367
 31
0.0
1001
DBPROPERTIES
1002
{
1000
PbHidd
1002
}
  0
ARC
  5
FD
330
1F
100
AcDbEntity
  8
HIDDEN
100
AcDbCircle
 10
0.0
 20
-0.0000000000000014
 30
0.0
 40
115.0
100
AcDbArc
 50
89.99998127603165
 51
180.0000198478428
1001
DBPROPERTIES
1002
{
1000
PbHidd
1002
}
  0
LINE
  5
FE
330
1F
100
AcDbEntity
  8
HIDDEN
100
AcDbLine
 10
-6.932962894483367
 20
114.7908272707524
 30
0.0
 11
-6.932962894483367
 21
114.7908272707524
 31
0.0
1001
DBPROPERTIES
1002
{
1000
PbHidd
1002
}
  0
LINE
  5
FF
330
1F
100
AcDbEntity
  8
HIDDEN
100
AcDbLine
 10
6.932962894483367
 20
114.7908272707524
 30
0.0
 11
6.932962894483367
 21
114.7908272707524
 31
0.0
1001
DBPROPERTIES
1002
{
1000
PbHidd
1002
}
  0
LINE
  5
100
330
1F
100
AcDbEntity
  8
HIDDEN
100
AcDbLine
 10
-42.06595596305259
 20
107.0301609309942
 30
0.0
 11
-42.06595596305259
 21
107.0301609309942
 31
0.0
1001
DBPROPERTIES
1002
{
1000
PbHidd
1002
}
  0
LINE
  5
101
330
1F
100
AcDbEntity
  8
HIDDEN
100
AcDbLine
 10
-28.87867688699074
 20
111.3149676425268
 30
0.0
 11
-28.87867688699074
 21
111.3149676425268
 31
0.0
1001
DBPROPERTIES
1002
{
1000
PbHidd
1002
}
  0
LINE
  5
102
330
1F
100
AcDbEntity
  8
HIDDEN
100
AcDbLine
 10
-73.08124017120889
 20
88.79263671632961
 30
0.0
 11
-73.08124017120889
 21
88.79263671632961
 31
0.0
1001
DBPROPERTIES
1002
{
1000
PbHidd
1002
}
  0
LINE
  5
103
330
1F
100
AcDbEntity
  8
HIDDEN
100
AcDbLine
 10
-61.86347056519296
 20
96.94282340446611
 30
0.0
 11
-61.86347056519296
 21
96.94282340446611
 31
0.0
1001
DBPROPERTIES
1002
{
1000
PbHidd
1002
}
  0
LINE
  5
104
330
1F
100
AcDbEntity
  8
HIDDEN
100
AcDbLine
 10
-96.94282340446611
 20
61.86347056519296
 30
0.0
 11
-96.94282340446611
 21
61.86347056519296
 31
0.0
1001
DBPROPERTIES
1002
{
1000
PbHidd
1002
}
  0
LINE
  5
105
330
1F
100
AcDbEntity
  8
HIDDEN
100
AcDbLine
 10
-88.79263671632961
 20
73.08124017120889
 30
0.0
 11
-88.79263671632961
 21
73.08124017120889
 31
0.0
1001
DBPROPERTIES
1002
{
1000
PbHidd
1002
}
  0
LINE
  5
106
330
1F
100
AcDbEntity
  8
HIDDEN
100
AcDbLine
 10
-111.3149676425268
 20
28.87867688699073
 30
0.0
 11
-111.3149676425268
 21
28.87867688699073
 31
0.0
1001
DBPROPERTIES
1002
{
1000
PbHidd
1002
}
  0
LINE
  5
107
330
1F
100
AcDbEntity
  8
HIDDEN
100
AcDbLine
 10
-107.0301609309942
 20
42.0659559630526
 30
0.0
 11
-107.0301609309942
 21
42.0659559630526
 31
0.0
1001
DBPROPERTIES
1002
{
1000
PbHidd
1002
}
  0
LINE
  5
108
330
1F
100
AcDbEntity
  8
HIDDEN
100
AcDbLine
 10
107.0301609309942
 20
42.06595596305256
 30
0.0
 11
107.0301609309942
 21
42.06595596305256
 31
0.0
1001
DBPROPERTIES
1002
{
1000
PbHidd
1002
}
  0
LINE
  5
109
330
1F
100
AcDbEntity
  8
HIDDEN
100
AcDbLine
 10
111.3149676425268
 20
28.87867688699072
 30
0.0
 11
111.3149676425268
 21
28.87867688699072
 31
0.0
1001
DBPROPERTIES
1002
{
1000
PbHidd
1002
}
  0
LINE
  5
10A
330
1F
100
AcDbEntity
  8
HIDDEN
100
AcDbLine
 10
88.79263671632961
 20
73.08124017120889
 30
0.0
 11
88.79263671632961
 21
73.08124017120889
 31
0.0
1001
DBPROPERTIES
1002
{
1000
PbHidd
1002
}
  0
LINE
  5
10B
330
1F
100
AcDbEntity
  8
HIDDEN
100
AcDbLine
 10
96.94282340446614
 20
61.86347056519293
 30
0.0
 11
96.94282340446614
 21
61.86347056519293
 31
0.0
1001
DBPROPERTIES
1002
{
1000
PbHidd
1002
}
  0
LINE
  5
10C
330
1F
100
AcDbEntity
  8
HIDDEN
100
AcDbLine
 10
61.86347056519298
 20
96.94282340446611
 30
0.0
 11
61.86347056519298
 21
96.94282340446611
 31
0.0
1001
DBPROPERTIES
1002
{
1000
PbHidd
1002
}
  0
LINE
  5
10D
330
1F
100
AcDbEntity
  8
HIDDEN
100
AcDbLine
 10
73.08124017120892
 20
88.79263671632958
 30
0.0
 11
73.08124017120892
 21
88.79263671632958
 31
0.0
1001
DBPROPERTIES
1002
{
1000
PbHidd
1002
}
  0
LINE
  5
10E
330
1F
100
AcDbEntity
  8
HIDDEN
100
AcDbLine
 10
28.87867688699077
 20
111.3149676425268
 30
0.0
 11
28.87867688699077
 21
111.3149676425268
 31
0.0
1001
DBPROPERTIES
1002
{
1000
PbHidd
1002
}
  0
LINE
  5
10F
330
1F
100
AcDbEntity
  8
HIDDEN
100
AcDbLine
 10
42.06595596305261
 20
107.0301609309942
 30
0.0
 11
42.06595596305261
 21
107.0301609309942
 31
0.0
1001
DBPROPERTIES
1002
{
1000
PbHidd
1002
}
  0
LINE
  5
110
330
1F
100
AcDbEntity
  8
HIDDEN
100
AcDbLine
 10
-63.39726202413265
 20
-87.25884525738988
 30
0.0
 11
-63.39726202413265
 21
-87.25884525738988
 31
0.0
1001
DBPROPERTIES
1002
{
1000
PbHidd
1002
}
  0
LINE
  5
111
330
1F
100
AcDbEntity
  8
HIDDEN
100
AcDbLine
 10
-61.86347056519295
 20
-96.94282340446614
 30
0.0
 11
-63.39726202413266
 21
-87.25884525738988
 31
0.0
1001
DBPROPERTIES
1002
{
1000
PbHidd
1002
}
  0
LINE
  5
112
330
1F
100
AcDbEntity
  8
HIDDEN
100
AcDbLine
 10
-63.39726202413265
 20
-87.25884525738988
 30
0.0
 11
-63.39726202413265
 21
-87.25884525738988
 31
0.0
1001
DBPROPERTIES
1002
{
1000
PbHidd
1002
}
  0
LINE
  5
113
330
1F
100
AcDbEntity
  8
HIDDEN
100
AcDbLine
 10
-63.39726202413266
 20
-87.25884525738988
 30
0.0
 11
-73.08124017120892
 21
-88.79263671632958
 31
0.0
1001
DBPROPERTIES
1002
{
1000
PbHidd
1002
}
  0
LINE
  5
114
330
1F
100
AcDbEntity
  8
HIDDEN
100
AcDbLine
 10
-87.25884525738991
 20
-63.39726202413263
 30
0.0
 11
-87.25884525738991
 21
-63.39726202413263
 31
0.0
1001
DBPROPERTIES
1002
{
1000
PbHidd
1002
}
  0
LINE
  5
115
330
1F
100
AcDbEntity
  8
HIDDEN
100
AcDbLine
 10
-87.25884525738991
 20
-63.39726202413264
 30
0.0
 11
-96.94282340446614
 21
-61.86347056519293
 31
0.0
1001
DBPROPERTIES
1002
{
1000
PbHidd
1002
}
  0
LINE
  5
116
330
1F
100
AcDbEntity
  8
HIDDEN
100
AcDbLine
 10
-87.25884525738991
 20
-63.39726202413263
 30
0.0
 11
-87.25884525738991
 21
-63.39726202413263
 31
0.0
1001
DBPROPERTIES
1002
{
1000
PbHidd
1002
}
  0
LINE
  5
117
330
1F
100
AcDbEntity
  8
HIDDEN
100
AcDbLine
 10
-88.79263671632961
 20
-73.08124017120886
 30
0.0
 11
-87.25884525738991
 21
-63.39726202413264
 31
0.0
1001
DBPROPERTIES
1002
{
1000
PbHidd
1002
}
  0
LINE
  5
118
330
1F
100
AcDbEntity
  8
HIDDEN
100
AcDbLine
 10
28.87867688699076
 20
111.3149676425268
 30
0.0
 11
33.3299130692554
 21
102.5789247487296
 31
0.0
1001
DBPROPERTIES
1002
{
1000
PbHidd
1002
}
  0
LINE
  5
119
330
1F
100
AcDbEntity
  8
HIDDEN
100
AcDbLine
 10
33.3299130692554
 20
102.5789247487296
 30
0.0
 11
42.06595596305261
 21
107.0301609309942
 31
0.0
1001
DBPROPERTIES
1002
{
1000
PbHidd
1002
}
  0
LINE
  5
11A
330
1F
100
AcDbEntity
  8
HIDDEN
100
AcDbLine
 10
33.32991306925539
 20
102.5789247487296
 30
0.0
 11
33.32991306925539
 21
102.5789247487296
 31
0.0
1001
DBPROPERTIES
1002
{
1000
PbHidd
1002
}
  0
LINE
  5
11B
330
1F
100
AcDbEntity
  8
HIDDEN
100
AcDbLine
 10
61.86347056519297
 20
96.94282340446611
 30
0.0
 11
63.39726202413267
 21
87.25884525738988
 31
0.0
1001
DBPROPERTIES
1002
{
1000
PbHidd
1002
}
  0
LINE
  5
11C
330
1F
100
AcDbEntity
  8
HIDDEN
100
AcDbLine
 10
63.39726202413268
 20
87.25884525738988
 30
0.0
 11
73.08124017120892
 21
88.79263671632958
 31
0.0
1001
DBPROPERTIES
1002
{
1000
PbHidd
1002
}
  0
LINE
  5
11D
330
1F
100
AcDbEntity
  8
HIDDEN
100
AcDbLine
 10
63.39726202413268
 20
87.25884525738988
 30
0.0
 11
63.39726202413268
 21
87.25884525738988
 31
0.0
1001
DBPROPERTIES
1002
{
1000
PbHidd
1002
}
  0
LINE
  5
11E
330
1F
100
AcDbEntity
  8
HIDDEN
100
AcDbLine
 10
88.79263671632961
 20
73.08124017120886
 30
0.0
 11
87.25884525738991
 21
63.39726202413264
 31
0.0
1001
DBPROPERTIES
1002
{
1000
PbHidd
1002
}
  0
LINE
  5
11F
330
1F
100
AcDbEntity
  8
HIDDEN
100
AcDbLine
 10
87.25884525738991
 20
63.39726202413264
 30
0.0
 11
96.94282340446614
 21
61.86347056519293
 31
0.0
1001
DBPROPERTIES
1002
{
1000
PbHidd
1002
}
  0
LINE
  5
120
330
1F
100
AcDbEntity
  8
HIDDEN
100
AcDbLine
 10
87.25884525738991
 20
63.39726202413263
 30
0.0
 11
87.25884525738991
 21
63.39726202413263
 31
0.0
1001
DBPROPERTIES
1002
{
1000
PbHidd
1002
}
  0
LINE
  5
121
330
1F
100
AcDbEntity
  8
HIDDEN
100
AcDbLine
 10
107.0301609309942
 20
42.06595596305254
 30
0.0
 11
102.5789247487296
 21
33.32991306925535
 31
0.0
1001
DBPROPERTIES
1002
{
1000
PbHidd
1002
}
  0
LINE
  5
122
330
1F
100
AcDbEntity
  8
HIDDEN
100
AcDbLine
 10
102.5789247487296
 20
33.32991306925535
 30
0.0
 11
111.3149676425268
 21
28.87867688699072
 31
0.0
1001
DBPROPERTIES
1002
{
1000
PbHidd
1002
}
  0
LINE
  5
123
330
1F
100
AcDbEntity
  8
HIDDEN
100
AcDbLine
 10
102.5789247487296
 20
33.32991306925535
 30
0.0
 11
102.5789247487296
 21
33.32991306925535
 31
0.0
1001
DBPROPERTIES
1002
{
1000
PbHidd
1002
}
  0
LINE
  5
124
330
1F
100
AcDbEntity
  8
HIDDEN
100
AcDbLine
 10
107.857864376269
 20
-0.0000000000000258
 30
0.0
 11
114.7908272707524
 21
-6.932962894483377
 31
0.0
1001
DBPROPERTIES
1002
{
1000
PbHidd
1002
}
  0
LINE
  5
125
330
1F
100
AcDbEntity
  8
HIDDEN
100
AcDbLine
 10
114.7908272707524
 20
6.932962894483342
 30
0.0
 11
107.857864376269
 21
-0.0000000000000151
 31
0.0
1001
DBPROPERTIES
1002
{
1000
PbHidd
1002
}
  0
LINE
  5
126
330
1F
100
AcDbEntity
  8
HIDDEN
100
AcDbLine
 10
107.857864376269
 20
-0.0000000000000198
 30
0.0
 11
107.857864376269
 21
-0.0000000000000198
 31
0.0
1001
DBPROPERTIES
1002
{
1000
PbHidd
1002
}
  0
LINE
  5
127
330
1F
100
AcDbEntity
  8
HIDDEN
100
AcDbLine
 10
111.3149676425268
 20
-28.87867688699076
 30
0.0
 11
102.5789247487296
 21
-33.3299130692554
 31
0.0
1001
DBPROPERTIES
1002
{
1000
PbHidd
1002
}
  0
LINE
  5
128
330
1F
100
AcDbEntity
  8
HIDDEN
100
AcDbLine
 10
102.5789247487296
 20
-33.3299130692554
 30
0.0
 11
107.0301609309942
 21
-42.06595596305261
 31
0.0
1001
DBPROPERTIES
1002
{
1000
PbHidd
1002
}
  0
LINE
  5
129
330
1F
100
AcDbEntity
  8
HIDDEN
100
AcDbLine
 10
102.5789247487296
 20
-33.32991306925539
 30
0.0
 11
102.5789247487296
 21
-33.32991306925539
 31
0.0
1001
DBPROPERTIES
1002
{
1000
PbHidd
1002
}
  0
LINE
  5
12A
330
1F
100
AcDbEntity
  8
HIDDEN
100
AcDbLine
 10
-107.0301609309942
 20
-42.06595596305256
 30
0.0
 11
-102.5789247487296
 21
-33.32991306925537
 31
0.0
1001
DBPROPERTIES
1002
{
1000
PbHidd
1002
}
  0
LINE
  5
12B
330
1F
100
AcDbEntity
  8
HIDDEN
100
AcDbLine
 10
-102.5789247487296
 20
-33.32991306925536
 30
0.0
 11
-111.3149676425268
 21
-28.87867688699074
 31
0.0
1001
DBPROPERTIES
1002
{
1000
PbHidd
1002
}
  0
LINE
  5
12C
330
1F
100
AcDbEntity
  8
HIDDEN
100
AcDbLine
 10
-102.5789247487296
 20
-33.32991306925537
 30
0.0
 11
-102.5789247487296
 21
-33.32991306925537
 31
0.0
1001
DBPROPERTIES
1002
{
1000
PbHidd
1002
}
  0
LINE
  5
12D
330
1F
100
AcDbEntity
  8
HIDDEN
100
AcDbLine
 10
-107.857864376269
 20
0.0000000000000124
 30
0.0
 11
-114.7908272707524
 21
6.932962894483363
 31
0.0
1001
DBPROPERTIES
1002
{
1000
PbHidd
1002
}
  0
LINE
  5
12E
330
1F
100
AcDbEntity
  8
HIDDEN
100
AcDbLine
 10
-114.7908272707524
 20
-6.932962894483359
 30
0.0
 11
-107.857864376269
 21
0.0000000000000018
 31
0.0
1001
DBPROPERTIES
1002
{
1000
PbHidd
1002
}
  0
LINE
  5
12F
330
1F
100
AcDbEntity
  8
HIDDEN
100
AcDbLine
 10
-107.857864376269
 20
0.0000000000000066
 30
0.0
 11
-107.857864376269
 21
0.0000000000000066
 31
0.0
1001
DBPROPERTIES
1002
{
1000
PbHidd
1002
}
  0
LINE
  5
130
330
1F
100
AcDbEntity
  8
HIDDEN
100
AcDbLine
 10
-111.3149676425268
 20
28.87867688699074
 30
0.0
 11
-102.5789247487296
 21
33.32991306925538
 31
0.0
1001
DBPROPERTIES
1002
{
1000
PbHidd
1002
}
  0
LINE
  5
131
330
1F
100
AcDbEntity
  8
HIDDEN
100
AcDbLine
 10
-102.5789247487296
 20
33.32991306925538
 30
0.0
 11
-107.0301609309942
 21
42.06595596305262
 31
0.0
1001
DBPROPERTIES
1002
{
1000
PbHidd
1002
}
  0
LINE
  5
132
330
1F
100
AcDbEntity
  8
HIDDEN
100
AcDbLine
 10
-102.5789247487296
 20
33.32991306925538
 30
0.0
 11
-102.5789247487296
 21
33.32991306925538
 31
0.0
1001
DBPROPERTIES
1002
{
1000
PbHidd
1002
}
  0
LINE
  5
133
330
1F
100
AcDbEntity
  8
HIDDEN
100
AcDbLine
 10
-96.94282340446611
 20
61.86347056519296
 30
0.0
 11
-87.25884525738991
 21
63.39726202413266
 31
0.0
1001
DBPROPERTIES
1002
{
1000
PbHidd
1002
}
  0
LINE
  5
134
330
1F
100
AcDbEntity
  8
HIDDEN
100
AcDbLine
 10
-87.25884525738991
 20
63.39726202413267
 30
0.0
 11
-88.79263671632961
 21
73.08124017120889
 31
0.0
1001
DBPROPERTIES
1002
{
1000
PbHidd
1002
}
  0
LINE
  5
135
330
1F
100
AcDbEntity
  8
HIDDEN
100
AcDbLine
 10
-87.25884525738991
 20
63.39726202413265
 30
0.0
 11
-87.25884525738991
 21
63.39726202413265
 31
0.0
1001
DBPROPERTIES
1002
{
1000
PbHidd
1002
}
  0
LINE
  5
136
330
1F
100
AcDbEntity
  8
HIDDEN
100
AcDbLine
 10
-73.08124017120889
 20
88.79263671632961
 30
0.0
 11
-63.39726202413267
 21
87.25884525738991
 31
0.0
1001
DBPROPERTIES
1002
{
1000
PbHidd
1002
}
  0
LINE
  5
137
330
1F
100
AcDbEntity
  8
HIDDEN
100
AcDbLine
 10
-63.39726202413266
 20
87.25884525738991
 30
0.0
 11
-61.86347056519296
 21
96.94282340446611
 31
0.0
1001
DBPROPERTIES
1002
{
1000
PbHidd
1002
}
  0
LINE
  5
138
330
1F
100
AcDbEntity
  8
HIDDEN
100
AcDbLine
 10
-63.39726202413265
 20
87.25884525738991
 30
0.0
 11
-63.39726202413265
 21
87.25884525738991
 31
0.0
1001
DBPROPERTIES
1002
{
1000
PbHidd
1002
}
  0
LINE
  5
139
330
1F
100
AcDbEntity
  8
HIDDEN
100
AcDbLine
 10
-42.06595596305258
 20
107.0301609309942
 30
0.0
 11
-33.32991306925537
 21
102.5789247487296
 31
0.0
1001
DBPROPERTIES
1002
{
1000
PbHidd
1002
}
  0
LINE
  5
13A
330
1F
100
AcDbEntity
  8
HIDDEN
100
AcDbLine
 10
-33.32991306925537
 20
102.5789247487296
 30
0.0
 11
-28.87867688699072
 21
111.3149676425268
 31
0.0
1001
DBPROPERTIES
1002
{
1000
PbHidd
1002
}
  0
LINE
  5
13B
330
1F
100
AcDbEntity
  8
HIDDEN
100
AcDbLine
 10
-33.32991306925537
 20
102.5789247487296
 30
0.0
 11
-33.32991306925537
 21
102.5789247487296
 31
0.0
1001
DBPROPERTIES
1002
{
1000
PbHidd
1002
}
  0
LINE
  5
13C
330
1F
100
AcDbEntity
  8
HIDDEN
100
AcDbLine
 10
-6.932962894483371
 20
114.7908272707524
 30
0.0
 11
-0.0000000000000053
 21
107.857864376269
 31
0.0
1001
DBPROPERTIES
1002
{
1000
PbHidd
1002
}
  0
LINE
  5
13D
330
1F
100
AcDbEntity
  8
HIDDEN
100
AcDbLine
 10
0.0000000000000053
 20
107.857864376269
 30
0.0
 11
6.932962894483371
 21
114.7908272707524
 31
0.0
1001
DBPROPERTIES
1002
{
1000
PbHidd
1002
}
  0
LINE
  5
13E
330
1F
100
AcDbEntity
  8
HIDDEN
100
AcDbLine
 10
0.0
 20
107.857864376269
 30
0.0
 11
0.0
 21
107.857864376269
 31
0.0
1001
DBPROPERTIES
1002
{
1000
PbHidd
1002
}
  0
ARC
  5
13F
330
1F
100
AcDbEntity
  8
HIDDEN
100
AcDbCircle
 10
0.0
 20
0.0
 30
0.0
 40
124.2
100
AcDbArc
 50
0.0
 51
180.0000198478428
1001
DBPROPERTIES
1002
{
1000
PbHidd
1002
}
  0
ARC
  5
140
330
1F
100
AcDbEntity
  8
THICK
100
AcDbCircle
 10
169.134761359101
 20
97.64999999999988
 30
0.0
 40
3.0
100
AcDbArc
 50
119.999994133302
 51
299.9999742854592
1001
DBPROPERTIES
1002
{
1000
PbThick
1002
}
  0
ARC
  5
141
330
1F
100
AcDbEntity
  8
THICK
100
AcDbCircle
 10
169.1347613591008
 20
-97.65000000000009
 30
0.0
 40
3.0
100
AcDbArc
 50
60.00002571454078
 51
240.0000058666979
1001
DBPROPERTIES
1002
{
1000
PbThick
1002
}
  0
ARC
  5
142
330
1F
100
AcDbEntity
  8
THICK
100
AcDbCircle
 10
-0.0000000000000239
 20
-195.3
 30
0.0
 40
3.0
100
AcDbArc
 50
0.0
 51
180.0000198478428
1001
DBPROPERTIES
1002
{
1000
PbThick
1002
}
  0
ARC
  5
143
330
1F
100
AcDbEntity
  8
THICK
100
AcDbCircle
 10
-169.1347613591009
 20
-97.64999999999996
 30
0.0
 40
3.0
100
AcDbArc
 50
299.9999742854592
 51
119.999994133302
1001
DBPROPERTIES
1002
{
1000
PbThick
1002
}
  0
ARC
  5
144
330
1F
100
AcDbEntity
  8
THICK
100
AcDbCircle
 10
-169.1347613591009
 20
97.65
 30
0.0
 40
3.0
100
AcDbArc
 50
240.0000058666979
 51
60.00002571454078
1001
DBPROPERTIES
1002
{
1000
PbThick
1002
}
  0
ARC
  5
145
330
1F
100
AcDbEntity
  8
THICK
100
AcDbCircle
 10
0.0
 20
195.3
 30
0.0
 40
3.0
100
AcDbArc
 50
180.0000198478428
 51
0.0
1001
DBPROPERTIES
1002
{
1000
PbThick
1002
}
  0
LINE
  5
146
330
1F
100
AcDbEntity
  8
HIDDEN
100
AcDbLine
 10
4.999999999999988
 20
-99.5
 30
0.0
 11
4.999999999999988
 21
-99.5
 31
0.0
1001
DBPROPERTIES
1002
{
1000
PbHidd
1002
}
  0
LINE
  5
147
330
1F
100
AcDbEntity
  8
HIDDEN
100
AcDbLine
 10
-5.000000000000012
 20
-99.5
 30
0.0
 11
-5.000000000000012
 21
-99.5
 31
0.0
1001
DBPROPERTIES
1002
{
1000
PbHidd
1002
}
  0
LINE
  5
148
330
1F
100
AcDbEntity
  8
THICK
100
AcDbLine
 10
4.999999999999988
 20
-99.5
 30
0.0
 11
-5.000000000000012
 21
-99.5
 31
0.0
1001
DBPROPERTIES
1002
{
1000
PbThick
1002
}
  0
LINE
  5
149
330
1F
100
AcDbEntity
  8
HIDDEN
100
AcDbLine
 10
-5.000000000000011
 20
-94.36763216272834
 30
0.0
 11
-5.000000000000011
 21
-94.36763216272834
 31
0.0
1001
DBPROPERTIES
1002
{
1000
PbHidd
1002
}
  0
LINE
  5
14A
330
1F
100
AcDbEntity
  8
THICK
100
AcDbLine
 10
-5.000000000000012
 20
-99.5
 30
0.0
 11
-5.000000000000011
 21
-94.36763216272834
 31
0.0
1001
DBPROPERTIES
1002
{
1000
PbThick
1002
}
  0
LINE
  5
14B
330
1F
100
AcDbEntity
  8
HIDDEN
100
AcDbLine
 10
-24.40591947573117
 20
-91.29403646758163
 30
0.0
 11
-24.40591947573117
 21
-91.29403646758163
 31
0.0
1001
DBPROPERTIES
1002
{
1000
PbHidd
1002
}
  0
ARC
  5
14C
330
1F
100
AcDbEntity
  8
THICK
100
AcDbCircle
 10
0.0
 20
0.0
 30
0.0
 40
94.5
100
AcDbArc
 50
255.0329287206634
 51
266.9670666354433
1001
DBPROPERTIES
1002
{
1000
PbThick
1002
}
  0
LINE
  5
14D
330
1F
100
AcDbEntity
  8
HIDDEN
100
AcDbLine
 10
-25.9919083588315
 20
-96.1752083432425
 30
0.0
 11
-25.9919083588315
 21
-96.1752083432425
 31
0.0
1001
DBPROPERTIES
1002
{
1000
PbHidd
1002
}
  0
LINE
  5
14E
330
1F
100
AcDbEntity
  8
THICK
100
AcDbLine
 10
-24.40591947573116
 20
-91.29403646758162
 30
0.0
 11
-25.99190835883149
 21
-96.17520834324247
 31
0.0
1001
DBPROPERTIES
1002
{
1000
PbThick
1002
}
  0
LINE
  5
14F
330
1F
100
AcDbEntity
  8
HIDDEN
100
AcDbLine
 10
-35.50247352178304
 20
-93.08503839949302
 30
0.0
 11
-35.50247352178304
 21
-93.08503839949302
 31
0.0
1001
DBPROPERTIES
1002
{
1000
PbHidd
1002
}
  0
LINE
  5
150
330
1F
100
AcDbEntity
  8
THICK
100
AcDbLine
 10
-25.9919083588315
 20
-96.17520834324249
 30
0.0
 11
-35.50247352178303
 21
-93.085038399493
 31
0.0
1001
DBPROPERTIES
1002
{
1000
PbThick
1002
}
  0
LINE
  5
151
330
1F
100
AcDbEntity
  8
HIDDEN
100
AcDbLine
 10
-33.91648463868271
 20
-88.20386652383216
 30
0.0
 11
-33.91648463868271
 21
-88.20386652383216
 31
0.0
1001
DBPROPERTIES
1002
{
1000
PbHidd
1002
}
  0
LINE
  5
152
330
1F
100
AcDbEntity
  8
THICK
100
AcDbLine
 10
-35.50247352178303
 20
-93.08503839949299
 30
0.0
 11
-33.9164846386827
 21
-88.20386652383215
 31
0.0
1001
DBPROPERTIES
1002
{
1000
PbThick
1002
}
  0
LINE
  5
153
330
1F
100
AcDbEntity
  8
HIDDEN
100
AcDbLine
 10
-51.42281750713785
 20
-79.28394440003345
 30
0.0
 11
-51.42281750713785
 21
-79.28394440003345
 31
0.0
1001
DBPROPERTIES
1002
{
1000
PbHidd
1002
}
  0
ARC
  5
154
330
1F
100
AcDbEntity
  8
THICK
100
AcDbCircle
 10
0.0
 20
0.0
 30
0.0
 40
94.5
100
AcDbArc
 50
237.032943924613
 51
248.9670818393929
1001
DBPROPERTIES
1002
{
1000
PbThick
1002
}
  0
LINE
  5
155
330
1F
100
AcDbEntity
  8
HIDDEN
100
AcDbLine
 10
-54.43954763122634
 20
-83.43611720176962
 30
0.0
 11
-54.43954763122634
 21
-83.43611720176962
 31
0.0
1001
DBPROPERTIES
1002
{
1000
PbHidd
1002
}
  0
LINE
  5
156
330
1F
100
AcDbEntity
  8
THICK
100
AcDbLine
 10
-51.42281750713783
 20
-79.28394440003343
 30
0.0
 11
-54.43954763122633
 21
-83.4361172017696
 31
0.0
1001
DBPROPERTIES
1002
{
1000
PbThick
1002
}
  0
LINE
  5
157
330
1F
100
AcDbEntity
  8
HIDDEN
100
AcDbLine
 10
-62.52971757497581
 20
-77.55826467884488
 30
0.0
 11
-62.52971757497581
 21
-77.55826467884488
 31
0.0
1001
DBPROPERTIES
1002
{
1000
PbHidd
1002
}
  0
LINE
  5
158
330
1F
100
AcDbEntity
  8
THICK
100
AcDbLine
 10
-54.43954763122633
 20
-83.4361172017696
 30
0.0
 11
-62.52971757497581
 21
-77.55826467884486
 31
0.0
1001
DBPROPERTIES
1002
{
1000
PbThick
1002
}
  0
LINE
  5
159
330
1F
100
AcDbEntity
  8
HIDDEN
100
AcDbLine
 10
-59.51298745088732
 20
-73.40609187710872
 30
0.0
 11
-59.51298745088732
 21
-73.40609187710872
 31
0.0
1001
DBPROPERTIES
1002
{
1000
PbHidd
1002
}
  0
LINE
  5
15A
330
1F
100
AcDbEntity
  8
THICK
100
AcDbLine
 10
-62.5297175749758
 20
-77.55826467884486
 30
0.0
 11
-59.51298745088731
 21
-73.40609187710871
 31
0.0
1001
DBPROPERTIES
1002
{
1000
PbThick
1002
}
  0
LINE
  5
15B
330
1F
100
AcDbEntity
  8
HIDDEN
100
AcDbLine
 10
-73.40609187710875
 20
-59.51298745088731
 30
0.0
 11
-73.40609187710875
 21
-59.51298745088731
 31
0.0
1001
DBPROPERTIES
1002
{
1000
PbHidd
1002
}
  0
ARC
  5
15C
330
1F
100
AcDbEntity
  8
THICK
100
AcDbCircle
 10
0.0
 20
0.0
 30
0.0
 40
94.5
100
AcDbArc
 50
219.0329591285626
 51
230.9670397475629
1001
DBPROPERTIES
1002
{
1000
PbThick
1002
}
  0
LINE
  5
15D
330
1F
100
AcDbEntity
  8
HIDDEN
100
AcDbLine
 10
-77.5582646788449
 20
-62.52971757497579
 30
0.0
 11
-77.5582646788449
 21
-62.52971757497579
 31
0.0
1001
DBPROPERTIES
1002
{
1000
PbHidd
1002
}
  0
LINE
  5
15E
330
1F
100
AcDbEntity
  8
THICK
100
AcDbLine
 10
-73.40609187710874
 20
-59.5129874508873
 30
0.0
 11
-77.55826467884489
 21
-62.52971757497578
 31
0.0
1001
DBPROPERTIES
1002
{
1000
PbThick
1002
}
  0
LINE
  5
15F
330
1F
100
AcDbEntity
  8
HIDDEN
100
AcDbLine
 10
-83.43611720176965
 20
-54.43954763122632
 30
0.0
 11
-83.43611720176965
 21
-54.43954763122632
 31
0.0
1001
DBPROPERTIES
1002
{
1000
PbHidd
1002
}
  0
LINE
  5
160
330
1F
100
AcDbEntity
  8
THICK
100
AcDbLine
 10
-77.55826467884489
 20
-62.52971757497578
 30
0.0
 11
-83.43611720176963
 21
-54.4395476312263
 31
0.0
1001
DBPROPERTIES
1002
{
1000
PbThick
1002
}
  0
LINE
  5
161
330
1F
100
AcDbEntity
  8
HIDDEN
100
AcDbLine
 10
-79.28394440003348
 20
-51.42281750713782
 30
0.0
 11
-79.28394440003348
 21
-51.42281750713782
 31
0.0
1001
DBPROPERTIES
1002
{
1000
PbHidd
1002
}
  0
LINE
  5
162
330
1F
100
AcDbEntity
  8
THICK
100
AcDbLine
 10
-83.43611720176963
 20
-54.4395476312263
 30
0.0
 11
-79.28394440003346
 21
-51.42281750713781
 31
0.0
1001
DBPROPERTIES
1002
{
1000
PbThick
1002
}
  0
LINE
  5
163
330
1F
100
AcDbEntity
  8
HIDDEN
100
AcDbLine
 10
-88.20386652383218
 20
-33.91648463868269
 30
0.0
 11
-88.20386652383218
 21
-33.91648463868269
 31
0.0
1001
DBPROPERTIES
1002
{
1000
PbHidd
1002
}
  0
ARC
  5
164
330
1F
100
AcDbEntity
  8
THICK
100
AcDbCircle
 10
0.0
 20
0.0
 30
0.0
 40
94.5
100
AcDbArc
 50
201.0329170367326
 51
212.9670549515125
1001
DBPROPERTIES
1002
{
1000
PbThick
1002
}
  0
LINE
  5
165
330
1F
100
AcDbEntity
  8
HIDDEN
100
AcDbLine
 10
-93.08503839949304
 20
-35.50247352178303
 30
0.0
 11
-93.08503839949304
 21
-35.50247352178303
 31
0.0
1001
DBPROPERTIES
1002
{
1000
PbHidd
1002
}
  0
LINE
  5
166
330
1F
100
AcDbEntity
  8
THICK
100
AcDbLine
 10
-88.20386652383218
 20
-33.9164846386827
 30
0.0
 11
-93.08503839949304
 21
-35.50247352178303
 31
0.0
1001
DBPROPERTIES
1002
{
1000
PbThick
1002
}
  0
LINE
  5
167
330
1F
100
AcDbEntity
  8
HIDDEN
100
AcDbLine
 10
-96.17520834324253
 20
-25.99190835883149
 30
0.0
 11
-96.17520834324253
 21
-25.99190835883149
 31
0.0
1001
DBPROPERTIES
1002
{
1000
PbHidd
1002
}
  0
LINE
  5
168
330
1F
100
AcDbEntity
  8
THICK
100
AcDbLine
 10
-93.08503839949304
 20
-35.50247352178303
 30
0.0
 11
-96.17520834324253
 21
-25.99190835883149
 31
0.0
1001
DBPROPERTIES
1002
{
1000
PbThick
1002
}
  0
LINE
  5
169
330
1F
100
AcDbEntity
  8
HIDDEN
100
AcDbLine
 10
-91.29403646758163
 20
-24.40591947573115
 30
0.0
 11
-91.29403646758163
 21
-24.40591947573115
 31
0.0
1001
DBPROPERTIES
1002
{
1000
PbHidd
1002
}
  0
LINE
  5
16A
330
1F
100
AcDbEntity
  8
THICK
100
AcDbLine
 10
-96.17520834324253
 20
-25.99190835883149
 30
0.0
 11
-91.29403646758163
 21
-24.40591947573115
 31
0.0
1001
DBPROPERTIES
1002
{
1000
PbThick
1002
}
  0
LINE
  5
16B
330
1F
100
AcDbEntity
  8
HIDDEN
100
AcDbLine
 10
-94.36763216272834
 20
-4.999999999999993
 30
0.0
 11
-94.36763216272834
 21
-4.999999999999993
 31
0.0
1001
DBPROPERTIES
1002
{
1000
PbHidd
1002
}
  0
ARC
  5
16C
330
1F
100
AcDbEntity
  8
THICK
100
AcDbCircle
 10
0.0
 20
0.0
 30
0.0
 40
94.5
100
AcDbArc
 50
183.0329322406822
 51
194.9670701554621
1001
DBPROPERTIES
1002
{
1000
PbThick
1002
}
  0
LINE
  5
16D
330
1F
100
AcDbEntity
  8
HIDDEN
100
AcDbLine
 10
-99.5
 20
-4.999999999999994
 30
0.0
 11
-99.5
 21
-4.999999999999994
 31
0.0
1001
DBPROPERTIES
1002
{
1000
PbHidd
1002
}
  0
LINE
  5
16E
330
1F
100
AcDbEntity
  8
THICK
100
AcDbLine
 10
-94.36763216272834
 20
-4.999999999999994
 30
0.0
 11
-99.5
 21
-4.999999999999993
 31
0.0
1001
DBPROPERTIES
1002
{
1000
PbThick
1002
}
  0
LINE
  5
16F
330
1F
100
AcDbEntity
  8
HIDDEN
100
AcDbLine
 10
-99.5
 20
5.000000000000006
 30
0.0
 11
-99.5
 21
5.000000000000006
 31
0.0
1001
DBPROPERTIES
1002
{
1000
PbHidd
1002
}
  0
LINE
  5
170
330
1F
100
AcDbEntity
  8
THICK
100
AcDbLine
 10
-99.5
 20
-4.999999999999994
 30
0.0
 11
-99.5
 21
5.000000000000006
 31
0.0
1001
DBPROPERTIES
1002
{
1000
PbThick
1002
}
  0
LINE
  5
171
330
1F
100
AcDbEntity
  8
HIDDEN
100
AcDbLine
 10
-94.36763216272834
 20
5.000000000000007
 30
0.0
 11
-94.36763216272834
 21
5.000000000000007
 31
0.0
1001
DBPROPERTIES
1002
{
1000
PbHidd
1002
}
  0
LINE
  5
172
330
1F
100
AcDbEntity
  8
THICK
100
AcDbLine
 10
-99.5
 20
5.000000000000007
 30
0.0
 11
-94.36763216272834
 21
5.000000000000006
 31
0.0
1001
DBPROPERTIES
1002
{
1000
PbThick
1002
}
  0
LINE
  5
173
330
1F
100
AcDbEntity
  8
HIDDEN
100
AcDbLine
 10
-91.29403646758163
 20
24.40591947573117
 30
0.0
 11
-91.29403646758163
 21
24.40591947573117
 31
0.0
1001
DBPROPERTIES
1002
{
1000
PbHidd
1002
}
  0
ARC
  5
174
330
1F
100
AcDbEntity
  8
THICK
100
AcDbCircle
 10
0.0
 20
0.0
 30
0.0
 40
94.5
100
AcDbArc
 50
165.0329298445379
 51
176.9670677593178
1001
DBPROPERTIES
1002
{
1000
PbThick
1002
}
  0
LINE
  5
175
330
1F
100
AcDbEntity
  8
HIDDEN
100
AcDbLine
 10
-96.1752083432425
 20
25.9919083588315
 30
0.0
 11
-96.1752083432425
 21
25.9919083588315
 31
0.0
1001
DBPROPERTIES
1002
{
1000
PbHidd
1002
}
  0
LINE
  5
176
330
1F
100
AcDbEntity
  8
THICK
100
AcDbLine
 10
-91.29403646758162
 20
24.40591947573116
 30
0.0
 11
-96.17520834324247
 21
25.99190835883149
 31
0.0
1001
DBPROPERTIES
1002
{
1000
PbThick
1002
}
  0
LINE
  5
177
330
1F
100
AcDbEntity
  8
HIDDEN
100
AcDbLine
 10
-93.08503839949302
 20
35.50247352178304
 30
0.0
 11
-93.08503839949302
 21
35.50247352178304
 31
0.0
1001
DBPROPERTIES
1002
{
1000
PbHidd
1002
}
  0
LINE
  5
178
330
1F
100
AcDbEntity
  8
THICK
100
AcDbLine
 10
-96.17520834324249
 20
25.9919083588315
 30
0.0
 11
-93.085038399493
 21
35.50247352178303
 31
0.0
1001
DBPROPERTIES
1002
{
1000
PbThick
1002
}
  0
LINE
  5
179
330
1F
100
AcDbEntity
  8
HIDDEN
100
AcDbLine
 10
-88.20386652383216
 20
33.91648463868271
 30
0.0
 11
-88.20386652383216
 21
33.91648463868271
 31
0.0
1001
DBPROPERTIES
1002
{
1000
PbHidd
1002
}
  0
LINE
  5
17A
330
1F
100
AcDbEntity
  8
THICK
100
AcDbLine
 10
-93.08503839949299
 20
35.50247352178303
 30
0.0
 11
-88.20386652383215
 21
33.9164846386827
 31
0.0
1001
DBPROPERTIES
1002
{
1000
PbThick
1002
}
  0
LINE
  5
17B
330
1F
100
AcDbEntity
  8
HIDDEN
100
AcDbLine
 10
-79.28394440003348
 20
51.42281750713784
 30
0.0
 11
-79.28394440003348
 21
51.42281750713784
 31
0.0
1001
DBPROPERTIES
1002
{
1000
PbHidd
1002
}
  0
ARC
  5
17C
330
1F
100
AcDbEntity
  8
THICK
100
AcDbCircle
 10
0.0
 20
0.0
 30
0.0
 40
94.5
100
AcDbArc
 50
147.0329450484874
 51
158.9670829632674
1001
DBPROPERTIES
1002
{
1000
PbThick
1002
}
  0
LINE
  5
17D
330
1F
100
AcDbEntity
  8
HIDDEN
100
AcDbLine
 10
-83.43611720176965
 20
54.43954763122634
 30
0.0
 11
-83.43611720176965
 21
54.43954763122634
 31
0.0
1001
DBPROPERTIES
1002
{
1000
PbHidd
1002
}
  0
LINE
  5
17E
330
1F
100
AcDbEntity
  8
THICK
100
AcDbLine
 10
-79.28394440003348
 20
51.42281750713785
 30
0.0
 11
-83.43611720176963
 21
54.43954763122634
 31
0.0
1001
DBPROPERTIES
1002
{
1000
PbThick
1002
}
  0
LINE
  5
17F
330
1F
100
AcDbEntity
  8
HIDDEN
100
AcDbLine
 10
-77.5582646788449
 20
62.52971757497581
 30
0.0
 11
-77.5582646788449
 21
62.52971757497581
 31
0.0
1001
DBPROPERTIES
1002
{
1000
PbHidd
1002
}
  0
LINE
  5
180
330
1F
100
AcDbEntity
  8
THICK
100
AcDbLine
 10
-83.43611720176965
 20
54.43954763122634
 30
0.0
 11
-77.5582646788449
 21
62.52971757497581
 31
0.0
1001
DBPROPERTIES
1002
{
1000
PbThick
1002
}
  0
LINE
  5
181
330
1F
100
AcDbEntity
  8
HIDDEN
100
AcDbLine
 10
-73.40609187710874
 20
59.51298745088732
 30
0.0
 11
-73.40609187710874
 21
59.51298745088732
 31
0.0
1001
DBPROPERTIES
1002
{
1000
PbHidd
1002
}
  0
LINE
  5
182
330
1F
100
AcDbEntity
  8
THICK
100
AcDbLine
 10
-77.55826467884489
 20
62.52971757497581
 30
0.0
 11
-73.40609187710874
 21
59.51298745088732
 31
0.0
1001
DBPROPERTIES
1002
{
1000
PbThick
1002
}
  0
LINE
  5
183
330
1F
100
AcDbEntity
  8
HIDDEN
100
AcDbLine
 10
-59.51298745088732
 20
73.40609187710874
 30
0.0
 11
-59.51298745088732
 21
73.40609187710874
 31
0.0
1001
DBPROPERTIES
1002
{
1000
PbHidd
1002
}
  0
ARC
  5
184
330
1F
100
AcDbEntity
  8
THICK
100
AcDbCircle
 10
0.0
 20
0.0
 30
0.0
 40
94.5
100
AcDbArc
 50
129.0329602524371
 51
140.9670408714374
1001
DBPROPERTIES
1002
{
1000
PbThick
1002
}
  0
LINE
  5
185
330
1F
100
AcDbEntity
  8
HIDDEN
100
AcDbLine
 10
-62.52971757497581
 20
77.5582646788449
 30
0.0
 11
-62.52971757497581
 21
77.5582646788449
 31
0.0
1001
DBPROPERTIES
1002
{
1000
PbHidd
1002
}
  0
LINE
  5
186
330
1F
100
AcDbEntity
  8
THICK
100
AcDbLine
 10
-59.51298745088732
 20
73.40609187710874
 30
0.0
 11
-62.52971757497581
 21
77.55826467884489
 31
0.0
1001
DBPROPERTIES
1002
{
1000
PbThick
1002
}
  0
LINE
  5
187
330
1F
100
AcDbEntity
  8
HIDDEN
100
AcDbLine
 10
-54.43954763122634
 20
83.43611720176965
 30
0.0
 11
-54.43954763122634
 21
83.43611720176965
 31
0.0
1001
DBPROPERTIES
1002
{
1000
PbHidd
1002
}
  0
LINE
  5
188
330
1F
100
AcDbEntity
  8
THICK
100
AcDbLine
 10
-62.52971757497581
 20
77.5582646788449
 30
0.0
 11
-54.43954763122634
 21
83.43611720176965
 31
0.0
1001
DBPROPERTIES
1002
{
1000
PbThick
1002
}
  0
LINE
  5
189
330
1F
100
AcDbEntity
  8
HIDDEN
100
AcDbLine
 10
-51.42281750713784
 20
79.28394440003348
 30
0.0
 11
-51.42281750713784
 21
79.28394440003348
 31
0.0
1001
DBPROPERTIES
1002
{
1000
PbHidd
1002
}
  0
LINE
  5
18A
330
1F
100
AcDbEntity
  8
THICK
100
AcDbLine
 10
-54.43954763122634
 20
83.43611720176963
 30
0.0
 11
-51.42281750713785
 21
79.28394440003348
 31
0.0
1001
DBPROPERTIES
1002
{
1000
PbThick
1002
}
  0
LINE
  5
18B
330
1F
100
AcDbEntity
  8
HIDDEN
100
AcDbLine
 10
-33.9164846386827
 20
88.20386652383218
 30
0.0
 11
-33.9164846386827
 21
88.20386652383218
 31
0.0
1001
DBPROPERTIES
1002
{
1000
PbHidd
1002
}
  0
ARC
  5
18C
330
1F
100
AcDbEntity
  8
THICK
100
AcDbCircle
 10
0.0
 20
0.0
 30
0.0
 40
94.5
100
AcDbArc
 50
111.0329181606071
 51
122.967056075387
1001
DBPROPERTIES
1002
{
1000
PbThick
1002
}
  0
LINE
  5
18D
330
1F
100
AcDbEntity
  8
HIDDEN
100
AcDbLine
 10
-35.50247352178302
 20
93.08503839949302
 30
0.0
 11
-35.50247352178302
 21
93.08503839949302
 31
0.0
1001
DBPROPERTIES
1002
{
1000
PbHidd
1002
}
  0
LINE
  5
18E
330
1F
100
AcDbEntity
  8
THICK
100
AcDbLine
 10
-33.91648463868269
 20
88.20386652383215
 30
0.0
 11
-35.50247352178302
 21
93.08503839949299
 31
0.0
1001
DBPROPERTIES
1002
{
1000
PbThick
1002
}
  0
LINE
  5
18F
330
1F
100
AcDbEntity
  8
HIDDEN
100
AcDbLine
 10
-25.99190835883149
 20
96.1752083432425
 30
0.0
 11
-25.99190835883149
 21
96.1752083432425
 31
0.0
1001
DBPROPERTIES
1002
{
1000
PbHidd
1002
}
  0
LINE
  5
190
330
1F
100
AcDbEntity
  8
THICK
100
AcDbLine
 10
-35.50247352178302
 20
93.08503839949302
 30
0.0
 11
-25.99190835883149
 21
96.17520834324249
 31
0.0
1001
DBPROPERTIES
1002
{
1000
PbThick
1002
}
  0
LINE
  5
191
330
1F
100
AcDbEntity
  8
HIDDEN
100
AcDbLine
 10
-24.40591947573116
 20
91.29403646758163
 30
0.0
 11
-24.40591947573116
 21
91.29403646758163
 31
0.0
1001
DBPROPERTIES
1002
{
1000
PbHidd
1002
}
  0
LINE
  5
192
330
1F
100
AcDbEntity
  8
THICK
100
AcDbLine
 10
-25.99190835883148
 20
96.17520834324247
 30
0.0
 11
-24.40591947573115
 21
91.2940364675816
 31
0.0
1001
DBPROPERTIES
1002
{
1000
PbThick
1002
}
  0
LINE
  5
193
330
1F
100
AcDbEntity
  8
HIDDEN
100
AcDbLine
 10
-5.0
 20
94.36763216272834
 30
0.0
 11
-5.0
 21
94.36763216272834
 31
0.0
1001
DBPROPERTIES
1002
{
1000
PbHidd
1002
}
  0
ARC
  5
194
330
1F
100
AcDbEntity
  8
THICK
100
AcDbCircle
 10
0.0
 20
0.0
 30
0.0
 40
94.5
100
AcDbArc
 50
93.03293336455668
 51
104.9670712793366
1001
DBPROPERTIES
1002
{
1000
PbThick
1002
}
  0
LINE
  5
195
330
1F
100
AcDbEntity
  8
HIDDEN
100
AcDbLine
 10
-5.0
 20
99.5
 30
0.0
 11
-5.0
 21
99.5
 31
0.0
1001
DBPROPERTIES
1002
{
1000
PbHidd
1002
}
  0
LINE
  5
196
330
1F
100
AcDbEntity
  8
THICK
100
AcDbLine
 10
-5.0
 20
94.36763216272834
 30
0.0
 11
-5.0
 21
99.5
 31
0.0
1001
DBPROPERTIES
1002
{
1000
PbThick
1002
}
  0
LINE
  5
197
330
1F
100
AcDbEntity
  8
THICK
100
AcDbLine
 10
25.99190835883151
 20
96.17520834324249
 30
0.0
 11
35.50247352178304
 21
93.085038399493
 31
0.0
1001
DBPROPERTIES
1002
{
1000
PbThick
1002
}
  0
LINE
  5
198
330
1F
100
AcDbEntity
  8
THICK
100
AcDbLine
 10
35.50247352178303
 20
93.085038399493
 30
0.0
 11
33.9164846386827
 21
88.20386652383215
 31
0.0
1001
DBPROPERTIES
1002
{
1000
PbThick
1002
}
  0
ARC
  5
199
330
1F
100
AcDbEntity
  8
THICK
100
AcDbCircle
 10
0.0
 20
0.0
 30
0.0
 40
94.5
100
AcDbArc
 50
57.03296377245581
 51
68.96704439145621
1001
DBPROPERTIES
1002
{
1000
PbThick
1002
}
  0
LINE
  5
19A
330
1F
100
AcDbEntity
  8
THICK
100
AcDbLine
 10
51.42281750713785
 20
79.28394440003345
 30
0.0
 11
54.43954763122636
 21
83.43611720176963
 31
0.0
1001
DBPROPERTIES
1002
{
1000
PbThick
1002
}
  0
LINE
  5
19B
330
1F
100
AcDbEntity
  8
THICK
100
AcDbLine
 10
54.43954763122636
 20
83.43611720176962
 30
0.0
 11
62.52971757497583
 21
77.55826467884488
 31
0.0
1001
DBPROPERTIES
1002
{
1000
PbThick
1002
}
  0
LINE
  5
19C
330
1F
100
AcDbEntity
  8
THICK
100
AcDbLine
 10
62.52971757497583
 20
77.55826467884489
 30
0.0
 11
59.51298745088733
 21
73.40609187710871
 31
0.0
1001
DBPROPERTIES
1002
{
1000
PbThick
1002
}
  0
ARC
  5
19D
330
1F
100
AcDbEntity
  8
THICK
100
AcDbCircle
 10
0.0
 20
0.0
 30
0.0
 40
94.5
100
AcDbArc
 50
39.03292168062587
 51
50.96705959540579
1001
DBPROPERTIES
1002
{
1000
PbThick
1002
}
  0
LINE
  5
19E
330
1F
100
AcDbEntity
  8
THICK
100
AcDbLine
 10
73.40609187710874
 20
59.5129874508873
 30
0.0
 11
77.55826467884489
 21
62.52971757497578
 31
0.0
1001
DBPROPERTIES
1002
{
1000
PbThick
1002
}
  0
LINE
  5
19F
330
1F
100
AcDbEntity
  8
THICK
100
AcDbLine
 10
77.55826467884489
 20
62.52971757497578
 30
0.0
 11
83.43611720176963
 21
54.4395476312263
 31
0.0
1001
DBPROPERTIES
1002
{
1000
PbThick
1002
}
  0
LINE
  5
1A0
330
1F
100
AcDbEntity
  8
THICK
100
AcDbLine
 10
83.43611720176963
 20
54.4395476312263
 30
0.0
 11
79.28394440003346
 21
51.42281750713781
 31
0.0
1001
DBPROPERTIES
1002
{
1000
PbThick
1002
}
  0
ARC
  5
1A1
330
1F
100
AcDbEntity
  8
THICK
100
AcDbCircle
 10
0.0
 20
0.0
 30
0.0
 40
94.5
100
AcDbArc
 50
21.03293688457544
 51
32.96707479935536
1001
DBPROPERTIES
1002
{
1000
PbThick
1002
}
  0
LINE
  5
1A2
330
1F
100
AcDbEntity
  8
THICK
100
AcDbLine
 10
88.20386652383218
 20
33.91648463868268
 30
0.0
 11
93.08503839949306
 21
35.50247352178302
 31
0.0
1001
DBPROPERTIES
1002
{
1000
PbThick
1002
}
  0
LINE
  5
1A3
330
1F
100
AcDbEntity
  8
THICK
100
AcDbLine
 10
93.08503839949306
 20
35.50247352178302
 30
0.0
 11
96.17520834324252
 21
25.99190835883148
 31
0.0
1001
DBPROPERTIES
1002
{
1000
PbThick
1002
}
  0
LINE
  5
1A4
330
1F
100
AcDbEntity
  8
THICK
100
AcDbLine
 10
96.17520834324252
 20
25.99190835883148
 30
0.0
 11
91.29403646758163
 21
24.40591947573115
 31
0.0
1001
DBPROPERTIES
1002
{
1000
PbThick
1002
}
  0
ARC
  5
1A5
330
1F
100
AcDbEntity
  8
THICK
100
AcDbCircle
 10
0.0
 20
0.0
 30
0.0
 40
94.5
100
AcDbArc
 50
3.032952088525013
 51
14.96703270752542
1001
DBPROPERTIES
1002
{
1000
PbThick
1002
}
  0
LINE
  5
1A6
330
1F
100
AcDbEntity
  8
THICK
100
AcDbLine
 10
94.36763216272834
 20
4.999999999999982
 30
0.0
 11
99.5
 21
4.999999999999981
 31
0.0
1001
DBPROPERTIES
1002
{
1000
PbThick
1002
}
  0
LINE
  5
1A7
330
1F
100
AcDbEntity
  8
THICK
100
AcDbLine
 10
99.5
 20
4.999999999999981
 30
0.0
 11
99.5
 21
-5.000000000000019
 31
0.0
1001
DBPROPERTIES
1002
{
1000
PbThick
1002
}
  0
LINE
  5
1A8
330
1F
100
AcDbEntity
  8
THICK
100
AcDbLine
 10
99.5
 20
-5.000000000000019
 30
0.0
 11
94.36763216272834
 21
-5.000000000000018
 31
0.0
1001
DBPROPERTIES
1002
{
1000
PbThick
1002
}
  0
ARC
  5
1A9
330
1F
100
AcDbEntity
  8
THICK
100
AcDbCircle
 10
0.0
 20
0.0
 30
0.0
 40
94.5
100
AcDbArc
 50
345.0329672924746
 51
356.967047911475
1001
DBPROPERTIES
1002
{
1000
PbThick
1002
}
  0
LINE
  5
1AA
330
1F
100
AcDbEntity
  8
THICK
100
AcDbLine
 10
91.29403646758162
 20
-24.40591947573117
 30
0.0
 11
96.17520834324249
 21
-25.9919083588315
 31
0.0
1001
DBPROPERTIES
1002
{
1000
PbThick
1002
}
  0
LINE
  5
1AB
330
1F
100
AcDbEntity
  8
THICK
100
AcDbLine
 10
96.17520834324249
 20
-25.99190835883151
 30
0.0
 11
93.085038399493
 21
-35.50247352178304
 31
0.0
1001
DBPROPERTIES
1002
{
1000
PbThick
1002
}
  0
LINE
  5
1AC
330
1F
100
AcDbEntity
  8
THICK
100
AcDbLine
 10
93.085038399493
 20
-35.50247352178303
 30
0.0
 11
88.20386652383215
 21
-33.9164846386827
 31
0.0
1001
DBPROPERTIES
1002
{
1000
PbThick
1002
}
  0
ARC
  5
1AD
330
1F
100
AcDbEntity
  8
THICK
100
AcDbCircle
 10
0.0
 20
0.0
 30
0.0
 40
94.5
100
AcDbArc
 50
327.0329252006447
 51
338.9670631154246
1001
DBPROPERTIES
1002
{
1000
PbThick
1002
}
  0
LINE
  5
1AE
330
1F
100
AcDbEntity
  8
THICK
100
AcDbLine
 10
79.28394440003343
 20
-51.42281750713783
 30
0.0
 11
83.4361172017696
 21
-54.43954763122633
 31
0.0
1001
DBPROPERTIES
1002
{
1000
PbThick
1002
}
  0
LINE
  5
1AF
330
1F
100
AcDbEntity
  8
THICK
100
AcDbLine
 10
83.4361172017696
 20
-54.43954763122633
 30
0.0
 11
77.55826467884486
 21
-62.52971757497581
 31
0.0
1001
DBPROPERTIES
1002
{
1000
PbThick
1002
}
  0
LINE
  5
1B0
330
1F
100
AcDbEntity
  8
THICK
100
AcDbLine
 10
77.55826467884486
 20
-62.5297175749758
 30
0.0
 11
73.40609187710871
 21
-59.51298745088731
 31
0.0
1001
DBPROPERTIES
1002
{
1000
PbThick
1002
}
  0
ARC
  5
1B1
330
1F
100
AcDbEntity
  8
THICK
100
AcDbCircle
 10
0.0
 20
0.0
 30
0.0
 40
94.5
100
AcDbArc
 50
309.0329404045942
 51
320.9670783193741
1001
DBPROPERTIES
1002
{
1000
PbThick
1002
}
  0
LINE
  5
1B2
330
1F
100
AcDbEntity
  8
THICK
100
AcDbLine
 10
59.5129874508873
 20
-73.40609187710874
 30
0.0
 11
62.52971757497578
 21
-77.55826467884489
 31
0.0
1001
DBPROPERTIES
1002
{
1000
PbThick
1002
}
  0
LINE
  5
1B3
330
1F
100
AcDbEntity
  8
THICK
100
AcDbLine
 10
62.52971757497578
 20
-77.55826467884489
 30
0.0
 11
54.4395476312263
 21
-83.43611720176963
 31
0.0
1001
DBPROPERTIES
1002
{
1000
PbThick
1002
}
  0
LINE
  5
1B4
330
1F
100
AcDbEntity
  8
THICK
100
AcDbLine
 10
54.4395476312263
 20
-83.43611720176963
 30
0.0
 11
51.42281750713781
 21
-79.28394440003346
 31
0.0
1001
DBPROPERTIES
1002
{
1000
PbThick
1002
}
  0
ARC
  5
1B5
330
1F
100
AcDbEntity
  8
THICK
100
AcDbCircle
 10
0.0
 20
0.0
 30
0.0
 40
94.5
100
AcDbArc
 50
291.0329556085438
 51
302.9670362275442
1001
DBPROPERTIES
1002
{
1000
PbThick
1002
}
  0
LINE
  5
1B6
330
1F
100
AcDbEntity
  8
THICK
100
AcDbLine
 10
33.91648463868268
 20
-88.20386652383218
 30
0.0
 11
35.50247352178302
 21
-93.08503839949306
 31
0.0
1001
DBPROPERTIES
1002
{
1000
PbThick
1002
}
  0
LINE
  5
1B7
330
1F
100
AcDbEntity
  8
THICK
100
AcDbLine
 10
35.50247352178302
 20
-93.08503839949306
 30
0.0
 11
25.99190835883148
 21
-96.17520834324252
 31
0.0
1001
DBPROPERTIES
1002
{
1000
PbThick
1002
}
  0
LINE
  5
1B8
330
1F
100
AcDbEntity
  8
THICK
100
AcDbLine
 10
25.99190835883148
 20
-96.17520834324252
 30
0.0
 11
24.40591947573115
 21
-91.29403646758163
 31
0.0
1001
DBPROPERTIES
1002
{
1000
PbThick
1002
}
  0
ARC
  5
1B9
330
1F
100
AcDbEntity
  8
THICK
100
AcDbCircle
 10
0.0
 20
0.0
 30
0.0
 40
94.5
100
AcDbArc
 50
273.0329135167138
 51
284.9670514314938
1001
DBPROPERTIES
1002
{
1000
PbThick
1002
}
  0
LINE
  5
1BA
330
1F
100
AcDbEntity
  8
THICK
100
AcDbLine
 10
4.999999999999989
 20
-94.36763216272834
 30
0.0
 11
4.999999999999988
 21
-99.5
 31
0.0
1001
DBPROPERTIES
1002
{
1000
PbThick
1002
}
  0
LINE
  5
1BB
330
1F
100
AcDbEntity
  8
THICK
100
AcDbLine
 10
-5.0
 20
99.5
 30
0.0
 11
5.0
 21
99.5
 31
0.0
1001
DBPROPERTIES
1002
{
1000
PbThick
1002
}
  0
LINE
  5
1BC
330
1F
100
AcDbEntity
  8
THICK
100
AcDbLine
 10
5.0
 20
99.5
 30
0.0
 11
5.0
 21
94.36763216272834
 31
0.0
1001
DBPROPERTIES
1002
{
1000
PbThick
1002
}
  0
ARC
  5
1BD
330
1F
100
AcDbEntity
  8
THICK
100
AcDbCircle
 10
0.0
 20
0.0
 30
0.0
 40
94.5
100
AcDbArc
 50
75.03294856850624
 51
86.96708648328615
1001
DBPROPERTIES
1002
{
1000
PbThick
1002
}
  0
LINE
  5
1BE
330
1F
100
AcDbEntity
  8
THICK
100
AcDbLine
 10
24.40591947573117
 20
91.29403646758162
 30
0.0
 11
25.9919083588315
 21
96.17520834324249
 31
0.0
1001
DBPROPERTIES
1002
{
1000
PbThick
1002
}
  0
LINE
  5
1BF
330
1F
100
AcDbEntity
  8
HIDDEN
100
AcDbLine
 10
108.2865201167657
 20
91.47181019855947
 30
0.0
 11
108.2865201167657
 21
91.47181019855947
 31
0.0
1001
DBPROPERTIES
1002
{
1000
PbHidd
1002
}
  0
LINE
  5
1C0
330
1F
100
AcDbEntity
  8
HIDDEN
100
AcDbLine
 10
161.2801905825557
 20
133.7328521742303
 30
0.0
 11
108.2865201167657
 21
91.47181019855947
 31
0.0
1001
DBPROPERTIES
1002
{
1000
PbHidd
1002
}
  0
LINE
  5
1C1
330
1F
100
AcDbEntity
  8
HIDDEN
100
AcDbLine
 10
161.2801905825557
 20
133.7328521742303
 30
0.0
 11
248.9543212447246
 21
203.6506382707088
 31
0.0
1001
DBPROPERTIES
1002
{
1000
PbHidd
1002
}
  0
LINE
  5
1C2
330
1F
100
AcDbEntity
  8
HIDDEN
100
AcDbLine
 10
113.2744385316356
 20
85.21715833881524
 30
0.0
 11
166.2681089974255
 21
127.4782003144861
 31
0.0
1001
DBPROPERTIES
1002
{
1000
PbHidd
1002
}
  0
LINE
  5
1C3
330
1F
100
AcDbEntity
  8
HIDDEN
100
AcDbLine
 10
161.2801905825557
 20
133.7328521742303
 30
0.0
 11
166.2681089974255
 21
127.4782003144861
 31
0.0
1001
DBPROPERTIES
1002
{
1000
PbHidd
1002
}
  0
LINE
  5
1C4
330
1F
100
AcDbEntity
  8
HIDDEN
100
AcDbLine
 10
253.9422396595945
 20
197.3959864109646
 30
0.0
 11
166.2681089974255
 21
127.4782003144861
 31
0.0
1001
DBPROPERTIES
1002
{
1000
PbHidd
1002
}
  0
LINE
  5
1C5
330
1F
100
AcDbEntity
  8
HIDDEN
100
AcDbLine
 10
248.9543212447246
 20
203.6506382707088
 30
0.0
 11
253.9422396595945
 21
197.3959864109646
 31
0.0
1001
DBPROPERTIES
1002
{
1000
PbHidd
1002
}
  0
LINE
  5
1C6
330
1F
100
AcDbEntity
  8
HIDDEN
100
AcDbLine
 10
166.2681089974255
 20
127.4782003144861
 30
0.0
 11
161.2801905825557
 21
133.7328521742303
 31
0.0
1001
DBPROPERTIES
1002
{
1000
PbHidd
1002
}
  0
LINE
  5
1C7
330
1F
100
AcDbEntity
  8
HIDDEN
100
AcDbLine
 10
113.2744385316356
 20
85.21715833881524
 30
0.0
 11
113.2744385316356
 21
85.21715833881524
 31
0.0
1001
DBPROPERTIES
1002
{
1000
PbHidd
1002
}
  0
LINE
  5
1C8
330
1F
100
AcDbEntity
  8
HIDDEN
100
AcDbLine
 10
205.1131081401128
 20
-42.71286099177171
 30
0.0
 11
139.0310819431481
 21
-27.63006973783557
 31
0.0
1001
DBPROPERTIES
1002
{
1000
PbHidd
1002
}
  0
LINE
  5
1C9
330
1F
100
AcDbEntity
  8
HIDDEN
100
AcDbLine
 10
205.1131081401128
 20
-42.71286099177168
 30
0.0
 11
314.4409608494976
 21
-67.66622994177628
 31
0.0
1001
DBPROPERTIES
1002
{
1000
PbHidd
1002
}
  0
LINE
  5
1CA
330
1F
100
AcDbEntity
  8
HIDDEN
100
AcDbLine
 10
137.2509144714976
 20
-35.42949303529016
 30
0.0
 11
203.3329406684622
 21
-50.51228428922629
 31
0.0
1001
DBPROPERTIES
1002
{
1000
PbHidd
1002
}
  0
LINE
  5
1CB
330
1F
100
AcDbEntity
  8
HIDDEN
100
AcDbLine
 10
205.1131081401128
 20
-42.71286099177171
 30
0.0
 11
203.3329406684622
 21
-50.51228428922629
 31
0.0
1001
DBPROPERTIES
1002
{
1000
PbHidd
1002
}
  0
LINE
  5
1CC
330
1F
100
AcDbEntity
  8
HIDDEN
100
AcDbLine
 10
312.6607933778471
 20
-75.46565323923087
 30
0.0
 11
203.3329406684622
 21
-50.51228428922628
 31
0.0
1001
DBPROPERTIES
1002
{
1000
PbHidd
1002
}
  0
LINE
  5
1CD
330
1F
100
AcDbEntity
  8
HIDDEN
100
AcDbLine
 10
314.4409608494976
 20
-67.6662299417763
 30
0.0
 11
312.6607933778471
 21
-75.46565323923089
 31
0.0
1001
DBPROPERTIES
1002
{
1000
PbHidd
1002
}
  0
LINE
  5
1CE
330
1F
100
AcDbEntity
  8
HIDDEN
100
AcDbLine
 10
203.3329406684622
 20
-50.51228428922629
 30
0.0
 11
205.1131081401128
 21
-42.71286099177171
 31
0.0
1001
DBPROPERTIES
1002
{
1000
PbHidd
1002
}
  0
LINE
  5
1CF
330
1F
100
AcDbEntity
  8
HIDDEN
100
AcDbLine
 10
94.49167172326014
 20
-186.9949186473891
 30
0.0
 11
65.08240334911171
 21
-125.9259436109317
 31
0.0
1001
DBPROPERTIES
1002
{
1000
PbHidd
1002
}
  0
LINE
  5
1D0
330
1F
100
AcDbEntity
  8
HIDDEN
100
AcDbLine
 10
94.49167172326014
 20
-186.994918647389
 30
0.0
 11
143.1471435079215
 21
-288.02904686856
 31
0.0
1001
DBPROPERTIES
1002
{
1000
PbHidd
1002
}
  0
LINE
  5
1D1
330
1F
100
AcDbEntity
  8
HIDDEN
100
AcDbLine
 10
57.87465240589239
 20
-129.3970135238722
 30
0.0
 11
87.2839207800408
 21
-190.4659885603295
 31
0.0
1001
DBPROPERTIES
1002
{
1000
PbHidd
1002
}
  0
LINE
  5
1D2
330
1F
100
AcDbEntity
  8
HIDDEN
100
AcDbLine
 10
94.49167172326013
 20
-186.994918647389
 30
0.0
 11
87.28392078004079
 21
-190.4659885603295
 31
0.0
1001
DBPROPERTIES
1002
{
1000
PbHidd
1002
}
  0
LINE
  5
1D3
330
1F
100
AcDbEntity
  8
HIDDEN
100
AcDbLine
 10
135.9393925647021
 20
-291.5001167815005
 30
0.0
 11
87.28392078004079
 21
-190.4659885603295
 31
0.0
1001
DBPROPERTIES
1002
{
1000
PbHidd
1002
}
  0
LINE
  5
1D4
330
1F
100
AcDbEntity
  8
HIDDEN
100
AcDbLine
 10
143.1471435079215
 20
-288.02904686856
 30
0.0
 11
135.9393925647022
 21
-291.5001167815005
 31
0.0
1001
DBPROPERTIES
1002
{
1000
PbHidd
1002
}
  0
LINE
  5
1D5
330
1F
100
AcDbEntity
  8
HIDDEN
100
AcDbLine
 10
87.28392078004079
 20
-190.4659885603295
 30
0.0
 11
94.49167172326013
 21
-186.994918647389
 31
0.0
1001
DBPROPERTIES
1002
{
1000
PbHidd
1002
}
  0
LINE
  5
1D6
330
1F
100
AcDbEntity
  8
HIDDEN
100
AcDbLine
 10
-87.28392078004086
 20
-190.4659885603295
 30
0.0
 11
-57.87465240589243
 21
-129.3970135238722
 31
0.0
1001
DBPROPERTIES
1002
{
1000
PbHidd
1002
}
  0
LINE
  5
1D7
330
1F
100
AcDbEntity
  8
HIDDEN
100
AcDbLine
 10
-87.28392078004083
 20
-190.4659885603295
 30
0.0
 11
-135.9393925647022
 21
-291.5001167815004
 31
0.0
1001
DBPROPERTIES
1002
{
1000
PbHidd
1002
}
  0
LINE
  5
1D8
330
1F
100
AcDbEntity
  8
HIDDEN
100
AcDbLine
 10
-65.08240334911176
 20
-125.9259436109317
 30
0.0
 11
-94.4916717232602
 21
-186.994918647389
 31
0.0
1001
DBPROPERTIES
1002
{
1000
PbHidd
1002
}
  0
LINE
  5
1D9
330
1F
100
AcDbEntity
  8
HIDDEN
100
AcDbLine
 10
-87.28392078004084
 20
-190.4659885603295
 30
0.0
 11
-94.49167172326018
 21
-186.994918647389
 31
0.0
1001
DBPROPERTIES
1002
{
1000
PbHidd
1002
}
  0
LINE
  5
1DA
330
1F
100
AcDbEntity
  8
HIDDEN
100
AcDbLine
 10
-143.1471435079216
 20
-288.02904686856
 30
0.0
 11
-94.49167172326018
 21
-186.994918647389
 31
0.0
1001
DBPROPERTIES
1002
{
1000
PbHidd
1002
}
  0
LINE
  5
1DB
330
1F
100
AcDbEntity
  8
HIDDEN
100
AcDbLine
 10
-135.9393925647022
 20
-291.5001167815004
 30
0.0
 11
-143.1471435079216
 21
-288.02904686856
 31
0.0
1001
DBPROPERTIES
1002
{
1000
PbHidd
1002
}
  0
LINE
  5
1DC
330
1F
100
AcDbEntity
  8
HIDDEN
100
AcDbLine
 10
-94.49167172326018
 20
-186.994918647389
 30
0.0
 11
-87.28392078004084
 21
-190.4659885603295
 31
0.0
1001
DBPROPERTIES
1002
{
1000
PbHidd
1002
}
  0
LINE
  5
1DD
330
1F
100
AcDbEntity
  8
HIDDEN
100
AcDbLine
 10
-203.3329406684623
 20
-50.51228428922626
 30
0.0
 11
-137.2509144714976
 21
-35.42949303529014
 31
0.0
1001
DBPROPERTIES
1002
{
1000
PbHidd
1002
}
  0
LINE
  5
1DE
330
1F
100
AcDbEntity
  8
HIDDEN
100
AcDbLine
 10
-203.3329406684623
 20
-50.51228428922627
 30
0.0
 11
-312.6607933778471
 21
-75.4656532392308
 31
0.0
1001
DBPROPERTIES
1002
{
1000
PbHidd
1002
}
  0
LINE
  5
1DF
330
1F
100
AcDbEntity
  8
HIDDEN
100
AcDbLine
 10
-139.0310819431481
 20
-27.63006973783554
 30
0.0
 11
-205.1131081401128
 21
-42.71286099177166
 31
0.0
1001
DBPROPERTIES
1002
{
1000
PbHidd
1002
}
  0
LINE
  5
1E0
330
1F
100
AcDbEntity
  8
HIDDEN
100
AcDbLine
 10
-203.3329406684623
 20
-50.51228428922624
 30
0.0
 11
-205.1131081401128
 21
-42.71286099177166
 31
0.0
1001
DBPROPERTIES
1002
{
1000
PbHidd
1002
}
  0
LINE
  5
1E1
330
1F
100
AcDbEntity
  8
HIDDEN
100
AcDbLine
 10
-314.4409608494976
 20
-67.66622994177621
 30
0.0
 11
-205.1131081401128
 21
-42.71286099177167
 31
0.0
1001
DBPROPERTIES
1002
{
1000
PbHidd
1002
}
  0
LINE
  5
1E2
330
1F
100
AcDbEntity
  8
HIDDEN
100
AcDbLine
 10
-312.6607933778471
 20
-75.46565323923079
 30
0.0
 11
-314.4409608494976
 21
-67.66622994177621
 31
0.0
1001
DBPROPERTIES
1002
{
1000
PbHidd
1002
}
  0
LINE
  5
1E3
330
1F
100
AcDbEntity
  8
HIDDEN
100
AcDbLine
 10
-205.1131081401128
 20
-42.71286099177166
 30
0.0
 11
-203.3329406684623
 21
-50.51228428922624
 31
0.0
1001
DBPROPERTIES
1002
{
1000
PbHidd
1002
}
  0
LINE
  5
1E4
330
1F
100
AcDbEntity
  8
HIDDEN
100
AcDbLine
 10
-113.2744385316356
 20
85.21715833881528
 30
0.0
 11
-113.2744385316356
 21
85.21715833881528
 31
0.0
1001
DBPROPERTIES
1002
{
1000
PbHidd
1002
}
  0
LINE
  5
1E5
330
1F
100
AcDbEntity
  8
HIDDEN
100
AcDbLine
 10
-166.2681089974255
 20
127.4782003144861
 30
0.0
 11
-113.2744385316356
 21
85.2171583388153
 31
0.0
1001
DBPROPERTIES
1002
{
1000
PbHidd
1002
}
  0
LINE
  5
1E6
330
1F
100
AcDbEntity
  8
HIDDEN
100
AcDbLine
 10
-166.2681089974255
 20
127.4782003144861
 30
0.0
 11
-253.9422396595944
 21
197.3959864109647
 31
0.0
1001
DBPROPERTIES
1002
{
1000
PbHidd
1002
}
  0
LINE
  5
1E7
330
1F
100
AcDbEntity
  8
HIDDEN
100
AcDbLine
 10
-108.2865201167657
 20
91.47181019855952
 30
0.0
 11
-161.2801905825556
 21
133.7328521742303
 31
0.0
1001
DBPROPERTIES
1002
{
1000
PbHidd
1002
}
  0
LINE
  5
1E8
330
1F
100
AcDbEntity
  8
HIDDEN
100
AcDbLine
 10
-166.2681089974255
 20
127.4782003144861
 30
0.0
 11
-161.2801905825556
 21
133.7328521742303
 31
0.0
1001
DBPROPERTIES
1002
{
1000
PbHidd
1002
}
  0
LINE
  5
1E9
330
1F
100
AcDbEntity
  8
HIDDEN
100
AcDbLine
 10
-248.9543212447246
 20
203.6506382707089
 30
0.0
 11
-161.2801905825556
 21
133.7328521742303
 31
0.0
1001
DBPROPERTIES
1002
{
1000
PbHidd
1002
}
  0
LINE
  5
1EA
330
1F
100
AcDbEntity
  8
HIDDEN
100
AcDbLine
 10
-253.9422396595944
 20
197.3959864109647
 30
0.0
 11
-248.9543212447246
 21
203.6506382707089
 31
0.0
1001
DBPROPERTIES
1002
{
1000
PbHidd
1002
}
  0
LINE
  5
1EB
330
1F
100
AcDbEntity
  8
HIDDEN
100
AcDbLine
 10
-161.2801905825556
 20
133.7328521742303
 30
0.0
 11
-166.2681089974255
 21
127.4782003144861
 31
0.0
1001
DBPROPERTIES
1002
{
1000
PbHidd
1002
}
  0
LINE
  5
1EC
330
1F
100
AcDbEntity
  8
HIDDEN
100
AcDbLine
 10
-108.2865201167657
 20
91.47181019855951
 30
0.0
 11
-108.2865201167657
 21
91.47181019855951
 31
0.0
1001
DBPROPERTIES
1002
{
1000
PbHidd
1002
}
  0
LINE
  5
1ED
330
1F
100
AcDbEntity
  8
HIDDEN
100
AcDbLine
 10
-4.0
 20
141.6935513705546
 30
0.0
 11
-4.0
 21
141.6935513705546
 31
0.0
1001
DBPROPERTIES
1002
{
1000
PbHidd
1002
}
  0
LINE
  5
1EE
330
1F
100
AcDbEntity
  8
HIDDEN
100
AcDbLine
 10
-4.0
 20
209.475
 30
0.0
 11
-4.0
 21
141.6935513705546
 31
0.0
1001
DBPROPERTIES
1002
{
1000
PbHidd
1002
}
  0
LINE
  5
1EF
330
1F
100
AcDbEntity
  8
HIDDEN
100
AcDbLine
 10
-4.000000000000014
 20
209.475
 30
0.0
 11
-4.0
 21
321.614422149394
 31
0.0
1001
DBPROPERTIES
1002
{
1000
PbHidd
1002
}
  0
LINE
  5
1F0
330
1F
100
AcDbEntity
  8
HIDDEN
100
AcDbLine
 10
4.0
 20
141.6935513705546
 30
0.0
 11
4.0
 21
209.475
 31
0.0
1001
DBPROPERTIES
1002
{
1000
PbHidd
1002
}
  0
LINE
  5
1F1
330
1F
100
AcDbEntity
  8
HIDDEN
100
AcDbLine
 10
-4.0
 20
209.475
 30
0.0
 11
4.0
 21
209.475
 31
0.0
1001
DBPROPERTIES
1002
{
1000
PbHidd
1002
}
  0
LINE
  5
1F2
330
1F
100
AcDbEntity
  8
HIDDEN
100
AcDbLine
 10
4.0
 20
321.614422149394
 30
0.0
 11
3.999999999999985
 21
209.475
 31
0.0
1001
DBPROPERTIES
1002
{
1000
PbHidd
1002
}
  0
LINE
  5
1F3
330
1F
100
AcDbEntity
  8
HIDDEN
100
AcDbLine
 10
-3.999999999999996
 20
321.614422149394
 30
0.0
 11
4.000000000000005
 21
321.614422149394
 31
0.0
1001
DBPROPERTIES
1002
{
1000
PbHidd
1002
}
  0
LINE
  5
1F4
330
1F
100
AcDbEntity
  8
HIDDEN
100
AcDbLine
 10
4.0
 20
209.475
 30
0.0
 11
-4.0
 21
209.475
 31
0.0
1001
DBPROPERTIES
1002
{
1000
PbHidd
1002
}
  0
LINE
  5
1F5
330
1F
100
AcDbEntity
  8
HIDDEN
100
AcDbLine
 10
4.0
 20
141.6935513705546
 30
0.0
 11
4.0
 21
141.6935513705546
 31
0.0
1001
DBPROPERTIES
1002
{
1000
PbHidd
1002
}
  0
LINE
  5
1F6
330
1F
100
AcDbEntity
  8
HIDDEN
100
AcDbLine
 10
35.50247352178305
 20
93.08503839949302
 30
0.0
 11
35.50247352178305
 21
93.08503839949302
 31
0.0
1001
DBPROPERTIES
1002
{
1000
PbHidd
1002
}
  0
LINE
  5
1F7
330
1F
100
AcDbEntity
  8
HIDDEN
100
AcDbLine
 10
33.91648463868271
 20
88.20386652383216
 30
0.0
 11
33.91648463868271
 21
88.20386652383216
 31
0.0
1001
DBPROPERTIES
1002
{
1000
PbHidd
1002
}
  0
LINE
  5
1F8
330
1F
100
AcDbEntity
  8
HIDDEN
100
AcDbLine
 10
24.40591947573117
 20
91.29403646758163
 30
0.0
 11
24.40591947573117
 21
91.29403646758163
 31
0.0
1001
DBPROPERTIES
1002
{
1000
PbHidd
1002
}
  0
LINE
  5
1F9
330
1F
100
AcDbEntity
  8
HIDDEN
100
AcDbLine
 10
25.99190835883151
 20
96.1752083432425
 30
0.0
 11
25.99190835883151
 21
96.1752083432425
 31
0.0
1001
DBPROPERTIES
1002
{
1000
PbHidd
1002
}
  0
LINE
  5
1FA
330
1F
100
AcDbEntity
  8
HIDDEN
100
AcDbLine
 10
5.0
 20
94.36763216272834
 30
0.0
 11
5.0
 21
94.36763216272834
 31
0.0
1001
DBPROPERTIES
1002
{
1000
PbHidd
1002
}
  0
LINE
  5
1FB
330
1F
100
AcDbEntity
  8
HIDDEN
100
AcDbLine
 10
51.42281750713786
 20
79.28394440003345
 30
0.0
 11
51.42281750713786
 21
79.28394440003345
 31
0.0
1001
DBPROPERTIES
1002
{
1000
PbHidd
1002
}
  0
LINE
  5
1FC
330
1F
100
AcDbEntity
  8
HIDDEN
100
AcDbLine
 10
62.52971757497583
 20
77.55826467884488
 30
0.0
 11
62.52971757497583
 21
77.55826467884488
 31
0.0
1001
DBPROPERTIES
1002
{
1000
PbHidd
1002
}
  0
LINE
  5
1FD
330
1F
100
AcDbEntity
  8
HIDDEN
100
AcDbLine
 10
59.51298745088734
 20
73.40609187710871
 30
0.0
 11
59.51298745088734
 21
73.40609187710871
 31
0.0
1001
DBPROPERTIES
1002
{
1000
PbHidd
1002
}
  0
LINE
  5
1FE
330
1F
100
AcDbEntity
  8
HIDDEN
100
AcDbLine
 10
54.43954763122636
 20
83.43611720176962
 30
0.0
 11
54.43954763122636
 21
83.43611720176962
 31
0.0
1001
DBPROPERTIES
1002
{
1000
PbHidd
1002
}
  0
LINE
  5
1FF
330
1F
100
AcDbEntity
  8
HIDDEN
100
AcDbLine
 10
73.40609187710875
 20
59.51298745088731
 30
0.0
 11
73.40609187710875
 21
59.51298745088731
 31
0.0
1001
DBPROPERTIES
1002
{
1000
PbHidd
1002
}
  0
LINE
  5
200
330
1F
100
AcDbEntity
  8
HIDDEN
100
AcDbLine
 10
83.43611720176965
 20
54.43954763122632
 30
0.0
 11
83.43611720176965
 21
54.43954763122632
 31
0.0
1001
DBPROPERTIES
1002
{
1000
PbHidd
1002
}
  0
LINE
  5
201
330
1F
100
AcDbEntity
  8
HIDDEN
100
AcDbLine
 10
79.28394440003348
 20
51.42281750713782
 30
0.0
 11
79.28394440003348
 21
51.42281750713782
 31
0.0
1001
DBPROPERTIES
1002
{
1000
PbHidd
1002
}
  0
LINE
  5
202
330
1F
100
AcDbEntity
  8
HIDDEN
100
AcDbLine
 10
77.5582646788449
 20
62.52971757497579
 30
0.0
 11
77.5582646788449
 21
62.52971757497579
 31
0.0
1001
DBPROPERTIES
1002
{
1000
PbHidd
1002
}
  0
LINE
  5
203
330
1F
100
AcDbEntity
  8
HIDDEN
100
AcDbLine
 10
88.20386652383218
 20
33.91648463868268
 30
0.0
 11
88.20386652383218
 21
33.91648463868268
 31
0.0
1001
DBPROPERTIES
1002
{
1000
PbHidd
1002
}
  0
LINE
  5
204
330
1F
100
AcDbEntity
  8
HIDDEN
100
AcDbLine
 10
96.17520834324252
 20
25.99190835883148
 30
0.0
 11
96.17520834324252
 21
25.99190835883148
 31
0.0
1001
DBPROPERTIES
1002
{
1000
PbHidd
1002
}
  0
LINE
  5
205
330
1F
100
AcDbEntity
  8
HIDDEN
100
AcDbLine
 10
91.29403646758163
 20
24.40591947573115
 30
0.0
 11
91.29403646758163
 21
24.40591947573115
 31
0.0
1001
DBPROPERTIES
1002
{
1000
PbHidd
1002
}
  0
LINE
  5
206
330
1F
100
AcDbEntity
  8
HIDDEN
100
AcDbLine
 10
93.08503839949306
 20
35.50247352178302
 30
0.0
 11
93.08503839949306
 21
35.50247352178302
 31
0.0
1001
DBPROPERTIES
1002
{
1000
PbHidd
1002
}
  0
LINE
  5
207
330
1F
100
AcDbEntity
  8
HIDDEN
100
AcDbLine
 10
94.36763216272834
 20
4.999999999999982
 30
0.0
 11
94.36763216272834
 21
4.999999999999982
 31
0.0
1001
DBPROPERTIES
1002
{
1000
PbHidd
1002
}
  0
LINE
  5
208
330
1F
100
AcDbEntity
  8
HIDDEN
100
AcDbLine
 10
99.5
 20
-5.000000000000019
 30
0.0
 11
99.5
 21
-5.000000000000019
 31
0.0
1001
DBPROPERTIES
1002
{
1000
PbHidd
1002
}
  0
LINE
  5
209
330
1F
100
AcDbEntity
  8
HIDDEN
100
AcDbLine
 10
94.36763216272834
 20
-5.000000000000018
 30
0.0
 11
94.36763216272834
 21
-5.000000000000018
 31
0.0
1001
DBPROPERTIES
1002
{
1000
PbHidd
1002
}
  0
LINE
  5
20A
330
1F
100
AcDbEntity
  8
HIDDEN
100
AcDbLine
 10
99.5
 20
4.999999999999981
 30
0.0
 11
99.5
 21
4.999999999999981
 31
0.0
1001
DBPROPERTIES
1002
{
1000
PbHidd
1002
}
  0
LINE
  5
20B
330
1F
100
AcDbEntity
  8
HIDDEN
100
AcDbLine
 10
91.29403646758163
 20
-24.40591947573117
 30
0.0
 11
91.29403646758163
 21
-24.40591947573117
 31
0.0
1001
DBPROPERTIES
1002
{
1000
PbHidd
1002
}
  0
LINE
  5
20C
330
1F
100
AcDbEntity
  8
HIDDEN
100
AcDbLine
 10
93.08503839949302
 20
-35.50247352178305
 30
0.0
 11
93.08503839949302
 21
-35.50247352178305
 31
0.0
1001
DBPROPERTIES
1002
{
1000
PbHidd
1002
}
  0
LINE
  5
20D
330
1F
100
AcDbEntity
  8
HIDDEN
100
AcDbLine
 10
88.20386652383216
 20
-33.91648463868271
 30
0.0
 11
88.20386652383216
 21
-33.91648463868271
 31
0.0
1001
DBPROPERTIES
1002
{
1000
PbHidd
1002
}
  0
LINE
  5
20E
330
1F
100
AcDbEntity
  8
HIDDEN
100
AcDbLine
 10
96.1752083432425
 20
-25.99190835883151
 30
0.0
 11
96.1752083432425
 21
-25.99190835883151
 31
0.0
1001
DBPROPERTIES
1002
{
1000
PbHidd
1002
}
  0
LINE
  5
20F
330
1F
100
AcDbEntity
  8
HIDDEN
100
AcDbLine
 10
79.28394440003345
 20
-51.42281750713785
 30
0.0
 11
79.28394440003345
 21
-51.42281750713785
 31
0.0
1001
DBPROPERTIES
1002
{
1000
PbHidd
1002
}
  0
LINE
  5
210
330
1F
100
AcDbEntity
  8
HIDDEN
100
AcDbLine
 10
77.55826467884488
 20
-62.52971757497581
 30
0.0
 11
77.55826467884488
 21
-62.52971757497581
 31
0.0
1001
DBPROPERTIES
1002
{
1000
PbHidd
1002
}
  0
LINE
  5
211
330
1F
100
AcDbEntity
  8
HIDDEN
100
AcDbLine
 10
73.40609187710872
 20
-59.51298745088732
 30
0.0
 11
73.40609187710872
 21
-59.51298745088732
 31
0.0
1001
DBPROPERTIES
1002
{
1000
PbHidd
1002
}
  0
LINE
  5
212
330
1F
100
AcDbEntity
  8
HIDDEN
100
AcDbLine
 10
83.43611720176962
 20
-54.43954763122634
 30
0.0
 11
83.43611720176962
 21
-54.43954763122634
 31
0.0
1001
DBPROPERTIES
1002
{
1000
PbHidd
1002
}
  0
LINE
  5
213
330
1F
100
AcDbEntity
  8
HIDDEN
100
AcDbLine
 10
59.51298745088731
 20
-73.40609187710875
 30
0.0
 11
59.51298745088731
 21
-73.40609187710875
 31
0.0
1001
DBPROPERTIES
1002
{
1000
PbHidd
1002
}
  0
LINE
  5
214
330
1F
100
AcDbEntity
  8
HIDDEN
100
AcDbLine
 10
54.43954763122632
 20
-83.43611720176965
 30
0.0
 11
54.43954763122632
 21
-83.43611720176965
 31
0.0
1001
DBPROPERTIES
1002
{
1000
PbHidd
1002
}
  0
LINE
  5
215
330
1F
100
AcDbEntity
  8
HIDDEN
100
AcDbLine
 10
51.42281750713782
 20
-79.28394440003348
 30
0.0
 11
51.42281750713782
 21
-79.28394440003348
 31
0.0
1001
DBPROPERTIES
1002
{
1000
PbHidd
1002
}
  0
LINE
  5
216
330
1F
100
AcDbEntity
  8
HIDDEN
100
AcDbLine
 10
62.52971757497579
 20
-77.5582646788449
 30
0.0
 11
62.52971757497579
 21
-77.5582646788449
 31
0.0
1001
DBPROPERTIES
1002
{
1000
PbHidd
1002
}
  0
LINE
  5
217
330
1F
100
AcDbEntity
  8
HIDDEN
100
AcDbLine
 10
33.91648463868268
 20
-88.20386652383218
 30
0.0
 11
33.91648463868268
 21
-88.20386652383218
 31
0.0
1001
DBPROPERTIES
1002
{
1000
PbHidd
1002
}
  0
LINE
  5
218
330
1F
100
AcDbEntity
  8
HIDDEN
100
AcDbLine
 10
25.99190835883148
 20
-96.17520834324252
 30
0.0
 11
25.99190835883148
 21
-96.17520834324252
 31
0.0
1001
DBPROPERTIES
1002
{
1000
PbHidd
1002
}
  0
LINE
  5
219
330
1F
100
AcDbEntity
  8
HIDDEN
100
AcDbLine
 10
24.40591947573115
 20
-91.29403646758163
 30
0.0
 11
24.40591947573115
 21
-91.29403646758163
 31
0.0
1001
DBPROPERTIES
1002
{
1000
PbHidd
1002
}
  0
LINE
  5
21A
330
1F
100
AcDbEntity
  8
HIDDEN
100
AcDbLine
 10
35.50247352178302
 20
-93.08503839949306
 30
0.0
 11
35.50247352178302
 21
-93.08503839949306
 31
0.0
1001
DBPROPERTIES
1002
{
1000
PbHidd
1002
}
  0
LINE
  5
21B
330
1F
100
AcDbEntity
  8
HIDDEN
100
AcDbLine
 10
4.999999999999989
 20
-94.36763216272834
 30
0.0
 11
4.999999999999989
 21
-94.36763216272834
 31
0.0
1001
DBPROPERTIES
1002
{
1000
PbHidd
1002
}
  0
LINE
  5
21C
330
1F
100
AcDbEntity
  8
HIDDEN
100
AcDbLine
 10
5.0
 20
99.5
 30
0.0
 11
5.0
 21
99.5
 31
0.0
1001
DBPROPERTIES
1002
{
1000
PbHidd
1002
}
  0
ARC
  5
21D
330
1F
100
AcDbEntity
  8
HIDDEN
100
AcDbCircle
 10
0.0
 20
0.0
 30
0.0
 40
141.75
100
AcDbArc
 50
0.0
 51
180.0000198478428
1001
DBPROPERTIES
1002
{
1000
PbHidd
1002
}
  0
ARC
  5
21E
330
1F
100
AcDbEntity
  8
THICK
100
AcDbCircle
 10
0.0
 20
0.0
 30
0.0
 40
154.35
100
AcDbArc
 50
0.0
 51
180.0000198478428
1001
DBPROPERTIES
1002
{
1000
PbThick
1002
}
  0
ARC
  5
21F
330
1F
100
AcDbEntity
  8
THICK
100
AcDbCircle
 10
0.0
 20
0.0
 30
0.0
 40
157.5
100
AcDbArc
 50
0.0
 51
180.0000198478428
1001
DBPROPERTIES
1002
{
1000
PbThick
1002
}
  0
ARC
  5
220
330
1F
100
AcDbEntity
  8
THICK
100
AcDbCircle
 10
0.0
 20
0.0
 30
0.0
 40
184.7798002192098
100
AcDbArc
 50
0.0
 51
180.0000198478428
1001
DBPROPERTIES
1002
{
1000
PbThick
1002
}
  0
ARC
  5
221
330
1F
100
AcDbEntity
  8
HIDDEN
100
AcDbCircle
 10
0.0
 20
0.0
 30
0.0
 40
236.25
100
AcDbArc
 50
0.0
 51
180.0000198478428
1001
DBPROPERTIES
1002
{
1000
PbHidd
1002
}
  0
ARC
  5
222
330
1F
100
AcDbEntity
  8
THICK
100
AcDbCircle
 10
0.0
 20
-0.0000000000000019
 30
0.0
 40
236.2469962853603
100
AcDbArc
 50
179.9999801521572
 51
270.0000187239684
1001
DBPROPERTIES
1002
{
1000
PbThick
1002
}
  0
ARC
  5
223
330
1F
100
AcDbEntity
  8
THICK
100
AcDbCircle
 10
0.0
 20
-0.0000000000000019
 30
0.0
 40
209.1936218335951
100
AcDbArc
 50
179.9999801521572
 51
270.0000187239684
1001
DBPROPERTIES
1002
{
1000
PbThick
1002
}
  0
ARC
  5
224
330
1F
100
AcDbEntity
  8
THICK
100
AcDbCircle
 10
0.0
 20
-0.0000000000000019
 30
0.0
 40
209.1936218335951
100
AcDbArc
 50
89.99998127603165
 51
180.0000198478428
1001
DBPROPERTIES
1002
{
1000
PbThick
1002
}
  0
ARC
  5
225
330
1F
100
AcDbEntity
  8
THICK
100
AcDbCircle
 10
0.0
 20
-0.0000000000000019
 30
0.0
 40
236.2469962853603
100
AcDbArc
 50
89.99998127603165
 51
180.0000198478428
1001
DBPROPERTIES
1002
{
1000
PbThick
1002
}
  0
LINE
  5
226
330
1F
100
AcDbEntity
  8
HIDDEN
100
AcDbLine
 10
-474.2655999999999
 20
380.0
 30
0.0
 11
-474.2655999999999
 21
380.0
 31
0.0
1001
DBPROPERTIES
1002
{
1000
PbHidd
1002
}
  0
LINE
  5
227
330
1F
100
AcDbEntity
  8
HIDDEN
100
AcDbLine
 10
-474.2656
 20
380.0
 30
0.0
 11
-474.2656
 21
1.478065445021628
 31
0.0
1001
DBPROPERTIES
1002
{
1000
PbHidd
1002
}
  0
LINE
  5
228
330
1F
100
AcDbEntity
  8
HIDDEN
100
AcDbLine
 10
-474.2656000000001
 20
1.478065445021628
 30
0.0
 11
-474.2656000000001
 21
1.478065445021628
 31
0.0
1001
DBPROPERTIES
1002
{
1000
PbHidd
1002
}
  0
LINE
  5
229
330
1F
100
AcDbEntity
  8
HIDDEN
100
AcDbLine
 10
-205.4656
 20
272.4779471160831
 30
0.0
 11
-205.4656
 21
380.0
 31
0.0
1001
DBPROPERTIES
1002
{
1000
PbHidd
1002
}
  0
LINE
  5
22A
330
1F
100
AcDbEntity
  8
HIDDEN
100
AcDbLine
 10
-205.4656
 20
380.0
 30
0.0
 11
-205.4656
 21
380.0
 31
0.0
1001
DBPROPERTIES
1002
{
1000
PbHidd
1002
}
  0
LINE
  5
22B
330
1F
100
AcDbEntity
  8
HIDDEN
100
AcDbLine
 10
-205.4656
 20
272.4779471160831
 30
0.0
 11
-205.4656
 21
272.4779471160831
 31
0.0
1001
DBPROPERTIES
1002
{
1000
PbHidd
1002
}
  0
ARC
  5
22C
330
1F
100
AcDbEntity
  8
HIDDEN
100
AcDbCircle
 10
-45.22227999999999
 20
86.42986413043478
 30
0.0
 40
438.3263336990049
100
AcDbArc
 50
191.3658585257263
 51
275.9280119597304
1001
DBPROPERTIES
1002
{
1000
PbHidd
1002
}
  0
ARC
  5
22D
330
1F
100
AcDbEntity
  8
HIDDEN
100
AcDbCircle
 10
52.75654296874998
 20
-252.4569683003597
 30
0.0
 40
585.0088380038728
100
AcDbArc
 50
154.2738137760123
 51
154.4292572258313
1001
DBPROPERTIES
1002
{
1000
PbHidd
1002
}
  0
ARC
  5
22E
330
1F
100
AcDbEntity
  8
HIDDEN
100
AcDbCircle
 10
52.75654296874998
 20
-252.4569683003597
 30
0.0
 40
585.0088380038728
100
AcDbArc
 50
95.16932109526097
 51
116.1931479508938
1001
DBPROPERTIES
1002
{
1000
PbHidd
1002
}
  0
ARC
  5
22F
330
1F
100
AcDbEntity
  8
HIDDEN
100
AcDbCircle
 10
-26.48630005864612
 20
-53.54721560251798
 30
0.0
 40
384.6360132484079
100
AcDbArc
 50
8.009606201251831
 51
86.04433795422797
1001
DBPROPERTIES
1002
{
1000
PbHidd
1002
}
  0
ARC
  5
230
330
1F
100
AcDbEntity
  8
HIDDEN
100
AcDbCircle
 10
-15.90678535522788
 20
21.00082455842391
 30
0.0
 40
370.8966238219171
100
AcDbArc
 50
272.4653415248573
 51
356.7614133588025
1001
DBPROPERTIES
1002
{
1000
PbHidd
1002
}
  0
LINE
  5
231
330
1F
100
AcDbEntity
  8
HIDDEN
100
AcDbLine
 10
0.0474999999999798
 20
330.1725
 30
0.0
 11
0.0474999999999798
 21
330.1725
 31
0.0
1001
DBPROPERTIES
1002
{
1000
PbHidd
1002
}
  0
LINE
  5
232
330
1F
100
AcDbEntity
  8
HIDDEN
100
AcDbLine
 10
-474.9525
 20
0.0475000000000594
 30
0.0
 11
-474.9525
 21
0.0475000000000594
 31
0.0
1001
DBPROPERTIES
1002
{
1000
PbHidd
1002
}
  0
LINE
  5
233
330
1F
100
AcDbEntity
  8
HIDDEN
100
AcDbLine
 10
354.3974999999999
 20
0.0474999999992069
 30
0.0
 11
354.3974999999999
 21
0.0474999999992069
 31
0.0
1001
DBPROPERTIES
1002
{
1000
PbHidd
1002
}
  0
LINE
  5
234
330
1F
100
AcDbEntity
  8
HIDDEN
100
AcDbLine
 10
0.0475000000000214
 20
-349.5525
 30
0.0
 11
0.0475000000000214
 21
-349.5525
 31
0.0
1001
DBPROPERTIES
1002
{
1000
PbHidd
1002
}
  0
LINE
  5
235
330
1F
100
AcDbEntity
  8
HIDDEN
100
AcDbLine
 10
-500.0
 20
-0.0010000000000048
 30
0.0
 11
-500.0
 21
-0.0010000000000048
 31
0.0
1001
DBPROPERTIES
1002
{
1000
PbHidd
1002
}
  0
LINE
  5
236
330
1F
100
AcDbEntity
  8
THICK
100
AcDbLine
 10
-500.0
 20
370.0
 30
0.0
 11
-500.0
 21
-0.0010000000000048
 31
0.0
1001
DBPROPERTIES
1002
{
1000
PbThick
1002
}
  0
LINE
  5
237
330
1F
100
AcDbEntity
  8
HIDDEN
100
AcDbLine
 10
-500.0
 20
370.0
 30
0.0
 11
-500.0
 21
370.0
 31
0.0
1001
DBPROPERTIES
1002
{
1000
PbHidd
1002
}
  0
LINE
  5
238
330
1F
100
AcDbEntity
  8
HIDDEN
100
AcDbLine
 10
-499.999798983515
 20
-0.0010000000000048
 30
0.0
 11
-499.999798983515
 21
-0.0010000000000048
 31
0.0
1001
DBPROPERTIES
1002
{
1000
PbHidd
1002
}
  0
LINE
  5
239
330
1F
100
AcDbEntity
  8
THICK
100
AcDbLine
 10
-500.0
 20
-0.0010000000000048
 30
0.0
 11
-499.999798983515
 21
-0.0010000000000048
 31
0.0
1001
DBPROPERTIES
1002
{
1000
PbThick
1002
}
  0
LINE
  5
23A
330
1F
100
AcDbEntity
  8
THICK
100
AcDbLine
 10
-180.0
 20
303.201248668019
 30
0.0
 11
-180.0
 21
370.0
 31
0.0
1001
DBPROPERTIES
1002
{
1000
PbThick
1002
}
  0
LINE
  5
23B
330
1F
100
AcDbEntity
  8
HIDDEN
100
AcDbLine
 10
-180.0
 20
303.201248668019
 30
0.0
 11
-180.0
 21
303.201248668019
 31
0.0
1001
DBPROPERTIES
1002
{
1000
PbHidd
1002
}
  0
LINE
  5
23C
330
1F
100
AcDbEntity
  8
HIDDEN
100
AcDbLine
 10
-180.0
 20
370.0
 30
0.0
 11
-180.0
 21
370.0
 31
0.0
1001
DBPROPERTIES
1002
{
1000
PbHidd
1002
}
  0
LINE
  5
23D
330
1F
100
AcDbEntity
  8
THICK
100
AcDbLine
 10
-540.0
 20
370.0
 30
0.0
 11
-140.0
 21
370.0
 31
0.0
1001
DBPROPERTIES
1002
{
1000
PbThick
1002
}
  0
LINE
  5
23E
330
1F
100
AcDbEntity
  8
THICK
100
AcDbLine
 10
-140.0
 20
370.0
 30
0.0
 11
-140.0
 21
380.0
 31
0.0
1001
DBPROPERTIES
1002
{
1000
PbThick
1002
}
  0
LINE
  5
23F
330
1F
100
AcDbEntity
  8
THICK
100
AcDbLine
 10
-140.0
 20
380.0
 30
0.0
 11
-540.0
 21
380.0
 31
0.0
1001
DBPROPERTIES
1002
{
1000
PbThick
1002
}
  0
LINE
  5
240
330
1F
100
AcDbEntity
  8
THICK
100
AcDbLine
 10
-540.0
 20
380.0
 30
0.0
 11
-540.0
 21
370.0
 31
0.0
1001
DBPROPERTIES
1002
{
1000
PbThick
1002
}
  0
LINE
  5
241
330
1F
100
AcDbEntity
  8
HIDDEN
100
AcDbLine
 10
-540.0
 20
370.0
 30
0.0
 11
-540.0
 21
370.0
 31
0.0
1001
DBPROPERTIES
1002
{
1000
PbHidd
1002
}
  0
LINE
  5
242
330
1F
100
AcDbEntity
  8
HIDDEN
100
AcDbLine
 10
-140.0
 20
370.0
 30
0.0
 11
-140.0
 21
370.0
 31
0.0
1001
DBPROPERTIES
1002
{
1000
PbHidd
1002
}
  0
LINE
  5
243
330
1F
100
AcDbEntity
  8
HIDDEN
100
AcDbLine
 10
-540.0
 20
380.0
 30
0.0
 11
-540.0
 21
380.0
 31
0.0
1001
DBPROPERTIES
1002
{
1000
PbHidd
1002
}
  0
LINE
  5
244
330
1F
100
AcDbEntity
  8
HIDDEN
100
AcDbLine
 10
-140.0
 20
380.0
 30
0.0
 11
-140.0
 21
380.0
 31
0.0
1001
DBPROPERTIES
1002
{
1000
PbHidd
1002
}
  0
ARC
  5
245
330
1F
100
AcDbEntity
  8
THICK
100
AcDbCircle
 10
-47.65239999999999
 20
90.92880434782609
 30
0.0
 40
461.3961407357947
100
AcDbArc
 50
191.3659731172853
 51
275.9280119597304
1001
DBPROPERTIES
1002
{
1000
PbThick
1002
}
  0
LINE
  5
246
330
1F
100
AcDbEntity
  8
HIDDEN
100
AcDbLine
 10
0.0000000000000225
 20
-368.0
 30
0.0
 11
0.0000000000000225
 21
-368.0
 31
0.0
1001
DBPROPERTIES
1002
{
1000
PbHidd
1002
}
  0
ARC
  5
247
330
1F
100
AcDbEntity
  8
THICK
100
AcDbCircle
 10
55.48320312499999
 20
-265.7941771582734
 30
0.0
 40
615.7987768461819
100
AcDbArc
 50
95.16932109526097
 51
112.4826159738471
1001
DBPROPERTIES
1002
{
1000
PbThick
1002
}
  0
LINE
  5
248
330
1F
100
AcDbEntity
  8
HIDDEN
100
AcDbLine
 10
-0.0000000000000213
 20
347.5
 30
0.0
 11
-0.0000000000000213
 21
347.5
 31
0.0
1001
DBPROPERTIES
1002
{
1000
PbHidd
1002
}
  0
ARC
  5
249
330
1F
100
AcDbEntity
  8
THICK
100
AcDbCircle
 10
-27.93031585120644
 20
-56.41549010791366
 30
0.0
 40
404.8800139456926
100
AcDbArc
 50
8.009606201251831
 51
86.04433795422797
1001
DBPROPERTIES
1002
{
1000
PbThick
1002
}
  0
LINE
  5
24A
330
1F
100
AcDbEntity
  8
HIDDEN
100
AcDbLine
 10
372.9999999999999
 20
-0.0000000000008349
 30
0.0
 11
372.9999999999999
 21
-0.0000000000008349
 31
0.0
1001
DBPROPERTIES
1002
{
1000
PbHidd
1002
}
  0
ARC
  5
24B
330
1F
100
AcDbEntity
  8
THICK
100
AcDbCircle
 10
-16.7939845844504
 20
22.05613111413043
 30
0.0
 40
390.4174987599127
100
AcDbArc
 50
272.4653415248573
 51
356.7614133588025
1001
DBPROPERTIES
1002
{
1000
PbThick
1002
}
  0
LINE
  5
24C
330
1F
100
AcDbEntity
  8
HIDDEN
100
AcDbLine
 10
-189.0
 20
-0.0000000000000231
 30
0.0
 11
-188.4715118408203
 21
-14.12398815155029
 31
0.0
1001
DBPROPERTIES
1002
{
1000
PbHidd
1002
}
  0
LINE
  5
24D
330
1F
100
AcDbEntity
  8
HIDDEN
100
AcDbLine
 10
-188.4715118408203
 20
-14.12398815155029
 30
0.0
 11
-186.8890228271484
 21
-28.16898918151855
 31
0.0
1001
DBPROPERTIES
1002
{
1000
PbHidd
1002
}
  0
LINE
  5
24E
330
1F
100
AcDbEntity
  8
HIDDEN
100
AcDbLine
 10
-186.8890228271484
 20
-28.16898918151855
 30
0.0
 11
-184.2613677978516
 21
-42.05645751953125
 31
0.0
1001
DBPROPERTIES
1002
{
1000
PbHidd
1002
}
  0
LINE
  5
24F
330
1F
100
AcDbEntity
  8
HIDDEN
100
AcDbLine
 10
-184.2613677978516
 20
-42.05645751953125
 30
0.0
 11
-180.6032562255859
 21
-55.7087287902832
 31
0.0
1001
DBPROPERTIES
1002
{
1000
PbHidd
1002
}
  0
LINE
  5
250
330
1F
100
AcDbEntity
  8
HIDDEN
100
AcDbLine
 10
-180.6032562255859
 20
-55.7087287902832
 30
0.0
 11
-175.9351348876953
 21
-69.04945373535156
 31
0.0
1001
DBPROPERTIES
1002
{
1000
PbHidd
1002
}
  0
LINE
  5
251
330
1F
100
AcDbEntity
  8
HIDDEN
100
AcDbLine
 10
-175.9351348876953
 20
-69.04945373535156
 30
0.0
 11
-170.2831115722656
 21
-82.0040283203125
 31
0.0
1001
DBPROPERTIES
1002
{
1000
PbHidd
1002
}
  0
LINE
  5
252
330
1F
100
AcDbEntity
  8
HIDDEN
100
AcDbLine
 10
-170.2831115722656
 20
-82.0040283203125
 30
0.0
 11
-163.6788024902344
 21
-94.5
 31
0.0
1001
DBPROPERTIES
1002
{
1000
PbHidd
1002
}
  0
LINE
  5
253
330
1F
100
AcDbEntity
  8
HIDDEN
100
AcDbLine
 10
-163.6788024902344
 20
-94.5
 30
0.0
 11
-156.1591339111328
 21
-106.4674911499023
 31
0.0
1001
DBPROPERTIES
1002
{
1000
PbHidd
1002
}
  0
LINE
  5
254
330
1F
100
AcDbEntity
  8
HIDDEN
100
AcDbLine
 10
-156.1591339111328
 20
-106.4674911499023
 30
0.0
 11
-147.7661437988281
 21
-117.8395690917969
 31
0.0
1001
DBPROPERTIES
1002
{
1000
PbHidd
1002
}
  0
LINE
  5
255
330
1F
100
AcDbEntity
  8
HIDDEN
100
AcDbLine
 10
-147.7661437988281
 20
-117.8395690917969
 30
0.0
 11
-138.5467987060547
 21
-128.5526428222656
 31
0.0
1001
DBPROPERTIES
1002
{
1000
PbHidd
1002
}
  0
LINE
  5
256
330
1F
100
AcDbEntity
  8
HIDDEN
100
AcDbLine
 10
-138.5467987060547
 20
-128.5526428222656
 30
0.0
 11
-128.5526428222656
 21
-138.5467987060547
 31
0.0
1001
DBPROPERTIES
1002
{
1000
PbHidd
1002
}
  0
LINE
  5
257
330
1F
100
AcDbEntity
  8
HIDDEN
100
AcDbLine
 10
-128.5526428222656
 20
-138.5467987060547
 30
0.0
 11
-117.8395690917969
 21
-147.7661437988281
 31
0.0
1001
DBPROPERTIES
1002
{
1000
PbHidd
1002
}
  0
LINE
  5
258
330
1F
100
AcDbEntity
  8
HIDDEN
100
AcDbLine
 10
-117.8395690917969
 20
-147.7661437988281
 30
0.0
 11
-106.4674911499023
 21
-156.1591339111328
 31
0.0
1001
DBPROPERTIES
1002
{
1000
PbHidd
1002
}
  0
LINE
  5
259
330
1F
100
AcDbEntity
  8
HIDDEN
100
AcDbLine
 10
-106.4674911499023
 20
-156.1591339111328
 30
0.0
 11
-94.5
 21
-163.6788024902344
 31
0.0
1001
DBPROPERTIES
1002
{
1000
PbHidd
1002
}
  0
LINE
  5
25A
330
1F
100
AcDbEntity
  8
HIDDEN
100
AcDbLine
 10
-94.5
 20
-163.6788024902344
 30
0.0
 11
-82.0040283203125
 21
-170.2831115722656
 31
0.0
1001
DBPROPERTIES
1002
{
1000
PbHidd
1002
}
  0
LINE
  5
25B
330
1F
100
AcDbEntity
  8
HIDDEN
100
AcDbLine
 10
-82.0040283203125
 20
-170.2831115722656
 30
0.0
 11
-69.04945373535156
 21
-175.9351348876953
 31
0.0
1001
DBPROPERTIES
1002
{
1000
PbHidd
1002
}
  0
LINE
  5
25C
330
1F
100
AcDbEntity
  8
HIDDEN
100
AcDbLine
 10
-69.04945373535156
 20
-175.9351348876953
 30
0.0
 11
-55.7087287902832
 21
-180.6032562255859
 31
0.0
1001
DBPROPERTIES
1002
{
1000
PbHidd
1002
}
  0
LINE
  5
25D
330
1F
100
AcDbEntity
  8
HIDDEN
100
AcDbLine
 10
-55.7087287902832
 20
-180.6032562255859
 30
0.0
 11
-42.05645751953125
 21
-184.2613677978516
 31
0.0
1001
DBPROPERTIES
1002
{
1000
PbHidd
1002
}
  0
LINE
  5
25E
330
1F
100
AcDbEntity
  8
HIDDEN
100
AcDbLine
 10
-42.05645751953125
 20
-184.2613677978516
 30
0.0
 11
-28.16898918151855
 21
-186.8890228271484
 31
0.0
1001
DBPROPERTIES
1002
{
1000
PbHidd
1002
}
  0
LINE
  5
25F
330
1F
100
AcDbEntity
  8
HIDDEN
100
AcDbLine
 10
-28.16898918151855
 20
-186.8890228271484
 30
0.0
 11
-14.12398815155029
 21
-188.4715118408203
 31
0.0
1001
DBPROPERTIES
1002
{
1000
PbHidd
1002
}
  0
LINE
  5
260
330
1F
100
AcDbEntity
  8
HIDDEN
100
AcDbLine
 10
-14.12398815155029
 20
-188.4715118408203
 30
0.0
 11
0.0000000000000955
 21
-189.0
 31
0.0
1001
DBPROPERTIES
1002
{
1000
PbHidd
1002
}
  0
LINE
  5
261
330
1F
100
AcDbEntity
  8
HIDDEN
100
AcDbLine
 10
0.0000000000000955
 20
-189.0
 30
0.0
 11
14.12398815155029
 21
-188.4715118408203
 31
0.0
1001
DBPROPERTIES
1002
{
1000
PbHidd
1002
}
  0
LINE
  5
262
330
1F
100
AcDbEntity
  8
HIDDEN
100
AcDbLine
 10
14.12398815155029
 20
-188.4715118408203
 30
0.0
 11
28.16898918151855
 21
-186.8890228271484
 31
0.0
1001
DBPROPERTIES
1002
{
1000
PbHidd
1002
}
  0
LINE
  5
263
330
1F
100
AcDbEntity
  8
HIDDEN
100
AcDbLine
 10
28.16898918151855
 20
-186.8890228271484
 30
0.0
 11
42.05645751953125
 21
-184.2613677978516
 31
0.0
1001
DBPROPERTIES
1002
{
1000
PbHidd
1002
}
  0
LINE
  5
264
330
1F
100
AcDbEntity
  8
HIDDEN
100
AcDbLine
 10
42.05645751953125
 20
-184.2613677978516
 30
0.0
 11
55.7087287902832
 21
-180.6032562255859
 31
0.0
1001
DBPROPERTIES
1002
{
1000
PbHidd
1002
}
  0
LINE
  5
265
330
1F
100
AcDbEntity
  8
HIDDEN
100
AcDbLine
 10
55.7087287902832
 20
-180.6032562255859
 30
0.0
 11
69.04945373535156
 21
-175.9351348876953
 31
0.0
1001
DBPROPERTIES
1002
{
1000
PbHidd
1002
}
  0
LINE
  5
266
330
1F
100
AcDbEntity
  8
HIDDEN
100
AcDbLine
 10
69.04945373535156
 20
-175.9351348876953
 30
0.0
 11
82.0040283203125
 21
-170.2831115722656
 31
0.0
1001
DBPROPERTIES
1002
{
1000
PbHidd
1002
}
  0
LINE
  5
267
330
1F
100
AcDbEntity
  8
HIDDEN
100
AcDbLine
 10
82.0040283203125
 20
-170.2831115722656
 30
0.0
 11
94.5
 21
-163.6788024902344
 31
0.0
1001
DBPROPERTIES
1002
{
1000
PbHidd
1002
}
  0
LINE
  5
268
330
1F
100
AcDbEntity
  8
HIDDEN
100
AcDbLine
 10
94.5
 20
-163.6788024902344
 30
0.0
 11
106.4674911499023
 21
-156.1591339111328
 31
0.0
1001
DBPROPERTIES
1002
{
1000
PbHidd
1002
}
  0
LINE
  5
269
330
1F
100
AcDbEntity
  8
HIDDEN
100
AcDbLine
 10
106.4674911499023
 20
-156.1591339111328
 30
0.0
 11
117.8395690917969
 21
-147.7661437988281
 31
0.0
1001
DBPROPERTIES
1002
{
1000
PbHidd
1002
}
  0
LINE
  5
26A
330
1F
100
AcDbEntity
  8
HIDDEN
100
AcDbLine
 10
117.8395690917969
 20
-147.7661437988281
 30
0.0
 11
128.5526428222656
 21
-138.5467987060547
 31
0.0
1001
DBPROPERTIES
1002
{
1000
PbHidd
1002
}
  0
LINE
  5
26B
330
1F
100
AcDbEntity
  8
HIDDEN
100
AcDbLine
 10
128.5526428222656
 20
-138.5467987060547
 30
0.0
 11
138.5467987060547
 21
-128.5526428222656
 31
0.0
1001
DBPROPERTIES
1002
{
1000
PbHidd
1002
}
  0
LINE
  5
26C
330
1F
100
AcDbEntity
  8
HIDDEN
100
AcDbLine
 10
138.5467987060547
 20
-128.5526428222656
 30
0.0
 11
147.7661437988281
 21
-117.8395690917969
 31
0.0
1001
DBPROPERTIES
1002
{
1000
PbHidd
1002
}
  0
LINE
  5
26D
330
1F
100
AcDbEntity
  8
HIDDEN
100
AcDbLine
 10
147.7661437988281
 20
-117.8395690917969
 30
0.0
 11
156.1591339111328
 21
-106.4674911499023
 31
0.0
1001
DBPROPERTIES
1002
{
1000
PbHidd
1002
}
  0
LINE
  5
26E
330
1F
100
AcDbEntity
  8
HIDDEN
100
AcDbLine
 10
156.1591339111328
 20
-106.4674911499023
 30
0.0
 11
163.6788024902344
 21
-94.5
 31
0.0
1001
DBPROPERTIES
1002
{
1000
PbHidd
1002
}
  0
LINE
  5
26F
330
1F
100
AcDbEntity
  8
HIDDEN
100
AcDbLine
 10
163.6788024902344
 20
-94.5
 30
0.0
 11
170.2831115722656
 21
-82.0040283203125
 31
0.0
1001
DBPROPERTIES
1002
{
1000
PbHidd
1002
}
  0
LINE
  5
270
330
1F
100
AcDbEntity
  8
HIDDEN
100
AcDbLine
 10
170.2831115722656
 20
-82.0040283203125
 30
0.0
 11
175.9351348876953
 21
-69.04945373535156
 31
0.0
1001
DBPROPERTIES
1002
{
1000
PbHidd
1002
}
  0
LINE
  5
271
330
1F
100
AcDbEntity
  8
HIDDEN
100
AcDbLine
 10
175.9351348876953
 20
-69.04945373535156
 30
0.0
 11
180.6032562255859
 21
-55.7087287902832
 31
0.0
1001
DBPROPERTIES
1002
{
1000
PbHidd
1002
}
  0
LINE
  5
272
330
1F
100
AcDbEntity
  8
HIDDEN
100
AcDbLine
 10
180.6032562255859
 20
-55.7087287902832
 30
0.0
 11
184.2613677978516
 21
-42.05645751953125
 31
0.0
1001
DBPROPERTIES
1002
{
1000
PbHidd
1002
}
  0
LINE
  5
273
330
1F
100
AcDbEntity
  8
HIDDEN
100
AcDbLine
 10
184.2613677978516
 20
-42.05645751953125
 30
0.0
 11
186.8890228271484
 21
-28.16898918151855
 31
0.0
1001
DBPROPERTIES
1002
{
1000
PbHidd
1002
}
  0
LINE
  5
274
330
1F
100
AcDbEntity
  8
HIDDEN
100
AcDbLine
 10
186.8890228271484
 20
-28.16898918151855
 30
0.0
 11
188.4715118408203
 21
-14.12398815155029
 31
0.0
1001
DBPROPERTIES
1002
{
1000
PbHidd
1002
}
  0
LINE
  5
275
330
1F
100
AcDbEntity
  8
HIDDEN
100
AcDbLine
 10
188.4715118408203
 20
-14.12398815155029
 30
0.0
 11
189.0
 21
0.0
 31
0.0
1001
DBPROPERTIES
1002
{
1000
PbHidd
1002
}
  0
ARC
  5
276
330
1F
100
AcDbEntity
  8
HIDDEN
100
AcDbCircle
 10
0.0
 20
0.0
 30
0.0
 40
189.0
100
AcDbArc
 50
0.0
 51
180.0000198478428
1001
DBPROPERTIES
1002
{
1000
PbHidd
1002
}
  0
ENDSEC
  0
SECTION
  2
OBJECTS
  0
DICTIONARY
  5
C
330
0
100
AcDbDictionary
  3
ACAD_GROUP
350
D
  3
ACAD_LAYOUT
350
1A
  3
ACAD_MATERIAL
350
43
  3
ACAD_MLEADERSTYLE
350
6B
  3
ACAD_MLINESTYLE
350
17
  3
ACAD_PLOTSETTINGS
350
19
  3
ACAD_SCALELIST
350
47
  3
ACAD_VISUALSTYLE
350
2A
  3
ACDBVARIABLEDICTIONARY
350
277
1001
ACAD
1000
TREAT_AS_HARD
1070
     0
  0
DICTIONARY
  5
D
102
{ACAD_REACTORS
330
C
102
}
330
C
100
AcDbDictionary
1001
ACAD
1000
TREAT_AS_HARD
1070
     0
  0
DICTIONARY
  5
1A
102
{ACAD_REACTORS
330
C
102
}
330
C
100
AcDbDictionary
1001
ACAD
1000
TREAT_AS_HARD
1070
     0
  0
DICTIONARY
  5
43
102
{ACAD_REACTORS
330
C
102
}
330
C
100
AcDbDictionary
  3
BYBLOCK
350
45
  3
BYLAYER
350
44
  3
GLOBAL
350
46
1001
ACAD
1000
TREAT_AS_HARD
1070
     0
  0
DICTIONARY
  5
6B
102
{ACAD_REACTORS
330
C
102
}
330
C
100
AcDbDictionary
  3
STANDARD
350
6C
1001
ACAD
1000
TREAT_AS_HARD
1070
     0
  0
DICTIONARY
  5
17
102
{ACAD_REACTORS
330
C
102
}
330
C
100
AcDbDictionary
  3
STANDARD
350
18
1001
ACAD
1000
TREAT_AS_HARD
1070
     0
  0
DICTIONARY
  5
19
102
{ACAD_REACTORS
330
C
102
}
330
C
100
AcDbDictionary
1001
ACAD
1000
TREAT_AS_HARD
1070
     0
  0
DICTIONARY
  5
47
102
{ACAD_REACTORS
330
C
102
}
330
C
100
AcDbDictionary
  3
A0
350
48
  3
A1
350
49
  3
A2
350
4A
  3
A3
350
4B
  3
A4
350
4C
  3
A5
350
4D
  3
A6
350
4E
  3
A7
350
4F
  3
A8
350
50
  3
A9
350
51
  3
B0
350
52
  3
B1
350
53
  3
B2
350
54
  3
B3
350
55
  3
B4
350
56
  3
B5
350
57
  3
B6
350
58
  3
B7
350
59
  3
B8
350
5A
  3
B9
350
5B
  3
C0
350
5C
  3
C1
350
5D
  3
C2
350
5E
  3
C3
350
5F
  3
C4
350
60
  3
C5
350
61
  3
C6
350
62
  3
C7
350
63
  3
C8
350
64
  3
C9
350
65
  3
D0
350
66
  3
D1
350
67
  3
D2
350
68
1001
ACAD
1000
TREAT_AS_HARD
1070
     0
  0
DICTIONARY
  5
2A
102
{ACAD_REACTORS
330
C
102
}
330
C
100
AcDbDictionary
  3
2DWIREFRAME
350
2F
  3
BASIC
350
32
  3
BRIGHTEN
350
36
  3
COLORCHANGE
350
3A
  3
CONCEPTUAL
350
34
  3
DIM
350
35
  3
EDGECOLOROFF
350
3D
  3
FACEPATTERN
350
39
  3
FLAT
350
2B
  3
FLATWITHEDGES
350
2C
  3
GOURAUD
350
2D
  3
GOURAUDWITHEDGES
350
2E
  3
HIDDEN
350
31
  3
JITTEROFF
350
3B
  3
LINEPATTERN
350
38
  3
OVERHANGOFF
350
3C
  3
REALISTIC
350
33
  3
SHADED
350
42
  3
SHADED_WITH_EDGES
350
41
  3
SHADES_OF_GRAY
350
3E
  3
SKETCHY
350
3F
  3
THICKEN
350
37
  3
WIREFRAME
350
30
  3
X-RAY
350
40
1001
ACAD
1000
TREAT_AS_HARD
1070
     0
  0
DICTIONARY
  5
277
102
{ACAD_REACTORS
330
C
102
}
330
C
100
AcDbDictionary
  3
CANNOSCALE
350
282
  3
CENTEREXE
350
27E
  3
CENTERLTYPEFILE
350
27F
  3
CMLEADERSTYLE
350
279
  3
CTABLESTYLE
350
278
  3
DIMASSOC
350
280
  3
HIDETEXT
350
281
  3
MSLTSCALE
350
283
  3
PSOLHEIGHT
350
27B
  3
PSOLWIDTH
350
27A
1001
ACAD
1000
TREAT_AS_HARD
1070
     0
  0
MATERIAL
  5
45
102
{ACAD_REACTORS
330
43
102
}
102
{ACAD_XDICTIONARY
360
286
102
}
330
43
100
AcDbMaterial
  1
BYBLOCK
  0
MATERIAL
  5
44
102
{ACAD_REACTORS
330
43
102
}
102
{ACAD_XDICTIONARY
360
284
102
}
330
43
100
AcDbMaterial
  1
BYLAYER
  0
MATERIAL
  5
46
102
{ACAD_REACTORS
330
43
102
}
102
{ACAD_XDICTIONARY
360
288
102
}
330
43
100
AcDbMaterial
  1
GLOBAL
  0
ACAD_PROXY_OBJECT
  5
6C
102
{ACAD_REACTORS
330
6B
102
}
330
6B
100
AcDbZombieObject
 90
      499
 91
      505
 93
      610
310
40901902A4063FBFFFFFE0000000000000020400000000000020404214DD185B99185C990000000000000104090141901A00000000000004100000000000000041025764000000000000039000
340
14
340
0
340
11
340
0
 94
        0
1001
ACAD_MLEADERVER
1070
     2
  0
MLINESTYLE
  5
18
102
{ACAD_REACTORS
330
17
102
}
330
17
100
AcDbMlineStyle
  2
Standard
 70
     0
  3

 62
   256
 51
90.0
 52
90.0
 71
     2
 49
0.5
 62
   256
  6
BYLAYER
 49
-0.5
 62
   256
  6
BYLAYER
  0
ACAD_PROXY_OBJECT
  5
48
102
{ACAD_REACTORS
330
47
102
}
330
47
100
AcDbZombieObject
 90
      499
 91
      503
 93
       41
310
903313A31580
  0
ACAD_PROXY_OBJECT
  5
49
102
{ACAD_REACTORS
330
47
102
}
330
47
100
AcDbZombieObject
 90
      499
 91
      503
 93
      105
310
903313A324000000000000004000
  0
ACAD_PROXY_OBJECT
  5
4A
102
{ACAD_REACTORS
330
47
102
}
330
47
100
AcDbZombieObject
 90
      499
 91
      503
 93
      105
310
903313A344000000000000104000
  0
ACAD_PROXY_OBJECT
  5
4B
102
{ACAD_REACTORS
330
47
102
}
330
47
100
AcDbZombieObject
 90
      499
 91
      503
 93
      105
310
903313A354000000000000144000
  0
ACAD_PROXY_OBJECT
  5
4C
102
{ACAD_REACTORS
330
47
102
}
330
47
100
AcDbZombieObject
 90
      499
 91
      503
 93
      105
310
903313A384000000000000204000
  0
ACAD_PROXY_OBJECT
  5
4D
102
{ACAD_REACTORS
330
47
102
}
330
47
100
AcDbZombieObject
 90
      499
 91
      503
 93
      113
310
904313A31304000000000000244000
  0
ACAD_PROXY_OBJECT
  5
4E
102
{ACAD_REACTORS
330
47
102
}
330
47
100
AcDbZombieObject
 90
      499
 91
      503
 93
      113
310
904313A31364000000000000304000
  0
ACAD_PROXY_OBJECT
  5
4F
102
{ACAD_REACTORS
330
47
102
}
330
47
100
AcDbZombieObject
 90
      499
 91
      503
 93
      113
310
904313A32304000000000000344000
  0
ACAD_PROXY_OBJECT
  5
50
102
{ACAD_REACTORS
330
47
102
}
330
47
100
AcDbZombieObject
 90
      499
 91
      503
 93
      113
310
904313A333040000000000003E4000
  0
ACAD_PROXY_OBJECT
  5
51
102
{ACAD_REACTORS
330
47
102
}
330
47
100
AcDbZombieObject
 90
      499
 91
      503
 93
      113
310
904313A34304000000000000444000
  0
ACAD_PROXY_OBJECT
  5
52
102
{ACAD_REACTORS
330
47
102
}
330
47
100
AcDbZombieObject
 90
      499
 91
      503
 93
      113
310
904313A35304000000000000494000
  0
ACAD_PROXY_OBJECT
  5
53
102
{ACAD_REACTORS
330
47
102
}
330
47
100
AcDbZombieObject
 90
      499
 91
      503
 93
      121
310
905313A3130304000000000000594000
  0
ACAD_PROXY_OBJECT
  5
54
102
{ACAD_REACTORS
330
47
102
}
330
47
100
AcDbZombieObject
 90
      499
 91
      503
 93
      105
310
903323A310000000000000010100
  0
ACAD_PROXY_OBJECT
  5
55
102
{ACAD_REACTORS
330
47
102
}
330
47
100
AcDbZombieObject
 90
      499
 91
      503
 93
      105
310
903343A310000000000000410100
  0
ACAD_PROXY_OBJECT
  5
56
102
{ACAD_REACTORS
330
47
102
}
330
47
100
AcDbZombieObject
 90
      499
 91
      503
 93
      105
310
903383A310000000000000810100
  0
ACAD_PROXY_OBJECT
  5
57
102
{ACAD_REACTORS
330
47
102
}
330
47
100
AcDbZombieObject
 90
      499
 91
      503
 93
      113
310
90431303A310000000000000910100
  0
ACAD_PROXY_OBJECT
  5
58
102
{ACAD_REACTORS
330
47
102
}
330
47
100
AcDbZombieObject
 90
      499
 91
      503
 93
      121
310
9053130303A310000000000001650100
  0
ACAD_PROXY_OBJECT
  5
59
102
{ACAD_REACTORS
330
47
102
}
330
47
100
AcDbZombieObject
 90
      499
 91
      503
 93
      257
310
90E312F31323822203D2031272D3022000000000000200FC000000000000284000
  0
ACAD_PROXY_OBJECT
  5
5A
102
{ACAD_REACTORS
330
47
102
}
330
47
100
AcDbZombieObject
 90
      499
 91
      503
 93
      249
310
90D312F363422203D2031272D3022000000000000240FC000000000000284000
  0
ACAD_PROXY_OBJECT
  5
5B
102
{ACAD_REACTORS
330
47
102
}
330
47
100
AcDbZombieObject
 90
      499
 91
      503
 93
      249
310
90D312F333222203D2031272D3022000000000000280FC000000000000284000
  0
ACAD_PROXY_OBJECT
  5
5C
102
{ACAD_REACTORS
330
47
102
}
330
47
100
AcDbZombieObject
 90
      499
 91
      503
 93
      249
310
90D312F313622203D2031272D30220000000000002C0FC000000000000284000
  0
ACAD_PROXY_OBJECT
  5
5D
102
{ACAD_REACTORS
330
47
102
}
330
47
100
AcDbZombieObject
 90
      499
 91
      503
 93
      249
310
90D332F333222203D2031272D30220000000000002E0FC000000000000284000
  0
ACAD_PROXY_OBJECT
  5
5E
102
{ACAD_REACTORS
330
47
102
}
330
47
100
AcDbZombieObject
 90
      499
 91
      503
 93
      241
310
90C312F3822203D2031272D3022000000000000300FC000000000000284000
  0
ACAD_PROXY_OBJECT
  5
5F
102
{ACAD_REACTORS
330
47
102
}
330
47
100
AcDbZombieObject
 90
      499
 91
      503
 93
      249
310
90D332F313622203D2031272D3022000000000000320FC000000000000284000
  0
ACAD_PROXY_OBJECT
  5
60
102
{ACAD_REACTORS
330
47
102
}
330
47
100
AcDbZombieObject
 90
      499
 91
      503
 93
      241
310
90C312F3422203D2031272D3022000000000000340FC000000000000284000
  0
ACAD_PROXY_OBJECT
  5
61
102
{ACAD_REACTORS
330
47
102
}
330
47
100
AcDbZombieObject
 90
      499
 91
      503
 93
      241
310
90C332F3822203D2031272D3022000000000000360FC000000000000284000
  0
ACAD_PROXY_OBJECT
  5
62
102
{ACAD_REACTORS
330
47
102
}
330
47
100
AcDbZombieObject
 90
      499
 91
      503
 93
      241
310
90C312F3222203D2031272D3022000000000000380FC000000000000284000
  0
ACAD_PROXY_OBJECT
  5
63
102
{ACAD_REACTORS
330
47
102
}
330
47
100
AcDbZombieObject
 90
      499
 91
      503
 93
      241
310
90C332F3422203D2031272D30220000000000003A0FC000000000000284000
  0
ACAD_PROXY_OBJECT
  5
64
102
{ACAD_REACTORS
330
47
102
}
330
47
100
AcDbZombieObject
 90
      499
 91
      503
 93
      161
310
90A3122203D2031272D30224000000000000284000
  0
ACAD_PROXY_OBJECT
  5
65
102
{ACAD_REACTORS
330
47
102
}
330
47
100
AcDbZombieObject
 90
      499
 91
      503
 93
      257
310
90E312D312F3222203D2031272D30220000000000003E0FC000000000000284000
  0
ACAD_PROXY_OBJECT
  5
66
102
{ACAD_REACTORS
330
47
102
}
330
47
100
AcDbZombieObject
 90
      499
 91
      503
 93
      225
310
90A3322203D2031272D302200000000000002100000000000000284000
  0
ACAD_PROXY_OBJECT
  5
67
102
{ACAD_REACTORS
330
47
102
}
330
47
100
AcDbZombieObject
 90
      499
 91
      503
 93
      225
310
90A3622203D2031272D302200000000000006100000000000000284000
  0
ACAD_PROXY_OBJECT
  5
68
102
{ACAD_REACTORS
330
47
102
}
330
47
100
AcDbZombieObject
 90
      499
 91
      503
 93
      249
310
90D31272D3022203D2031272D30220000000000000A100000000000000284000
  0
ACAD_PROXY_OBJECT
  5
2F
102
{ACAD_REACTORS
330
2A
102
}
330
2A
100
AcDbZombieObject
 90
      499
 91
      501
 93
      436
310
42CC9915DA5C99599C985B595049028333333333333E33F0000000000000F90107901411070040501600405405064090741402480A0340
1001
ACAD
1000
AcDbSavedByObjectVersion
1070
     0
  0
ACAD_PROXY_OBJECT
  5
32
102
{ACAD_REACTORS
330
2A
102
}
330
2A
100
AcDbZombieObject
 90
      499
 91
      501
 93
      388
310
4150985CDA58D07406404333333333333E33F0000000000000F90107A41107004050150841D405064090741402480A0350
1001
ACAD
1000
AcDbSavedByObjectVersion
1070
     0
  0
ACAD_PROXY_OBJECT
  5
36
102
{ACAD_REACTORS
330
2A
102
}
330
2A
100
AcDbZombieObject
 90
      499
 91
      501
 93
      428
310
42109C9A59DA1D195B90C409028333333333333E33F0000000000000F9010790141107004050150841D405064090741402480A029950
1001
ACAD
1000
AcDbSavedByObjectVersion
1070
     0
  0
ACAD_PROXY_OBJECT
  5
3A
102
{ACAD_REACTORS
330
2A
102
}
330
2A
100
AcDbZombieObject
 90
      499
 91
      501
 93
      452
310
42D0DBDB1BDC90DA185B99D95104090240C333333333333E33F0000000000000F90108901411070040501508421405064090741402480A0350
1001
ACAD
1000
AcDbSavedByObjectVersion
1070
     0
  0
ACAD_PROXY_OBJECT
  5
34
102
{ACAD_REACTORS
330
2A
102
}
330
2A
100
AcDbZombieObject
 90
      499
 91
      501
 93
      500
310
4290DBDB98D95C1D1D585B10940D028333333333333E33F0000000000000F90107902409070040501000000000018199010841D405064090740C02480A0340
1001
ACAD
1000
AcDbSavedByObjectVersion
1070
     0
  0
ACAD_PROXY_OBJECT
  5
35
102
{ACAD_REACTORS
330
2A
102
}
330
2A
100
AcDbZombieObject
 90
      499
 91
      501
 93
      412
310
40D11A5B50B409028333333333333E33F0000000000000F9010790141107004050150841D405064090741402480A02677FFFFFD0
1001
ACAD
1000
AcDbSavedByObjectVersion
1070
     0
  0
ACAD_PROXY_OBJECT
  5
3D
102
{ACAD_REACTORS
330
2A
102
}
330
2A
100
AcDbZombieObject
 90
      499
 91
      501
 93
      452
310
43115919D950DBDB1BDC93D999916409028333333333333E33F0000000000000F9010790141107004050150841D405064090741402480A0350
1001
ACAD
1000
AcDbSavedByObjectVersion
1070
     0
  0
ACAD_PROXY_OBJECT
  5
39
102
{ACAD_REACTORS
330
2A
102
}
330
2A
100
AcDbZombieObject
 90
      499
 91
      501
 93
      444
310
42D19858D95C185D1D195C9B90F409028333333333333E33F0000000000000F9010790141107004050150841D405064090741402480A0350
1001
ACAD
1000
AcDbSavedByObjectVersion
1070
     0
  0
ACAD_PROXY_OBJECT
  5
2B
102
{ACAD_REACTORS
330
2A
102
}
330
2A
100
AcDbZombieObject
 90
      499
 91
      501
 93
      380
310
41119B185D240901404333333333333E33F0000000000000F9010740A907004050150841D405064090741402480A1B50
1001
ACAD
1000
AcDbSavedByObjectVersion
1070
     0
  0
ACAD_PROXY_OBJECT
  5
2C
102
{ACAD_REACTORS
330
2A
102
}
330
2A
100
AcDbZombieObject
 90
      499
 91
      501
 93
      468
310
43519B185D15DA5D1A115919D95CD0140901404333333333333E33F0000000000000F90107409019070040501600405405064090741402480A1B50
1001
ACAD
1000
AcDbSavedByObjectVersion
1070
     0
  0
ACAD_PROXY_OBJECT
  5
2D
102
{ACAD_REACTORS
330
2A
102
}
330
2A
100
AcDbZombieObject
 90
      499
 91
      501
 93
      404
310
41D1DBDD5C985D5910240902404333333333333E33F0000000000000F9010740A9070040501641D405064090741402480A1B50
1001
ACAD
1000
AcDbSavedByObjectVersion
1070
     0
  0
ACAD_PROXY_OBJECT
  5
2E
102
{ACAD_REACTORS
330
2A
102
}
330
2A
100
AcDbZombieObject
 90
      499
 91
      501
 93
      492
310
4411DBDD5C985D5915DA5D1A115919D95CD0340902404333333333333E33F0000000000000F90107409019070040501600405405064090741402480A1B50
1001
ACAD
1000
AcDbSavedByObjectVersion
1070
     0
  0
ACAD_PROXY_OBJECT
  5
31
102
{ACAD_REACTORS
330
2A
102
}
330
2A
100
AcDbZombieObject
 90
      499
 91
      501
 93
      476
310
41921A5919195B90640502408333333333333E33F0000000000000F901079024090700405020000000000001110200405405064090740C02480A0340
1001
ACAD
1000
AcDbSavedByObjectVersion
1070
     0
  0
ACAD_PROXY_OBJECT
  5
3B
102
{ACAD_REACTORS
330
2A
102
}
330
2A
100
AcDbZombieObject
 90
      499
 91
      501
 93
      428
310
42529A5D1D195C93D999914409028333333333333E33F0000000000000F9010790141107004050150A41D405064090741402480A0350
1001
ACAD
1000
AcDbSavedByObjectVersion
1070
     0
  0
ACAD_PROXY_OBJECT
  5
38
102
{ACAD_REACTORS
330
2A
102
}
330
2A
100
AcDbZombieObject
 90
      499
 91
      501
 93
      444
310
42D31A5B995C185D1D195C9B90E409028333333333333E33F0000000000000F9010790141107004050750841D405064090741402483A0350
1001
ACAD
1000
AcDbSavedByObjectVersion
1070
     0
  0
ACAD_PROXY_OBJECT
  5
3C
102
{ACAD_REACTORS
330
2A
102
}
330
2A
100
AcDbZombieObject
 90
      499
 91
      501
 93
      444
310
42D3DD995C9A185B99D3D999915409028333333333333E33F0000000000000F9010790141107004050150941D405064090741402480A0350
1001
ACAD
1000
AcDbSavedByObjectVersion
1070
     0
  0
ACAD_PROXY_OBJECT
  5
33
102
{ACAD_REACTORS
330
2A
102
}
330
2A
100
AcDbZombieObject
 90
      499
 91
      501
 93
      428
310
425499585B1A5CDD1A58D08409038333333333333E33F0000000000000F9010740A907004050150800405405064090740C02480A1B40
1001
ACAD
1000
AcDbSavedByObjectVersion
1070
     0
  0
ACAD_PROXY_OBJECT
  5
42
102
{ACAD_REACTORS
330
2A
102
}
330
2A
100
AcDbZombieObject
 90
      499
 91
      501
 93
      420
310
4194DA1859195911B40902404333333333333E33F0000000000000F9010740A41107004050150800405405064090840C02480A0B40
1001
ACAD
1000
AcDbSavedByObjectVersion
1070
     0
  0
ACAD_PROXY_OBJECT
  5
41
102
{ACAD_REACTORS
330
2A
102
}
330
2A
100
AcDbZombieObject
 90
      499
 91
      501
 93
      516
310
4454DA18591959081DDA5D1A08195919D95CD1A40902404333333333333E33F0000000000000F901074090142907004050250800405405064090740C02480A0B40
1001
ACAD
1000
AcDbSavedByObjectVersion
1070
     0
  0
ACAD_PROXY_OBJECT
  5
3E
102
{ACAD_REACTORS
330
2A
102
}
330
2A
100
AcDbZombieObject
 90
      499
 91
      501
 93
      532
310
4394DA1859195CC81BD98811DC985E5174090240C333333333333E33F0000000000000F901079024090741D01000000000000111010841D405064090740C02480A0340
1001
ACAD
1000
AcDbSavedByObjectVersion
1070
     0
  0
ACAD_PROXY_OBJECT
  5
3F
102
{ACAD_REACTORS
330
2A
102
}
330
2A
100
AcDbZombieObject
 90
      499
 91
      501
 93
      476
310
41D4DAD95D18DA1E51840502408333333333333E33F0000000000000F901079024090741D01000000000000111010B41D405064090741802480A0340
1001
ACAD
1000
AcDbSavedByObjectVersion
1070
     0
  0
ACAD_PROXY_OBJECT
  5
37
102
{ACAD_REACTORS
330
2A
102
}
330
2A
100
AcDbZombieObject
 90
      499
 91
      501
 93
      412
310
41D51A1A58DAD95B90D409028333333333333E33F0000000000000F9010790141107004050150C41D405064090741402480A0350
1001
ACAD
1000
AcDbSavedByObjectVersion
1070
     0
  0
ACAD_PROXY_OBJECT
  5
30
102
{ACAD_REACTORS
330
2A
102
}
330
2A
100
AcDbZombieObject
 90
      499
 91
      501
 93
      420
310
4255DA5C99599C985B595059028333333333333E33F0000000000000F90107901411070040501600405405064090740C02480A0340
1001
ACAD
1000
AcDbSavedByObjectVersion
1070
     0
  0
ACAD_PROXY_OBJECT
  5
40
102
{ACAD_REACTORS
330
2A
102
}
330
2A
100
AcDbZombieObject
 90
      499
 91
      501
 93
      404
310
41560B54985E51940902404000000000000E03F0000000000000F9010740501907004050150841D405064090740C02480A1B40
1001
ACAD
1000
AcDbSavedByObjectVersion
1070
     0
  0
DICTIONARYVAR
  5
282
102
{ACAD_REACTORS
330
277
102
}
330
277
100
DictionaryVariables
280
     0
  1
1:1
  0
DICTIONARYVAR
  5
27E
102
{ACAD_REACTORS
330
277
102
}
330
277
100
DictionaryVariables
280
     0
  1
3.500000
  0
DICTIONARYVAR
  5
27F
102
{ACAD_REACTORS
330
277
102
}
330
277
100
DictionaryVariables
280
     0
  1
acadiso.lin
  0
DICTIONARYVAR
  5
279
102
{ACAD_REACTORS
330
277
102
}
330
277
100
DictionaryVariables
280
     0
  1
Standard
  0
DICTIONARYVAR
  5
278
102
{ACAD_REACTORS
330
277
102
}
330
277
100
DictionaryVariables
280
     0
  1
Standard
  0
DICTIONARYVAR
  5
280
102
{ACAD_REACTORS
330
277
102
}
330
277
100
DictionaryVariables
280
     0
  1
2
  0
DICTIONARYVAR
  5
281
102
{ACAD_REACTORS
330
277
102
}
330
277
100
DictionaryVariables
280
     0
  1
1
  0
DICTIONARYVAR
  5
283
102
{ACAD_REACTORS
330
277
102
}
330
277
100
DictionaryVariables
280
     0
  1
1
  0
DICTIONARYVAR
  5
27B
102
{ACAD_REACTORS
330
277
102
}
330
277
100
DictionaryVariables
280
     0
  1
80.000000
  0
DICTIONARYVAR
  5
27A
102
{ACAD_REACTORS
330
277
102
}
330
277
100
DictionaryVariables
280
     0
  1
5.000000
  0
DICTIONARY
  5
286
330
45
100
AcDbDictionary
  3
ACAD_XREC_ROUNDTRIP
360
287
1001
ACAD
1000
TREAT_AS_HARD
1070
     1
  0
DICTIONARY
  5
284
330
44
100
AcDbDictionary
  3
ACAD_XREC_ROUNDTRIP
360
285
1001
ACAD
1000
TREAT_AS_HARD
1070
     1
  0
DICTIONARY
  5
288
330
46
100
AcDbDictionary
  3
ACAD_XREC_ROUNDTRIP
360
289
1001
ACAD
1000
TREAT_AS_HARD
1070
     1
  0
XRECORD
  5
287
102
{ACAD_REACTORS
330
286
102
}
330
286
100
AcDbXrecord
102
MATERIAL
148
0.0
149
0.0
149
0.0
 93
        0
 94
      127
282
     0
 72
     1
 77
     1
171
     1
175
     1
179
     1
273
     0
  0
XRECORD
  5
285
102
{ACAD_REACTORS
330
284
102
}
330
284
100
AcDbXrecord
102
MATERIAL
148
0.0
149
0.0
149
0.0
 93
        0
 94
      127
282
     0
 72
     1
 77
     1
171
     1
175
     1
179
     1
273
     0
  0
XRECORD
  5
289
102
{ACAD_REACTORS
330
288
102
}
330
288
100
AcDbXrecord
102
MATERIAL
148
0.0
149
0.0
149
0.0
 93
        0
 94
      127
282
     0
 72
     1
 77
     1
171
     1
175
     1
179
     1
273
     0
  0
ENDSEC
  0
EOF
