  0
SECTION
  2
HEADER
  9
$ACADVER
  1
AC1012
  9
$DWGCODEPAGE
  3
ansi_1252
  9
$INSBASE
 10
0.0
 20
0.0
 30
0.0
  9
$EXTMIN
 10
1.000000000000000E+20
 20
1.000000000000000E+20
 30
1.000000000000000E+20
  9
$EXTMAX
 10
-1.000000000000000E+20
 20
-1.000000000000000E+20
 30
-1.000000000000000E+20
  9
$LIMMIN
 10
0.0
 20
0.0
  9
$LIMMAX
 10
420.0
 20
297.0
  9
$ORTHOMODE
 70
     0
  9
$REGENMODE
 70
     1
  9
$FILLMODE
 70
     1
  9
$QTEXTMODE
 70
     0
  9
$MIRRTEXT
 70
     1
  9
$DRAGMODE
 70
     2
  9
$LTSCALE
 40
1.0
  9
$OSMODE
 70
    37
  9
$ATTMODE
 70
     1
  9
$TEXTSIZE
 40
2.5
  9
$TRACEWID
 40
1.0
  9
$TEXTSTYLE
  7
STANDARD
  9
$CLAYER
  8
0
  9
$CELTYPE
  6
BYLAYER
  9
$CECOLOR
 62
   256
  9
$CELTSCALE
 40
1.0
  9
$DELOBJ
 70
     1
  9
$DISPSILH
 70
     0
  9
$DIMSCALE
 40
1.0
  9
$DIMASZ
 40
2.5
  9
$DIMEXO
 40
0.625
  9
$DIMDLI
 40
3.75
  9
$DIMRND
 40
0.0
  9
$DIMDLE
 40
0.0
  9
$DIMEXE
 40
1.25
  9
$DIMTP
 40
0.0
  9
$DIMTM
 40
0.0
  9
$DIMTXT
 40
2.5
  9
$DIMCEN
 40
2.5
  9
$DIMTSZ
 40
0.0
  9
$DIMTOL
 70
     0
  9
$DIMLIM
 70
     0
  9
$DIMTIH
 70
     0
  9
$DIMTOH
 70
     0
  9
$DIMSE1
 70
     0
  9
$DIMSE2
 70
     0
  9
$DIMTAD
 70
     1
  9
$DIMZIN
 70
     8
  9
$DIMBLK
  1

  9
$DIMASO
 70
     1
  9
$DIMSHO
 70
     1
  9
$DIMPOST
  1

  9
$DIMAPOST
  1

  9
$DIMALT
 70
     0
  9
$DIMALTD
 70
     3
  9
$DIMALTF
 40
0.03937007874016
  9
$DIMLFAC
 40
1.0
  9
$DIMTOFL
 70
     1
  9
$DIMTVP
 40
0.0
  9
$DIMTIX
 70
     0
  9
$DIMSOXD
 70
     0
  9
$DIMSAH
 70
     0
  9
$DIMBLK1
  1

  9
$DIMBLK2
  1

  9
$DIMSTYLE
  2
ISO-25
  9
$DIMCLRD
 70
     0
  9
$DIMCLRE
 70
     0
  9
$DIMCLRT
 70
     0
  9
$DIMTFAC
 40
1.0
  9
$DIMGAP
 40
0.625
  9
$DIMJUST
 70
     0
  9
$DIMSD1
 70
     0
  9
$DIMSD2
 70
     0
  9
$DIMTOLJ
 70
     0
  9
$DIMTZIN
 70
     8
  9
$DIMALTZ
 70
     0
  9
$DIMALTTZ
 70
     0
  9
$DIMFIT
 70
     3
  9
$DIMUPT
 70
     0
  9
$DIMUNIT
 70
     2
  9
$DIMDEC
 70
     2
  9
$DIMTDEC
 70
     2
  9
$DIMALTU
 70
     2
  9
$DIMALTTD
 70
     3
  9
$DIMTXSTY
  7
STANDARD
  9
$DIMAUNIT
 70
     0
  9
$LUNITS
 70
     2
  9
$LUPREC
 70
     4
  9
$SKETCHINC
 40
1.0
  9
$FILLETRAD
 40
10.0
  9
$AUNITS
 70
     0
  9
$AUPREC
 70
     0
  9
$MENU
  1
.
  9
$ELEVATION
 40
0.0
  9
$PELEVATION
 40
0.0
  9
$THICKNESS
 40
0.0
  9
$LIMCHECK
 70
     0
  9
$CHAMFERA
 40
0.0
  9
$CHAMFERB
 40
0.0
  9
$CHAMFERC
 40
0.0
  9
$CHAMFERD
 40
0.0
  9
$SKPOLY
 70
     0
  9
$TDCREATE
 40
2458047.662151157
  9
$TDUPDATE
 40
2458047.662155845
  9
$TDINDWG
 40
0.0000000116
  9
$TDUSRTIMER
 40
0.0000000116
  9
$USRTIMER
 70
     1
  9
$ANGBASE
 50
0.0
  9
$ANGDIR
 70
     0
  9
$PDMODE
 70
     0
  9
$PDSIZE
 40
0.0
  9
$PLINEWID
 40
0.0
  9
$COORDS
 70
     1
  9
$SPLFRAME
 70
     0
  9
$SPLINETYPE
 70
     6
  9
$SPLINESEGS
 70
     8
  9
$ATTDIA
 70
     0
  9
$ATTREQ
 70
     1
  9
$HANDLING
 70
     1
  9
$HANDSEED
  5
616
  9
$SURFTAB1
 70
     6
  9
$SURFTAB2
 70
     6
  9
$SURFTYPE
 70
     6
  9
$SURFU
 70
     6
  9
$SURFV
 70
     6
  9
$UCSNAME
  2

  9
$UCSORG
 10
0.0
 20
0.0
 30
0.0
  9
$UCSXDIR
 10
1.0
 20
0.0
 30
0.0
  9
$UCSYDIR
 10
0.0
 20
1.0
 30
0.0
  9
$PUCSNAME
  2

  9
$PUCSORG
 10
0.0
 20
0.0
 30
0.0
  9
$PUCSXDIR
 10
1.0
 20
0.0
 30
0.0
  9
$PUCSYDIR
 10
0.0
 20
1.0
 30
0.0
  9
$USERI1
 70
     0
  9
$USERI2
 70
     0
  9
$USERI3
 70
     0
  9
$USERI4
 70
     0
  9
$USERI5
 70
     0
  9
$USERR1
 40
0.0
  9
$USERR2
 40
0.0
  9
$USERR3
 40
0.0
  9
$USERR4
 40
0.0
  9
$USERR5
 40
0.0
  9
$WORLDVIEW
 70
     1
  9
$SHADEDGE
 70
     3
  9
$SHADEDIF
 70
    70
  9
$TILEMODE
 70
     1
  9
$MAXACTVP
 70
    64
  9
$PINSBASE
 10
0.0
 20
0.0
 30
0.0
  9
$PLIMCHECK
 70
     0
  9
$PEXTMIN
 10
1.000000000000000E+20
 20
1.000000000000000E+20
 30
1.000000000000000E+20
  9
$PEXTMAX
 10
-1.000000000000000E+20
 20
-1.000000000000000E+20
 30
-1.000000000000000E+20
  9
$PLIMMIN
 10
0.0
 20
0.0
  9
$PLIMMAX
 10
420.0
 20
297.0
  9
$UNITMODE
 70
     0
  9
$VISRETAIN
 70
     1
  9
$PLINEGEN
 70
     0
  9
$PSLTSCALE
 70
     1
  9
$TREEDEPTH
 70
  3020
  9
$PICKSTYLE
 70
     1
  9
$CMLSTYLE
  2
STANDARD
  9
$CMLJUST
 70
     0
  9
$CMLSCALE
 40
20.0
  9
$SAVEIMAGES
 70
     1
  0
ENDSEC
  0
SECTION
  2
CLASSES
  0
CLASS
  1
ACDBDICTIONARYWDFLT
  2
AcDbDictionaryWithDefault
  3
ObjectDBX Classes
 90
    32768
280
     0
281
     0
  0
CLASS
  1
VISUALSTYLE
  2
AcDbVisualStyle
  3
ObjectDBX Classes
 90
     4095
280
     0
281
     0
  0
CLASS
  1
MATERIAL
  2
AcDbMaterial
  3
ObjectDBX Classes
 90
     1153
280
     0
281
     0
  0
CLASS
  1
SCALE
  2
AcDbScale
  3
ObjectDBX Classes
 90
     1153
280
     0
281
     0
  0
CLASS
  1
TABLESTYLE
  2
AcDbTableStyle
  3
ObjectDBX Classes
 90
     4095
280
     0
281
     0
  0
CLASS
  1
MLEADERSTYLE
  2
AcDbMLeaderStyle
  3
ACDB_MLEADERSTYLE_CLASS
 90
     4095
280
     0
281
     0
  0
CLASS
  1
SUN
  2
AcDbSun
  3
SCENEOE
 90
     1153
280
     0
281
     0
  0
CLASS
  1
DICTIONARYVAR
  2
AcDbDictionaryVar
  3
ObjectDBX Classes
 90
        0
280
     0
281
     0
  0
CLASS
  1
XRECORD
  2
AcDbXrecord
  3
ObjectDBX Classes
 90
    32768
280
     0
281
     0
  0
CLASS
  1
LWPOLYLINE
  2
AcDbPolyline
  3
ObjectDBX Classes
 90
    32768
280
     0
281
     1
  0
CLASS
  1
HATCH
  2
AcDbHatch
  3
ObjectDBX Classes
 90
    32768
280
     0
281
     1
  0
CLASS
  1
ACDBPLACEHOLDER
  2
AcDbPlaceHolder
  3
ObjectDBX Classes
 90
        0
280
     0
281
     0
  0
CLASS
  1
LAYOUT
  2
AcDbLayout
  3
ObjectDBX Classes
 90
        0
280
     0
281
     0
  0
ENDSEC
  0
SECTION
  2
TABLES
  0
TABLE
  2
VPORT
  5
8
330
0
100
AcDbSymbolTable
 70
     1
  0
VPORT
  5
29
330
8
100
AcDbSymbolTableRecord
100
AcDbViewportTableRecord
  2
*ACTIVE
 70
     0
 10
0.0
 20
0.0
 11
1.0
 21
1.0
 12
-0.0000000000000568
 22
10.24999999999994
 13
0.0
 23
0.0
 14
10.0
 24
10.0
 15
10.0
 25
10.0
 16
0.0
 26
0.0
 36
1.0
 17
0.0
 27
0.0
 37
0.0
 40
689.01
 41
0.9696521095484827
 42
50.0
 43
0.0
 44
0.0
 50
0.0
 51
0.0
 71
     0
 72
   100
 73
     1
 74
     3
 75
     0
 76
     0
 77
     0
 78
     0
  0
ENDTAB
  0
TABLE
  2
LTYPE
  5
5
330
0
100
AcDbSymbolTable
 70
     1
  0
LTYPE
  5
14
330
5
100
AcDbSymbolTableRecord
100
AcDbLinetypeTableRecord
  2
BYBLOCK
 70
     0
  3

 72
    65
 73
     0
 40
0.0
  0
LTYPE
  5
15
330
5
100
AcDbSymbolTableRecord
100
AcDbLinetypeTableRecord
  2
BYLAYER
 70
     0
  3

 72
    65
 73
     0
 40
0.0
  0
LTYPE
  5
16
330
5
100
AcDbSymbolTableRecord
100
AcDbLinetypeTableRecord
  2
CONTINUOUS
 70
     0
  3
Solid line
 72
    65
 73
     0
 40
0.0
  0
ENDTAB
  0
TABLE
  2
LAYER
  5
2
330
0
100
AcDbSymbolTable
 70
     4
  0
LAYER
  5
10
330
2
100
AcDbSymbolTableRecord
100
AcDbLayerTableRecord
  2
0
 70
     0
 62
     7
  6
CONTINUOUS
  0
LAYER
  5
6E
330
2
100
AcDbSymbolTableRecord
100
AcDbLayerTableRecord
  2
THICK
 70
     0
 62
     7
  6
CONTINUOUS
  0
LAYER
  5
6F
330
2
100
AcDbSymbolTableRecord
100
AcDbLayerTableRecord
  2
HIDDEN
 70
     0
 62
     7
  6
CONTINUOUS
  0
LAYER
  5
70
330
2
100
AcDbSymbolTableRecord
100
AcDbLayerTableRecord
  2
HASHLINES
 70
     0
 62
     7
  6
CONTINUOUS
  0
ENDTAB
  0
TABLE
  2
STYLE
  5
3
330
0
100
AcDbSymbolTable
 70
     1
  0
STYLE
  5
11
330
3
100
AcDbSymbolTableRecord
100
AcDbTextStyleTableRecord
  2
STANDARD
 70
     0
 40
0.0
 41
1.0
 50
0.0
 71
     0
 42
2.5
  3
txt
  4

  0
ENDTAB
  0
TABLE
  2
VIEW
  5
6
330
0
100
AcDbSymbolTable
 70
     0
  0
ENDTAB
  0
TABLE
  2
UCS
  5
7
330
0
100
AcDbSymbolTable
 70
     0
  0
ENDTAB
  0
TABLE
  2
APPID
  5
9
330
0
100
AcDbSymbolTable
 70
     3
  0
APPID
  5
12
330
9
100
AcDbSymbolTableRecord
100
AcDbRegAppTableRecord
  2
ACAD
 70
     0
  0
APPID
  5
71
330
9
100
AcDbSymbolTableRecord
100
AcDbRegAppTableRecord
  2
DBPROPERTIES
 70
     0
  0
APPID
  5
615
330
9
100
AcDbSymbolTableRecord
100
AcDbRegAppTableRecord
  2
ACAD_MLEADERVER
 70
     0
  0
ENDTAB
  0
TABLE
  2
DIMSTYLE
  5
A
330
0
100
AcDbSymbolTable
 70
     1
  0
DIMSTYLE
105
27
330
A
100
AcDbSymbolTableRecord
100
AcDbDimStyleTableRecord
  2
ISO-25
 70
     0
  3

  4

  5

  6

  7

 40
1.0
 41
2.5
 42
0.625
 43
3.75
 44
1.25
 45
0.0
 46
0.0
 47
0.0
 48
0.0
140
2.5
141
2.5
142
0.0
143
0.03937007874016
144
1.0
145
0.0
146
1.0
147
0.625
 71
     0
 72
     0
 73
     0
 74
     0
 75
     0
 76
     0
 77
     1
 78
     8
170
     0
171
     3
172
     1
173
     0
174
     0
175
     0
176
     0
177
     0
178
     0
270
     2
271
     2
272
     2
273
     2
274
     3
340
11
275
     0
280
     0
281
     0
282
     0
283
     0
284
     8
285
     0
286
     0
287
     3
288
     0
  0
ENDTAB
  0
TABLE
  2
BLOCK_RECORD
  5
1
330
0
100
AcDbSymbolTable
 70
     0
  0
BLOCK_RECORD
  5
1F
330
1
100
AcDbSymbolTableRecord
100
AcDbBlockTableRecord
  2
*MODEL_SPACE
  0
BLOCK_RECORD
  5
1B
330
1
100
AcDbSymbolTableRecord
100
AcDbBlockTableRecord
  2
*PAPER_SPACE
  0
ENDTAB
  0
ENDSEC
  0
SECTION
  2
BLOCKS
  0
BLOCK
  5
20
330
1F
100
AcDbEntity
  8
0
100
AcDbBlockBegin
  2
*MODEL_SPACE
 70
     0
 10
0.0
 20
0.0
 30
0.0
  3
*MODEL_SPACE
  1

  0
ENDBLK
  5
21
330
1F
100
AcDbEntity
  8
0
100
AcDbBlockEnd
  0
BLOCK
  5
1C
330
1B
100
AcDbEntity
 67
     1
  8
0
100
AcDbBlockBegin
  2
*PAPER_SPACE
 70
     0
 10
0.0
 20
0.0
 30
0.0
  3
*PAPER_SPACE
  1

  0
ENDBLK
  5
1D
330
1B
100
AcDbEntity
 67
     1
  8
0
100
AcDbBlockEnd
  0
ENDSEC
  0
SECTION
  2
ENTITIES
  0
ARC
  5
72
330
1F
100
AcDbEntity
  8
THICK
100
AcDbCircle
 10
0.0
 20
0.0
 30
0.0
 40
81.33333333333333
100
AcDbArc
 50
270.0000187239684
 51
0.0
1001
DBPROPERTIES
1002
{
1000
PbThick
1002
}
  0
ARC
  5
73
330
1F
100
AcDbEntity
  8
THICK
100
AcDbCircle
 10
0.0
 20
0.0
 30
0.0
 40
81.33333333333333
100
AcDbArc
 50
0.0
 51
89.99998127603165
1001
DBPROPERTIES
1002
{
1000
PbThick
1002
}
  0
ARC
  5
74
330
1F
100
AcDbEntity
  8
THICK
100
AcDbCircle
 10
0.0
 20
0.0
 30
0.0
 40
81.33333333333333
100
AcDbArc
 50
89.99998127603165
 51
270.0000187239684
1001
DBPROPERTIES
1002
{
1000
PbThick
1002
}
  0
ARC
  5
75
330
1F
100
AcDbEntity
  8
THICK
100
AcDbCircle
 10
0.0
 20
-0.0000000000000007
 30
0.0
 40
93.33333333333333
100
AcDbArc
 50
270.0000187239684
 51
0.0
1001
DBPROPERTIES
1002
{
1000
PbThick
1002
}
  0
ARC
  5
76
330
1F
100
AcDbEntity
  8
THICK
100
AcDbCircle
 10
0.0
 20
-0.0000000000000007
 30
0.0
 40
93.33333333333333
100
AcDbArc
 50
180.0000198478428
 51
270.0000187239684
1001
DBPROPERTIES
1002
{
1000
PbThick
1002
}
  0
ARC
  5
77
330
1F
100
AcDbEntity
  8
THICK
100
AcDbCircle
 10
0.0
 20
-0.0000000000000007
 30
0.0
 40
93.33333333333333
100
AcDbArc
 50
0.0
 51
89.99998127603165
1001
DBPROPERTIES
1002
{
1000
PbThick
1002
}
  0
ARC
  5
78
330
1F
100
AcDbEntity
  8
HIDDEN
100
AcDbCircle
 10
0.0
 20
0.0
 30
0.0
 40
18.66666666666667
100
AcDbArc
 50
0.0
 51
180.0000198478428
1001
DBPROPERTIES
1002
{
1000
PbHidd
1002
}
  0
ARC
  5
79
330
1F
100
AcDbEntity
  8
HIDDEN
100
AcDbCircle
 10
0.0000000000000573
 20
0.0
 30
0.0
 40
100.0
100
AcDbArc
 50
89.99998127603165
 51
92.99998829133665
1001
DBPROPERTIES
1002
{
1000
PbHidd
1002
}
  0
ARC
  5
7A
330
1F
100
AcDbEntity
  8
HIDDEN
100
AcDbCircle
 10
0.0000000000000573
 20
0.0
 30
0.0
 40
100.0
100
AcDbArc
 50
267.0000117086634
 51
270.0000187239684
1001
DBPROPERTIES
1002
{
1000
PbHidd
1002
}
  0
ARC
  5
7B
330
1F
100
AcDbEntity
  8
HIDDEN
100
AcDbCircle
 10
0.0000000000000528
 20
0.0
 30
0.0
 40
112.0
100
AcDbArc
 50
350.9999789540851
 51
0.0
1001
DBPROPERTIES
1002
{
1000
PbHidd
1002
}
  0
LINE
  5
7C
330
1F
100
AcDbEntity
  8
HIDDEN
100
AcDbLine
 10
110.6210941466555
 20
-17.52066008450596
 30
0.0
 11
110.6210941466555
 21
-17.52066008450596
 31
0.0
1001
DBPROPERTIES
1002
{
1000
PbHidd
1002
}
  0
ARC
  5
7D
330
1F
100
AcDbEntity
  8
HIDDEN
100
AcDbCircle
 10
0.0000000000000478
 20
0.0
 30
0.0
 40
114.2857142857143
100
AcDbArc
 50
180.0000198478428
 51
211.0280511812308
1001
DBPROPERTIES
1002
{
1000
PbHidd
1002
}
  0
ARC
  5
7E
330
1F
100
AcDbEntity
  8
THICK
100
AcDbCircle
 10
0.0000000000000478
 20
0.0
 30
0.0
 40
114.2857142857143
100
AcDbArc
 50
211.0280511812308
 51
225.635037210296
1001
DBPROPERTIES
1002
{
1000
PbThick
1002
}
  0
ARC
  5
7F
330
1F
100
AcDbEntity
  8
HIDDEN
100
AcDbCircle
 10
0.0000000000000478
 20
0.0
 30
0.0
 40
114.2857142857143
100
AcDbArc
 50
225.635037210296
 51
262.4566282806144
1001
DBPROPERTIES
1002
{
1000
PbHidd
1002
}
  0
ARC
  5
80
330
1F
100
AcDbEntity
  8
THICK
100
AcDbCircle
 10
0.0000000000000478
 20
0.0
 30
0.0
 40
114.2857142857143
100
AcDbArc
 50
262.4566282806144
 51
277.0636143096797
1001
DBPROPERTIES
1002
{
1000
PbThick
1002
}
  0
ARC
  5
81
330
1F
100
AcDbEntity
  8
HIDDEN
100
AcDbCircle
 10
0.0000000000000478
 20
0.0
 30
0.0
 40
114.2857142857143
100
AcDbArc
 50
277.0636143096797
 51
313.8852053799981
1001
DBPROPERTIES
1002
{
1000
PbHidd
1002
}
  0
ARC
  5
82
330
1F
100
AcDbEntity
  8
THICK
100
AcDbCircle
 10
0.0000000000000478
 20
0.0
 30
0.0
 40
114.2857142857143
100
AcDbArc
 50
313.8852053799981
 51
328.4921914090633
1001
DBPROPERTIES
1002
{
1000
PbThick
1002
}
  0
ARC
  5
83
330
1F
100
AcDbEntity
  8
HIDDEN
100
AcDbCircle
 10
0.0000000000000478
 20
0.0
 30
0.0
 40
114.2857142857143
100
AcDbArc
 50
328.4921914090633
 51
0.0
1001
DBPROPERTIES
1002
{
1000
PbHidd
1002
}
  0
LINE
  5
84
330
1F
100
AcDbEntity
  8
HIDDEN
100
AcDbLine
 10
-113.8512966456038
 20
-9.955236908814822
 30
0.0
 11
-113.8512966456038
 21
-9.955236908814822
 31
0.0
1001
DBPROPERTIES
1002
{
1000
PbHidd
1002
}
  0
LINE
  5
85
330
1F
100
AcDbEntity
  8
HIDDEN
100
AcDbLine
 10
-113.4331827925332
 20
-13.93332449028792
 30
0.0
 11
-113.4331827925332
 21
-13.93332449028792
 31
0.0
1001
DBPROPERTIES
1002
{
1000
PbHidd
1002
}
  0
LINE
  5
86
330
1F
100
AcDbEntity
  8
HIDDEN
100
AcDbLine
 10
9.95523690881482
 20
-113.8512966456039
 30
0.0
 11
9.95523690881482
 21
-113.8512966456039
 31
0.0
1001
DBPROPERTIES
1002
{
1000
PbHidd
1002
}
  0
LINE
  5
87
330
1F
100
AcDbEntity
  8
HIDDEN
100
AcDbLine
 10
13.93332449028791
 20
-113.4331827925332
 30
0.0
 11
13.93332449028791
 21
-113.4331827925332
 31
0.0
1001
DBPROPERTIES
1002
{
1000
PbHidd
1002
}
  0
LINE
  5
88
330
1F
100
AcDbEntity
  8
HIDDEN
100
AcDbLine
 10
-13.93332449028794
 20
-113.4331827925332
 30
0.0
 11
-13.93332449028794
 21
-113.4331827925332
 31
0.0
1001
DBPROPERTIES
1002
{
1000
PbHidd
1002
}
  0
LINE
  5
89
330
1F
100
AcDbEntity
  8
HIDDEN
100
AcDbLine
 10
-9.955236908814845
 20
-113.8512966456039
 30
0.0
 11
-9.955236908814845
 21
-113.8512966456039
 31
0.0
1001
DBPROPERTIES
1002
{
1000
PbHidd
1002
}
  0
LINE
  5
8A
330
1F
100
AcDbEntity
  8
HIDDEN
100
AcDbLine
 10
113.4331827925333
 20
-13.93332449028795
 30
0.0
 11
113.4331827925333
 21
-13.93332449028795
 31
0.0
1001
DBPROPERTIES
1002
{
1000
PbHidd
1002
}
  0
LINE
  5
8B
330
1F
100
AcDbEntity
  8
HIDDEN
100
AcDbLine
 10
113.8512966456039
 20
-9.955236908814857
 30
0.0
 11
113.8512966456039
 21
-9.955236908814857
 31
0.0
1001
DBPROPERTIES
1002
{
1000
PbHidd
1002
}
  0
ARC
  5
8C
330
1F
100
AcDbEntity
  8
HIDDEN
100
AcDbCircle
 10
0.0000000000000478
 20
0.0
 30
0.0
 40
70.0
100
AcDbArc
 50
180.0000198478428
 51
182.9999871674622
1001
DBPROPERTIES
1002
{
1000
PbHidd
1002
}
  0
LINE
  5
8D
330
1F
100
AcDbEntity
  8
HIDDEN
100
AcDbLine
 10
-69.90406743282011
 20
-3.663516937006028
 30
0.0
 11
-69.90406743282011
 21
-3.663516937006028
 31
0.0
1001
DBPROPERTIES
1002
{
1000
PbHidd
1002
}
  0
ARC
  5
8E
330
1F
100
AcDbEntity
  8
HIDDEN
100
AcDbCircle
 10
0.0000000000000528
 20
0.0
 30
0.0
 40
80.0
100
AcDbArc
 50
180.0000198478428
 51
182.9999871674622
1001
DBPROPERTIES
1002
{
1000
PbHidd
1002
}
  0
LINE
  5
8F
330
1F
100
AcDbEntity
  8
HIDDEN
100
AcDbLine
 10
-79.89036278036585
 20
-4.186876499435461
 30
0.0
 11
-79.89036278036585
 21
-4.186876499435461
 31
0.0
1001
DBPROPERTIES
1002
{
1000
PbHidd
1002
}
  0
ARC
  5
90
330
1F
100
AcDbEntity
  8
THICK
100
AcDbCircle
 10
0.0000000000000023
 20
0.0
 30
0.0
 40
164.9199925980745
100
AcDbArc
 50
256.7661833467137
 51
270.0000187239684
1001
DBPROPERTIES
1002
{
1000
PbThick
1002
}
  0
ARC
  5
91
330
1F
100
AcDbEntity
  8
HIDDEN
100
AcDbCircle
 10
0.0000000000000023
 20
0.0
 30
0.0
 40
164.9199925980745
100
AcDbArc
 50
231.4820142138265
 51
256.7661833467137
1001
DBPROPERTIES
1002
{
1000
PbHidd
1002
}
  0
ARC
  5
92
330
1F
100
AcDbEntity
  8
THICK
100
AcDbCircle
 10
0.0000000000000023
 20
0.0
 30
0.0
 40
164.9199925980745
100
AcDbArc
 50
205.33760624733
 51
231.4820142138265
1001
DBPROPERTIES
1002
{
1000
PbThick
1002
}
  0
ARC
  5
93
330
1F
100
AcDbEntity
  8
HIDDEN
100
AcDbCircle
 10
0.0000000000000023
 20
0.0
 30
0.0
 40
164.9199925980745
100
AcDbArc
 50
180.0534371144429
 51
205.33760624733
1001
DBPROPERTIES
1002
{
1000
PbHidd
1002
}
  0
ARC
  5
94
330
1F
100
AcDbEntity
  8
THICK
100
AcDbCircle
 10
0.0000000000000023
 20
0.0
 30
0.0
 40
164.9199925980745
100
AcDbArc
 50
153.9090115478525
 51
180.0534371144429
1001
DBPROPERTIES
1002
{
1000
PbThick
1002
}
  0
ARC
  5
95
330
1F
100
AcDbEntity
  8
HIDDEN
100
AcDbCircle
 10
0.0000000000000023
 20
0.0
 30
0.0
 40
164.9199925980745
100
AcDbArc
 50
128.6248424149654
 51
153.9090115478525
1001
DBPROPERTIES
1002
{
1000
PbHidd
1002
}
  0
ARC
  5
96
330
1F
100
AcDbEntity
  8
THICK
100
AcDbCircle
 10
0.0000000000000023
 20
0.0
 30
0.0
 40
164.9199925980745
100
AcDbArc
 50
102.4804344484688
 51
128.6248424149654
1001
DBPROPERTIES
1002
{
1000
PbThick
1002
}
  0
ARC
  5
97
330
1F
100
AcDbEntity
  8
HIDDEN
100
AcDbCircle
 10
0.0000000000000023
 20
0.0
 30
0.0
 40
164.9199925980745
100
AcDbArc
 50
89.99998127603165
 51
102.4804344484688
1001
DBPROPERTIES
1002
{
1000
PbHidd
1002
}
  0
ARC
  5
98
330
1F
100
AcDbEntity
  8
HIDDEN
100
AcDbCircle
 10
0.0000000000000029
 20
0.0
 30
0.0
 40
170.1199925980745
100
AcDbArc
 50
89.99998127603165
 51
95.32636882690633
1001
DBPROPERTIES
1002
{
1000
PbHidd
1002
}
  0
ARC
  5
99
330
1F
100
AcDbEntity
  8
HIDDEN
100
AcDbCircle
 10
0.0000000000000029
 20
0.0
 30
0.0
 40
170.1199925980745
100
AcDbArc
 50
95.32636882690633
 51
96.67362178637696
1001
DBPROPERTIES
1002
{
1000
PbHidd
1002
}
  0
ARC
  5
9A
330
1F
100
AcDbEntity
  8
THICK
100
AcDbCircle
 10
0.0000000000000029
 20
0.0
 30
0.0
 40
170.1199925980745
100
AcDbArc
 50
153.521692078344
 51
173.3263793374975
1001
DBPROPERTIES
1002
{
1000
PbThick
1002
}
  0
ARC
  5
9B
330
1F
100
AcDbEntity
  8
HIDDEN
100
AcDbCircle
 10
0.0000000000000029
 20
0.0
 30
0.0
 40
170.1199925980745
100
AcDbArc
 50
129.0225324205657
 51
153.521692078344
1001
DBPROPERTIES
1002
{
1000
PbHidd
1002
}
  0
ARC
  5
9C
330
1F
100
AcDbEntity
  8
THICK
100
AcDbCircle
 10
0.0000000000000029
 20
0.0
 30
0.0
 40
170.1199925980745
100
AcDbArc
 50
102.0931149789604
 51
129.0225324205657
1001
DBPROPERTIES
1002
{
1000
PbThick
1002
}
  0
ARC
  5
9D
330
1F
100
AcDbEntity
  8
HIDDEN
100
AcDbCircle
 10
0.0000000000000029
 20
0.0
 30
0.0
 40
170.1199925980745
100
AcDbArc
 50
96.67362178637696
 51
102.0931149789604
1001
DBPROPERTIES
1002
{
1000
PbHidd
1002
}
  0
ARC
  5
9E
330
1F
100
AcDbEntity
  8
THICK
100
AcDbCircle
 10
0.0000000000000029
 20
0.0
 30
0.0
 40
170.1199925980745
100
AcDbArc
 50
173.3263793374975
 51
174.6736322969682
1001
DBPROPERTIES
1002
{
1000
PbThick
1002
}
  0
ARC
  5
9F
330
1F
100
AcDbEntity
  8
HIDDEN
100
AcDbCircle
 10
0.0000000000000029
 20
0.0
 30
0.0
 40
170.1199925980745
100
AcDbArc
 50
180.4511271200432
 51
185.3263677030318
1001
DBPROPERTIES
1002
{
1000
PbHidd
1002
}
  0
ARC
  5
A0
330
1F
100
AcDbEntity
  8
THICK
100
AcDbCircle
 10
0.0000000000000029
 20
0.0
 30
0.0
 40
170.1199925980745
100
AcDbArc
 50
174.6736322969682
 51
180.4511271200432
1001
DBPROPERTIES
1002
{
1000
PbThick
1002
}
  0
ARC
  5
A1
330
1F
100
AcDbEntity
  8
HIDDEN
100
AcDbCircle
 10
0.0000000000000029
 20
0.0
 30
0.0
 40
170.1199925980745
100
AcDbArc
 50
185.3263677030318
 51
186.6736206625025
1001
DBPROPERTIES
1002
{
1000
PbHidd
1002
}
  0
ARC
  5
A2
330
1F
100
AcDbEntity
  8
THICK
100
AcDbCircle
 10
0.0000000000000029
 20
0.0
 30
0.0
 40
170.1199925980745
100
AcDbArc
 50
256.3788065814257
 51
263.326378213623
1001
DBPROPERTIES
1002
{
1000
PbThick
1002
}
  0
ARC
  5
A3
330
1F
100
AcDbEntity
  8
HIDDEN
100
AcDbCircle
 10
0.0000000000000029
 20
0.0
 30
0.0
 40
170.1199925980745
100
AcDbArc
 50
231.8797042194268
 51
256.3788065814257
1001
DBPROPERTIES
1002
{
1000
PbHidd
1002
}
  0
ARC
  5
A4
330
1F
100
AcDbEntity
  8
THICK
100
AcDbCircle
 10
0.0000000000000029
 20
0.0
 30
0.0
 40
170.1199925980745
100
AcDbArc
 50
204.9502294820421
 51
231.8797042194268
1001
DBPROPERTIES
1002
{
1000
PbThick
1002
}
  0
ARC
  5
A5
330
1F
100
AcDbEntity
  8
HIDDEN
100
AcDbCircle
 10
0.0000000000000029
 20
0.0
 30
0.0
 40
170.1199925980745
100
AcDbArc
 50
186.6736206625025
 51
204.9502294820421
1001
DBPROPERTIES
1002
{
1000
PbHidd
1002
}
  0
ARC
  5
A6
330
1F
100
AcDbEntity
  8
THICK
100
AcDbCircle
 10
0.0000000000000029
 20
0.0
 30
0.0
 40
170.1199925980745
100
AcDbArc
 50
263.326378213623
 51
264.6736311730937
1001
DBPROPERTIES
1002
{
1000
PbThick
1002
}
  0
ARC
  5
A7
330
1F
100
AcDbEntity
  8
THICK
100
AcDbCircle
 10
0.0000000000000029
 20
0.0
 30
0.0
 40
170.1199925980745
100
AcDbArc
 50
264.6736311730937
 51
270.0000187239684
1001
DBPROPERTIES
1002
{
1000
PbThick
1002
}
  0
ARC
  5
A8
330
1F
100
AcDbEntity
  8
HIDDEN
100
AcDbCircle
 10
0.0000000000000029
 20
0.0
 30
0.0
 40
158.9155497985024
100
AcDbArc
 50
270.0000187239684
 51
275.2789080736267
1001
DBPROPERTIES
1002
{
1000
PbHidd
1002
}
  0
ARC
  5
A9
330
1F
100
AcDbEntity
  8
THICK
100
AcDbCircle
 10
0.0000000000000023
 20
0.0
 30
0.0
 40
153.7155497985024
100
AcDbArc
 50
270.0000187239684
 51
275.2545000715541
1001
DBPROPERTIES
1002
{
1000
PbThick
1002
}
  0
ARC
  5
AA
330
1F
100
AcDbEntity
  8
HIDDEN
100
AcDbCircle
 10
0.0000000000000023
 20
0.0
 30
0.0
 40
153.7155497985024
100
AcDbArc
 50
84.74549992844591
 51
89.99998127603165
1001
DBPROPERTIES
1002
{
1000
PbHidd
1002
}
  0
ARC
  5
AB
330
1F
100
AcDbEntity
  8
HIDDEN
100
AcDbCircle
 10
0.0000000000000029
 20
0.0
 30
0.0
 40
158.9155497985024
100
AcDbArc
 50
84.72109192637333
 51
89.99998127603165
1001
DBPROPERTIES
1002
{
1000
PbHidd
1002
}
  0
ARC
  5
AC
330
1F
100
AcDbEntity
  8
THICK
100
AcDbCircle
 10
0.0
 20
0.0
 30
0.0
 40
280.0
100
AcDbArc
 50
179.9999801521572
 51
0.0
1001
DBPROPERTIES
1002
{
1000
PbThick
1002
}
  0
ARC
  5
AD
330
1F
100
AcDbEntity
  8
HIDDEN
100
AcDbCircle
 10
0.0
 20
0.0
 30
0.0
 40
317.5
100
AcDbArc
 50
0.0
 51
89.99998127603165
1001
DBPROPERTIES
1002
{
1000
PbHidd
1002
}
  0
ARC
  5
AE
330
1F
100
AcDbEntity
  8
HIDDEN
100
AcDbCircle
 10
0.0
 20
0.0
 30
0.0
 40
317.5
100
AcDbArc
 50
270.0000187239684
 51
0.0
1001
DBPROPERTIES
1002
{
1000
PbHidd
1002
}
  0
ARC
  5
AF
330
1F
100
AcDbEntity
  8
THICK
100
AcDbCircle
 10
0.0
 20
0.0
 30
0.0
 40
317.5
100
AcDbArc
 50
89.99998127603165
 51
180.0000198478428
1001
DBPROPERTIES
1002
{
1000
PbThick
1002
}
  0
ARC
  5
B0
330
1F
100
AcDbEntity
  8
THICK
100
AcDbCircle
 10
0.0000000000000012
 20
-0.0000000000000006
 30
0.0
 40
327.5
100
AcDbArc
 50
89.99998127603165
 51
180.0000198478428
1001
DBPROPERTIES
1002
{
1000
PbThick
1002
}
  0
ARC
  5
B1
330
1F
100
AcDbEntity
  8
THICK
100
AcDbCircle
 10
0.0000000000000012
 20
-0.0000000000000006
 30
0.0
 40
327.5
100
AcDbArc
 50
179.9999801521572
 51
270.0000187239684
1001
DBPROPERTIES
1002
{
1000
PbThick
1002
}
  0
ARC
  5
B2
330
1F
100
AcDbEntity
  8
THICK
100
AcDbCircle
 10
0.0
 20
0.0
 30
0.0
 40
317.5
100
AcDbArc
 50
180.0000198478428
 51
270.0000187239684
1001
DBPROPERTIES
1002
{
1000
PbThick
1002
}
  0
ARC
  5
B3
330
1F
100
AcDbEntity
  8
THICK
100
AcDbCircle
 10
0.0000000000000012
 20
-0.0000000000000006
 30
0.0
 40
327.5
100
AcDbArc
 50
270.0000187239684
 51
0.0
1001
DBPROPERTIES
1002
{
1000
PbThick
1002
}
  0
ARC
  5
B4
330
1F
100
AcDbEntity
  8
THICK
100
AcDbCircle
 10
310.0
 20
0.0
 30
0.0
 40
6.0
100
AcDbArc
 50
179.9999801521572
 51
0.0
1001
DBPROPERTIES
1002
{
1000
PbThick
1002
}
  0
ARC
  5
B5
330
1F
100
AcDbEntity
  8
THICK
100
AcDbCircle
 10
268.467875173176
 20
155.0
 30
0.0
 40
5.999999999999999
100
AcDbArc
 50
209.9999930094276
 51
30.00001285727039
1001
DBPROPERTIES
1002
{
1000
PbThick
1002
}
  0
ARC
  5
B6
330
1F
100
AcDbEntity
  8
THICK
100
AcDbCircle
 10
155.0
 20
268.467875173176
 30
0.0
 40
6.0
100
AcDbArc
 50
240.0000058666979
 51
60.00002571454078
1001
DBPROPERTIES
1002
{
1000
PbThick
1002
}
  0
ARC
  5
B7
330
1F
100
AcDbEntity
  8
THICK
100
AcDbCircle
 10
0.000000000000019
 20
310.0
 30
0.0
 40
6.0
100
AcDbArc
 50
270.0000187239684
 51
89.99998127603165
1001
DBPROPERTIES
1002
{
1000
PbThick
1002
}
  0
ARC
  5
B8
330
1F
100
AcDbEntity
  8
THICK
100
AcDbCircle
 10
-154.9999999999999
 20
268.467875173176
 30
0.0
 40
5.999999999999999
100
AcDbArc
 50
299.9999742854592
 51
119.999994133302
1001
DBPROPERTIES
1002
{
1000
PbThick
1002
}
  0
ARC
  5
B9
330
1F
100
AcDbEntity
  8
THICK
100
AcDbCircle
 10
-268.4678751731759
 20
155.0000000000001
 30
0.0
 40
5.999999999999999
100
AcDbArc
 50
329.9999871427296
 51
150.0000069905724
1001
DBPROPERTIES
1002
{
1000
PbThick
1002
}
  0
ARC
  5
BA
330
1F
100
AcDbEntity
  8
THICK
100
AcDbCircle
 10
-310.0
 20
0.000000000000038
 30
0.0
 40
6.0
100
AcDbArc
 50
0.0
 51
180.0000198478428
1001
DBPROPERTIES
1002
{
1000
PbThick
1002
}
  0
ARC
  5
BB
330
1F
100
AcDbEntity
  8
THICK
100
AcDbCircle
 10
-268.467875173176
 20
-154.9999999999999
 30
0.0
 40
6.0
100
AcDbArc
 50
30.00001285727039
 51
209.9999930094276
1001
DBPROPERTIES
1002
{
1000
PbThick
1002
}
  0
ARC
  5
BC
330
1F
100
AcDbEntity
  8
THICK
100
AcDbCircle
 10
-155.0000000000001
 20
-268.4678751731759
 30
0.0
 40
6.0
100
AcDbArc
 50
60.00002571454078
 51
240.0000058666979
1001
DBPROPERTIES
1002
{
1000
PbThick
1002
}
  0
ARC
  5
BD
330
1F
100
AcDbEntity
  8
THICK
100
AcDbCircle
 10
-0.0000000000000569
 20
-310.0
 30
0.0
 40
6.0
100
AcDbArc
 50
89.99998127603165
 51
270.0000187239684
1001
DBPROPERTIES
1002
{
1000
PbThick
1002
}
  0
ARC
  5
BE
330
1F
100
AcDbEntity
  8
THICK
100
AcDbCircle
 10
154.9999999999998
 20
-268.4678751731761
 30
0.0
 40
6.0
100
AcDbArc
 50
119.999994133302
 51
299.9999742854592
1001
DBPROPERTIES
1002
{
1000
PbThick
1002
}
  0
ARC
  5
BF
330
1F
100
AcDbEntity
  8
THICK
100
AcDbCircle
 10
268.4678751731759
 20
-155.0000000000001
 30
0.0
 40
6.0
100
AcDbArc
 50
150.0000069905724
 51
329.9999871427296
1001
DBPROPERTIES
1002
{
1000
PbThick
1002
}
  0
ARC
  5
C0
330
1F
100
AcDbEntity
  8
HIDDEN
100
AcDbCircle
 10
0.0
 20
0.0
 30
0.0
 40
282.0
100
AcDbArc
 50
179.9999801521572
 51
0.0
1001
DBPROPERTIES
1002
{
1000
PbHidd
1002
}
  0
ARC
  5
C1
330
1F
100
AcDbEntity
  8
HIDDEN
100
AcDbCircle
 10
0.0
 20
-0.0000000000000573
 30
0.0
 40
81.33333333333333
100
AcDbArc
 50
0.0
 51
89.99998127603165
1001
DBPROPERTIES
1002
{
1000
PbHidd
1002
}
  0
ARC
  5
C2
330
1F
100
AcDbEntity
  8
HIDDEN
100
AcDbCircle
 10
0.0
 20
-0.0000000000000573
 30
0.0
 40
81.33333333333333
100
AcDbArc
 50
270.0000187239684
 51
0.0
1001
DBPROPERTIES
1002
{
1000
PbHidd
1002
}
  0
ARC
  5
C3
330
1F
100
AcDbEntity
  8
HIDDEN
100
AcDbCircle
 10
0.0000000000000573
 20
-0.0000000000000366
 30
0.0
 40
100.0
100
AcDbArc
 50
267.0000117086634
 51
270.0000187239684
1001
DBPROPERTIES
1002
{
1000
PbHidd
1002
}
  0
ARC
  5
C4
330
1F
100
AcDbEntity
  8
HIDDEN
100
AcDbCircle
 10
0.0000000000000573
 20
-0.0000000000000366
 30
0.0
 40
100.0
100
AcDbArc
 50
89.99998127603165
 51
92.99998829133665
1001
DBPROPERTIES
1002
{
1000
PbHidd
1002
}
  0
LINE
  5
C5
330
1F
100
AcDbEntity
  8
HIDDEN
100
AcDbLine
 10
110.6210941466555
 20
17.52066008450592
 30
0.0
 11
110.6210941466555
 21
17.52066008450592
 31
0.0
1001
DBPROPERTIES
1002
{
1000
PbHidd
1002
}
  0
LINE
  5
C6
330
1F
100
AcDbEntity
  8
HIDDEN
100
AcDbLine
 10
-113.8512966456038
 20
9.955236908814776
 30
0.0
 11
-113.8512966456038
 21
9.955236908814776
 31
0.0
1001
DBPROPERTIES
1002
{
1000
PbHidd
1002
}
  0
LINE
  5
C7
330
1F
100
AcDbEntity
  8
HIDDEN
100
AcDbLine
 10
-113.4331827925332
 20
13.93332449028787
 30
0.0
 11
-113.4331827925332
 21
13.93332449028787
 31
0.0
1001
DBPROPERTIES
1002
{
1000
PbHidd
1002
}
  0
LINE
  5
C8
330
1F
100
AcDbEntity
  8
HIDDEN
100
AcDbLine
 10
9.95523690881482
 20
113.8512966456038
 30
0.0
 11
9.95523690881482
 21
113.8512966456038
 31
0.0
1001
DBPROPERTIES
1002
{
1000
PbHidd
1002
}
  0
LINE
  5
C9
330
1F
100
AcDbEntity
  8
HIDDEN
100
AcDbLine
 10
13.93332449028791
 20
113.4331827925332
 30
0.0
 11
13.93332449028791
 21
113.4331827925332
 31
0.0
1001
DBPROPERTIES
1002
{
1000
PbHidd
1002
}
  0
LINE
  5
CA
330
1F
100
AcDbEntity
  8
HIDDEN
100
AcDbLine
 10
-13.93332449028794
 20
113.4331827925332
 30
0.0
 11
-13.93332449028794
 21
113.4331827925332
 31
0.0
1001
DBPROPERTIES
1002
{
1000
PbHidd
1002
}
  0
LINE
  5
CB
330
1F
100
AcDbEntity
  8
HIDDEN
100
AcDbLine
 10
-9.955236908814845
 20
113.8512966456038
 30
0.0
 11
-9.955236908814845
 21
113.8512966456038
 31
0.0
1001
DBPROPERTIES
1002
{
1000
PbHidd
1002
}
  0
LINE
  5
CC
330
1F
100
AcDbEntity
  8
HIDDEN
100
AcDbLine
 10
113.4331827925333
 20
13.93332449028791
 30
0.0
 11
113.4331827925333
 21
13.93332449028791
 31
0.0
1001
DBPROPERTIES
1002
{
1000
PbHidd
1002
}
  0
LINE
  5
CD
330
1F
100
AcDbEntity
  8
HIDDEN
100
AcDbLine
 10
113.8512966456039
 20
9.955236908814811
 30
0.0
 11
113.8512966456039
 21
9.955236908814811
 31
0.0
1001
DBPROPERTIES
1002
{
1000
PbHidd
1002
}
  0
LINE
  5
CE
330
1F
100
AcDbEntity
  8
HIDDEN
100
AcDbLine
 10
-69.90406743282011
 20
3.663516937005992
 30
0.0
 11
-69.90406743282011
 21
3.663516937005982
 31
0.0
1001
DBPROPERTIES
1002
{
1000
PbHidd
1002
}
  0
LINE
  5
CF
330
1F
100
AcDbEntity
  8
HIDDEN
100
AcDbLine
 10
-79.89036278036585
 20
4.186876499435419
 30
0.0
 11
-79.89036278036585
 21
4.186876499435424
 31
0.0
1001
DBPROPERTIES
1002
{
1000
PbHidd
1002
}
  0
ARC
  5
D0
330
1F
100
AcDbEntity
  8
HIDDEN
100
AcDbCircle
 10
0.0000000000000023
 20
-0.0000000000000414
 30
0.0
 40
164.9199925980745
100
AcDbArc
 50
89.99998127603165
 51
270.0000187239684
1001
DBPROPERTIES
1002
{
1000
PbHidd
1002
}
  0
ARC
  5
D1
330
1F
100
AcDbEntity
  8
HIDDEN
100
AcDbCircle
 10
0.0000000000000029
 20
-0.0000000000000403
 30
0.0
 40
170.1199925980745
100
AcDbArc
 50
263.326378213623
 51
264.6736311730937
1001
DBPROPERTIES
1002
{
1000
PbHidd
1002
}
  0
ARC
  5
D2
330
1F
100
AcDbEntity
  8
HIDDEN
100
AcDbCircle
 10
0.0000000000000029
 20
-0.0000000000000403
 30
0.0
 40
170.1199925980745
100
AcDbArc
 50
185.3263677030318
 51
186.6736206625025
1001
DBPROPERTIES
1002
{
1000
PbHidd
1002
}
  0
ARC
  5
D3
330
1F
100
AcDbEntity
  8
HIDDEN
100
AcDbCircle
 10
0.0000000000000029
 20
-0.0000000000000403
 30
0.0
 40
170.1199925980745
100
AcDbArc
 50
173.3263793374975
 51
174.6736322969682
1001
DBPROPERTIES
1002
{
1000
PbHidd
1002
}
  0
ARC
  5
D4
330
1F
100
AcDbEntity
  8
HIDDEN
100
AcDbCircle
 10
0.0000000000000029
 20
-0.0000000000000403
 30
0.0
 40
170.1199925980745
100
AcDbArc
 50
95.32636882690633
 51
96.67362178637696
1001
DBPROPERTIES
1002
{
1000
PbHidd
1002
}
  0
ARC
  5
D5
330
1F
100
AcDbEntity
  8
HIDDEN
100
AcDbCircle
 10
0.0000000000000029
 20
-0.0000000000000403
 30
0.0
 40
170.1199925980745
100
AcDbArc
 50
89.99998127603165
 51
95.32636882690633
1001
DBPROPERTIES
1002
{
1000
PbHidd
1002
}
  0
ARC
  5
D6
330
1F
100
AcDbEntity
  8
HIDDEN
100
AcDbCircle
 10
0.0000000000000029
 20
-0.0000000000000403
 30
0.0
 40
158.9155497985024
100
AcDbArc
 50
84.72109192637333
 51
89.99998127603165
1001
DBPROPERTIES
1002
{
1000
PbHidd
1002
}
  0
ARC
  5
D7
330
1F
100
AcDbEntity
  8
HIDDEN
100
AcDbCircle
 10
0.0000000000000023
 20
-0.0000000000000414
 30
0.0
 40
153.7155497985024
100
AcDbArc
 50
84.74549992844591
 51
89.99998127603165
1001
DBPROPERTIES
1002
{
1000
PbHidd
1002
}
  0
ARC
  5
D8
330
1F
100
AcDbEntity
  8
HIDDEN
100
AcDbCircle
 10
0.0000000000000029
 20
-0.0000000000000403
 30
0.0
 40
158.9155497985024
100
AcDbArc
 50
270.0000187239684
 51
275.2789080736267
1001
DBPROPERTIES
1002
{
1000
PbHidd
1002
}
  0
LINE
  5
D9
330
1F
100
AcDbEntity
  8
HIDDEN
100
AcDbLine
 10
-14.88370777671026
 20
160.7425646847794
 30
0.0
 11
-18.86179535818335
 21
160.3244508317087
 31
0.0
1001
DBPROPERTIES
1002
{
1000
PbHidd
1002
}
  0
LINE
  5
DA
330
1F
100
AcDbEntity
  8
HIDDEN
100
AcDbLine
 10
27.22666169257255
 20
278.1779266819676
 30
0.0
 11
27.22666169257255
 21
278.1779266819676
 31
0.0
1001
DBPROPERTIES
1002
{
1000
PbHidd
1002
}
  0
LINE
  5
DB
330
1F
100
AcDbEntity
  8
HIDDEN
100
AcDbLine
 10
28.91952099094288
 20
278.0
 30
0.0
 11
28.91952099094287
 21
278.0
 31
0.0
1001
DBPROPERTIES
1002
{
1000
PbHidd
1002
}
  0
LINE
  5
DC
330
1F
100
AcDbEntity
  8
HIDDEN
100
AcDbLine
 10
31.20474927404565
 20
277.759812828897
 30
0.0
 11
31.20474927404565
 21
277.759812828897
 31
0.0
1001
DBPROPERTIES
1002
{
1000
PbHidd
1002
}
  0
ARC
  5
DD
330
1F
100
AcDbEntity
  8
HIDDEN
100
AcDbCircle
 10
0.0000000000000029
 20
-0.0000000000000403
 30
0.0
 40
158.9155497985024
100
AcDbArc
 50
186.7211188637188
 51
263.2788800124067
1001
DBPROPERTIES
1002
{
1000
PbHidd
1002
}
  0
ARC
  5
DE
330
1F
100
AcDbEntity
  8
HIDDEN
100
AcDbCircle
 10
0.0000000000000029
 20
-0.0000000000000403
 30
0.0
 40
158.9155497985024
100
AcDbArc
 50
174.7211304981845
 51
185.2788695018155
1001
DBPROPERTIES
1002
{
1000
PbHidd
1002
}
  0
ARC
  5
DF
330
1F
100
AcDbEntity
  8
HIDDEN
100
AcDbCircle
 10
0.0000000000000029
 20
-0.0000000000000403
 30
0.0
 40
158.9155497985024
100
AcDbArc
 50
264.72112937431
 51
270.0000187239684
1001
DBPROPERTIES
1002
{
1000
PbHidd
1002
}
  0
ARC
  5
E0
330
1F
100
AcDbEntity
  8
HIDDEN
100
AcDbCircle
 10
0.0000000000000029
 20
-0.0000000000000403
 30
0.0
 40
158.9155497985024
100
AcDbArc
 50
96.72111998759328
 51
173.2788811362812
1001
DBPROPERTIES
1002
{
1000
PbHidd
1002
}
  0
ARC
  5
E1
330
1F
100
AcDbEntity
  8
HIDDEN
100
AcDbCircle
 10
0.0000000000000029
 20
-0.0000000000000403
 30
0.0
 40
158.9155497985024
100
AcDbArc
 50
276.7211001397505
 51
353.2789185842179
1001
DBPROPERTIES
1002
{
1000
PbHidd
1002
}
  0
ARC
  5
E2
330
1F
100
AcDbEntity
  8
HIDDEN
100
AcDbCircle
 10
0.0000000000000029
 20
-0.0000000000000403
 30
0.0
 40
158.9155497985024
100
AcDbArc
 50
89.99998127603165
 51
95.27887062568999
1001
DBPROPERTIES
1002
{
1000
PbHidd
1002
}
  0
ARC
  5
E3
330
1F
100
AcDbEntity
  8
HIDDEN
100
AcDbCircle
 10
0.0000000000000029
 20
-0.0000000000000403
 30
0.0
 40
170.1199925980745
100
AcDbArc
 50
84.67359372515698
 51
89.99998127603165
1001
DBPROPERTIES
1002
{
1000
PbHidd
1002
}
  0
ARC
  5
E4
330
1F
100
AcDbEntity
  8
HIDDEN
100
AcDbCircle
 10
0.0000000000000029
 20
-0.0000000000000403
 30
0.0
 40
158.9155497985024
100
AcDbArc
 50
354.7211106503417
 51
5.278889349658327
1001
DBPROPERTIES
1002
{
1000
PbHidd
1002
}
  0
ARC
  5
E5
330
1F
100
AcDbEntity
  8
HIDDEN
100
AcDbCircle
 10
0.0000000000000023
 20
-0.0000000000000414
 30
0.0
 40
153.7155497985024
100
AcDbArc
 50
89.99998127603165
 51
95.25451991939693
1001
DBPROPERTIES
1002
{
1000
PbHidd
1002
}
  0
ARC
  5
E6
330
1F
100
AcDbEntity
  8
HIDDEN
100
AcDbCircle
 10
0.0000000000000029
 20
-0.0000000000000403
 30
0.0
 40
158.9155497985024
100
AcDbArc
 50
6.721081415782121
 51
83.27889986024954
1001
DBPROPERTIES
1002
{
1000
PbHidd
1002
}
  0
ARC
  5
E7
330
1F
100
AcDbEntity
  8
HIDDEN
100
AcDbCircle
 10
0.0000000000000023
 20
-0.0000000000000414
 30
0.0
 40
164.9199925980745
100
AcDbArc
 50
270.0000187239684
 51
89.99998127603165
1001
DBPROPERTIES
1002
{
1000
PbHidd
1002
}
  0
ARC
  5
E8
330
1F
100
AcDbEntity
  8
HIDDEN
100
AcDbCircle
 10
0.0000000000000029
 20
-0.0000000000000403
 30
0.0
 40
170.1199925980745
100
AcDbArc
 50
83.32639806146587
 51
84.67359372515698
1001
DBPROPERTIES
1002
{
1000
PbHidd
1002
}
  0
ARC
  5
E9
330
1F
100
AcDbEntity
  8
HIDDEN
100
AcDbCircle
 10
0.0000000000000029
 20
-0.0000000000000403
 30
0.0
 40
170.1199925980745
100
AcDbArc
 50
5.326387550874672
 51
6.673583214565777
1001
DBPROPERTIES
1002
{
1000
PbHidd
1002
}
  0
ARC
  5
EA
330
1F
100
AcDbEntity
  8
HIDDEN
100
AcDbCircle
 10
0.0000000000000029
 20
-0.0000000000000403
 30
0.0
 40
170.1199925980745
100
AcDbArc
 50
353.3264167854343
 51
354.6736124491253
1001
DBPROPERTIES
1002
{
1000
PbHidd
1002
}
  0
ARC
  5
EB
330
1F
100
AcDbEntity
  8
HIDDEN
100
AcDbCircle
 10
0.0000000000000029
 20
-0.0000000000000403
 30
0.0
 40
170.1199925980745
100
AcDbArc
 50
275.326406274843
 51
276.6736019385341
1001
DBPROPERTIES
1002
{
1000
PbHidd
1002
}
  0
LINE
  5
EC
330
1F
100
AcDbEntity
  8
HIDDEN
100
AcDbLine
 10
163.3102257485392
 20
19.17561294749216
 30
0.0
 11
163.7283396016098
 21
15.19752536601906
 31
0.0
1001
DBPROPERTIES
1002
{
1000
PbHidd
1002
}
  0
LINE
  5
ED
330
1F
100
AcDbEntity
  8
HIDDEN
100
AcDbLine
 10
15.19752536601912
 20
163.7283396016097
 30
0.0
 11
19.1756129474922
 21
163.3102257485391
 31
0.0
1001
DBPROPERTIES
1002
{
1000
PbHidd
1002
}
  0
LINE
  5
EE
330
1F
100
AcDbEntity
  8
HIDDEN
100
AcDbLine
 10
-19.17561294749225
 20
163.3102257485391
 30
0.0
 11
-15.19752536601915
 21
163.7283396016097
 31
0.0
1001
DBPROPERTIES
1002
{
1000
PbHidd
1002
}
  0
LINE
  5
EF
330
1F
100
AcDbEntity
  8
HIDDEN
100
AcDbLine
 10
-163.7283396016098
 20
15.19752536601901
 30
0.0
 11
-163.3102257485392
 21
19.17561294749211
 31
0.0
1001
DBPROPERTIES
1002
{
1000
PbHidd
1002
}
  0
LINE
  5
F0
330
1F
100
AcDbEntity
  8
HIDDEN
100
AcDbLine
 10
-163.3102257485392
 20
-19.17561294749235
 30
0.0
 11
-163.7283396016098
 21
-15.19752536601924
 31
0.0
1001
DBPROPERTIES
1002
{
1000
PbHidd
1002
}
  0
LINE
  5
F1
330
1F
100
AcDbEntity
  8
HIDDEN
100
AcDbLine
 10
-15.19752536601912
 20
-163.7283396016098
 30
0.0
 11
-19.17561294749222
 21
-163.3102257485392
 31
0.0
1001
DBPROPERTIES
1002
{
1000
PbHidd
1002
}
  0
LINE
  5
F2
330
1F
100
AcDbEntity
  8
HIDDEN
100
AcDbLine
 10
19.17561294749222
 20
-163.3102257485392
 30
0.0
 11
15.19752536601912
 21
-163.7283396016098
 31
0.0
1001
DBPROPERTIES
1002
{
1000
PbHidd
1002
}
  0
LINE
  5
F3
330
1F
100
AcDbEntity
  8
HIDDEN
100
AcDbLine
 10
163.7283396016097
 20
-15.19752536601922
 30
0.0
 11
163.3102257485392
 21
-19.17561294749231
 31
0.0
1001
DBPROPERTIES
1002
{
1000
PbHidd
1002
}
  0
LINE
  5
F4
330
1F
100
AcDbEntity
  8
HIDDEN
100
AcDbLine
 10
142.0278792060511
 20
12.91671507123081
 30
0.0
 11
141.6097653529805
 21
16.8948026527039
 31
0.0
1001
DBPROPERTIES
1002
{
1000
PbHidd
1002
}
  0
LINE
  5
F5
330
1F
100
AcDbEntity
  8
HIDDEN
100
AcDbLine
 10
267.8348989701377
 20
26.139565674589
 30
0.0
 11
267.8348989701377
 21
26.13956567458901
 31
0.0
1001
DBPROPERTIES
1002
{
1000
PbHidd
1002
}
  0
LINE
  5
F6
330
1F
100
AcDbEntity
  8
HIDDEN
100
AcDbLine
 10
278.1779266819677
 20
27.2266616925726
 30
0.0
 11
278.1779266819677
 21
27.2266616925726
 31
0.0
1001
DBPROPERTIES
1002
{
1000
PbHidd
1002
}
  0
LINE
  5
F7
330
1F
100
AcDbEntity
  8
HIDDEN
100
AcDbLine
 10
141.6097653529805
 20
-16.89480265270396
 30
0.0
 11
142.0278792060511
 21
-12.91671507123086
 31
0.0
1001
DBPROPERTIES
1002
{
1000
PbHidd
1002
}
  0
LINE
  5
F8
330
1F
100
AcDbEntity
  8
HIDDEN
100
AcDbLine
 10
267.416785117067
 20
-30.11765325606208
 30
0.0
 11
267.416785117067
 21
-30.11765325606207
 31
0.0
1001
DBPROPERTIES
1002
{
1000
PbHidd
1002
}
  0
LINE
  5
F9
330
1F
100
AcDbEntity
  8
HIDDEN
100
AcDbLine
 10
277.7598128288971
 20
-31.20474927404567
 30
0.0
 11
277.7598128288971
 21
-31.20474927404567
 31
0.0
1001
DBPROPERTIES
1002
{
1000
PbHidd
1002
}
  0
LINE
  5
FA
330
1F
100
AcDbEntity
  8
HIDDEN
100
AcDbLine
 10
113.4331827925333
 20
-13.93332449028796
 30
0.0
 11
113.4331827925333
 21
-13.93332449028796
 31
0.0
1001
DBPROPERTIES
1002
{
1000
PbHidd
1002
}
  0
LINE
  5
FB
330
1F
100
AcDbEntity
  8
HIDDEN
100
AcDbLine
 10
-12.91671507123085
 20
142.027879206051
 30
0.0
 11
-16.89480265270394
 21
141.6097653529804
 31
0.0
1001
DBPROPERTIES
1002
{
1000
PbHidd
1002
}
  0
LINE
  5
FC
330
1F
100
AcDbEntity
  8
HIDDEN
100
AcDbLine
 10
-27.20796084473105
 20
278.0
 30
0.0
 11
-27.20796084473105
 21
278.0
 31
0.0
1001
DBPROPERTIES
1002
{
1000
PbHidd
1002
}
  0
LINE
  5
FD
330
1F
100
AcDbEntity
  8
HIDDEN
100
AcDbLine
 10
-26.13956567458903
 20
267.8348989701376
 30
0.0
 11
-26.13956567458903
 21
267.8348989701376
 31
0.0
1001
DBPROPERTIES
1002
{
1000
PbHidd
1002
}
  0
LINE
  5
FE
330
1F
100
AcDbEntity
  8
HIDDEN
100
AcDbLine
 10
-27.22666169257262
 20
278.1779266819676
 30
0.0
 11
-27.22666169257262
 21
278.1779266819676
 31
0.0
1001
DBPROPERTIES
1002
{
1000
PbHidd
1002
}
  0
LINE
  5
FF
330
1F
100
AcDbEntity
  8
HIDDEN
100
AcDbLine
 10
16.89480265270392
 20
141.6097653529804
 30
0.0
 11
12.91671507123083
 21
142.027879206051
 31
0.0
1001
DBPROPERTIES
1002
{
1000
PbHidd
1002
}
  0
LINE
  5
100
330
1F
100
AcDbEntity
  8
HIDDEN
100
AcDbLine
 10
30.11765325606205
 20
267.416785117067
 30
0.0
 11
30.11765325606205
 21
267.416785117067
 31
0.0
1001
DBPROPERTIES
1002
{
1000
PbHidd
1002
}
  0
LINE
  5
101
330
1F
100
AcDbEntity
  8
HIDDEN
100
AcDbLine
 10
-142.0278792060511
 20
-12.91671507123089
 30
0.0
 11
-141.6097653529805
 21
-16.89480265270398
 31
0.0
1001
DBPROPERTIES
1002
{
1000
PbHidd
1002
}
  0
LINE
  5
102
330
1F
100
AcDbEntity
  8
HIDDEN
100
AcDbLine
 10
-267.8348989701377
 20
-26.13956567458905
 30
0.0
 11
-267.8348989701377
 21
-26.13956567458905
 31
0.0
1001
DBPROPERTIES
1002
{
1000
PbHidd
1002
}
  0
LINE
  5
103
330
1F
100
AcDbEntity
  8
HIDDEN
100
AcDbLine
 10
-278.1779266819677
 20
-27.22666169257264
 30
0.0
 11
-278.1779266819677
 21
-27.22666169257264
 31
0.0
1001
DBPROPERTIES
1002
{
1000
PbHidd
1002
}
  0
LINE
  5
104
330
1F
100
AcDbEntity
  8
HIDDEN
100
AcDbLine
 10
-113.8512966456038
 20
-9.955236908814879
 30
0.0
 11
-113.8512966456038
 21
-9.955236908814879
 31
0.0
1001
DBPROPERTIES
1002
{
1000
PbHidd
1002
}
  0
LINE
  5
105
330
1F
100
AcDbEntity
  8
HIDDEN
100
AcDbLine
 10
-141.6097653529805
 20
16.89480265270388
 30
0.0
 11
-142.0278792060511
 21
12.91671507123079
 31
0.0
1001
DBPROPERTIES
1002
{
1000
PbHidd
1002
}
  0
LINE
  5
106
330
1F
100
AcDbEntity
  8
HIDDEN
100
AcDbLine
 10
-267.416785117067
 20
30.11765325606203
 30
0.0
 11
-267.416785117067
 21
30.11765325606203
 31
0.0
1001
DBPROPERTIES
1002
{
1000
PbHidd
1002
}
  0
LINE
  5
107
330
1F
100
AcDbEntity
  8
HIDDEN
100
AcDbLine
 10
-277.7598128288971
 20
31.20474927404562
 30
0.0
 11
-277.7598128288971
 21
31.20474927404562
 31
0.0
1001
DBPROPERTIES
1002
{
1000
PbHidd
1002
}
  0
LINE
  5
108
330
1F
100
AcDbEntity
  8
HIDDEN
100
AcDbLine
 10
12.91671507123083
 20
-142.0278792060512
 30
0.0
 11
16.89480265270392
 21
-141.6097653529805
 31
0.0
1001
DBPROPERTIES
1002
{
1000
PbHidd
1002
}
  0
LINE
  5
109
330
1F
100
AcDbEntity
  8
HIDDEN
100
AcDbLine
 10
26.13956567458899
 20
-267.8348989701377
 30
0.0
 11
26.13956567458899
 21
-267.8348989701377
 31
0.0
1001
DBPROPERTIES
1002
{
1000
PbHidd
1002
}
  0
LINE
  5
10A
330
1F
100
AcDbEntity
  8
HIDDEN
100
AcDbLine
 10
27.22666169257259
 20
-278.1779266819677
 30
0.0
 11
27.22666169257259
 21
-278.1779266819677
 31
0.0
1001
DBPROPERTIES
1002
{
1000
PbHidd
1002
}
  0
LINE
  5
10B
330
1F
100
AcDbEntity
  8
HIDDEN
100
AcDbLine
 10
9.955236908814829
 20
-113.8512966456039
 30
0.0
 11
9.955236908814829
 21
-113.8512966456039
 31
0.0
1001
DBPROPERTIES
1002
{
1000
PbHidd
1002
}
  0
LINE
  5
10C
330
1F
100
AcDbEntity
  8
HIDDEN
100
AcDbLine
 10
-16.89480265270393
 20
-141.6097653529805
 30
0.0
 11
-12.91671507123084
 21
-142.0278792060512
 31
0.0
1001
DBPROPERTIES
1002
{
1000
PbHidd
1002
}
  0
LINE
  5
10D
330
1F
100
AcDbEntity
  8
HIDDEN
100
AcDbLine
 10
-30.11765325606209
 20
-267.4167851170671
 30
0.0
 11
-30.11765325606209
 21
-267.4167851170671
 31
0.0
1001
DBPROPERTIES
1002
{
1000
PbHidd
1002
}
  0
LINE
  5
10E
330
1F
100
AcDbEntity
  8
HIDDEN
100
AcDbLine
 10
-31.20474927404568
 20
-277.7598128288971
 30
0.0
 11
-31.20474927404568
 21
-277.7598128288971
 31
0.0
1001
DBPROPERTIES
1002
{
1000
PbHidd
1002
}
  0
LINE
  5
10F
330
1F
100
AcDbEntity
  8
HIDDEN
100
AcDbLine
 10
-13.93332449028793
 20
-113.4331827925333
 30
0.0
 11
-13.93332449028793
 21
-113.4331827925333
 31
0.0
1001
DBPROPERTIES
1002
{
1000
PbHidd
1002
}
  0
LINE
  5
110
330
1F
100
AcDbEntity
  8
HIDDEN
100
AcDbLine
 10
267.416785117067
 20
30.11765325606211
 30
0.0
 11
267.416785117067
 21
30.1176532560621
 31
0.0
1001
DBPROPERTIES
1002
{
1000
PbHidd
1002
}
  0
LINE
  5
111
330
1F
100
AcDbEntity
  8
HIDDEN
100
AcDbLine
 10
277.7598128288971
 20
31.20474927404569
 30
0.0
 11
277.7598128288971
 21
31.20474927404569
 31
0.0
1001
DBPROPERTIES
1002
{
1000
PbHidd
1002
}
  0
LINE
  5
112
330
1F
100
AcDbEntity
  8
HIDDEN
100
AcDbLine
 10
160.7425646847794
 20
14.88370777671023
 30
0.0
 11
160.3244508317088
 21
18.86179535818332
 31
0.0
1001
DBPROPERTIES
1002
{
1000
PbHidd
1002
}
  0
LINE
  5
113
330
1F
100
AcDbEntity
  8
HIDDEN
100
AcDbLine
 10
136.8563653501361
 20
12.37316706223901
 30
0.0
 11
136.4382514970654
 21
16.3512546437121
 31
0.0
1001
DBPROPERTIES
1002
{
1000
PbHidd
1002
}
  0
LINE
  5
114
330
1F
100
AcDbEntity
  8
HIDDEN
100
AcDbLine
 10
267.8348989701377
 20
-26.13956567458898
 30
0.0
 11
267.8348989701377
 21
-26.13956567458898
 31
0.0
1001
DBPROPERTIES
1002
{
1000
PbHidd
1002
}
  0
LINE
  5
115
330
1F
100
AcDbEntity
  8
HIDDEN
100
AcDbLine
 10
278.1779266819677
 20
-27.22666169257258
 30
0.0
 11
278.1779266819677
 21
-27.22666169257257
 31
0.0
1001
DBPROPERTIES
1002
{
1000
PbHidd
1002
}
  0
LINE
  5
116
330
1F
100
AcDbEntity
  8
HIDDEN
100
AcDbLine
 10
160.3244508317088
 20
-18.86179535818333
 30
0.0
 11
160.7425646847794
 21
-14.88370777671024
 31
0.0
1001
DBPROPERTIES
1002
{
1000
PbHidd
1002
}
  0
LINE
  5
117
330
1F
100
AcDbEntity
  8
HIDDEN
100
AcDbLine
 10
136.4382514970654
 20
-16.35125464371216
 30
0.0
 11
136.8563653501361
 21
-12.37316706223907
 31
0.0
1001
DBPROPERTIES
1002
{
1000
PbHidd
1002
}
  0
LINE
  5
118
330
1F
100
AcDbEntity
  8
HIDDEN
100
AcDbLine
 10
113.8512966456039
 20
-9.955236908814866
 30
0.0
 11
113.8512966456039
 21
-9.955236908814866
 31
0.0
1001
DBPROPERTIES
1002
{
1000
PbHidd
1002
}
  0
LINE
  5
119
330
1F
100
AcDbEntity
  8
HIDDEN
100
AcDbLine
 10
-30.11765325606213
 20
267.416785117067
 30
0.0
 11
-30.11765325606213
 21
267.416785117067
 31
0.0
1001
DBPROPERTIES
1002
{
1000
PbHidd
1002
}
  0
LINE
  5
11A
330
1F
100
AcDbEntity
  8
HIDDEN
100
AcDbLine
 10
-28.91952099094292
 20
278.0
 30
0.0
 11
-28.91952099094293
 21
278.0
 31
0.0
1001
DBPROPERTIES
1002
{
1000
PbHidd
1002
}
  0
LINE
  5
11B
330
1F
100
AcDbEntity
  8
HIDDEN
100
AcDbLine
 10
-31.20474927404571
 20
277.759812828897
 30
0.0
 11
-31.20474927404571
 21
277.759812828897
 31
0.0
1001
DBPROPERTIES
1002
{
1000
PbHidd
1002
}
  0
LINE
  5
11C
330
1F
100
AcDbEntity
  8
HIDDEN
100
AcDbLine
 10
-12.37316706223905
 20
136.856365350136
 30
0.0
 11
-16.35125464371214
 21
136.4382514970654
 31
0.0
1001
DBPROPERTIES
1002
{
1000
PbHidd
1002
}
  0
LINE
  5
11D
330
1F
100
AcDbEntity
  8
HIDDEN
100
AcDbLine
 10
26.13956567458896
 20
267.8348989701376
 30
0.0
 11
26.13956567458896
 21
267.8348989701376
 31
0.0
1001
DBPROPERTIES
1002
{
1000
PbHidd
1002
}
  0
LINE
  5
11E
330
1F
100
AcDbEntity
  8
HIDDEN
100
AcDbLine
 10
18.8617953581833
 20
160.3244508317087
 30
0.0
 11
14.88370777671021
 21
160.7425646847794
 31
0.0
1001
DBPROPERTIES
1002
{
1000
PbHidd
1002
}
  0
LINE
  5
11F
330
1F
100
AcDbEntity
  8
HIDDEN
100
AcDbLine
 10
16.35125464371212
 20
136.4382514970654
 30
0.0
 11
12.37316706223903
 21
136.856365350136
 31
0.0
1001
DBPROPERTIES
1002
{
1000
PbHidd
1002
}
  0
LINE
  5
120
330
1F
100
AcDbEntity
  8
HIDDEN
100
AcDbLine
 10
27.20796084473099
 20
278.0
 30
0.0
 11
27.20796084473099
 21
278.0
 31
0.0
1001
DBPROPERTIES
1002
{
1000
PbHidd
1002
}
  0
LINE
  5
121
330
1F
100
AcDbEntity
  8
HIDDEN
100
AcDbLine
 10
-267.416785117067
 20
-30.11765325606215
 30
0.0
 11
-267.416785117067
 21
-30.11765325606215
 31
0.0
1001
DBPROPERTIES
1002
{
1000
PbHidd
1002
}
  0
LINE
  5
122
330
1F
100
AcDbEntity
  8
HIDDEN
100
AcDbLine
 10
-277.7598128288971
 20
-31.20474927404574
 30
0.0
 11
-277.7598128288971
 21
-31.20474927404574
 31
0.0
1001
DBPROPERTIES
1002
{
1000
PbHidd
1002
}
  0
LINE
  5
123
330
1F
100
AcDbEntity
  8
HIDDEN
100
AcDbLine
 10
-160.7425646847794
 20
-14.88370777671029
 30
0.0
 11
-160.3244508317088
 21
-18.86179535818338
 31
0.0
1001
DBPROPERTIES
1002
{
1000
PbHidd
1002
}
  0
LINE
  5
124
330
1F
100
AcDbEntity
  8
HIDDEN
100
AcDbLine
 10
-136.8563653501361
 20
-12.37316706223909
 30
0.0
 11
-136.4382514970654
 21
-16.35125464371217
 31
0.0
1001
DBPROPERTIES
1002
{
1000
PbHidd
1002
}
  0
LINE
  5
125
330
1F
100
AcDbEntity
  8
HIDDEN
100
AcDbLine
 10
-113.4331827925332
 20
-13.93332449028798
 30
0.0
 11
-113.4331827925332
 21
-13.93332449028798
 31
0.0
1001
DBPROPERTIES
1002
{
1000
PbHidd
1002
}
  0
LINE
  5
126
330
1F
100
AcDbEntity
  8
HIDDEN
100
AcDbLine
 10
-267.8348989701377
 20
26.13956567458893
 30
0.0
 11
-267.8348989701377
 21
26.13956567458893
 31
0.0
1001
DBPROPERTIES
1002
{
1000
PbHidd
1002
}
  0
LINE
  5
127
330
1F
100
AcDbEntity
  8
HIDDEN
100
AcDbLine
 10
-278.1779266819677
 20
27.22666169257253
 30
0.0
 11
-278.1779266819677
 21
27.22666169257253
 31
0.0
1001
DBPROPERTIES
1002
{
1000
PbHidd
1002
}
  0
LINE
  5
128
330
1F
100
AcDbEntity
  8
HIDDEN
100
AcDbLine
 10
-160.3244508317088
 20
18.86179535818327
 30
0.0
 11
-160.7425646847794
 21
14.88370777671018
 31
0.0
1001
DBPROPERTIES
1002
{
1000
PbHidd
1002
}
  0
LINE
  5
129
330
1F
100
AcDbEntity
  8
HIDDEN
100
AcDbLine
 10
-136.4382514970654
 20
16.35125464371208
 30
0.0
 11
-136.8563653501361
 21
12.37316706223899
 31
0.0
1001
DBPROPERTIES
1002
{
1000
PbHidd
1002
}
  0
LINE
  5
12A
330
1F
100
AcDbEntity
  8
HIDDEN
100
AcDbLine
 10
30.11765325606209
 20
-267.4167851170671
 30
0.0
 11
30.11765325606209
 21
-267.4167851170671
 31
0.0
1001
DBPROPERTIES
1002
{
1000
PbHidd
1002
}
  0
LINE
  5
12B
330
1F
100
AcDbEntity
  8
HIDDEN
100
AcDbLine
 10
31.20474927404568
 20
-277.7598128288971
 30
0.0
 11
31.20474927404568
 21
-277.7598128288971
 31
0.0
1001
DBPROPERTIES
1002
{
1000
PbHidd
1002
}
  0
LINE
  5
12C
330
1F
100
AcDbEntity
  8
HIDDEN
100
AcDbLine
 10
14.88370777671024
 20
-160.7425646847795
 30
0.0
 11
18.86179535818333
 21
-160.3244508317088
 31
0.0
1001
DBPROPERTIES
1002
{
1000
PbHidd
1002
}
  0
LINE
  5
12D
330
1F
100
AcDbEntity
  8
HIDDEN
100
AcDbLine
 10
12.37316706223903
 20
-136.8563653501361
 30
0.0
 11
16.35125464371212
 21
-136.4382514970655
 31
0.0
1001
DBPROPERTIES
1002
{
1000
PbHidd
1002
}
  0
LINE
  5
12E
330
1F
100
AcDbEntity
  8
HIDDEN
100
AcDbLine
 10
13.93332449028793
 20
-113.4331827925333
 30
0.0
 11
13.93332449028793
 21
-113.4331827925333
 31
0.0
1001
DBPROPERTIES
1002
{
1000
PbHidd
1002
}
  0
LINE
  5
12F
330
1F
100
AcDbEntity
  8
HIDDEN
100
AcDbLine
 10
-26.13956567458899
 20
-267.8348989701377
 30
0.0
 11
-26.13956567458899
 21
-267.8348989701377
 31
0.0
1001
DBPROPERTIES
1002
{
1000
PbHidd
1002
}
  0
LINE
  5
130
330
1F
100
AcDbEntity
  8
HIDDEN
100
AcDbLine
 10
-27.22666169257259
 20
-278.1779266819677
 30
0.0
 11
-27.22666169257259
 21
-278.1779266819677
 31
0.0
1001
DBPROPERTIES
1002
{
1000
PbHidd
1002
}
  0
LINE
  5
131
330
1F
100
AcDbEntity
  8
HIDDEN
100
AcDbLine
 10
-18.86179535818332
 20
-160.3244508317088
 30
0.0
 11
-14.88370777671023
 21
-160.7425646847795
 31
0.0
1001
DBPROPERTIES
1002
{
1000
PbHidd
1002
}
  0
LINE
  5
132
330
1F
100
AcDbEntity
  8
HIDDEN
100
AcDbLine
 10
-16.35125464371213
 20
-136.4382514970655
 30
0.0
 11
-12.37316706223904
 21
-136.8563653501361
 31
0.0
1001
DBPROPERTIES
1002
{
1000
PbHidd
1002
}
  0
LINE
  5
133
330
1F
100
AcDbEntity
  8
HIDDEN
100
AcDbLine
 10
-9.955236908814836
 20
-113.8512966456039
 30
0.0
 11
-9.955236908814836
 21
-113.8512966456039
 31
0.0
1001
DBPROPERTIES
1002
{
1000
PbHidd
1002
}
  0
LINE
  5
134
330
1F
100
AcDbEntity
  8
HIDDEN
100
AcDbLine
 10
-79.89036278036586
 20
-4.186876499435576
 30
0.0
 11
-79.89036278036586
 21
-4.186876499435582
 31
0.0
1001
DBPROPERTIES
1002
{
1000
PbHidd
1002
}
  0
LINE
  5
135
330
1F
100
AcDbEntity
  8
HIDDEN
100
AcDbLine
 10
-77.27406610312542
 20
20.70552360820159
 30
0.0
 11
-77.27406610312542
 21
20.7055236082016
 31
0.0
1001
DBPROPERTIES
1002
{
1000
PbHidd
1002
}
  0
LINE
  5
136
330
1F
100
AcDbEntity
  8
HIDDEN
100
AcDbLine
 10
-79.01506724761097
 20
12.51475720321841
 30
0.0
 11
-79.01506724761097
 21
12.51475720321841
 31
0.0
1001
DBPROPERTIES
1002
{
1000
PbHidd
1002
}
  0
LINE
  5
137
330
1F
100
AcDbEntity
  8
HIDDEN
100
AcDbLine
 10
-79.01506724761097
 20
-12.51475720321852
 30
0.0
 11
-79.01506724761097
 21
-12.51475720321852
 31
0.0
1001
DBPROPERTIES
1002
{
1000
PbHidd
1002
}
  0
LINE
  5
138
330
1F
100
AcDbEntity
  8
HIDDEN
100
AcDbLine
 10
-77.2740661031254
 20
-20.7055236082017
 30
0.0
 11
-77.2740661031254
 21
-20.70552360820171
 31
0.0
1001
DBPROPERTIES
1002
{
1000
PbHidd
1002
}
  0
LINE
  5
139
330
1F
100
AcDbEntity
  8
HIDDEN
100
AcDbLine
 10
-71.2805219350694
 20
36.31923997916366
 30
0.0
 11
-71.2805219350694
 21
36.31923997916366
 31
0.0
1001
DBPROPERTIES
1002
{
1000
PbHidd
1002
}
  0
LINE
  5
13A
330
1F
100
AcDbEntity
  8
HIDDEN
100
AcDbLine
 10
-74.6864341197761
 20
28.66943596362394
 30
0.0
 11
-74.6864341197761
 21
28.66943596362393
 31
0.0
1001
DBPROPERTIES
1002
{
1000
PbHidd
1002
}
  0
LINE
  5
13B
330
1F
100
AcDbEntity
  8
HIDDEN
100
AcDbLine
 10
-74.6864341197761
 20
-28.66943596362406
 30
0.0
 11
-74.6864341197761
 21
-28.66943596362405
 31
0.0
1001
DBPROPERTIES
1002
{
1000
PbHidd
1002
}
  0
LINE
  5
13C
330
1F
100
AcDbEntity
  8
HIDDEN
100
AcDbLine
 10
-71.28052193506937
 20
-36.31923997916377
 30
0.0
 11
-71.28052193506937
 21
-36.31923997916377
 31
0.0
1001
DBPROPERTIES
1002
{
1000
PbHidd
1002
}
  0
LINE
  5
13D
330
1F
100
AcDbEntity
  8
HIDDEN
100
AcDbLine
 10
-62.17167691655765
 20
50.3456312839869
 30
0.0
 11
-62.17167691655765
 21
50.3456312839869
 31
0.0
1001
DBPROPERTIES
1002
{
1000
PbHidd
1002
}
  0
LINE
  5
13E
330
1F
100
AcDbEntity
  8
HIDDEN
100
AcDbLine
 10
-67.09364543563392
 20
43.57112280120207
 30
0.0
 11
-67.09364543563392
 21
43.57112280120207
 31
0.0
1001
DBPROPERTIES
1002
{
1000
PbHidd
1002
}
  0
LINE
  5
13F
330
1F
100
AcDbEntity
  8
HIDDEN
100
AcDbLine
 10
-67.09364543563387
 20
-43.57112280120221
 30
0.0
 11
-67.09364543563387
 21
-43.57112280120221
 31
0.0
1001
DBPROPERTIES
1002
{
1000
PbHidd
1002
}
  0
LINE
  5
140
330
1F
100
AcDbEntity
  8
HIDDEN
100
AcDbLine
 10
-62.17167691655762
 20
-50.34563128398704
 30
0.0
 11
-62.17167691655762
 21
-50.34563128398704
 31
0.0
1001
DBPROPERTIES
1002
{
1000
PbHidd
1002
}
  0
LINE
  5
141
330
1F
100
AcDbEntity
  8
HIDDEN
100
AcDbLine
 10
-50.345631283987
 20
62.17167691655759
 30
0.0
 11
-50.345631283987
 21
62.17167691655759
 31
0.0
1001
DBPROPERTIES
1002
{
1000
PbHidd
1002
}
  0
LINE
  5
142
330
1F
100
AcDbEntity
  8
HIDDEN
100
AcDbLine
 10
-56.56854249492379
 20
56.56854249492372
 30
0.0
 11
-56.56854249492379
 21
56.56854249492372
 31
0.0
1001
DBPROPERTIES
1002
{
1000
PbHidd
1002
}
  0
LINE
  5
143
330
1F
100
AcDbEntity
  8
HIDDEN
100
AcDbLine
 10
-56.56854249492376
 20
-56.56854249492383
 30
0.0
 11
-56.56854249492376
 21
-56.56854249492383
 31
0.0
1001
DBPROPERTIES
1002
{
1000
PbHidd
1002
}
  0
LINE
  5
144
330
1F
100
AcDbEntity
  8
HIDDEN
100
AcDbLine
 10
-50.34563128398696
 20
-62.17167691655769
 30
0.0
 11
-50.34563128398696
 21
-62.17167691655769
 31
0.0
1001
DBPROPERTIES
1002
{
1000
PbHidd
1002
}
  0
LINE
  5
145
330
1F
100
AcDbEntity
  8
HIDDEN
100
AcDbLine
 10
-36.31923997916376
 20
71.28052193506934
 30
0.0
 11
-36.31923997916376
 21
71.28052193506934
 31
0.0
1001
DBPROPERTIES
1002
{
1000
PbHidd
1002
}
  0
LINE
  5
146
330
1F
100
AcDbEntity
  8
HIDDEN
100
AcDbLine
 10
-43.57112280120217
 20
67.09364543563385
 30
0.0
 11
-43.57112280120217
 21
67.09364543563385
 31
0.0
1001
DBPROPERTIES
1002
{
1000
PbHidd
1002
}
  0
LINE
  5
147
330
1F
100
AcDbEntity
  8
HIDDEN
100
AcDbLine
 10
-43.57112280120214
 20
-67.09364543563395
 30
0.0
 11
-43.57112280120214
 21
-67.09364543563395
 31
0.0
1001
DBPROPERTIES
1002
{
1000
PbHidd
1002
}
  0
LINE
  5
148
330
1F
100
AcDbEntity
  8
HIDDEN
100
AcDbLine
 10
-36.31923997916372
 20
-71.28052193506947
 30
0.0
 11
-36.31923997916372
 21
-71.28052193506947
 31
0.0
1001
DBPROPERTIES
1002
{
1000
PbHidd
1002
}
  0
LINE
  5
149
330
1F
100
AcDbEntity
  8
HIDDEN
100
AcDbLine
 10
-20.70552360820171
 20
77.2740661031254
 30
0.0
 11
-20.70552360820171
 21
77.2740661031254
 31
0.0
1001
DBPROPERTIES
1002
{
1000
PbHidd
1002
}
  0
LINE
  5
14A
330
1F
100
AcDbEntity
  8
HIDDEN
100
AcDbLine
 10
-28.66943596362405
 20
74.68643411977605
 30
0.0
 11
-28.66943596362406
 21
74.68643411977605
 31
0.0
1001
DBPROPERTIES
1002
{
1000
PbHidd
1002
}
  0
LINE
  5
14B
330
1F
100
AcDbEntity
  8
HIDDEN
100
AcDbLine
 10
-28.669435963624
 20
-74.68643411977617
 30
0.0
 11
-28.66943596362399
 21
-74.68643411977617
 31
0.0
1001
DBPROPERTIES
1002
{
1000
PbHidd
1002
}
  0
LINE
  5
14C
330
1F
100
AcDbEntity
  8
HIDDEN
100
AcDbLine
 10
-20.70552360820164
 20
-77.27406610312549
 30
0.0
 11
-20.70552360820165
 21
-77.27406610312549
 31
0.0
1001
DBPROPERTIES
1002
{
1000
PbHidd
1002
}
  0
LINE
  5
14D
330
1F
100
AcDbEntity
  8
HIDDEN
100
AcDbLine
 10
-4.186876499435529
 20
79.89036278036588
 30
0.0
 11
-4.186876499435524
 21
79.89036278036588
 31
0.0
1001
DBPROPERTIES
1002
{
1000
PbHidd
1002
}
  0
LINE
  5
14E
330
1F
100
AcDbEntity
  8
HIDDEN
100
AcDbLine
 10
-12.51475720321848
 20
79.01506724761096
 30
0.0
 11
-12.51475720321849
 21
79.01506724761096
 31
0.0
1001
DBPROPERTIES
1002
{
1000
PbHidd
1002
}
  0
LINE
  5
14F
330
1F
100
AcDbEntity
  8
HIDDEN
100
AcDbLine
 10
-12.51475720321845
 20
-79.01506724761106
 30
0.0
 11
-12.51475720321844
 21
-79.01506724761106
 31
0.0
1001
DBPROPERTIES
1002
{
1000
PbHidd
1002
}
  0
LINE
  5
150
330
1F
100
AcDbEntity
  8
HIDDEN
100
AcDbLine
 10
-4.186876499435486
 20
-79.89036278036596
 30
0.0
 11
-4.186876499435491
 21
-79.89036278036596
 31
0.0
1001
DBPROPERTIES
1002
{
1000
PbHidd
1002
}
  0
LINE
  5
151
330
1F
100
AcDbEntity
  8
HIDDEN
100
AcDbLine
 10
12.5147572032184
 20
79.01506724761099
 30
0.0
 11
12.51475720321841
 21
79.01506724761099
 31
0.0
1001
DBPROPERTIES
1002
{
1000
PbHidd
1002
}
  0
LINE
  5
152
330
1F
100
AcDbEntity
  8
HIDDEN
100
AcDbLine
 10
4.186876499435447
 20
79.89036278036589
 30
0.0
 11
4.186876499435441
 21
79.89036278036589
 31
0.0
1001
DBPROPERTIES
1002
{
1000
PbHidd
1002
}
  0
LINE
  5
153
330
1F
100
AcDbEntity
  8
HIDDEN
100
AcDbLine
 10
4.186876499435513
 20
-79.89036278036598
 30
0.0
 11
4.186876499435519
 21
-79.89036278036598
 31
0.0
1001
DBPROPERTIES
1002
{
1000
PbHidd
1002
}
  0
LINE
  5
154
330
1F
100
AcDbEntity
  8
HIDDEN
100
AcDbLine
 10
12.51475720321848
 20
-79.01506724761107
 30
0.0
 11
12.51475720321848
 21
-79.01506724761107
 31
0.0
1001
DBPROPERTIES
1002
{
1000
PbHidd
1002
}
  0
LINE
  5
155
330
1F
100
AcDbEntity
  8
HIDDEN
100
AcDbLine
 10
28.66943596362398
 20
74.68643411977614
 30
0.0
 11
28.66943596362399
 21
74.68643411977614
 31
0.0
1001
DBPROPERTIES
1002
{
1000
PbHidd
1002
}
  0
LINE
  5
156
330
1F
100
AcDbEntity
  8
HIDDEN
100
AcDbLine
 10
20.70552360820163
 20
77.27406610312543
 30
0.0
 11
20.70552360820162
 21
77.27406610312543
 31
0.0
1001
DBPROPERTIES
1002
{
1000
PbHidd
1002
}
  0
LINE
  5
157
330
1F
100
AcDbEntity
  8
HIDDEN
100
AcDbLine
 10
20.70552360820167
 20
-77.2740661031255
 30
0.0
 11
20.70552360820167
 21
-77.2740661031255
 31
0.0
1001
DBPROPERTIES
1002
{
1000
PbHidd
1002
}
  0
LINE
  5
158
330
1F
100
AcDbEntity
  8
HIDDEN
100
AcDbLine
 10
28.66943596362404
 20
-74.6864341197762
 30
0.0
 11
28.66943596362403
 21
-74.6864341197762
 31
0.0
1001
DBPROPERTIES
1002
{
1000
PbHidd
1002
}
  0
LINE
  5
159
330
1F
100
AcDbEntity
  8
HIDDEN
100
AcDbLine
 10
43.57112280120217
 20
67.09364543563392
 30
0.0
 11
43.57112280120217
 21
67.09364543563392
 31
0.0
1001
DBPROPERTIES
1002
{
1000
PbHidd
1002
}
  0
LINE
  5
15A
330
1F
100
AcDbEntity
  8
HIDDEN
100
AcDbLine
 10
36.31923997916374
 20
71.28052193506942
 30
0.0
 11
36.31923997916374
 21
71.28052193506942
 31
0.0
1001
DBPROPERTIES
1002
{
1000
PbHidd
1002
}
  0
LINE
  5
15B
330
1F
100
AcDbEntity
  8
HIDDEN
100
AcDbLine
 10
36.31923997916377
 20
-71.28052193506947
 30
0.0
 11
36.31923997916377
 21
-71.28052193506947
 31
0.0
1001
DBPROPERTIES
1002
{
1000
PbHidd
1002
}
  0
LINE
  5
15C
330
1F
100
AcDbEntity
  8
HIDDEN
100
AcDbLine
 10
43.57112280120219
 20
-67.09364543563399
 30
0.0
 11
43.57112280120219
 21
-67.09364543563399
 31
0.0
1001
DBPROPERTIES
1002
{
1000
PbHidd
1002
}
  0
LINE
  5
15D
330
1F
100
AcDbEntity
  8
HIDDEN
100
AcDbLine
 10
56.56854249492378
 20
56.56854249492383
 30
0.0
 11
56.56854249492378
 21
56.56854249492383
 31
0.0
1001
DBPROPERTIES
1002
{
1000
PbHidd
1002
}
  0
LINE
  5
15E
330
1F
100
AcDbEntity
  8
HIDDEN
100
AcDbLine
 10
50.34563128398697
 20
62.1716769165577
 30
0.0
 11
50.34563128398697
 21
62.1716769165577
 31
0.0
1001
DBPROPERTIES
1002
{
1000
PbHidd
1002
}
  0
LINE
  5
15F
330
1F
100
AcDbEntity
  8
HIDDEN
100
AcDbLine
 10
50.34563128398703
 20
-62.17167691655773
 30
0.0
 11
50.34563128398703
 21
-62.17167691655773
 31
0.0
1001
DBPROPERTIES
1002
{
1000
PbHidd
1002
}
  0
LINE
  5
160
330
1F
100
AcDbEntity
  8
HIDDEN
100
AcDbLine
 10
56.56854249492383
 20
-56.56854249492387
 30
0.0
 11
56.56854249492383
 21
-56.56854249492387
 31
0.0
1001
DBPROPERTIES
1002
{
1000
PbHidd
1002
}
  0
LINE
  5
161
330
1F
100
AcDbEntity
  8
HIDDEN
100
AcDbLine
 10
67.09364543563395
 20
43.57112280120219
 30
0.0
 11
67.09364543563395
 21
43.57112280120219
 31
0.0
1001
DBPROPERTIES
1002
{
1000
PbHidd
1002
}
  0
LINE
  5
162
330
1F
100
AcDbEntity
  8
HIDDEN
100
AcDbLine
 10
62.17167691655768
 20
50.34563128398703
 30
0.0
 11
62.17167691655768
 21
50.34563128398703
 31
0.0
1001
DBPROPERTIES
1002
{
1000
PbHidd
1002
}
  0
LINE
  5
163
330
1F
100
AcDbEntity
  8
HIDDEN
100
AcDbLine
 10
62.17167691655771
 20
-50.34563128398705
 30
0.0
 11
62.17167691655771
 21
-50.34563128398705
 31
0.0
1001
DBPROPERTIES
1002
{
1000
PbHidd
1002
}
  0
LINE
  5
164
330
1F
100
AcDbEntity
  8
HIDDEN
100
AcDbLine
 10
67.09364543563396
 20
-43.57112280120223
 30
0.0
 11
67.09364543563396
 21
-43.57112280120223
 31
0.0
1001
DBPROPERTIES
1002
{
1000
PbHidd
1002
}
  0
LINE
  5
165
330
1F
100
AcDbEntity
  8
HIDDEN
100
AcDbLine
 10
74.68643411977617
 20
28.66943596362403
 30
0.0
 11
74.68643411977617
 21
28.66943596362404
 31
0.0
1001
DBPROPERTIES
1002
{
1000
PbHidd
1002
}
  0
LINE
  5
166
330
1F
100
AcDbEntity
  8
HIDDEN
100
AcDbLine
 10
71.28052193506944
 20
36.31923997916376
 30
0.0
 11
71.28052193506944
 21
36.31923997916376
 31
0.0
1001
DBPROPERTIES
1002
{
1000
PbHidd
1002
}
  0
LINE
  5
167
330
1F
100
AcDbEntity
  8
HIDDEN
100
AcDbLine
 10
71.28052193506947
 20
-36.31923997916379
 30
0.0
 11
71.28052193506947
 21
-36.31923997916379
 31
0.0
1001
DBPROPERTIES
1002
{
1000
PbHidd
1002
}
  0
LINE
  5
168
330
1F
100
AcDbEntity
  8
HIDDEN
100
AcDbLine
 10
74.68643411977618
 20
-28.66943596362407
 30
0.0
 11
74.68643411977618
 21
-28.66943596362407
 31
0.0
1001
DBPROPERTIES
1002
{
1000
PbHidd
1002
}
  0
LINE
  5
169
330
1F
100
AcDbEntity
  8
HIDDEN
100
AcDbLine
 10
79.01506724761106
 20
12.51475720321851
 30
0.0
 11
79.01506724761106
 21
12.51475720321851
 31
0.0
1001
DBPROPERTIES
1002
{
1000
PbHidd
1002
}
  0
LINE
  5
16A
330
1F
100
AcDbEntity
  8
HIDDEN
100
AcDbLine
 10
77.2740661031255
 20
20.7055236082017
 30
0.0
 11
77.2740661031255
 21
20.70552360820169
 31
0.0
1001
DBPROPERTIES
1002
{
1000
PbHidd
1002
}
  0
LINE
  5
16B
330
1F
100
AcDbEntity
  8
HIDDEN
100
AcDbLine
 10
79.01506724761106
 20
-12.51475720321851
 30
0.0
 11
79.01506724761106
 21
-12.51475720321852
 31
0.0
1001
DBPROPERTIES
1002
{
1000
PbHidd
1002
}
  0
LINE
  5
16C
330
1F
100
AcDbEntity
  8
HIDDEN
100
AcDbLine
 10
77.2740661031255
 20
-20.70552360820171
 30
0.0
 11
77.2740661031255
 21
-20.7055236082017
 31
0.0
1001
DBPROPERTIES
1002
{
1000
PbHidd
1002
}
  0
LINE
  5
16D
330
1F
100
AcDbEntity
  8
HIDDEN
100
AcDbLine
 10
-69.90406743282013
 20
-3.663516937006143
 30
0.0
 11
-69.90406743282013
 21
-3.663516937006134
 31
0.0
1001
DBPROPERTIES
1002
{
1000
PbHidd
1002
}
  0
LINE
  5
16E
330
1F
100
AcDbEntity
  8
HIDDEN
100
AcDbLine
 10
-67.61480784023473
 20
18.11733315717639
 30
0.0
 11
-67.61480784023473
 21
18.11733315717638
 31
0.0
1001
DBPROPERTIES
1002
{
1000
PbHidd
1002
}
  0
LINE
  5
16F
330
1F
100
AcDbEntity
  8
HIDDEN
100
AcDbLine
 10
-69.13818384165958
 20
10.9504125528161
 30
0.0
 11
-69.13818384165958
 21
10.95041255281611
 31
0.0
1001
DBPROPERTIES
1002
{
1000
PbHidd
1002
}
  0
LINE
  5
170
330
1F
100
AcDbEntity
  8
HIDDEN
100
AcDbLine
 10
-69.1381838416596
 20
-10.95041255281621
 30
0.0
 11
-69.1381838416596
 21
-10.95041255281622
 31
0.0
1001
DBPROPERTIES
1002
{
1000
PbHidd
1002
}
  0
LINE
  5
171
330
1F
100
AcDbEntity
  8
HIDDEN
100
AcDbLine
 10
-67.61480784023473
 20
-18.1173331571765
 30
0.0
 11
-67.61480784023473
 21
-18.11733315717649
 31
0.0
1001
DBPROPERTIES
1002
{
1000
PbHidd
1002
}
  0
LINE
  5
172
330
1F
100
AcDbEntity
  8
HIDDEN
100
AcDbLine
 10
-62.37045669318571
 20
31.7793349817682
 30
0.0
 11
-62.37045669318572
 21
31.77933498176819
 31
0.0
1001
DBPROPERTIES
1002
{
1000
PbHidd
1002
}
  0
LINE
  5
173
330
1F
100
AcDbEntity
  8
HIDDEN
100
AcDbLine
 10
-65.35062985480408
 20
25.08575646817093
 30
0.0
 11
-65.35062985480408
 21
25.08575646817094
 31
0.0
1001
DBPROPERTIES
1002
{
1000
PbHidd
1002
}
  0
LINE
  5
174
330
1F
100
AcDbEntity
  8
HIDDEN
100
AcDbLine
 10
-65.35062985480408
 20
-25.08575646817106
 30
0.0
 11
-65.35062985480408
 21
-25.08575646817106
 31
0.0
1001
DBPROPERTIES
1002
{
1000
PbHidd
1002
}
  0
LINE
  5
175
330
1F
100
AcDbEntity
  8
HIDDEN
100
AcDbLine
 10
-62.37045669318572
 20
-31.77933498176831
 30
0.0
 11
-62.3704566931857
 21
-31.7793349817683
 31
0.0
1001
DBPROPERTIES
1002
{
1000
PbHidd
1002
}
  0
LINE
  5
176
330
1F
100
AcDbEntity
  8
HIDDEN
100
AcDbLine
 10
-54.40021730198794
 20
44.05242737348854
 30
0.0
 11
-54.40021730198796
 21
44.05242737348853
 31
0.0
1001
DBPROPERTIES
1002
{
1000
PbHidd
1002
}
  0
LINE
  5
177
330
1F
100
AcDbEntity
  8
HIDDEN
100
AcDbLine
 10
-58.70693975617968
 20
38.1247324510518
 30
0.0
 11
-58.70693975617966
 21
38.12473245105181
 31
0.0
1001
DBPROPERTIES
1002
{
1000
PbHidd
1002
}
  0
LINE
  5
178
330
1F
100
AcDbEntity
  8
HIDDEN
100
AcDbLine
 10
-58.70693975617962
 20
-38.12473245105193
 30
0.0
 11
-58.70693975617964
 21
-38.12473245105195
 31
0.0
1001
DBPROPERTIES
1002
{
1000
PbHidd
1002
}
  0
LINE
  5
179
330
1F
100
AcDbEntity
  8
HIDDEN
100
AcDbLine
 10
-54.40021730198792
 20
-44.05242737348867
 30
0.0
 11
-54.4002173019879
 21
-44.05242737348865
 31
0.0
1001
DBPROPERTIES
1002
{
1000
PbHidd
1002
}
  0
LINE
  5
17A
330
1F
100
AcDbEntity
  8
HIDDEN
100
AcDbLine
 10
-44.05242737348861
 20
54.40021730198789
 30
0.0
 11
-44.05242737348863
 21
54.40021730198788
 31
0.0
1001
DBPROPERTIES
1002
{
1000
PbHidd
1002
}
  0
LINE
  5
17B
330
1F
100
AcDbEntity
  8
HIDDEN
100
AcDbLine
 10
-49.49747468305832
 20
49.49747468305824
 30
0.0
 11
-49.49747468305831
 21
49.49747468305826
 31
0.0
1001
DBPROPERTIES
1002
{
1000
PbHidd
1002
}
  0
LINE
  5
17C
330
1F
100
AcDbEntity
  8
HIDDEN
100
AcDbLine
 10
-49.49747468305829
 20
-49.49747468305834
 30
0.0
 11
-49.4974746830583
 21
-49.49747468305836
 31
0.0
1001
DBPROPERTIES
1002
{
1000
PbHidd
1002
}
  0
LINE
  5
17D
330
1F
100
AcDbEntity
  8
HIDDEN
100
AcDbLine
 10
-44.05242737348861
 20
-54.40021730198799
 30
0.0
 11
-44.05242737348859
 21
-54.40021730198797
 31
0.0
1001
DBPROPERTIES
1002
{
1000
PbHidd
1002
}
  0
LINE
  5
17E
330
1F
100
AcDbEntity
  8
HIDDEN
100
AcDbLine
 10
-31.77933498176829
 20
62.37045669318569
 30
0.0
 11
-31.77933498176829
 21
62.37045669318567
 31
0.0
1001
DBPROPERTIES
1002
{
1000
PbHidd
1002
}
  0
LINE
  5
17F
330
1F
100
AcDbEntity
  8
HIDDEN
100
AcDbLine
 10
-38.12473245105191
 20
58.7069397561796
 30
0.0
 11
-38.12473245105189
 21
58.70693975617962
 31
0.0
1001
DBPROPERTIES
1002
{
1000
PbHidd
1002
}
  0
LINE
  5
180
330
1F
100
AcDbEntity
  8
HIDDEN
100
AcDbLine
 10
-38.12473245105186
 20
-58.70693975617969
 30
0.0
 11
-38.12473245105188
 21
-58.70693975617971
 31
0.0
1001
DBPROPERTIES
1002
{
1000
PbHidd
1002
}
  0
LINE
  5
181
330
1F
100
AcDbEntity
  8
HIDDEN
100
AcDbLine
 10
-31.77933498176826
 20
-62.37045669318578
 30
0.0
 11
-31.77933498176825
 21
-62.37045669318577
 31
0.0
1001
DBPROPERTIES
1002
{
1000
PbHidd
1002
}
  0
LINE
  5
182
330
1F
100
AcDbEntity
  8
HIDDEN
100
AcDbLine
 10
-18.11733315717649
 20
67.61480784023472
 30
0.0
 11
-18.1173331571765
 21
67.61480784023472
 31
0.0
1001
DBPROPERTIES
1002
{
1000
PbHidd
1002
}
  0
LINE
  5
183
330
1F
100
AcDbEntity
  8
HIDDEN
100
AcDbLine
 10
-25.08575646817105
 20
65.35062985480404
 30
0.0
 11
-25.08575646817104
 21
65.35062985480404
 31
0.0
1001
DBPROPERTIES
1002
{
1000
PbHidd
1002
}
  0
LINE
  5
184
330
1F
100
AcDbEntity
  8
HIDDEN
100
AcDbLine
 10
-25.085756468171
 20
-65.35062985480415
 30
0.0
 11
-25.085756468171
 21
-65.35062985480415
 31
0.0
1001
DBPROPERTIES
1002
{
1000
PbHidd
1002
}
  0
LINE
  5
185
330
1F
100
AcDbEntity
  8
HIDDEN
100
AcDbLine
 10
-18.11733315717645
 20
-67.6148078402348
 30
0.0
 11
-18.11733315717644
 21
-67.6148078402348
 31
0.0
1001
DBPROPERTIES
1002
{
1000
PbHidd
1002
}
  0
LINE
  5
186
330
1F
100
AcDbEntity
  8
HIDDEN
100
AcDbLine
 10
-3.663516937006081
 20
69.90406743282013
 30
0.0
 11
-3.66351693700609
 21
69.90406743282013
 31
0.0
1001
DBPROPERTIES
1002
{
1000
PbHidd
1002
}
  0
LINE
  5
187
330
1F
100
AcDbEntity
  8
HIDDEN
100
AcDbLine
 10
-10.95041255281618
 20
69.1381838416596
 30
0.0
 11
-10.95041255281617
 21
69.1381838416596
 31
0.0
1001
DBPROPERTIES
1002
{
1000
PbHidd
1002
}
  0
LINE
  5
188
330
1F
100
AcDbEntity
  8
HIDDEN
100
AcDbLine
 10
-10.95041255281613
 20
-69.13818384165967
 30
0.0
 11
-10.95041255281614
 21
-69.13818384165967
 31
0.0
1001
DBPROPERTIES
1002
{
1000
PbHidd
1002
}
  0
LINE
  5
189
330
1F
100
AcDbEntity
  8
HIDDEN
100
AcDbLine
 10
-3.663516937006058
 20
-69.90406743282021
 30
0.0
 11
-3.663516937006048
 21
-69.90406743282021
 31
0.0
1001
DBPROPERTIES
1002
{
1000
PbHidd
1002
}
  0
LINE
  5
18A
330
1F
100
AcDbEntity
  8
HIDDEN
100
AcDbLine
 10
10.95041255281611
 20
69.13818384165963
 30
0.0
 11
10.9504125528161
 21
69.13818384165963
 31
0.0
1001
DBPROPERTIES
1002
{
1000
PbHidd
1002
}
  0
LINE
  5
18B
330
1F
100
AcDbEntity
  8
HIDDEN
100
AcDbLine
 10
3.663516937006008
 20
69.90406743282013
 30
0.0
 11
3.663516937006018
 21
69.90406743282013
 31
0.0
1001
DBPROPERTIES
1002
{
1000
PbHidd
1002
}
  0
LINE
  5
18C
330
1F
100
AcDbEntity
  8
HIDDEN
100
AcDbLine
 10
3.663516937006081
 20
-69.90406743282021
 30
0.0
 11
3.663516937006071
 21
-69.90406743282021
 31
0.0
1001
DBPROPERTIES
1002
{
1000
PbHidd
1002
}
  0
LINE
  5
18D
330
1F
100
AcDbEntity
  8
HIDDEN
100
AcDbLine
 10
10.95041255281616
 20
-69.13818384165968
 30
0.0
 11
10.95041255281618
 21
-69.13818384165968
 31
0.0
1001
DBPROPERTIES
1002
{
1000
PbHidd
1002
}
  0
LINE
  5
18E
330
1F
100
AcDbEntity
  8
HIDDEN
100
AcDbLine
 10
25.08575646817099
 20
65.3506298548041
 30
0.0
 11
25.08575646817098
 21
65.3506298548041
 31
0.0
1001
DBPROPERTIES
1002
{
1000
PbHidd
1002
}
  0
LINE
  5
18F
330
1F
100
AcDbEntity
  8
HIDDEN
100
AcDbLine
 10
18.11733315717642
 20
67.61480784023476
 30
0.0
 11
18.11733315717643
 21
67.61480784023476
 31
0.0
1001
DBPROPERTIES
1002
{
1000
PbHidd
1002
}
  0
LINE
  5
190
330
1F
100
AcDbEntity
  8
HIDDEN
100
AcDbLine
 10
18.11733315717646
 20
-67.61480784023483
 30
0.0
 11
18.11733315717646
 21
-67.61480784023483
 31
0.0
1001
DBPROPERTIES
1002
{
1000
PbHidd
1002
}
  0
LINE
  5
191
330
1F
100
AcDbEntity
  8
HIDDEN
100
AcDbLine
 10
25.08575646817103
 20
-65.35062985480418
 30
0.0
 11
25.08575646817103
 21
-65.35062985480418
 31
0.0
1001
DBPROPERTIES
1002
{
1000
PbHidd
1002
}
  0
LINE
  5
192
330
1F
100
AcDbEntity
  8
HIDDEN
100
AcDbLine
 10
38.12473245105191
 20
58.70693975617969
 30
0.0
 11
38.12473245105189
 21
58.70693975617967
 31
0.0
1001
DBPROPERTIES
1002
{
1000
PbHidd
1002
}
  0
LINE
  5
193
330
1F
100
AcDbEntity
  8
HIDDEN
100
AcDbLine
 10
31.77933498176827
 20
62.37045669318573
 30
0.0
 11
31.77933498176828
 21
62.37045669318574
 31
0.0
1001
DBPROPERTIES
1002
{
1000
PbHidd
1002
}
  0
LINE
  5
194
330
1F
100
AcDbEntity
  8
HIDDEN
100
AcDbLine
 10
31.77933498176831
 20
-62.37045669318579
 30
0.0
 11
31.7793349817683
 21
-62.37045669318581
 31
0.0
1001
DBPROPERTIES
1002
{
1000
PbHidd
1002
}
  0
LINE
  5
195
330
1F
100
AcDbEntity
  8
HIDDEN
100
AcDbLine
 10
38.12473245105191
 20
-58.70693975617974
 30
0.0
 11
38.12473245105193
 21
-58.70693975617973
 31
0.0
1001
DBPROPERTIES
1002
{
1000
PbHidd
1002
}
  0
LINE
  5
196
330
1F
100
AcDbEntity
  8
HIDDEN
100
AcDbLine
 10
49.49747468305832
 20
49.49747468305836
 30
0.0
 11
49.49747468305831
 21
49.49747468305834
 31
0.0
1001
DBPROPERTIES
1002
{
1000
PbHidd
1002
}
  0
LINE
  5
197
330
1F
100
AcDbEntity
  8
HIDDEN
100
AcDbLine
 10
44.05242737348859
 20
54.40021730198798
 30
0.0
 11
44.05242737348861
 21
54.40021730198799
 31
0.0
1001
DBPROPERTIES
1002
{
1000
PbHidd
1002
}
  0
LINE
  5
198
330
1F
100
AcDbEntity
  8
HIDDEN
100
AcDbLine
 10
44.05242737348865
 20
-54.40021730198801
 30
0.0
 11
44.05242737348864
 21
-54.40021730198803
 31
0.0
1001
DBPROPERTIES
1002
{
1000
PbHidd
1002
}
  0
LINE
  5
199
330
1F
100
AcDbEntity
  8
HIDDEN
100
AcDbLine
 10
49.49747468305835
 20
-49.49747468305839
 30
0.0
 11
49.49747468305836
 21
-49.49747468305837
 31
0.0
1001
DBPROPERTIES
1002
{
1000
PbHidd
1002
}
  0
LINE
  5
19A
330
1F
100
AcDbEntity
  8
HIDDEN
100
AcDbLine
 10
58.70693975617971
 20
38.12473245105192
 30
0.0
 11
58.70693975617969
 21
38.12473245105191
 31
0.0
1001
DBPROPERTIES
1002
{
1000
PbHidd
1002
}
  0
LINE
  5
19B
330
1F
100
AcDbEntity
  8
HIDDEN
100
AcDbLine
 10
54.40021730198796
 20
44.05242737348863
 30
0.0
 11
54.40021730198798
 21
44.05242737348865
 31
0.0
1001
DBPROPERTIES
1002
{
1000
PbHidd
1002
}
  0
LINE
  5
19C
330
1F
100
AcDbEntity
  8
HIDDEN
100
AcDbLine
 10
54.400217301988
 20
-44.05242737348867
 30
0.0
 11
54.40021730198799
 21
-44.05242737348868
 31
0.0
1001
DBPROPERTIES
1002
{
1000
PbHidd
1002
}
  0
LINE
  5
19D
330
1F
100
AcDbEntity
  8
HIDDEN
100
AcDbLine
 10
58.70693975617971
 20
-38.12473245105197
 30
0.0
 11
58.70693975617973
 21
-38.12473245105195
 31
0.0
1001
DBPROPERTIES
1002
{
1000
PbHidd
1002
}
  0
LINE
  5
19E
330
1F
100
AcDbEntity
  8
HIDDEN
100
AcDbLine
 10
65.35062985480415
 20
25.08575646817103
 30
0.0
 11
65.35062985480415
 21
25.08575646817102
 31
0.0
1001
DBPROPERTIES
1002
{
1000
PbHidd
1002
}
  0
LINE
  5
19F
330
1F
100
AcDbEntity
  8
HIDDEN
100
AcDbLine
 10
62.37045669318577
 20
31.77933498176827
 30
0.0
 11
62.37045669318579
 21
31.77933498176828
 31
0.0
1001
DBPROPERTIES
1002
{
1000
PbHidd
1002
}
  0
LINE
  5
1A0
330
1F
100
AcDbEntity
  8
HIDDEN
100
AcDbLine
 10
62.37045669318579
 20
-31.77933498176833
 30
0.0
 11
62.37045669318578
 21
-31.77933498176833
 31
0.0
1001
DBPROPERTIES
1002
{
1000
PbHidd
1002
}
  0
LINE
  5
1A1
330
1F
100
AcDbEntity
  8
HIDDEN
100
AcDbLine
 10
65.35062985480417
 20
-25.08575646817107
 30
0.0
 11
65.35062985480417
 21
-25.08575646817107
 31
0.0
1001
DBPROPERTIES
1002
{
1000
PbHidd
1002
}
  0
LINE
  5
1A2
330
1F
100
AcDbEntity
  8
HIDDEN
100
AcDbLine
 10
69.13818384165968
 20
10.95041255281619
 30
0.0
 11
69.13818384165968
 21
10.95041255281618
 31
0.0
1001
DBPROPERTIES
1002
{
1000
PbHidd
1002
}
  0
LINE
  5
1A3
330
1F
100
AcDbEntity
  8
HIDDEN
100
AcDbLine
 10
67.61480784023482
 20
18.11733315717647
 30
0.0
 11
67.61480784023482
 21
18.11733315717648
 31
0.0
1001
DBPROPERTIES
1002
{
1000
PbHidd
1002
}
  0
LINE
  5
1A4
330
1F
100
AcDbEntity
  8
HIDDEN
100
AcDbLine
 10
69.13818384165968
 20
-10.95041255281622
 30
0.0
 11
69.13818384165968
 21
-10.95041255281621
 31
0.0
1001
DBPROPERTIES
1002
{
1000
PbHidd
1002
}
  0
LINE
  5
1A5
330
1F
100
AcDbEntity
  8
HIDDEN
100
AcDbLine
 10
67.61480784023483
 20
-18.1173331571765
 30
0.0
 11
67.61480784023483
 21
-18.11733315717651
 31
0.0
1001
DBPROPERTIES
1002
{
1000
PbHidd
1002
}
  0
LINE
  5
1A6
330
1F
100
AcDbEntity
  8
HIDDEN
100
AcDbLine
 10
110.6210941466555
 20
-17.5206600845059
 30
0.0
 11
110.6210941466555
 21
-17.5206600845059
 31
0.0
1001
DBPROPERTIES
1002
{
1000
PbHidd
1002
}
  0
LINE
  5
1A7
330
1F
100
AcDbEntity
  8
HIDDEN
100
AcDbLine
 10
45.99335372704691
 20
-7.284631588706783
 30
0.0
 11
45.99335372704691
 21
-7.284631588706793
 31
0.0
1001
DBPROPERTIES
1002
{
1000
PbHidd
1002
}
  0
LINE
  5
1A8
330
1F
100
AcDbEntity
  8
HIDDEN
100
AcDbLine
 10
45.99335372704689
 20
7.284631588706751
 30
0.0
 11
45.99335372704689
 21
7.284631588706741
 31
0.0
1001
DBPROPERTIES
1002
{
1000
PbHidd
1002
}
  0
LINE
  5
1A9
330
1F
100
AcDbEntity
  8
HIDDEN
100
AcDbLine
 10
43.47372852721967
 20
16.68800085049279
 30
0.0
 11
43.47372852721967
 21
16.68800085049278
 31
0.0
1001
DBPROPERTIES
1002
{
1000
PbHidd
1002
}
  0
LINE
  5
1AA
330
1F
100
AcDbEntity
  8
HIDDEN
100
AcDbLine
 10
104.5610077676866
 20
40.13721034907365
 30
0.0
 11
104.5610077676866
 21
40.13721034907366
 31
0.0
1001
DBPROPERTIES
1002
{
1000
PbHidd
1002
}
  0
LINE
  5
1AB
330
1F
100
AcDbEntity
  8
HIDDEN
100
AcDbLine
 10
44.9799459775276
 20
12.05234020027405
 30
0.0
 11
44.9799459775276
 21
12.05234020027404
 31
0.0
1001
DBPROPERTIES
1002
{
1000
PbHidd
1002
}
  0
LINE
  5
1AC
330
1F
100
AcDbEntity
  8
HIDDEN
100
AcDbLine
 10
99.79273070909723
 20
50.84693597082926
 30
0.0
 11
99.79273070909723
 21
50.84693597082925
 31
0.0
1001
DBPROPERTIES
1002
{
1000
PbHidd
1002
}
  0
LINE
  5
1AD
330
1F
100
AcDbEntity
  8
HIDDEN
100
AcDbLine
 10
93.9311036098875
 20
60.99957192168306
 30
0.0
 11
93.9311036098875
 21
60.99957192168306
 31
0.0
1001
DBPROPERTIES
1002
{
1000
PbHidd
1002
}
  0
LINE
  5
1AE
330
1F
100
AcDbEntity
  8
HIDDEN
100
AcDbLine
 10
39.05409278065855
 20
25.36202439719973
 30
0.0
 11
39.05409278065855
 21
25.36202439719972
 31
0.0
1001
DBPROPERTIES
1002
{
1000
PbHidd
1002
}
  0
LINE
  5
1AF
330
1F
100
AcDbEntity
  8
HIDDEN
100
AcDbLine
 10
41.49120380970498
 20
21.14082427120487
 30
0.0
 11
41.49120380970498
 21
21.14082427120486
 31
0.0
1001
DBPROPERTIES
1002
{
1000
PbHidd
1002
}
  0
LINE
  5
1B0
330
1F
100
AcDbEntity
  8
HIDDEN
100
AcDbLine
 10
87.04034768318073
 20
70.48388379758181
 30
0.0
 11
87.04034768318073
 21
70.48388379758181
 31
0.0
1001
DBPROPERTIES
1002
{
1000
PbHidd
1002
}
  0
LINE
  5
1B1
330
1F
100
AcDbEntity
  8
HIDDEN
100
AcDbLine
 10
79.19595949289328
 20
79.19595949289337
 30
0.0
 11
79.19595949289328
 21
79.19595949289337
 31
0.0
1001
DBPROPERTIES
1002
{
1000
PbHidd
1002
}
  0
LINE
  5
1B2
330
1F
100
AcDbEntity
  8
HIDDEN
100
AcDbLine
 10
32.92760577725353
 20
32.92760577725355
 30
0.0
 11
32.92760577725353
 21
32.92760577725353
 31
0.0
1001
DBPROPERTIES
1002
{
1000
PbHidd
1002
}
  0
LINE
  5
1B3
330
1F
100
AcDbEntity
  8
HIDDEN
100
AcDbLine
 10
36.18909693851292
 20
29.30535287655407
 30
0.0
 11
36.18909693851292
 21
29.30535287655406
 31
0.0
1001
DBPROPERTIES
1002
{
1000
PbHidd
1002
}
  0
LINE
  5
1B4
330
1F
100
AcDbEntity
  8
HIDDEN
100
AcDbLine
 10
70.48388379758174
 20
87.04034768318077
 30
0.0
 11
70.48388379758174
 21
87.04034768318077
 31
0.0
1001
DBPROPERTIES
1002
{
1000
PbHidd
1002
}
  0
LINE
  5
1B5
330
1F
100
AcDbEntity
  8
HIDDEN
100
AcDbLine
 10
60.99957192168302
 20
93.93110360988747
 30
0.0
 11
60.99957192168303
 21
93.93110360988747
 31
0.0
1001
DBPROPERTIES
1002
{
1000
PbHidd
1002
}
  0
LINE
  5
1B6
330
1F
100
AcDbEntity
  8
HIDDEN
100
AcDbLine
 10
25.36202439719975
 20
39.05409278065854
 30
0.0
 11
25.36202439719975
 21
39.05409278065853
 31
0.0
1001
DBPROPERTIES
1002
{
1000
PbHidd
1002
}
  0
LINE
  5
1B7
330
1F
100
AcDbEntity
  8
HIDDEN
100
AcDbLine
 10
29.30535287655406
 20
36.18909693851294
 30
0.0
 11
29.30535287655406
 21
36.18909693851293
 31
0.0
1001
DBPROPERTIES
1002
{
1000
PbHidd
1002
}
  0
LINE
  5
1B8
330
1F
100
AcDbEntity
  8
HIDDEN
100
AcDbLine
 10
50.84693597082924
 20
99.79273070909717
 30
0.0
 11
50.84693597082923
 21
99.79273070909717
 31
0.0
1001
DBPROPERTIES
1002
{
1000
PbHidd
1002
}
  0
LINE
  5
1B9
330
1F
100
AcDbEntity
  8
HIDDEN
100
AcDbLine
 10
40.13721034907358
 20
104.5610077676866
 30
0.0
 11
40.13721034907358
 21
104.5610077676866
 31
0.0
1001
DBPROPERTIES
1002
{
1000
PbHidd
1002
}
  0
LINE
  5
1BA
330
1F
100
AcDbEntity
  8
HIDDEN
100
AcDbLine
 10
16.68800085049279
 20
43.47372852721966
 30
0.0
 11
16.68800085049279
 21
43.47372852721964
 31
0.0
1001
DBPROPERTIES
1002
{
1000
PbHidd
1002
}
  0
LINE
  5
1BB
330
1F
100
AcDbEntity
  8
HIDDEN
100
AcDbLine
 10
21.14082427120488
 20
41.49120380970497
 30
0.0
 11
21.14082427120488
 21
41.49120380970496
 31
0.0
1001
DBPROPERTIES
1002
{
1000
PbHidd
1002
}
  0
LINE
  5
1BC
330
1F
100
AcDbEntity
  8
HIDDEN
100
AcDbLine
 10
28.98773305148227
 20
108.1836925443756
 30
0.0
 11
28.98773305148227
 21
108.1836925443756
 31
0.0
1001
DBPROPERTIES
1002
{
1000
PbHidd
1002
}
  0
LINE
  5
1BD
330
1F
100
AcDbEntity
  8
HIDDEN
100
AcDbLine
 10
17.52066008450577
 20
110.6210941466554
 30
0.0
 11
17.52066008450577
 21
110.6210941466554
 31
0.0
1001
DBPROPERTIES
1002
{
1000
PbHidd
1002
}
  0
LINE
  5
1BE
330
1F
100
AcDbEntity
  8
HIDDEN
100
AcDbLine
 10
7.284631588706714
 20
45.99335372704687
 30
0.0
 11
7.284631588706714
 21
45.99335372704686
 31
0.0
1001
DBPROPERTIES
1002
{
1000
PbHidd
1002
}
  0
LINE
  5
1BF
330
1F
100
AcDbEntity
  8
HIDDEN
100
AcDbLine
 10
12.05234020027402
 20
44.97994597752758
 30
0.0
 11
12.05234020027402
 21
44.97994597752757
 31
0.0
1001
DBPROPERTIES
1002
{
1000
PbHidd
1002
}
  0
LINE
  5
1C0
330
1F
100
AcDbEntity
  8
HIDDEN
100
AcDbLine
 10
5.861627099209625
 20
111.8465078925122
 30
0.0
 11
5.861627099209621
 21
111.8465078925122
 31
0.0
1001
DBPROPERTIES
1002
{
1000
PbHidd
1002
}
  0
LINE
  5
1C1
330
1F
100
AcDbEntity
  8
HIDDEN
100
AcDbLine
 10
-5.861627099209736
 20
111.8465078925122
 30
0.0
 11
-5.861627099209732
 21
111.8465078925122
 31
0.0
1001
DBPROPERTIES
1002
{
1000
PbHidd
1002
}
  0
LINE
  5
1C2
330
1F
100
AcDbEntity
  8
HIDDEN
100
AcDbLine
 10
-2.437111029046426
 20
46.5028486684046
 30
0.0
 11
-2.437111029046426
 21
46.50284866840459
 31
0.0
1001
DBPROPERTIES
1002
{
1000
PbHidd
1002
}
  0
LINE
  5
1C3
330
1F
100
AcDbEntity
  8
HIDDEN
100
AcDbLine
 10
2.437111029046379
 20
46.50284866840462
 30
0.0
 11
2.437111029046379
 21
46.50284866840461
 31
0.0
1001
DBPROPERTIES
1002
{
1000
PbHidd
1002
}
  0
LINE
  5
1C4
330
1F
100
AcDbEntity
  8
HIDDEN
100
AcDbLine
 10
-17.52066008450587
 20
110.6210941466554
 30
0.0
 11
-17.52066008450588
 21
110.6210941466554
 31
0.0
1001
DBPROPERTIES
1002
{
1000
PbHidd
1002
}
  0
LINE
  5
1C5
330
1F
100
AcDbEntity
  8
HIDDEN
100
AcDbLine
 10
-28.98773305148239
 20
108.1836925443756
 30
0.0
 11
-28.98773305148239
 21
108.1836925443756
 31
0.0
1001
DBPROPERTIES
1002
{
1000
PbHidd
1002
}
  0
LINE
  5
1C6
330
1F
100
AcDbEntity
  8
HIDDEN
100
AcDbLine
 10
-12.05234020027407
 20
44.97994597752756
 30
0.0
 11
-12.05234020027407
 21
44.97994597752755
 31
0.0
1001
DBPROPERTIES
1002
{
1000
PbHidd
1002
}
  0
LINE
  5
1C7
330
1F
100
AcDbEntity
  8
HIDDEN
100
AcDbLine
 10
-7.284631588706762
 20
45.99335372704687
 30
0.0
 11
-7.284631588706762
 21
45.99335372704686
 31
0.0
1001
DBPROPERTIES
1002
{
1000
PbHidd
1002
}
  0
LINE
  5
1C8
330
1F
100
AcDbEntity
  8
HIDDEN
100
AcDbLine
 10
-40.13721034907368
 20
104.5610077676865
 30
0.0
 11
-40.13721034907368
 21
104.5610077676865
 31
0.0
1001
DBPROPERTIES
1002
{
1000
PbHidd
1002
}
  0
LINE
  5
1C9
330
1F
100
AcDbEntity
  8
HIDDEN
100
AcDbLine
 10
-50.84693597082926
 20
99.79273070909711
 30
0.0
 11
-50.84693597082926
 21
99.79273070909711
 31
0.0
1001
DBPROPERTIES
1002
{
1000
PbHidd
1002
}
  0
LINE
  5
1CA
330
1F
100
AcDbEntity
  8
HIDDEN
100
AcDbLine
 10
-21.1408242712049
 20
41.49120380970495
 30
0.0
 11
-21.1408242712049
 21
41.49120380970493
 31
0.0
1001
DBPROPERTIES
1002
{
1000
PbHidd
1002
}
  0
LINE
  5
1CB
330
1F
100
AcDbEntity
  8
HIDDEN
100
AcDbLine
 10
-16.68800085049284
 20
43.47372852721966
 30
0.0
 11
-16.68800085049284
 21
43.47372852721964
 31
0.0
1001
DBPROPERTIES
1002
{
1000
PbHidd
1002
}
  0
LINE
  5
1CC
330
1F
100
AcDbEntity
  8
HIDDEN
100
AcDbLine
 10
-60.99957192168304
 20
93.9311036098874
 30
0.0
 11
-60.99957192168305
 21
93.9311036098874
 31
0.0
1001
DBPROPERTIES
1002
{
1000
PbHidd
1002
}
  0
LINE
  5
1CD
330
1F
100
AcDbEntity
  8
HIDDEN
100
AcDbLine
 10
-70.4838837975818
 20
87.04034768318064
 30
0.0
 11
-70.4838837975818
 21
87.04034768318064
 31
0.0
1001
DBPROPERTIES
1002
{
1000
PbHidd
1002
}
  0
LINE
  5
1CE
330
1F
100
AcDbEntity
  8
HIDDEN
100
AcDbLine
 10
-29.30535287655409
 20
36.18909693851289
 30
0.0
 11
-29.30535287655409
 21
36.18909693851288
 31
0.0
1001
DBPROPERTIES
1002
{
1000
PbHidd
1002
}
  0
LINE
  5
1CF
330
1F
100
AcDbEntity
  8
HIDDEN
100
AcDbLine
 10
-25.36202439719978
 20
39.05409278065854
 30
0.0
 11
-25.36202439719978
 21
39.05409278065852
 31
0.0
1001
DBPROPERTIES
1002
{
1000
PbHidd
1002
}
  0
LINE
  5
1D0
330
1F
100
AcDbEntity
  8
HIDDEN
100
AcDbLine
 10
-79.19595949289331
 20
79.19595949289324
 30
0.0
 11
-79.19595949289331
 21
79.19595949289324
 31
0.0
1001
DBPROPERTIES
1002
{
1000
PbHidd
1002
}
  0
LINE
  5
1D1
330
1F
100
AcDbEntity
  8
HIDDEN
100
AcDbLine
 10
-87.04034768318074
 20
70.4838837975817
 30
0.0
 11
-87.04034768318074
 21
70.4838837975817
 31
0.0
1001
DBPROPERTIES
1002
{
1000
PbHidd
1002
}
  0
LINE
  5
1D2
330
1F
100
AcDbEntity
  8
HIDDEN
100
AcDbLine
 10
-36.18909693851294
 20
29.30535287655404
 30
0.0
 11
-36.18909693851294
 21
29.30535287655402
 31
0.0
1001
DBPROPERTIES
1002
{
1000
PbHidd
1002
}
  0
LINE
  5
1D3
330
1F
100
AcDbEntity
  8
HIDDEN
100
AcDbLine
 10
-32.92760577725357
 20
32.92760577725352
 30
0.0
 11
-32.92760577725357
 21
32.9276057772535
 31
0.0
1001
DBPROPERTIES
1002
{
1000
PbHidd
1002
}
  0
LINE
  5
1D4
330
1F
100
AcDbEntity
  8
HIDDEN
100
AcDbLine
 10
-93.93110360988747
 20
60.99957192168292
 30
0.0
 11
-93.93110360988747
 21
60.99957192168291
 31
0.0
1001
DBPROPERTIES
1002
{
1000
PbHidd
1002
}
  0
LINE
  5
1D5
330
1F
100
AcDbEntity
  8
HIDDEN
100
AcDbLine
 10
-99.79273070909717
 20
50.84693597082915
 30
0.0
 11
-99.79273070909717
 21
50.84693597082916
 31
0.0
1001
DBPROPERTIES
1002
{
1000
PbHidd
1002
}
  0
LINE
  5
1D6
330
1F
100
AcDbEntity
  8
HIDDEN
100
AcDbLine
 10
-41.49120380970499
 20
21.14082427120484
 30
0.0
 11
-41.49120380970499
 21
21.14082427120483
 31
0.0
1001
DBPROPERTIES
1002
{
1000
PbHidd
1002
}
  0
LINE
  5
1D7
330
1F
100
AcDbEntity
  8
HIDDEN
100
AcDbLine
 10
-39.05409278065858
 20
25.3620243971997
 30
0.0
 11
-39.05409278065858
 21
25.36202439719969
 31
0.0
1001
DBPROPERTIES
1002
{
1000
PbHidd
1002
}
  0
LINE
  5
1D8
330
1F
100
AcDbEntity
  8
HIDDEN
100
AcDbLine
 10
-104.5610077676866
 20
40.13721034907353
 30
0.0
 11
-104.5610077676866
 21
40.13721034907353
 31
0.0
1001
DBPROPERTIES
1002
{
1000
PbHidd
1002
}
  0
LINE
  5
1D9
330
1F
100
AcDbEntity
  8
HIDDEN
100
AcDbLine
 10
-108.1836925443756
 20
28.98773305148225
 30
0.0
 11
-108.1836925443756
 21
28.98773305148225
 31
0.0
1001
DBPROPERTIES
1002
{
1000
PbHidd
1002
}
  0
LINE
  5
1DA
330
1F
100
AcDbEntity
  8
HIDDEN
100
AcDbLine
 10
-44.9799459775276
 20
12.052340200274
 30
0.0
 11
-44.9799459775276
 21
12.05234020027399
 31
0.0
1001
DBPROPERTIES
1002
{
1000
PbHidd
1002
}
  0
LINE
  5
1DB
330
1F
100
AcDbEntity
  8
HIDDEN
100
AcDbLine
 10
-43.47372852721969
 20
16.68800085049276
 30
0.0
 11
-43.47372852721969
 21
16.68800085049275
 31
0.0
1001
DBPROPERTIES
1002
{
1000
PbHidd
1002
}
  0
LINE
  5
1DC
330
1F
100
AcDbEntity
  8
HIDDEN
100
AcDbLine
 10
-110.6210941466554
 20
17.52066008450579
 30
0.0
 11
-110.6210941466554
 21
17.52066008450579
 31
0.0
1001
DBPROPERTIES
1002
{
1000
PbHidd
1002
}
  0
LINE
  5
1DD
330
1F
100
AcDbEntity
  8
HIDDEN
100
AcDbLine
 10
-111.8465078925122
 20
5.861627099209608
 30
0.0
 11
-111.8465078925122
 21
5.861627099209612
 31
0.0
1001
DBPROPERTIES
1002
{
1000
PbHidd
1002
}
  0
LINE
  5
1DE
330
1F
100
AcDbEntity
  8
HIDDEN
100
AcDbLine
 10
-46.50284866840464
 20
2.43711102904636
 30
0.0
 11
-46.50284866840464
 21
2.437111029046351
 31
0.0
1001
DBPROPERTIES
1002
{
1000
PbHidd
1002
}
  0
LINE
  5
1DF
330
1F
100
AcDbEntity
  8
HIDDEN
100
AcDbLine
 10
-45.99335372704691
 20
7.284631588706705
 30
0.0
 11
-45.99335372704691
 21
7.284631588706695
 31
0.0
1001
DBPROPERTIES
1002
{
1000
PbHidd
1002
}
  0
LINE
  5
1E0
330
1F
100
AcDbEntity
  8
HIDDEN
100
AcDbLine
 10
-111.8465078925122
 20
-5.861627099209795
 30
0.0
 11
-111.8465078925122
 21
-5.861627099209798
 31
0.0
1001
DBPROPERTIES
1002
{
1000
PbHidd
1002
}
  0
LINE
  5
1E1
330
1F
100
AcDbEntity
  8
HIDDEN
100
AcDbLine
 10
-110.6210941466554
 20
-17.52066008450592
 30
0.0
 11
-110.6210941466554
 21
-17.52066008450592
 31
0.0
1001
DBPROPERTIES
1002
{
1000
PbHidd
1002
}
  0
LINE
  5
1E2
330
1F
100
AcDbEntity
  8
HIDDEN
100
AcDbLine
 10
-45.99335372704689
 20
-7.284631588706797
 30
0.0
 11
-45.99335372704689
 21
-7.284631588706807
 31
0.0
1001
DBPROPERTIES
1002
{
1000
PbHidd
1002
}
  0
LINE
  5
1E3
330
1F
100
AcDbEntity
  8
HIDDEN
100
AcDbLine
 10
-46.50284866840465
 20
-2.437111029046477
 30
0.0
 11
-46.50284866840465
 21
-2.437111029046487
 31
0.0
1001
DBPROPERTIES
1002
{
1000
PbHidd
1002
}
  0
LINE
  5
1E4
330
1F
100
AcDbEntity
  8
HIDDEN
100
AcDbLine
 10
-108.1836925443756
 20
-28.98773305148238
 30
0.0
 11
-108.1836925443756
 21
-28.98773305148238
 31
0.0
1001
DBPROPERTIES
1002
{
1000
PbHidd
1002
}
  0
LINE
  5
1E5
330
1F
100
AcDbEntity
  8
HIDDEN
100
AcDbLine
 10
-104.5610077676865
 20
-40.13721034907367
 30
0.0
 11
-104.5610077676865
 21
-40.13721034907366
 31
0.0
1001
DBPROPERTIES
1002
{
1000
PbHidd
1002
}
  0
LINE
  5
1E6
330
1F
100
AcDbEntity
  8
HIDDEN
100
AcDbLine
 10
-43.47372852721967
 20
-16.68800085049285
 30
0.0
 11
-43.47372852721967
 21
-16.68800085049286
 31
0.0
1001
DBPROPERTIES
1002
{
1000
PbHidd
1002
}
  0
LINE
  5
1E7
330
1F
100
AcDbEntity
  8
HIDDEN
100
AcDbLine
 10
-44.9799459775276
 20
-12.0523402002741
 30
0.0
 11
-44.9799459775276
 21
-12.05234020027411
 31
0.0
1001
DBPROPERTIES
1002
{
1000
PbHidd
1002
}
  0
LINE
  5
1E8
330
1F
100
AcDbEntity
  8
HIDDEN
100
AcDbLine
 10
-99.79273070909714
 20
-50.84693597082927
 30
0.0
 11
-99.79273070909714
 21
-50.84693597082928
 31
0.0
1001
DBPROPERTIES
1002
{
1000
PbHidd
1002
}
  0
LINE
  5
1E9
330
1F
100
AcDbEntity
  8
HIDDEN
100
AcDbLine
 10
-93.93110360988743
 20
-60.9995719216831
 30
0.0
 11
-93.93110360988743
 21
-60.99957192168309
 31
0.0
1001
DBPROPERTIES
1002
{
1000
PbHidd
1002
}
  0
LINE
  5
1EA
330
1F
100
AcDbEntity
  8
HIDDEN
100
AcDbLine
 10
-39.05409278065855
 20
-25.36202439719981
 30
0.0
 11
-39.05409278065855
 21
-25.36202439719982
 31
0.0
1001
DBPROPERTIES
1002
{
1000
PbHidd
1002
}
  0
LINE
  5
1EB
330
1F
100
AcDbEntity
  8
HIDDEN
100
AcDbLine
 10
-41.49120380970498
 20
-21.14082427120494
 30
0.0
 11
-41.49120380970498
 21
-21.14082427120495
 31
0.0
1001
DBPROPERTIES
1002
{
1000
PbHidd
1002
}
  0
LINE
  5
1EC
330
1F
100
AcDbEntity
  8
HIDDEN
100
AcDbLine
 10
-87.04034768318067
 20
-70.48388379758185
 30
0.0
 11
-87.04034768318067
 21
-70.48388379758185
 31
0.0
1001
DBPROPERTIES
1002
{
1000
PbHidd
1002
}
  0
LINE
  5
1ED
330
1F
100
AcDbEntity
  8
HIDDEN
100
AcDbLine
 10
-79.19595949289328
 20
-79.19595949289335
 30
0.0
 11
-79.19595949289328
 21
-79.19595949289335
 31
0.0
1001
DBPROPERTIES
1002
{
1000
PbHidd
1002
}
  0
LINE
  5
1EE
330
1F
100
AcDbEntity
  8
HIDDEN
100
AcDbLine
 10
-32.92760577725354
 20
-32.92760577725358
 30
0.0
 11
-32.92760577725354
 21
-32.9276057772536
 31
0.0
1001
DBPROPERTIES
1002
{
1000
PbHidd
1002
}
  0
LINE
  5
1EF
330
1F
100
AcDbEntity
  8
HIDDEN
100
AcDbLine
 10
-36.18909693851292
 20
-29.30535287655415
 30
0.0
 11
-36.18909693851292
 21
-29.30535287655416
 31
0.0
1001
DBPROPERTIES
1002
{
1000
PbHidd
1002
}
  0
LINE
  5
1F0
330
1F
100
AcDbEntity
  8
HIDDEN
100
AcDbLine
 10
-70.48388379758175
 20
-87.04034768318076
 30
0.0
 11
-70.48388379758175
 21
-87.04034768318076
 31
0.0
1001
DBPROPERTIES
1002
{
1000
PbHidd
1002
}
  0
LINE
  5
1F1
330
1F
100
AcDbEntity
  8
HIDDEN
100
AcDbLine
 10
-60.999571921683
 20
-93.93110360988751
 30
0.0
 11
-60.99957192168299
 21
-93.93110360988751
 31
0.0
1001
DBPROPERTIES
1002
{
1000
PbHidd
1002
}
  0
LINE
  5
1F2
330
1F
100
AcDbEntity
  8
HIDDEN
100
AcDbLine
 10
-25.36202439719975
 20
-39.0540927806586
 30
0.0
 11
-25.36202439719975
 21
-39.05409278065861
 31
0.0
1001
DBPROPERTIES
1002
{
1000
PbHidd
1002
}
  0
LINE
  5
1F3
330
1F
100
AcDbEntity
  8
HIDDEN
100
AcDbLine
 10
-29.30535287655408
 20
-36.18909693851297
 30
0.0
 11
-29.30535287655408
 21
-36.18909693851298
 31
0.0
1001
DBPROPERTIES
1002
{
1000
PbHidd
1002
}
  0
LINE
  5
1F4
330
1F
100
AcDbEntity
  8
HIDDEN
100
AcDbLine
 10
-50.8469359708292
 20
-99.79273070909723
 30
0.0
 11
-50.84693597082921
 21
-99.79273070909723
 31
0.0
1001
DBPROPERTIES
1002
{
1000
PbHidd
1002
}
  0
LINE
  5
1F5
330
1F
100
AcDbEntity
  8
HIDDEN
100
AcDbLine
 10
-40.1372103490736
 20
-104.5610077676866
 30
0.0
 11
-40.13721034907359
 21
-104.5610077676866
 31
0.0
1001
DBPROPERTIES
1002
{
1000
PbHidd
1002
}
  0
LINE
  5
1F6
330
1F
100
AcDbEntity
  8
HIDDEN
100
AcDbLine
 10
-16.68800085049281
 20
-43.47372852721971
 30
0.0
 11
-16.68800085049281
 21
-43.47372852721972
 31
0.0
1001
DBPROPERTIES
1002
{
1000
PbHidd
1002
}
  0
LINE
  5
1F7
330
1F
100
AcDbEntity
  8
HIDDEN
100
AcDbLine
 10
-21.14082427120489
 20
-41.49120380970503
 30
0.0
 11
-21.14082427120489
 21
-41.49120380970504
 31
0.0
1001
DBPROPERTIES
1002
{
1000
PbHidd
1002
}
  0
LINE
  5
1F8
330
1F
100
AcDbEntity
  8
HIDDEN
100
AcDbLine
 10
-28.9877330514823
 20
-108.1836925443757
 30
0.0
 11
-28.98773305148231
 21
-108.1836925443757
 31
0.0
1001
DBPROPERTIES
1002
{
1000
PbHidd
1002
}
  0
LINE
  5
1F9
330
1F
100
AcDbEntity
  8
HIDDEN
100
AcDbLine
 10
-17.52066008450582
 20
-110.6210941466555
 30
0.0
 11
-17.52066008450582
 21
-110.6210941466555
 31
0.0
1001
DBPROPERTIES
1002
{
1000
PbHidd
1002
}
  0
LINE
  5
1FA
330
1F
100
AcDbEntity
  8
HIDDEN
100
AcDbLine
 10
-7.284631588706739
 20
-45.99335372704692
 30
0.0
 11
-7.284631588706739
 21
-45.99335372704694
 31
0.0
1001
DBPROPERTIES
1002
{
1000
PbHidd
1002
}
  0
LINE
  5
1FB
330
1F
100
AcDbEntity
  8
HIDDEN
100
AcDbLine
 10
-12.05234020027404
 20
-44.97994597752763
 30
0.0
 11
-12.05234020027404
 21
-44.97994597752765
 31
0.0
1001
DBPROPERTIES
1002
{
1000
PbHidd
1002
}
  0
LINE
  5
1FC
330
1F
100
AcDbEntity
  8
HIDDEN
100
AcDbLine
 10
-5.861627099209678
 20
-111.8465078925123
 30
0.0
 11
-5.861627099209682
 21
-111.8465078925123
 31
0.0
1001
DBPROPERTIES
1002
{
1000
PbHidd
1002
}
  0
LINE
  5
1FD
330
1F
100
AcDbEntity
  8
HIDDEN
100
AcDbLine
 10
5.861627099209723
 20
-111.8465078925123
 30
0.0
 11
5.861627099209726
 21
-111.8465078925123
 31
0.0
1001
DBPROPERTIES
1002
{
1000
PbHidd
1002
}
  0
LINE
  5
1FE
330
1F
100
AcDbEntity
  8
HIDDEN
100
AcDbLine
 10
2.437111029046422
 20
-46.50284866840466
 30
0.0
 11
2.437111029046422
 21
-46.50284866840467
 31
0.0
1001
DBPROPERTIES
1002
{
1000
PbHidd
1002
}
  0
LINE
  5
1FF
330
1F
100
AcDbEntity
  8
HIDDEN
100
AcDbLine
 10
-2.437111029046404
 20
-46.50284866840468
 30
0.0
 11
-2.437111029046404
 21
-46.5028486684047
 31
0.0
1001
DBPROPERTIES
1002
{
1000
PbHidd
1002
}
  0
LINE
  5
200
330
1F
100
AcDbEntity
  8
HIDDEN
100
AcDbLine
 10
17.52066008450587
 20
-110.6210941466555
 30
0.0
 11
17.52066008450587
 21
-110.6210941466555
 31
0.0
1001
DBPROPERTIES
1002
{
1000
PbHidd
1002
}
  0
LINE
  5
201
330
1F
100
AcDbEntity
  8
HIDDEN
100
AcDbLine
 10
28.98773305148234
 20
-108.1836925443757
 30
0.0
 11
28.98773305148234
 21
-108.1836925443757
 31
0.0
1001
DBPROPERTIES
1002
{
1000
PbHidd
1002
}
  0
LINE
  5
202
330
1F
100
AcDbEntity
  8
HIDDEN
100
AcDbLine
 10
12.05234020027405
 20
-44.97994597752763
 30
0.0
 11
12.05234020027405
 21
-44.97994597752764
 31
0.0
1001
DBPROPERTIES
1002
{
1000
PbHidd
1002
}
  0
LINE
  5
203
330
1F
100
AcDbEntity
  8
HIDDEN
100
AcDbLine
 10
7.284631588706756
 20
-45.99335372704693
 30
0.0
 11
7.284631588706756
 21
-45.99335372704694
 31
0.0
1001
DBPROPERTIES
1002
{
1000
PbHidd
1002
}
  0
LINE
  5
204
330
1F
100
AcDbEntity
  8
HIDDEN
100
AcDbLine
 10
40.13721034907365
 20
-104.5610077676867
 30
0.0
 11
40.13721034907364
 21
-104.5610077676867
 31
0.0
1001
DBPROPERTIES
1002
{
1000
PbHidd
1002
}
  0
LINE
  5
205
330
1F
100
AcDbEntity
  8
HIDDEN
100
AcDbLine
 10
50.84693597082927
 20
-99.79273070909726
 30
0.0
 11
50.84693597082928
 21
-99.79273070909726
 31
0.0
1001
DBPROPERTIES
1002
{
1000
PbHidd
1002
}
  0
LINE
  5
206
330
1F
100
AcDbEntity
  8
HIDDEN
100
AcDbLine
 10
21.14082427120489
 20
-41.491203809705
 30
0.0
 11
21.14082427120489
 21
-41.49120380970501
 31
0.0
1001
DBPROPERTIES
1002
{
1000
PbHidd
1002
}
  0
LINE
  5
207
330
1F
100
AcDbEntity
  8
HIDDEN
100
AcDbLine
 10
16.68800085049282
 20
-43.47372852721971
 30
0.0
 11
16.68800085049282
 21
-43.47372852721973
 31
0.0
1001
DBPROPERTIES
1002
{
1000
PbHidd
1002
}
  0
LINE
  5
208
330
1F
100
AcDbEntity
  8
HIDDEN
100
AcDbLine
 10
60.99957192168306
 20
-93.93110360988754
 30
0.0
 11
60.99957192168306
 21
-93.93110360988754
 31
0.0
1001
DBPROPERTIES
1002
{
1000
PbHidd
1002
}
  0
LINE
  5
209
330
1F
100
AcDbEntity
  8
HIDDEN
100
AcDbLine
 10
70.48388379758183
 20
-87.0403476831808
 30
0.0
 11
70.48388379758183
 21
-87.0403476831808
 31
0.0
1001
DBPROPERTIES
1002
{
1000
PbHidd
1002
}
  0
LINE
  5
20A
330
1F
100
AcDbEntity
  8
HIDDEN
100
AcDbLine
 10
29.30535287655409
 20
-36.18909693851296
 30
0.0
 11
29.30535287655409
 21
-36.18909693851298
 31
0.0
1001
DBPROPERTIES
1002
{
1000
PbHidd
1002
}
  0
LINE
  5
20B
330
1F
100
AcDbEntity
  8
HIDDEN
100
AcDbLine
 10
25.36202439719976
 20
-39.05409278065859
 30
0.0
 11
25.36202439719976
 21
-39.05409278065861
 31
0.0
1001
DBPROPERTIES
1002
{
1000
PbHidd
1002
}
  0
LINE
  5
20C
330
1F
100
AcDbEntity
  8
HIDDEN
100
AcDbLine
 10
79.19595949289334
 20
-79.19595949289338
 30
0.0
 11
79.19595949289334
 21
-79.19595949289338
 31
0.0
1001
DBPROPERTIES
1002
{
1000
PbHidd
1002
}
  0
LINE
  5
20D
330
1F
100
AcDbEntity
  8
HIDDEN
100
AcDbLine
 10
87.04034768318077
 20
-70.48388379758184
 30
0.0
 11
87.04034768318077
 21
-70.48388379758184
 31
0.0
1001
DBPROPERTIES
1002
{
1000
PbHidd
1002
}
  0
LINE
  5
20E
330
1F
100
AcDbEntity
  8
HIDDEN
100
AcDbLine
 10
36.18909693851293
 20
-29.30535287655412
 30
0.0
 11
36.18909693851293
 21
-29.30535287655413
 31
0.0
1001
DBPROPERTIES
1002
{
1000
PbHidd
1002
}
  0
LINE
  5
20F
330
1F
100
AcDbEntity
  8
HIDDEN
100
AcDbLine
 10
32.92760577725357
 20
-32.92760577725358
 30
0.0
 11
32.92760577725357
 21
-32.9276057772536
 31
0.0
1001
DBPROPERTIES
1002
{
1000
PbHidd
1002
}
  0
LINE
  5
210
330
1F
100
AcDbEntity
  8
HIDDEN
100
AcDbLine
 10
93.93110360988753
 20
-60.99957192168308
 30
0.0
 11
93.93110360988753
 21
-60.99957192168308
 31
0.0
1001
DBPROPERTIES
1002
{
1000
PbHidd
1002
}
  0
LINE
  5
211
330
1F
100
AcDbEntity
  8
HIDDEN
100
AcDbLine
 10
99.79273070909724
 20
-50.84693597082929
 30
0.0
 11
99.79273070909724
 21
-50.84693597082929
 31
0.0
1001
DBPROPERTIES
1002
{
1000
PbHidd
1002
}
  0
LINE
  5
212
330
1F
100
AcDbEntity
  8
HIDDEN
100
AcDbLine
 10
41.49120380970499
 20
-21.14082427120492
 30
0.0
 11
41.49120380970499
 21
-21.14082427120493
 31
0.0
1001
DBPROPERTIES
1002
{
1000
PbHidd
1002
}
  0
LINE
  5
213
330
1F
100
AcDbEntity
  8
HIDDEN
100
AcDbLine
 10
39.05409278065857
 20
-25.36202439719979
 30
0.0
 11
39.05409278065857
 21
-25.3620243971998
 31
0.0
1001
DBPROPERTIES
1002
{
1000
PbHidd
1002
}
  0
LINE
  5
214
330
1F
100
AcDbEntity
  8
HIDDEN
100
AcDbLine
 10
104.5610077676866
 20
-40.13721034907368
 30
0.0
 11
104.5610077676866
 21
-40.13721034907368
 31
0.0
1001
DBPROPERTIES
1002
{
1000
PbHidd
1002
}
  0
LINE
  5
215
330
1F
100
AcDbEntity
  8
HIDDEN
100
AcDbLine
 10
108.1836925443757
 20
-28.98773305148237
 30
0.0
 11
108.1836925443757
 21
-28.98773305148237
 31
0.0
1001
DBPROPERTIES
1002
{
1000
PbHidd
1002
}
  0
LINE
  5
216
330
1F
100
AcDbEntity
  8
HIDDEN
100
AcDbLine
 10
44.9799459775276
 20
-12.05234020027408
 30
0.0
 11
44.9799459775276
 21
-12.05234020027409
 31
0.0
1001
DBPROPERTIES
1002
{
1000
PbHidd
1002
}
  0
LINE
  5
217
330
1F
100
AcDbEntity
  8
HIDDEN
100
AcDbLine
 10
43.47372852721969
 20
-16.68800085049285
 30
0.0
 11
43.47372852721969
 21
-16.68800085049286
 31
0.0
1001
DBPROPERTIES
1002
{
1000
PbHidd
1002
}
  0
LINE
  5
218
330
1F
100
AcDbEntity
  8
HIDDEN
100
AcDbLine
 10
108.1836925443757
 20
28.98773305148238
 30
0.0
 11
108.1836925443757
 21
28.98773305148238
 31
0.0
1001
DBPROPERTIES
1002
{
1000
PbHidd
1002
}
  0
ARC
  5
219
330
1F
100
AcDbEntity
  8
HIDDEN
100
AcDbCircle
 10
0.0000000000000573
 20
-0.0000000000000366
 30
0.0
 40
100.0
100
AcDbArc
 50
350.9999789540851
 51
9.000021045914972
1001
DBPROPERTIES
1002
{
1000
PbHidd
1002
}
  0
ARC
  5
21A
330
1F
100
AcDbEntity
  8
HIDDEN
100
AcDbCircle
 10
0.0000000000000573
 20
-0.0000000000000366
 30
0.0
 40
100.0
100
AcDbArc
 50
14.99997778074544
 51
20.99999181135542
1001
DBPROPERTIES
1002
{
1000
PbHidd
1002
}
  0
ARC
  5
21B
330
1F
100
AcDbEntity
  8
HIDDEN
100
AcDbCircle
 10
0.0000000000000573
 20
-0.0000000000000366
 30
0.0
 40
100.0
100
AcDbArc
 50
27.0000058419654
 51
33.00001987257539
1001
DBPROPERTIES
1002
{
1000
PbHidd
1002
}
  0
ARC
  5
21C
330
1F
100
AcDbEntity
  8
HIDDEN
100
AcDbCircle
 10
0.0000000000000573
 20
-0.0000000000000366
 30
0.0
 40
100.0
100
AcDbArc
 50
38.99997660740585
 51
44.99999063801582
1001
DBPROPERTIES
1002
{
1000
PbHidd
1002
}
  0
ARC
  5
21D
330
1F
100
AcDbEntity
  8
HIDDEN
100
AcDbCircle
 10
0.0000000000000573
 20
-0.0000000000000366
 30
0.0
 40
100.0
100
AcDbArc
 50
51.00000466862581
 51
57.0000186992358
1001
DBPROPERTIES
1002
{
1000
PbHidd
1002
}
  0
ARC
  5
21E
330
1F
100
AcDbEntity
  8
HIDDEN
100
AcDbCircle
 10
0.0000000000000573
 20
-0.0000000000000366
 30
0.0
 40
100.0
100
AcDbArc
 50
62.99997543406626
 51
68.99998946467625
1001
DBPROPERTIES
1002
{
1000
PbHidd
1002
}
  0
ARC
  5
21F
330
1F
100
AcDbEntity
  8
HIDDEN
100
AcDbCircle
 10
0.0000000000000573
 20
-0.0000000000000366
 30
0.0
 40
100.0
100
AcDbArc
 50
75.00000349528622
 51
81.0000175258962
1001
DBPROPERTIES
1002
{
1000
PbHidd
1002
}
  0
ARC
  5
220
330
1F
100
AcDbEntity
  8
HIDDEN
100
AcDbCircle
 10
0.0000000000000573
 20
-0.0000000000000366
 30
0.0
 40
100.0
100
AcDbArc
 50
86.99997426072667
 51
89.99998127603165
1001
DBPROPERTIES
1002
{
1000
PbHidd
1002
}
  0
ARC
  5
221
330
1F
100
AcDbEntity
  8
HIDDEN
100
AcDbCircle
 10
0.0000000000000573
 20
-0.0000000000000366
 30
0.0
 40
100.0
100
AcDbArc
 50
99.00000232194662
 51
105.0000163525566
1001
DBPROPERTIES
1002
{
1000
PbHidd
1002
}
  0
ARC
  5
222
330
1F
100
AcDbEntity
  8
HIDDEN
100
AcDbCircle
 10
0.0000000000000573
 20
-0.0000000000000366
 30
0.0
 40
100.0
100
AcDbArc
 50
110.9999730873871
 51
116.9999871179971
1001
DBPROPERTIES
1002
{
1000
PbHidd
1002
}
  0
ARC
  5
223
330
1F
100
AcDbEntity
  8
HIDDEN
100
AcDbCircle
 10
0.0000000000000573
 20
-0.0000000000000366
 30
0.0
 40
100.0
100
AcDbArc
 50
123.000001148607
 51
129.000015179217
1001
DBPROPERTIES
1002
{
1000
PbHidd
1002
}
  0
ARC
  5
224
330
1F
100
AcDbEntity
  8
HIDDEN
100
AcDbCircle
 10
0.0000000000000573
 20
-0.0000000000000366
 30
0.0
 40
100.0
100
AcDbArc
 50
134.9999719140475
 51
140.9999859446575
1001
DBPROPERTIES
1002
{
1000
PbHidd
1002
}
  0
ARC
  5
225
330
1F
100
AcDbEntity
  8
HIDDEN
100
AcDbCircle
 10
0.0000000000000573
 20
-0.0000000000000366
 30
0.0
 40
100.0
100
AcDbArc
 50
146.9999999752674
 51
153.0000140058774
1001
DBPROPERTIES
1002
{
1000
PbHidd
1002
}
  0
ARC
  5
226
330
1F
100
AcDbEntity
  8
HIDDEN
100
AcDbCircle
 10
0.0000000000000573
 20
-0.0000000000000366
 30
0.0
 40
100.0
100
AcDbArc
 50
159.0000280364874
 51
164.9999847713179
1001
DBPROPERTIES
1002
{
1000
PbHidd
1002
}
  0
ARC
  5
227
330
1F
100
AcDbEntity
  8
HIDDEN
100
AcDbCircle
 10
0.0000000000000573
 20
-0.0000000000000366
 30
0.0
 40
100.0
100
AcDbArc
 50
170.9999988019279
 51
177.0000128325378
1001
DBPROPERTIES
1002
{
1000
PbHidd
1002
}
  0
ARC
  5
228
330
1F
100
AcDbEntity
  8
HIDDEN
100
AcDbCircle
 10
0.0000000000000573
 20
-0.0000000000000366
 30
0.0
 40
100.0
100
AcDbArc
 50
182.9999871674622
 51
189.0000011980722
1001
DBPROPERTIES
1002
{
1000
PbHidd
1002
}
  0
ARC
  5
229
330
1F
100
AcDbEntity
  8
HIDDEN
100
AcDbCircle
 10
0.0000000000000573
 20
-0.0000000000000366
 30
0.0
 40
100.0
100
AcDbArc
 50
195.0000152286821
 51
200.9999719635126
1001
DBPROPERTIES
1002
{
1000
PbHidd
1002
}
  0
ARC
  5
22A
330
1F
100
AcDbEntity
  8
HIDDEN
100
AcDbCircle
 10
0.0000000000000573
 20
-0.0000000000000366
 30
0.0
 40
100.0
100
AcDbArc
 50
206.9999859941226
 51
213.0000000247326
1001
DBPROPERTIES
1002
{
1000
PbHidd
1002
}
  0
ARC
  5
22B
330
1F
100
AcDbEntity
  8
HIDDEN
100
AcDbCircle
 10
0.0000000000000573
 20
-0.0000000000000366
 30
0.0
 40
100.0
100
AcDbArc
 50
219.0000140553425
 51
225.0000280859525
1001
DBPROPERTIES
1002
{
1000
PbHidd
1002
}
  0
ARC
  5
22C
330
1F
100
AcDbEntity
  8
HIDDEN
100
AcDbCircle
 10
0.0000000000000573
 20
-0.0000000000000366
 30
0.0
 40
100.0
100
AcDbArc
 50
230.999984820783
 51
236.999998851393
1001
DBPROPERTIES
1002
{
1000
PbHidd
1002
}
  0
ARC
  5
22D
330
1F
100
AcDbEntity
  8
HIDDEN
100
AcDbCircle
 10
0.0000000000000573
 20
-0.0000000000000366
 30
0.0
 40
100.0
100
AcDbArc
 50
243.0000128820029
 51
249.0000269126129
1001
DBPROPERTIES
1002
{
1000
PbHidd
1002
}
  0
ARC
  5
22E
330
1F
100
AcDbEntity
  8
HIDDEN
100
AcDbCircle
 10
0.0000000000000573
 20
-0.0000000000000366
 30
0.0
 40
100.0
100
AcDbArc
 50
254.9999836474434
 51
260.9999976780534
1001
DBPROPERTIES
1002
{
1000
PbHidd
1002
}
  0
ARC
  5
22F
330
1F
100
AcDbEntity
  8
HIDDEN
100
AcDbCircle
 10
0.0000000000000573
 20
-0.0000000000000366
 30
0.0
 40
100.0
100
AcDbArc
 50
270.0000187239684
 51
273.0000257392733
1001
DBPROPERTIES
1002
{
1000
PbHidd
1002
}
  0
ARC
  5
230
330
1F
100
AcDbEntity
  8
HIDDEN
100
AcDbCircle
 10
0.0000000000000573
 20
-0.0000000000000366
 30
0.0
 40
100.0
100
AcDbArc
 50
278.9999824741038
 51
284.9999965047138
1001
DBPROPERTIES
1002
{
1000
PbHidd
1002
}
  0
ARC
  5
231
330
1F
100
AcDbEntity
  8
HIDDEN
100
AcDbCircle
 10
0.0000000000000573
 20
-0.0000000000000366
 30
0.0
 40
100.0
100
AcDbArc
 50
291.0000105353237
 51
297.0000245659338
1001
DBPROPERTIES
1002
{
1000
PbHidd
1002
}
  0
ARC
  5
232
330
1F
100
AcDbEntity
  8
HIDDEN
100
AcDbCircle
 10
0.0000000000000573
 20
-0.0000000000000366
 30
0.0
 40
100.0
100
AcDbArc
 50
302.9999813007643
 51
308.9999953313742
1001
DBPROPERTIES
1002
{
1000
PbHidd
1002
}
  0
ARC
  5
233
330
1F
100
AcDbEntity
  8
HIDDEN
100
AcDbCircle
 10
0.0000000000000573
 20
-0.0000000000000366
 30
0.0
 40
100.0
100
AcDbArc
 50
315.0000093619842
 51
321.0000233925941
1001
DBPROPERTIES
1002
{
1000
PbHidd
1002
}
  0
ARC
  5
234
330
1F
100
AcDbEntity
  8
HIDDEN
100
AcDbCircle
 10
0.0000000000000573
 20
-0.0000000000000366
 30
0.0
 40
100.0
100
AcDbArc
 50
326.9999801274246
 51
332.9999941580346
1001
DBPROPERTIES
1002
{
1000
PbHidd
1002
}
  0
ARC
  5
235
330
1F
100
AcDbEntity
  8
HIDDEN
100
AcDbCircle
 10
0.0000000000000573
 20
-0.0000000000000366
 30
0.0
 40
100.0
100
AcDbArc
 50
339.0000081886445
 51
345.0000222192546
1001
DBPROPERTIES
1002
{
1000
PbHidd
1002
}
  0
LINE
  5
236
330
1F
100
AcDbEntity
  8
HIDDEN
100
AcDbLine
 10
46.0749424839106
 20
-81.16779402087657
 30
0.0
 11
173.5881960442397
 21
-182.8562204650535
 31
0.0
1001
DBPROPERTIES
1002
{
1000
PbHidd
1002
}
  0
LINE
  5
237
330
1F
100
AcDbEntity
  8
THICK
100
AcDbLine
 10
218.0308745419233
 20
-127.1268643294632
 30
0.0
 11
152.6869109218033
 21
-75.01679221831762
 31
0.0
1001
DBPROPERTIES
1002
{
1000
PbThick
1002
}
  0
LINE
  5
238
330
1F
100
AcDbEntity
  8
HIDDEN
100
AcDbLine
 10
152.6869109218033
 20
-75.01679221831762
 30
0.0
 11
89.9309741632823
 21
-24.97060265901008
 31
0.0
1001
DBPROPERTIES
1002
{
1000
PbHidd
1002
}
  0
ELLIPSE
  5
239
330
1F
100
AcDbEntity
  8
HIDDEN
100
AcDbEllipse
 10
104.7060703581983
 20
-82.33895347670779
 30
0.0
 11
-96.32163864006125
 21
76.81394358899595
 31
0.0
210
0.0
220
0.0
230
1.0
 40
0.8910065241883678
 41
2.810924217632188
 42
3.141592653589793
1001
DBPROPERTIES
1002
{
1000
PbHidd
1002
}
  0
ELLIPSE
  5
23A
330
1F
100
AcDbEntity
  8
THICK
100
AcDbEllipse
 10
104.7060703581983
 20
-82.33895347670779
 30
0.0
 11
-96.32163864006125
 21
76.81394358899595
 31
0.0
210
0.0
220
0.0
230
1.0
 40
0.8910065241883678
 41
-3.141592653589793
 42
-2.810924217632188
1001
DBPROPERTIES
1002
{
1000
PbThick
1002
}
  0
LINE
  5
23B
330
1F
100
AcDbEntity
  8
HIDDEN
100
AcDbLine
 10
89.66255485068669
 20
-25.91789668855701
 30
0.0
 11
152.274920136232
 21
-75.84959181876383
 31
0.0
1001
DBPROPERTIES
1002
{
1000
PbHidd
1002
}
  0
LINE
  5
23C
330
1F
100
AcDbEntity
  8
THICK
100
AcDbLine
 10
152.274920136232
 20
-75.84959181876383
 30
0.0
 11
217.4647576484666
 21
-127.8367524603388
 31
0.0
1001
DBPROPERTIES
1002
{
1000
PbThick
1002
}
  0
LINE
  5
23D
330
1F
100
AcDbEntity
  8
THICK
100
AcDbLine
 10
217.4647576484666
 20
-127.8367524603388
 30
0.0
 11
218.0308745419233
 21
-127.1268643294632
 31
0.0
1001
DBPROPERTIES
1002
{
1000
PbThick
1002
}
  0
LINE
  5
23E
330
1F
100
AcDbEntity
  8
HIDDEN
100
AcDbLine
 10
45.21987635300314
 20
-81.64725282414727
 30
0.0
 11
107.8322416385485
 21
-131.5789479543541
 31
0.0
1001
DBPROPERTIES
1002
{
1000
PbHidd
1002
}
  0
LINE
  5
23F
330
1F
100
AcDbEntity
  8
THICK
100
AcDbLine
 10
107.8322416385485
 20
-131.5789479543541
 30
0.0
 11
173.022079150783
 21
-183.566108595929
 31
0.0
1001
DBPROPERTIES
1002
{
1000
PbThick
1002
}
  0
LINE
  5
240
330
1F
100
AcDbEntity
  8
HIDDEN
100
AcDbLine
 10
173.022079150783
 20
-183.566108595929
 30
0.0
 11
173.5881960442397
 21
-182.8562204650534
 31
0.0
1001
DBPROPERTIES
1002
{
1000
PbHidd
1002
}
  0
ELLIPSE
  5
241
330
1F
100
AcDbEntity
  8
THICK
100
AcDbEllipse
 10
104.1399534647416
 20
-83.04884160758334
 30
0.0
 11
96.32163864006125
 21
-76.81394358899595
 31
0.0
210
0.0
220
0.0
230
1.0
 40
0.8910065241883678
 41
0.0
 42
0.3306684359576056
1001
DBPROPERTIES
1002
{
1000
PbThick
1002
}
  0
ELLIPSE
  5
242
330
1F
100
AcDbEntity
  8
THICK
100
AcDbEllipse
 10
104.1399534647416
 20
-83.04884160758334
 30
0.0
 11
96.32163864006125
 21
-76.81394358899595
 31
0.0
210
0.0
220
0.0
230
1.0
 40
0.8910065241883678
 41
-0.3306684359576051
 42
0.0
1001
DBPROPERTIES
1002
{
1000
PbThick
1002
}
  0
LINE
  5
243
330
1F
100
AcDbEntity
  8
THICK
100
AcDbLine
 10
235.3318115674462
 20
91.20109841521372
 30
0.0
 11
153.8492217071005
 21
72.60322900318081
 31
0.0
1001
DBPROPERTIES
1002
{
1000
PbThick
1002
}
  0
LINE
  5
244
330
1F
100
AcDbEntity
  8
HIDDEN
100
AcDbLine
 10
153.8492217071005
 20
72.60322900318081
 30
0.0
 11
75.59384855704167
 21
54.7419507457137
 31
0.0
1001
DBPROPERTIES
1002
{
1000
PbHidd
1002
}
  0
ELLIPSE
  5
245
330
1F
100
AcDbEntity
  8
HIDDEN
100
AcDbEllipse
 10
129.6583531226002
 20
30.52500442310397
 30
0.0
 11
-120.1111187808007
 21
-27.41457906341796
 31
0.0
210
0.0
220
0.0
230
1.0
 40
0.8910065241883678
 41
2.810924217632188
 42
3.141592653589793
1001
DBPROPERTIES
1002
{
1000
PbHidd
1002
}
  0
ELLIPSE
  5
246
330
1F
100
AcDbEntity
  8
THICK
100
AcDbEllipse
 10
129.6583531226002
 20
30.52500442310397
 30
0.0
 11
-120.1111187808007
 21
-27.41457906341796
 31
0.0
210
0.0
220
0.0
230
1.0
 40
0.8910065241883678
 41
-3.141592653589793
 42
-2.810924217632188
1001
DBPROPERTIES
1002
{
1000
PbThick
1002
}
  0
LINE
  5
247
330
1F
100
AcDbEntity
  8
HIDDEN
100
AcDbLine
 10
92.18679348794748
 20
-14.58445122456183
 30
0.0
 11
251.1932198813314
 21
21.70772798582578
 31
0.0
1001
DBPROPERTIES
1002
{
1000
PbHidd
1002
}
  0
LINE
  5
248
330
1F
100
AcDbEntity
  8
HIDDEN
100
AcDbLine
 10
76.16711614847013
 20
53.94146390983983
 30
0.0
 11
154.2434586000527
 21
71.7618795786642
 31
0.0
1001
DBPROPERTIES
1002
{
1000
PbHidd
1002
}
  0
LINE
  5
249
330
1F
100
AcDbEntity
  8
THICK
100
AcDbLine
 10
154.2434586000527
 20
71.7618795786642
 30
0.0
 11
235.5338563474649
 21
90.31588239509081
 31
0.0
1001
DBPROPERTIES
1002
{
1000
PbThick
1002
}
  0
LINE
  5
24A
330
1F
100
AcDbEntity
  8
THICK
100
AcDbLine
 10
235.5338563474651
 20
90.31588239509084
 30
0.0
 11
235.3318115674464
 21
91.20109841521375
 31
0.0
1001
DBPROPERTIES
1002
{
1000
PbThick
1002
}
  0
LINE
  5
24B
330
1F
100
AcDbEntity
  8
HIDDEN
100
AcDbLine
 10
92.02852446235535
 20
-15.55190651954809
 30
0.0
 11
170.1048669139379
 21
2.268509149276277
 31
0.0
1001
DBPROPERTIES
1002
{
1000
PbHidd
1002
}
  0
LINE
  5
24C
330
1F
100
AcDbEntity
  8
THICK
100
AcDbLine
 10
170.1048669139379
 20
2.268509149276277
 30
0.0
 11
251.3952646613501
 21
20.82251196570287
 31
0.0
1001
DBPROPERTIES
1002
{
1000
PbThick
1002
}
  0
LINE
  5
24D
330
1F
100
AcDbEntity
  8
HIDDEN
100
AcDbLine
 10
251.3952646613503
 20
20.82251196570292
 30
0.0
 11
251.1932198813316
 21
21.70772798582584
 31
0.0
1001
DBPROPERTIES
1002
{
1000
PbHidd
1002
}
  0
ELLIPSE
  5
24E
330
1F
100
AcDbEntity
  8
THICK
100
AcDbEllipse
 10
129.8603979026189
 20
29.63978840298105
 30
0.0
 11
120.1111187808007
 21
27.41457906341796
 31
0.0
210
0.0
220
0.0
230
1.0
 40
0.8910065241883678
 41
0.0
 42
0.3306684359576053
1001
DBPROPERTIES
1002
{
1000
PbThick
1002
}
  0
ELLIPSE
  5
24F
330
1F
100
AcDbEntity
  8
THICK
100
AcDbEllipse
 10
129.8603979026189
 20
29.63978840298105
 30
0.0
 11
120.1111187808007
 21
27.41457906341796
 31
0.0
210
0.0
220
0.0
230
1.0
 40
0.8910065241883678
 41
-0.2609157852685925
 42
0.0
1001
DBPROPERTIES
1002
{
1000
PbThick
1002
}
  0
ELLIPSE
  5
250
330
1F
100
AcDbEntity
  8
HIDDEN
100
AcDbEllipse
 10
129.8603979026189
 20
29.63978840298105
 30
0.0
 11
120.1111187808007
 21
27.41457906341796
 31
0.0
210
0.0
220
0.0
230
1.0
 40
0.8910065241883678
 41
-0.2976762786020028
 42
-0.2609157852685925
1001
DBPROPERTIES
1002
{
1000
PbHidd
1002
}
  0
ELLIPSE
  5
251
330
1F
100
AcDbEntity
  8
THICK
100
AcDbEllipse
 10
129.8603979026189
 20
29.63978840298105
 30
0.0
 11
120.1111187808007
 21
27.41457906341796
 31
0.0
210
0.0
220
0.0
230
1.0
 40
0.8910065241883678
 41
-0.3306684359576054
 42
-0.2976762786020028
1001
DBPROPERTIES
1002
{
1000
PbThick
1002
}
  0
LINE
  5
252
330
1F
100
AcDbEntity
  8
HIDDEN
100
AcDbLine
 10
68.88010872767417
 20
62.98128081243566
 30
0.0
 11
139.6446257398977
 21
209.9253145064249
 31
0.0
1001
DBPROPERTIES
1002
{
1000
PbHidd
1002
}
  0
LINE
  5
253
330
1F
100
AcDbEntity
  8
THICK
100
AcDbLine
 10
75.42309458856462
 20
240.852773889864
 30
0.0
 11
39.15993059475775
 21
165.5515379493124
 31
0.0
1001
DBPROPERTIES
1002
{
1000
PbThick
1002
}
  0
LINE
  5
254
330
1F
100
AcDbEntity
  8
HIDDEN
100
AcDbLine
 10
39.15993059475775
 20
165.5515379493124
 30
0.0
 11
4.333013153855767
 21
93.23269870662115
 31
0.0
1001
DBPROPERTIES
1002
{
1000
PbHidd
1002
}
  0
ELLIPSE
  5
255
330
1F
100
AcDbEntity
  8
HIDDEN
100
AcDbEllipse
 10
56.97525143728112
 20
120.4030113957038
 30
0.0
 11
-53.45447665928312
 21
-110.9993645255781
 31
0.0
210
0.0
220
0.0
230
1.0
 40
0.8910065241883678
 41
2.810924217632187
 42
3.141592653589793
1001
DBPROPERTIES
1002
{
1000
PbHidd
1002
}
  0
ELLIPSE
  5
256
330
1F
100
AcDbEntity
  8
THICK
100
AcDbEllipse
 10
56.97525143728112
 20
120.4030113957038
 30
0.0
 11
-53.45447665928312
 21
-110.9993645255781
 31
0.0
210
0.0
220
0.0
230
1.0
 40
0.8910065241883678
 41
3.141592653589793
 42
3.472261089547398
1001
DBPROPERTIES
1002
{
1000
PbThick
1002
}
  0
LINE
  5
257
330
1F
100
AcDbEntity
  8
HIDDEN
100
AcDbLine
 10
5.316285460434948
 20
93.18180197878904
 30
0.0
 11
40.06352674487337
 21
165.3351919777871
 31
0.0
1001
DBPROPERTIES
1002
{
1000
PbHidd
1002
}
  0
LINE
  5
258
330
1F
100
AcDbEntity
  8
THICK
100
AcDbLine
 10
40.06352674487337
 20
165.3351919777871
 30
0.0
 11
76.24115720174221
 21
240.4588156987623
 31
0.0
1001
DBPROPERTIES
1002
{
1000
PbThick
1002
}
  0
LINE
  5
259
330
1F
100
AcDbEntity
  8
THICK
100
AcDbLine
 10
76.24115720174227
 20
240.4588156987624
 30
0.0
 11
75.42309458856468
 21
240.8527738898641
 31
0.0
1001
DBPROPERTIES
1002
{
1000
PbThick
1002
}
  0
LINE
  5
25A
330
1F
100
AcDbEntity
  8
HIDDEN
100
AcDbLine
 10
69.53781661176802
 20
62.25434259535003
 30
0.0
 11
104.2850578962064
 21
134.4077325943481
 31
0.0
1001
DBPROPERTIES
1002
{
1000
PbHidd
1002
}
  0
LINE
  5
25B
330
1F
100
AcDbEntity
  8
THICK
100
AcDbLine
 10
104.2850578962064
 20
134.4077325943481
 30
0.0
 11
140.4626883530753
 21
209.5313563153233
 31
0.0
1001
DBPROPERTIES
1002
{
1000
PbThick
1002
}
  0
LINE
  5
25C
330
1F
100
AcDbEntity
  8
HIDDEN
100
AcDbLine
 10
140.4626883530753
 20
209.5313563153234
 30
0.0
 11
139.6446257398977
 21
209.9253145064251
 31
0.0
1001
DBPROPERTIES
1002
{
1000
PbHidd
1002
}
  0
ELLIPSE
  5
25D
330
1F
100
AcDbEntity
  8
THICK
100
AcDbEllipse
 10
57.7933140504587
 20
120.0090532046022
 30
0.0
 11
53.45447665928312
 21
110.9993645255781
 31
0.0
210
0.0
220
0.0
230
1.0
 40
0.8910065241883678
 41
0.0
 42
0.3306684359576053
1001
DBPROPERTIES
1002
{
1000
PbThick
1002
}
  0
ELLIPSE
  5
25E
330
1F
100
AcDbEntity
  8
THICK
100
AcDbEllipse
 10
57.7933140504587
 20
120.0090532046022
 30
0.0
 11
53.45447665928312
 21
110.9993645255781
 31
0.0
210
0.0
220
0.0
230
1.0
 40
0.8910065241883678
 41
-0.3306684359576056
 42
0.0
1001
DBPROPERTIES
1002
{
1000
PbThick
1002
}
  0
LINE
  5
25F
330
1F
100
AcDbEntity
  8
HIDDEN
100
AcDbLine
 10
-6.294702802696285
 20
93.12082381367128
 30
0.0
 11
-77.05921981491981
 21
240.0648575076605
 31
0.0
1001
DBPROPERTIES
1002
{
1000
PbHidd
1002
}
  0
LINE
  5
260
330
1F
100
AcDbEntity
  8
THICK
100
AcDbLine
 10
-141.2807509662529
 20
209.1373981242215
 30
0.0
 11
-105.017586972446
 21
133.83616218367
 31
0.0
1001
DBPROPERTIES
1002
{
1000
PbThick
1002
}
  0
LINE
  5
261
330
1F
100
AcDbEntity
  8
HIDDEN
100
AcDbLine
 10
-105.017586972446
 20
133.83616218367
 30
0.0
 11
-70.19066953154402
 21
61.51732294097875
 31
0.0
1001
DBPROPERTIES
1002
{
1000
PbHidd
1002
}
  0
ELLIPSE
  5
262
330
1F
100
AcDbEntity
  8
HIDDEN
100
AcDbEllipse
 10
-58.61137666363634
 20
119.6150950135005
 30
0.0
 11
53.45447665928319
 21
-110.999364525578
 31
0.0
210
0.0
220
0.0
230
1.0
 40
0.8910065241883679
 41
2.810924217632188
 42
3.141592653589793
1001
DBPROPERTIES
1002
{
1000
PbHidd
1002
}
  0
ELLIPSE
  5
263
330
1F
100
AcDbEntity
  8
THICK
100
AcDbEllipse
 10
-58.61137666363634
 20
119.6150950135005
 30
0.0
 11
53.45447665928319
 21
-110.999364525578
 31
0.0
210
0.0
220
0.0
230
1.0
 40
0.8910065241883679
 41
3.141592653589793
 42
3.472261089547398
1001
DBPROPERTIES
1002
{
1000
PbThick
1002
}
  0
LINE
  5
264
330
1F
100
AcDbEntity
  8
HIDDEN
100
AcDbLine
 10
-69.53781661176802
 20
62.25434259535002
 30
0.0
 11
-104.2850578962064
 21
134.4077325943479
 31
0.0
1001
DBPROPERTIES
1002
{
1000
PbHidd
1002
}
  0
LINE
  5
265
330
1F
100
AcDbEntity
  8
THICK
100
AcDbLine
 10
-104.2850578962064
 20
134.4077325943479
 30
0.0
 11
-140.4626883530753
 21
209.5313563153232
 31
0.0
1001
DBPROPERTIES
1002
{
1000
PbThick
1002
}
  0
LINE
  5
266
330
1F
100
AcDbEntity
  8
THICK
100
AcDbLine
 10
-140.4626883530754
 20
209.5313563153234
 30
0.0
 11
-141.280750966253
 21
209.1373981242217
 31
0.0
1001
DBPROPERTIES
1002
{
1000
PbThick
1002
}
  0
LINE
  5
267
330
1F
100
AcDbEntity
  8
HIDDEN
100
AcDbLine
 10
-5.316285460434962
 20
93.18180197878904
 30
0.0
 11
-40.06352674487336
 21
165.335191977787
 31
0.0
1001
DBPROPERTIES
1002
{
1000
PbHidd
1002
}
  0
LINE
  5
268
330
1F
100
AcDbEntity
  8
THICK
100
AcDbLine
 10
-40.06352674487336
 20
165.335191977787
 30
0.0
 11
-76.24115720174223
 21
240.4588156987622
 31
0.0
1001
DBPROPERTIES
1002
{
1000
PbThick
1002
}
  0
LINE
  5
269
330
1F
100
AcDbEntity
  8
HIDDEN
100
AcDbLine
 10
-76.24115720174231
 20
240.4588156987624
 30
0.0
 11
-77.0592198149199
 21
240.0648575076607
 31
0.0
1001
DBPROPERTIES
1002
{
1000
PbHidd
1002
}
  0
ELLIPSE
  5
26A
330
1F
100
AcDbEntity
  8
THICK
100
AcDbEllipse
 10
-57.79331405045875
 20
120.0090532046022
 30
0.0
 11
-53.45447665928319
 21
110.999364525578
 31
0.0
210
0.0
220
0.0
230
1.0
 40
0.8910065241883679
 41
0.0
 42
0.3306684359576052
1001
DBPROPERTIES
1002
{
1000
PbThick
1002
}
  0
ELLIPSE
  5
26B
330
1F
100
AcDbEntity
  8
THICK
100
AcDbEllipse
 10
-57.79331405045875
 20
120.0090532046022
 30
0.0
 11
-53.45447665928319
 21
110.999364525578
 31
0.0
210
0.0
220
0.0
230
1.0
 40
0.8910065241883679
 41
-0.3306684359576055
 42
0.0
1001
DBPROPERTIES
1002
{
1000
PbThick
1002
}
  0
LINE
  5
26C
330
1F
100
AcDbEntity
  8
THICK
100
AcDbLine
 10
-251.5973094413688
 20
19.9372959455799
 30
0.0
 11
-170.1147195810231
 21
1.339426533546998
 31
0.0
1001
DBPROPERTIES
1002
{
1000
PbThick
1002
}
  0
LINE
  5
26D
330
1F
100
AcDbEntity
  8
HIDDEN
100
AcDbLine
 10
-170.1147195810231
 20
1.339426533546998
 30
0.0
 11
-91.85934643096424
 21
-16.52185172392007
 31
0.0
1001
DBPROPERTIES
1002
{
1000
PbHidd
1002
}
  0
ELLIPSE
  5
26E
330
1F
100
AcDbEntity
  8
HIDDEN
100
AcDbEllipse
 10
-130.0624426826375
 20
28.75457238285809
 30
0.0
 11
120.1111187808007
 21
-27.41457906341792
 31
0.0
210
0.0
220
0.0
230
1.0
 40
0.8910065241883679
 41
2.810924217632188
 42
3.141592653589793
1001
DBPROPERTIES
1002
{
1000
PbHidd
1002
}
  0
ELLIPSE
  5
26F
330
1F
100
AcDbEntity
  8
THICK
100
AcDbEllipse
 10
-130.0624426826375
 20
28.75457238285809
 30
0.0
 11
120.1111187808007
 21
-27.41457906341792
 31
0.0
210
0.0
220
0.0
230
1.0
 40
0.8910065241883679
 41
3.141592653589793
 42
3.394249193370298
1001
DBPROPERTIES
1002
{
1000
PbThick
1002
}
  0
ELLIPSE
  5
270
330
1F
100
AcDbEntity
  8
HIDDEN
100
AcDbEllipse
 10
-130.0624426826375
 20
28.75457238285809
 30
0.0
 11
120.1111187808007
 21
-27.41457906341792
 31
0.0
210
0.0
220
0.0
230
1.0
 40
0.8910065241883679
 41
-2.888936113809288
 42
-2.852218866742711
1001
DBPROPERTIES
1002
{
1000
PbHidd
1002
}
  0
ELLIPSE
  5
271
330
1F
100
AcDbEntity
  8
THICK
100
AcDbEllipse
 10
-130.0624426826375
 20
28.75457238285809
 30
0.0
 11
120.1111187808007
 21
-27.41457906341792
 31
0.0
210
0.0
220
0.0
230
1.0
 40
0.8910065241883679
 41
-2.852218866742711
 42
-2.810924217632188
1001
DBPROPERTIES
1002
{
1000
PbThick
1002
}
  0
LINE
  5
272
330
1F
100
AcDbEntity
  8
HIDDEN
100
AcDbLine
 10
-76.72947473409964
 20
53.13848716458024
 30
0.0
 11
-235.7359011274836
 21
89.43066637496783
 31
0.0
1001
DBPROPERTIES
1002
{
1000
PbHidd
1002
}
  0
LINE
  5
273
330
1F
100
AcDbEntity
  8
HIDDEN
100
AcDbLine
 10
-92.02852446235536
 20
-15.5519065195481
 30
0.0
 11
-170.1048669139379
 21
2.268509149276255
 31
0.0
1001
DBPROPERTIES
1002
{
1000
PbHidd
1002
}
  0
LINE
  5
274
330
1F
100
AcDbEntity
  8
THICK
100
AcDbLine
 10
-170.1048669139379
 20
2.268509149276255
 30
0.0
 11
-251.3952646613501
 21
20.82251196570282
 31
0.0
1001
DBPROPERTIES
1002
{
1000
PbThick
1002
}
  0
LINE
  5
275
330
1F
100
AcDbEntity
  8
THICK
100
AcDbLine
 10
-251.3952646613503
 20
20.82251196570287
 30
0.0
 11
-251.597309441369
 21
19.93729594557995
 31
0.0
1001
DBPROPERTIES
1002
{
1000
PbThick
1002
}
  0
LINE
  5
276
330
1F
100
AcDbEntity
  8
HIDDEN
100
AcDbLine
 10
-76.16711614847016
 20
53.94146390983981
 30
0.0
 11
-154.2434586000527
 21
71.76187957866418
 31
0.0
1001
DBPROPERTIES
1002
{
1000
PbHidd
1002
}
  0
LINE
  5
277
330
1F
100
AcDbEntity
  8
THICK
100
AcDbLine
 10
-154.2434586000527
 20
71.76187957866418
 30
0.0
 11
-235.5338563474649
 21
90.31588239509074
 31
0.0
1001
DBPROPERTIES
1002
{
1000
PbThick
1002
}
  0
LINE
  5
278
330
1F
100
AcDbEntity
  8
HIDDEN
100
AcDbLine
 10
-235.5338563474651
 20
90.31588239509077
 30
0.0
 11
-235.7359011274837
 21
89.43066637496786
 31
0.0
1001
DBPROPERTIES
1002
{
1000
PbHidd
1002
}
  0
ELLIPSE
  5
279
330
1F
100
AcDbEntity
  8
THICK
100
AcDbEllipse
 10
-129.8603979026189
 20
29.63978840298101
 30
0.0
 11
-120.1111187808007
 21
27.41457906341792
 31
0.0
210
0.0
220
0.0
230
1.0
 40
0.8910065241883679
 41
0.2976762786020023
 42
0.3306684359576052
1001
DBPROPERTIES
1002
{
1000
PbThick
1002
}
  0
ELLIPSE
  5
27A
330
1F
100
AcDbEntity
  8
HIDDEN
100
AcDbEllipse
 10
-129.8603979026189
 20
29.63978840298101
 30
0.0
 11
-120.1111187808007
 21
27.41457906341792
 31
0.0
210
0.0
220
0.0
230
1.0
 40
0.8910065241883679
 41
0.2609157852685919
 42
0.2976762786020023
1001
DBPROPERTIES
1002
{
1000
PbHidd
1002
}
  0
ELLIPSE
  5
27B
330
1F
100
AcDbEntity
  8
THICK
100
AcDbEllipse
 10
-129.8603979026189
 20
29.63978840298101
 30
0.0
 11
-120.1111187808007
 21
27.41457906341792
 31
0.0
210
0.0
220
0.0
230
1.0
 40
0.8910065241883679
 41
0.0
 42
0.2609157852685919
1001
DBPROPERTIES
1002
{
1000
PbThick
1002
}
  0
ELLIPSE
  5
27C
330
1F
100
AcDbEntity
  8
THICK
100
AcDbEllipse
 10
-129.8603979026189
 20
29.63978840298101
 30
0.0
 11
-120.1111187808007
 21
27.41457906341792
 31
0.0
210
0.0
220
0.0
230
1.0
 40
0.8910065241883679
 41
-0.3306684359576054
 42
0.0
1001
DBPROPERTIES
1002
{
1000
PbThick
1002
}
  0
LINE
  5
27D
330
1F
100
AcDbEntity
  8
HIDDEN
100
AcDbLine
 10
-89.3853871946807
 20
-26.85821414703743
 30
0.0
 11
-216.8986407550098
 21
-128.5466405912144
 31
0.0
1001
DBPROPERTIES
1002
{
1000
PbHidd
1002
}
  0
LINE
  5
27E
330
1F
100
AcDbEntity
  8
THICK
100
AcDbLine
 10
-172.4559622573263
 20
-184.2759967268046
 30
0.0
 11
-107.1119986372062
 21
-132.165924615659
 31
0.0
1001
DBPROPERTIES
1002
{
1000
PbThick
1002
}
  0
LINE
  5
27F
330
1F
100
AcDbEntity
  8
HIDDEN
100
AcDbLine
 10
-107.1119986372062
 20
-132.165924615659
 30
0.0
 11
-44.35606187868531
 21
-82.11973505635143
 31
0.0
1001
DBPROPERTIES
1002
{
1000
PbHidd
1002
}
  0
ELLIPSE
  5
280
330
1F
100
AcDbEntity
  8
HIDDEN
100
AcDbEllipse
 10
-103.5738365712848
 20
-83.75872973845892
 30
0.0
 11
96.32163864006129
 21
76.81394358899598
 31
0.0
210
0.0
220
0.0
230
1.0
 40
0.8910065241883679
 41
2.810924217632188
 42
3.141592653589793
1001
DBPROPERTIES
1002
{
1000
PbHidd
1002
}
  0
ELLIPSE
  5
281
330
1F
100
AcDbEntity
  8
THICK
100
AcDbEllipse
 10
-103.5738365712848
 20
-83.75872973845892
 30
0.0
 11
96.32163864006129
 21
76.81394358899598
 31
0.0
210
0.0
220
0.0
230
1.0
 40
0.8910065241883679
 41
3.141592653589793
 42
3.472261089547398
1001
DBPROPERTIES
1002
{
1000
PbThick
1002
}
  0
LINE
  5
282
330
1F
100
AcDbEntity
  8
HIDDEN
100
AcDbLine
 10
-45.21987635300312
 20
-81.64725282414727
 30
0.0
 11
-107.8322416385485
 21
-131.5789479543541
 31
0.0
1001
DBPROPERTIES
1002
{
1000
PbHidd
1002
}
  0
LINE
  5
283
330
1F
100
AcDbEntity
  8
THICK
100
AcDbLine
 10
-107.8322416385485
 20
-131.5789479543541
 30
0.0
 11
-173.022079150783
 21
-183.5661085959291
 31
0.0
1001
DBPROPERTIES
1002
{
1000
PbThick
1002
}
  0
LINE
  5
284
330
1F
100
AcDbEntity
  8
THICK
100
AcDbLine
 10
-173.022079150783
 20
-183.5661085959291
 30
0.0
 11
-172.4559622573262
 21
-184.2759967268046
 31
0.0
1001
DBPROPERTIES
1002
{
1000
PbThick
1002
}
  0
LINE
  5
285
330
1F
100
AcDbEntity
  8
HIDDEN
100
AcDbLine
 10
-89.66255485068666
 20
-25.91789668855705
 30
0.0
 11
-152.274920136232
 21
-75.84959181876386
 31
0.0
1001
DBPROPERTIES
1002
{
1000
PbHidd
1002
}
  0
LINE
  5
286
330
1F
100
AcDbEntity
  8
THICK
100
AcDbLine
 10
-152.274920136232
 20
-75.84959181876386
 30
0.0
 11
-217.4647576484665
 21
-127.8367524603388
 31
0.0
1001
DBPROPERTIES
1002
{
1000
PbThick
1002
}
  0
LINE
  5
287
330
1F
100
AcDbEntity
  8
HIDDEN
100
AcDbLine
 10
-217.4647576484665
 20
-127.8367524603388
 30
0.0
 11
-216.8986407550098
 21
-128.5466405912144
 31
0.0
1001
DBPROPERTIES
1002
{
1000
PbHidd
1002
}
  0
ELLIPSE
  5
288
330
1F
100
AcDbEntity
  8
THICK
100
AcDbEllipse
 10
-104.1399534647416
 20
-83.04884160758337
 30
0.0
 11
-96.32163864006129
 21
-76.81394358899598
 31
0.0
210
0.0
220
0.0
230
1.0
 40
0.8910065241883679
 41
0.0
 42
0.3306684359576055
1001
DBPROPERTIES
1002
{
1000
PbThick
1002
}
  0
ELLIPSE
  5
289
330
1F
100
AcDbEntity
  8
THICK
100
AcDbEllipse
 10
-104.1399534647416
 20
-83.04884160758337
 30
0.0
 11
-96.32163864006129
 21
-76.81394358899598
 31
0.0
210
0.0
220
0.0
230
1.0
 40
0.8910065241883679
 41
-0.3306684359576052
 42
0.0
1001
DBPROPERTIES
1002
{
1000
PbThick
1002
}
  0
LINE
  5
28A
330
1F
100
AcDbEntity
  8
HIDDEN
100
AcDbLine
 10
-34.73227996805563
 20
-86.63013239821188
 30
0.0
 11
-34.73227996805564
 21
-249.725705318612
 31
0.0
1001
DBPROPERTIES
1002
{
1000
PbHidd
1002
}
  0
LINE
  5
28B
330
1F
100
AcDbEntity
  8
THICK
100
AcDbLine
 10
36.54824196701382
 20
-249.7257053186121
 30
0.0
 11
36.54824196701382
 21
-166.1476388357341
 31
0.0
1001
DBPROPERTIES
1002
{
1000
PbThick
1002
}
  0
LINE
  5
28C
330
1F
100
AcDbEntity
  8
HIDDEN
100
AcDbLine
 10
36.54824196701382
 20
-166.1476388357341
 30
0.0
 11
36.54824196701382
 21
-85.87978295403249
 31
0.0
1001
DBPROPERTIES
1002
{
1000
PbHidd
1002
}
  0
ELLIPSE
  5
28D
330
1F
100
AcDbEntity
  8
HIDDEN
100
AcDbEllipse
 10
0.9079809994791003
 20
-133.2
 30
0.0
 11
2.961019963588031E-14
 21
123.2
 31
0.0
210
0.0
220
0.0
230
1.0
 40
0.8910065241883679
 41
2.810924217632188
 42
3.141592653589793
1001
DBPROPERTIES
1002
{
1000
PbHidd
1002
}
  0
ELLIPSE
  5
28E
330
1F
100
AcDbEntity
  8
THICK
100
AcDbEllipse
 10
0.9079809994791003
 20
-133.2
 30
0.0
 11
2.961019963588031E-14
 21
123.2
 31
0.0
210
0.0
220
0.0
230
1.0
 40
0.8910065241883679
 41
-3.141592653589793
 42
-2.923755855525166
1001
DBPROPERTIES
1002
{
1000
PbThick
1002
}
  0
ELLIPSE
  5
28F
330
1F
100
AcDbEntity
  8
HIDDEN
100
AcDbEllipse
 10
0.9079809994791003
 20
-133.2
 30
0.0
 11
2.961019963588031E-14
 21
123.2
 31
0.0
210
0.0
220
0.0
230
1.0
 40
0.8910065241883679
 41
-2.923755855525166
 42
-2.887108171294205
1001
DBPROPERTIES
1002
{
1000
PbHidd
1002
}
  0
ELLIPSE
  5
290
330
1F
100
AcDbEntity
  8
THICK
100
AcDbEllipse
 10
0.9079809994791003
 20
-133.2
 30
0.0
 11
2.961019963588031E-14
 21
123.2
 31
0.0
210
0.0
220
0.0
230
1.0
 40
0.8910065241883679
 41
-2.887108171294205
 42
-2.810924217632188
1001
DBPROPERTIES
1002
{
1000
PbThick
1002
}
  0
LINE
  5
291
330
1F
100
AcDbEntity
  8
HIDDEN
100
AcDbLine
 10
35.64026096753472
 20
-86.26055245172698
 30
0.0
 11
35.64026096753472
 21
-166.344773526958
 31
0.0
1001
DBPROPERTIES
1002
{
1000
PbHidd
1002
}
  0
LINE
  5
292
330
1F
100
AcDbEntity
  8
THICK
100
AcDbLine
 10
35.64026096753472
 20
-166.344773526958
 30
0.0
 11
35.64026096753473
 21
-249.7257053186121
 31
0.0
1001
DBPROPERTIES
1002
{
1000
PbThick
1002
}
  0
LINE
  5
293
330
1F
100
AcDbEntity
  8
THICK
100
AcDbLine
 10
35.64026096753472
 20
-249.7257053186121
 30
0.0
 11
36.54824196701382
 21
-249.7257053186121
 31
0.0
1001
DBPROPERTIES
1002
{
1000
PbThick
1002
}
  0
LINE
  5
294
330
1F
100
AcDbEntity
  8
HIDDEN
100
AcDbLine
 10
-35.64026096753472
 20
-86.26055245172698
 30
0.0
 11
-35.64026096753472
 21
-166.344773526958
 31
0.0
1001
DBPROPERTIES
1002
{
1000
PbHidd
1002
}
  0
LINE
  5
295
330
1F
100
AcDbEntity
  8
THICK
100
AcDbLine
 10
-35.64026096753472
 20
-166.344773526958
 30
0.0
 11
-35.64026096753473
 21
-249.725705318612
 31
0.0
1001
DBPROPERTIES
1002
{
1000
PbThick
1002
}
  0
LINE
  5
296
330
1F
100
AcDbEntity
  8
HIDDEN
100
AcDbLine
 10
-35.64026096753472
 20
-249.725705318612
 30
0.0
 11
-34.73227996805562
 21
-249.725705318612
 31
0.0
1001
DBPROPERTIES
1002
{
1000
PbHidd
1002
}
  0
ELLIPSE
  5
297
330
1F
100
AcDbEntity
  8
THICK
100
AcDbEllipse
 10
0.0000000000000067
 20
-133.2
 30
0.0
 11
-2.961019963588031E-14
 21
-123.2
 31
0.0
210
0.0
220
0.0
230
1.0
 40
0.8910065241883679
 41
0.2627816598969859
 42
0.3306684359576056
1001
DBPROPERTIES
1002
{
1000
PbThick
1002
}
  0
ELLIPSE
  5
298
330
1F
100
AcDbEntity
  8
HIDDEN
100
AcDbEllipse
 10
0.0000000000000067
 20
-133.2
 30
0.0
 11
-2.961019963588031E-14
 21
-123.2
 31
0.0
210
0.0
220
0.0
230
1.0
 40
0.8910065241883679
 41
0.2260964829407784
 42
0.2627816598969859
1001
DBPROPERTIES
1002
{
1000
PbHidd
1002
}
  0
ELLIPSE
  5
299
330
1F
100
AcDbEntity
  8
THICK
100
AcDbEllipse
 10
0.0000000000000067
 20
-133.2
 30
0.0
 11
-2.961019963588031E-14
 21
-123.2
 31
0.0
210
0.0
220
0.0
230
1.0
 40
0.8910065241883679
 41
0.0
 42
0.2260964829407784
1001
DBPROPERTIES
1002
{
1000
PbThick
1002
}
  0
ELLIPSE
  5
29A
330
1F
100
AcDbEntity
  8
THICK
100
AcDbEllipse
 10
0.0000000000000067
 20
-133.2
 30
0.0
 11
-2.961019963588031E-14
 21
-123.2
 31
0.0
210
0.0
220
0.0
230
1.0
 40
0.8910065241883679
 41
-0.2260964829407782
 42
0.0
1001
DBPROPERTIES
1002
{
1000
PbThick
1002
}
  0
ELLIPSE
  5
29B
330
1F
100
AcDbEntity
  8
HIDDEN
100
AcDbEllipse
 10
0.0000000000000067
 20
-133.2
 30
0.0
 11
-2.961019963588031E-14
 21
-123.2
 31
0.0
210
0.0
220
0.0
230
1.0
 40
0.8910065241883679
 41
-0.2627816598969861
 42
-0.2260964829407782
1001
DBPROPERTIES
1002
{
1000
PbHidd
1002
}
  0
ELLIPSE
  5
29C
330
1F
100
AcDbEntity
  8
THICK
100
AcDbEllipse
 10
0.0000000000000067
 20
-133.2
 30
0.0
 11
-2.961019963588031E-14
 21
-123.2
 31
0.0
210
0.0
220
0.0
230
1.0
 40
0.8910065241883679
 41
-0.3306684359576049
 42
-0.2627816598969861
1001
DBPROPERTIES
1002
{
1000
PbThick
1002
}
  0
ARC
  5
29D
330
1F
100
AcDbEntity
  8
HIDDEN
100
AcDbCircle
 10
0.0
 20
-0.0000000000000573
 30
0.0
 40
81.33333333333333
100
AcDbArc
 50
89.99998127603165
 51
270.0000187239684
1001
DBPROPERTIES
1002
{
1000
PbHidd
1002
}
  0
LINE
  5
29E
330
1F
100
AcDbEntity
  8
HIDDEN
100
AcDbLine
 10
33.40658617698013
 20
278.0
 30
0.0
 11
33.40658617698013
 21
278.0
 31
0.0
1001
DBPROPERTIES
1002
{
1000
PbHidd
1002
}
  0
LINE
  5
29F
330
1F
100
AcDbEntity
  8
THICK
100
AcDbLine
 10
28.91952099094362
 20
278.0
 30
0.0
 11
33.40658617698013
 21
278.0
 31
0.0
1001
DBPROPERTIES
1002
{
1000
PbThick
1002
}
  0
LINE
  5
2A0
330
1F
100
AcDbEntity
  8
HIDDEN
100
AcDbLine
 10
28.91952099094362
 20
278.0
 30
0.0
 11
28.91952099094362
 21
278.0
 31
0.0
1001
DBPROPERTIES
1002
{
1000
PbHidd
1002
}
  0
LINE
  5
2A1
330
1F
100
AcDbEntity
  8
HIDDEN
100
AcDbLine
 10
27.20796084473102
 20
278.0
 30
0.0
 11
28.91952099094361
 21
278.0
 31
0.0
1001
DBPROPERTIES
1002
{
1000
PbHidd
1002
}
  0
LINE
  5
2A2
330
1F
100
AcDbEntity
  8
HIDDEN
100
AcDbLine
 10
27.20796084473101
 20
278.0
 30
0.0
 11
27.20796084473102
 21
278.0
 31
0.0
1001
DBPROPERTIES
1002
{
1000
PbHidd
1002
}
  0
LINE
  5
2A3
330
1F
100
AcDbEntity
  8
THICK
100
AcDbLine
 10
-27.20796084473101
 20
278.0
 30
0.0
 11
27.20796084473101
 21
278.0
 31
0.0
1001
DBPROPERTIES
1002
{
1000
PbThick
1002
}
  0
LINE
  5
2A4
330
1F
100
AcDbEntity
  8
HIDDEN
100
AcDbLine
 10
-27.20796084473101
 20
278.0
 30
0.0
 11
-27.20796084473102
 21
278.0
 31
0.0
1001
DBPROPERTIES
1002
{
1000
PbHidd
1002
}
  0
LINE
  5
2A5
330
1F
100
AcDbEntity
  8
HIDDEN
100
AcDbLine
 10
-28.91952099094353
 20
278.0
 30
0.0
 11
-27.20796084473101
 21
278.0
 31
0.0
1001
DBPROPERTIES
1002
{
1000
PbHidd
1002
}
  0
LINE
  5
2A6
330
1F
100
AcDbEntity
  8
HIDDEN
100
AcDbLine
 10
-28.91952099094354
 20
278.0
 30
0.0
 11
-28.91952099094354
 21
278.0
 31
0.0
1001
DBPROPERTIES
1002
{
1000
PbHidd
1002
}
  0
LINE
  5
2A7
330
1F
100
AcDbEntity
  8
THICK
100
AcDbLine
 10
-33.40658617698013
 20
278.0
 30
0.0
 11
-28.91952099094354
 21
278.0
 31
0.0
1001
DBPROPERTIES
1002
{
1000
PbThick
1002
}
  0
LINE
  5
2A8
330
1F
100
AcDbEntity
  8
HIDDEN
100
AcDbLine
 10
-33.40658617698013
 20
278.0
 30
0.0
 11
-33.40658617698013
 21
278.0
 31
0.0
1001
DBPROPERTIES
1002
{
1000
PbHidd
1002
}
  0
LINE
  5
2A9
330
1F
100
AcDbEntity
  8
HIDDEN
100
AcDbLine
 10
-47.32863826479693
 20
278.0
 30
0.0
 11
-47.32863826479693
 21
278.0
 31
0.0
1001
DBPROPERTIES
1002
{
1000
PbHidd
1002
}
  0
LINE
  5
2AA
330
1F
100
AcDbEntity
  8
HIDDEN
100
AcDbLine
 10
-65.0
 20
278.0
 30
0.0
 11
-47.32863826479693
 21
278.0
 31
0.0
1001
DBPROPERTIES
1002
{
1000
PbHidd
1002
}
  0
LINE
  5
2AB
330
1F
100
AcDbEntity
  8
HIDDEN
100
AcDbLine
 10
-65.0
 20
278.0
 30
0.0
 11
-65.0
 21
278.0
 31
0.0
1001
DBPROPERTIES
1002
{
1000
PbHidd
1002
}
  0
LINE
  5
2AC
330
1F
100
AcDbEntity
  8
HIDDEN
100
AcDbLine
 10
47.32863826479693
 20
278.0
 30
0.0
 11
65.0
 21
278.0
 31
0.0
1001
DBPROPERTIES
1002
{
1000
PbHidd
1002
}
  0
LINE
  5
2AD
330
1F
100
AcDbEntity
  8
HIDDEN
100
AcDbLine
 10
47.32863826479693
 20
278.0
 30
0.0
 11
47.32863826479693
 21
278.0
 31
0.0
1001
DBPROPERTIES
1002
{
1000
PbHidd
1002
}
  0
LINE
  5
2AE
330
1F
100
AcDbEntity
  8
HIDDEN
100
AcDbLine
 10
65.0
 20
278.0
 30
0.0
 11
65.0
 21
278.0
 31
0.0
1001
DBPROPERTIES
1002
{
1000
PbHidd
1002
}
  0
LINE
  5
2AF
330
1F
100
AcDbEntity
  8
HIDDEN
100
AcDbLine
 10
65.0
 20
343.0
 30
0.0
 11
-65.0
 21
343.0
 31
0.0
1001
DBPROPERTIES
1002
{
1000
PbHidd
1002
}
  0
LINE
  5
2B0
330
1F
100
AcDbEntity
  8
THICK
100
AcDbLine
 10
-65.0
 20
343.0
 30
0.0
 11
65.0
 21
343.0
 31
0.0
1001
DBPROPERTIES
1002
{
1000
PbThick
1002
}
  0
LINE
  5
2B1
330
1F
100
AcDbEntity
  8
THICK
100
AcDbLine
 10
64.99999999999999
 20
343.0
 30
0.0
 11
64.99999999999999
 21
348.0
 31
0.0
1001
DBPROPERTIES
1002
{
1000
PbThick
1002
}
  0
LINE
  5
2B2
330
1F
100
AcDbEntity
  8
THICK
100
AcDbLine
 10
-65.0
 20
348.0
 30
0.0
 11
65.0
 21
348.0
 31
0.0
1001
DBPROPERTIES
1002
{
1000
PbThick
1002
}
  0
LINE
  5
2B3
330
1F
100
AcDbEntity
  8
THICK
100
AcDbLine
 10
-65.0
 20
343.0
 30
0.0
 11
-65.0
 21
348.0
 31
0.0
1001
DBPROPERTIES
1002
{
1000
PbThick
1002
}
  0
LINE
  5
2B4
330
1F
100
AcDbEntity
  8
HIDDEN
100
AcDbLine
 10
65.0
 20
348.0
 30
0.0
 11
65.0
 21
348.0
 31
0.0
1001
DBPROPERTIES
1002
{
1000
PbHidd
1002
}
  0
LINE
  5
2B5
330
1F
100
AcDbEntity
  8
HIDDEN
100
AcDbLine
 10
65.0
 20
278.0
 30
0.0
 11
65.0
 21
320.9848127248391
 31
0.0
1001
DBPROPERTIES
1002
{
1000
PbHidd
1002
}
  0
LINE
  5
2B6
330
1F
100
AcDbEntity
  8
THICK
100
AcDbLine
 10
65.0
 20
320.9848127248391
 30
0.0
 11
65.0
 21
343.0
 31
0.0
1001
DBPROPERTIES
1002
{
1000
PbThick
1002
}
  0
LINE
  5
2B7
330
1F
100
AcDbEntity
  8
HIDDEN
100
AcDbLine
 10
65.0
 20
343.0
 30
0.0
 11
65.0
 21
343.0
 31
0.0
1001
DBPROPERTIES
1002
{
1000
PbHidd
1002
}
  0
LINE
  5
2B8
330
1F
100
AcDbEntity
  8
THICK
100
AcDbLine
 10
-65.0
 20
343.0
 30
0.0
 11
-65.0
 21
320.9848127248391
 31
0.0
1001
DBPROPERTIES
1002
{
1000
PbThick
1002
}
  0
LINE
  5
2B9
330
1F
100
AcDbEntity
  8
HIDDEN
100
AcDbLine
 10
-65.0
 20
320.9848127248391
 30
0.0
 11
-65.0
 21
278.0
 31
0.0
1001
DBPROPERTIES
1002
{
1000
PbHidd
1002
}
  0
ARC
  5
2BA
330
1F
100
AcDbEntity
  8
HIDDEN
100
AcDbCircle
 10
-60.0
 20
343.0
 30
0.0
 40
5.0
100
AcDbArc
 50
89.99998127603165
 51
180.0000198478428
1001
DBPROPERTIES
1002
{
1000
PbHidd
1002
}
  0
LINE
  5
2BB
330
1F
100
AcDbEntity
  8
HIDDEN
100
AcDbLine
 10
-59.99999999999999
 20
348.0
 30
0.0
 11
-60.0
 21
348.0
 31
0.0
1001
DBPROPERTIES
1002
{
1000
PbHidd
1002
}
  0
LINE
  5
2BC
330
1F
100
AcDbEntity
  8
HIDDEN
100
AcDbLine
 10
-65.0
 20
343.0
 30
0.0
 11
-65.0
 21
343.0
 31
0.0
1001
DBPROPERTIES
1002
{
1000
PbHidd
1002
}
  0
LINE
  5
2BD
330
1F
100
AcDbEntity
  8
HIDDEN
100
AcDbLine
 10
-65.0
 20
348.0
 30
0.0
 11
-65.0
 21
348.0
 31
0.0
1001
DBPROPERTIES
1002
{
1000
PbHidd
1002
}
  0
ARC
  5
2BE
330
1F
100
AcDbEntity
  8
HIDDEN
100
AcDbCircle
 10
60.0
 20
343.0
 30
0.0
 40
5.0
100
AcDbArc
 50
0.0
 51
89.99998127603165
1001
DBPROPERTIES
1002
{
1000
PbHidd
1002
}
  0
LINE
  5
2BF
330
1F
100
AcDbEntity
  8
HIDDEN
100
AcDbLine
 10
60.0
 20
348.0
 30
0.0
 11
60.0
 21
348.0
 31
0.0
1001
DBPROPERTIES
1002
{
1000
PbHidd
1002
}
  0
ARC
  5
2C0
330
1F
100
AcDbEntity
  8
HIDDEN
100
AcDbCircle
 10
0.0
 20
0.0
 30
0.0
 40
282.0
100
AcDbArc
 50
0.0
 51
180.0000198478428
1001
DBPROPERTIES
1002
{
1000
PbHidd
1002
}
  0
ARC
  5
2C1
330
1F
100
AcDbEntity
  8
THICK
100
AcDbCircle
 10
268.4678751731759
 20
-155.0000000000001
 30
0.0
 40
6.0
100
AcDbArc
 50
329.9999871427296
 51
150.0000069905724
1001
DBPROPERTIES
1002
{
1000
PbThick
1002
}
  0
ARC
  5
2C2
330
1F
100
AcDbEntity
  8
THICK
100
AcDbCircle
 10
154.9999999999998
 20
-268.4678751731761
 30
0.0
 40
6.0
100
AcDbArc
 50
299.9999742854592
 51
119.999994133302
1001
DBPROPERTIES
1002
{
1000
PbThick
1002
}
  0
ARC
  5
2C3
330
1F
100
AcDbEntity
  8
THICK
100
AcDbCircle
 10
-0.0000000000000569
 20
-310.0
 30
0.0
 40
6.0
100
AcDbArc
 50
270.0000187239684
 51
89.99998127603165
1001
DBPROPERTIES
1002
{
1000
PbThick
1002
}
  0
ARC
  5
2C4
330
1F
100
AcDbEntity
  8
THICK
100
AcDbCircle
 10
-155.0000000000001
 20
-268.4678751731759
 30
0.0
 40
6.0
100
AcDbArc
 50
240.0000058666979
 51
60.00002571454078
1001
DBPROPERTIES
1002
{
1000
PbThick
1002
}
  0
ARC
  5
2C5
330
1F
100
AcDbEntity
  8
THICK
100
AcDbCircle
 10
-268.467875173176
 20
-154.9999999999999
 30
0.0
 40
6.0
100
AcDbArc
 50
209.9999930094276
 51
30.00001285727039
1001
DBPROPERTIES
1002
{
1000
PbThick
1002
}
  0
ARC
  5
2C6
330
1F
100
AcDbEntity
  8
THICK
100
AcDbCircle
 10
-310.0
 20
0.000000000000038
 30
0.0
 40
6.0
100
AcDbArc
 50
180.0000198478428
 51
0.0
1001
DBPROPERTIES
1002
{
1000
PbThick
1002
}
  0
ARC
  5
2C7
330
1F
100
AcDbEntity
  8
THICK
100
AcDbCircle
 10
-268.4678751731759
 20
155.0000000000001
 30
0.0
 40
5.999999999999999
100
AcDbArc
 50
150.0000069905724
 51
329.9999871427296
1001
DBPROPERTIES
1002
{
1000
PbThick
1002
}
  0
ARC
  5
2C8
330
1F
100
AcDbEntity
  8
THICK
100
AcDbCircle
 10
-154.9999999999999
 20
268.467875173176
 30
0.0
 40
5.999999999999999
100
AcDbArc
 50
119.999994133302
 51
299.9999742854592
1001
DBPROPERTIES
1002
{
1000
PbThick
1002
}
  0
ARC
  5
2C9
330
1F
100
AcDbEntity
  8
THICK
100
AcDbCircle
 10
0.000000000000019
 20
310.0
 30
0.0
 40
6.0
100
AcDbArc
 50
89.99998127603165
 51
270.0000187239684
1001
DBPROPERTIES
1002
{
1000
PbThick
1002
}
  0
ARC
  5
2CA
330
1F
100
AcDbEntity
  8
THICK
100
AcDbCircle
 10
155.0
 20
268.467875173176
 30
0.0
 40
6.0
100
AcDbArc
 50
60.00002571454078
 51
240.0000058666979
1001
DBPROPERTIES
1002
{
1000
PbThick
1002
}
  0
ARC
  5
2CB
330
1F
100
AcDbEntity
  8
THICK
100
AcDbCircle
 10
268.467875173176
 20
155.0
 30
0.0
 40
5.999999999999999
100
AcDbArc
 50
30.00001285727039
 51
209.9999930094276
1001
DBPROPERTIES
1002
{
1000
PbThick
1002
}
  0
ARC
  5
2CC
330
1F
100
AcDbEntity
  8
THICK
100
AcDbCircle
 10
310.0
 20
0.0
 30
0.0
 40
6.0
100
AcDbArc
 50
0.0
 51
180.0000198478428
1001
DBPROPERTIES
1002
{
1000
PbThick
1002
}
  0
ARC
  5
2CD
330
1F
100
AcDbEntity
  8
THICK
100
AcDbCircle
 10
0.0000000000000012
 20
-0.0000000000000006
 30
0.0
 40
327.5
100
AcDbArc
 50
0.0
 51
89.99998127603165
1001
DBPROPERTIES
1002
{
1000
PbThick
1002
}
  0
ARC
  5
2CE
330
1F
100
AcDbEntity
  8
THICK
100
AcDbCircle
 10
0.0
 20
0.0
 30
0.0
 40
317.5
100
AcDbArc
 50
270.0000187239684
 51
89.99998127603165
1001
DBPROPERTIES
1002
{
1000
PbThick
1002
}
  0
ARC
  5
2CF
330
1F
100
AcDbEntity
  8
HIDDEN
100
AcDbCircle
 10
0.0
 20
0.0
 30
0.0
 40
317.5
100
AcDbArc
 50
89.99998127603165
 51
270.0000187239684
1001
DBPROPERTIES
1002
{
1000
PbHidd
1002
}
  0
ARC
  5
2D0
330
1F
100
AcDbEntity
  8
THICK
100
AcDbCircle
 10
0.0
 20
0.0
 30
0.0
 40
280.0
100
AcDbArc
 50
0.0
 51
180.0000198478428
1001
DBPROPERTIES
1002
{
1000
PbThick
1002
}
  0
LINE
  5
2D1
330
1F
100
AcDbEntity
  8
HIDDEN
100
AcDbLine
 10
27.22666169257259
 20
278.1779266819677
 30
0.0
 11
27.22666169257259
 21
278.1779266819677
 31
0.0
1001
DBPROPERTIES
1002
{
1000
PbHidd
1002
}
  0
LINE
  5
2D2
330
1F
100
AcDbEntity
  8
THICK
100
AcDbLine
 10
27.22666169257259
 20
278.1779266819677
 30
0.0
 11
31.20474927404568
 21
277.7598128288971
 31
0.0
1001
DBPROPERTIES
1002
{
1000
PbThick
1002
}
  0
LINE
  5
2D3
330
1F
100
AcDbEntity
  8
HIDDEN
100
AcDbLine
 10
31.20474927404568
 20
277.7598128288971
 30
0.0
 11
31.20474927404568
 21
277.7598128288971
 31
0.0
1001
DBPROPERTIES
1002
{
1000
PbHidd
1002
}
  0
LINE
  5
2D4
330
1F
100
AcDbEntity
  8
HIDDEN
100
AcDbLine
 10
-27.22666169257259
 20
278.1779266819677
 30
0.0
 11
-27.22666169257259
 21
278.1779266819677
 31
0.0
1001
DBPROPERTIES
1002
{
1000
PbHidd
1002
}
  0
LINE
  5
2D5
330
1F
100
AcDbEntity
  8
THICK
100
AcDbLine
 10
-26.13956567458899
 20
267.8348989701377
 30
0.0
 11
-27.22666169257259
 21
278.1779266819677
 31
0.0
1001
DBPROPERTIES
1002
{
1000
PbThick
1002
}
  0
LINE
  5
2D6
330
1F
100
AcDbEntity
  8
HIDDEN
100
AcDbLine
 10
-26.13956567458899
 20
267.8348989701377
 30
0.0
 11
-26.13956567458899
 21
267.8348989701377
 31
0.0
1001
DBPROPERTIES
1002
{
1000
PbHidd
1002
}
  0
LINE
  5
2D7
330
1F
100
AcDbEntity
  8
HIDDEN
100
AcDbLine
 10
-15.792108684944
 20
169.3854219962623
 30
0.0
 11
-24.60814695120825
 21
253.264423103873
 31
0.0
1001
DBPROPERTIES
1002
{
1000
PbHidd
1002
}
  0
LINE
  5
2D8
330
1F
100
AcDbEntity
  8
THICK
100
AcDbLine
 10
-24.60814695120825
 20
253.264423103873
 30
0.0
 11
-26.13956567458899
 21
267.8348989701377
 31
0.0
1001
DBPROPERTIES
1002
{
1000
PbThick
1002
}
  0
LINE
  5
2D9
330
1F
100
AcDbEntity
  8
HIDDEN
100
AcDbLine
 10
-15.792108684944
 20
169.3854219962622
 30
0.0
 11
-15.19752536601913
 21
163.7283396016098
 31
0.0
1001
DBPROPERTIES
1002
{
1000
PbHidd
1002
}
  0
LINE
  5
2DA
330
1F
100
AcDbEntity
  8
HIDDEN
100
AcDbLine
 10
-12.91671507123084
 20
142.0278792060511
 30
0.0
 11
-15.19752536601913
 21
163.7283396016098
 31
0.0
1001
DBPROPERTIES
1002
{
1000
PbHidd
1002
}
  0
LINE
  5
2DB
330
1F
100
AcDbEntity
  8
HIDDEN
100
AcDbLine
 10
-9.955236908814836
 20
113.8512966456039
 30
0.0
 11
-12.91671507123084
 21
142.0278792060511
 31
0.0
1001
DBPROPERTIES
1002
{
1000
PbHidd
1002
}
  0
LINE
  5
2DC
330
1F
100
AcDbEntity
  8
HIDDEN
100
AcDbLine
 10
-9.955236908814836
 20
113.8512966456039
 30
0.0
 11
-9.955236908814836
 21
113.8512966456039
 31
0.0
1001
DBPROPERTIES
1002
{
1000
PbHidd
1002
}
  0
ARC
  5
2DD
330
1F
100
AcDbEntity
  8
HIDDEN
100
AcDbCircle
 10
0.0000000000000478
 20
0.0
 30
0.0
 40
114.2857142857143
100
AcDbArc
 50
0.0
 51
5.31372518360228
1001
DBPROPERTIES
1002
{
1000
PbHidd
1002
}
  0
ARC
  5
2DE
330
1F
100
AcDbEntity
  8
THICK
100
AcDbCircle
 10
0.0000000000000478
 20
0.0
 30
0.0
 40
114.2857142857143
100
AcDbArc
 50
5.31372518360228
 51
19.920768508447
1001
DBPROPERTIES
1002
{
1000
PbThick
1002
}
  0
ARC
  5
2DF
330
1F
100
AcDbEntity
  8
HIDDEN
100
AcDbCircle
 10
0.0000000000000478
 20
0.0
 30
0.0
 40
114.2857142857143
100
AcDbArc
 50
19.920768508447
 51
56.74230228298595
1001
DBPROPERTIES
1002
{
1000
PbHidd
1002
}
  0
ARC
  5
2E0
330
1F
100
AcDbEntity
  8
THICK
100
AcDbCircle
 10
0.0000000000000478
 20
0.0
 30
0.0
 40
114.2857142857143
100
AcDbArc
 50
56.74230228298595
 51
71.34934560783066
1001
DBPROPERTIES
1002
{
1000
PbThick
1002
}
  0
ARC
  5
2E1
330
1F
100
AcDbEntity
  8
HIDDEN
100
AcDbCircle
 10
0.0000000000000478
 20
0.0
 30
0.0
 40
114.2857142857143
100
AcDbArc
 50
71.34934560783066
 51
108.1708793823696
1001
DBPROPERTIES
1002
{
1000
PbHidd
1002
}
  0
ARC
  5
2E2
330
1F
100
AcDbEntity
  8
THICK
100
AcDbCircle
 10
0.0000000000000478
 20
0.0
 30
0.0
 40
114.2857142857143
100
AcDbArc
 50
108.1708793823696
 51
122.7779227072143
1001
DBPROPERTIES
1002
{
1000
PbThick
1002
}
  0
ARC
  5
2E3
330
1F
100
AcDbEntity
  8
HIDDEN
100
AcDbCircle
 10
0.0000000000000478
 20
0.0
 30
0.0
 40
114.2857142857143
100
AcDbArc
 50
122.7779227072143
 51
159.5994564817533
1001
DBPROPERTIES
1002
{
1000
PbHidd
1002
}
  0
ARC
  5
2E4
330
1F
100
AcDbEntity
  8
THICK
100
AcDbCircle
 10
0.0000000000000478
 20
0.0
 30
0.0
 40
114.2857142857143
100
AcDbArc
 50
159.5994564817533
 51
174.206499806598
1001
DBPROPERTIES
1002
{
1000
PbThick
1002
}
  0
ARC
  5
2E5
330
1F
100
AcDbEntity
  8
HIDDEN
100
AcDbCircle
 10
0.0000000000000478
 20
0.0
 30
0.0
 40
114.2857142857143
100
AcDbArc
 50
174.206499806598
 51
180.0000198478428
1001
DBPROPERTIES
1002
{
1000
PbHidd
1002
}
  0
ARC
  5
2E6
330
1F
100
AcDbEntity
  8
HIDDEN
100
AcDbCircle
 10
0.0
 20
0.0
 30
0.0
 40
46.56666666666666
100
AcDbArc
 50
20.99999181135542
 51
27.0000058419654
1001
DBPROPERTIES
1002
{
1000
PbHidd
1002
}
  0
LINE
  5
2E7
330
1F
100
AcDbEntity
  8
HIDDEN
100
AcDbLine
 10
41.49120380970499
 20
21.14082427120489
 30
0.0
 11
62.37045669318579
 21
31.77933498176829
 31
0.0
1001
DBPROPERTIES
1002
{
1000
PbHidd
1002
}
  0
ARC
  5
2E8
330
1F
100
AcDbEntity
  8
HIDDEN
100
AcDbCircle
 10
0.0000000000000478
 20
0.0
 30
0.0
 40
70.0
100
AcDbArc
 50
20.99999181135542
 51
27.0000058419654
1001
DBPROPERTIES
1002
{
1000
PbHidd
1002
}
  0
LINE
  5
2E9
330
1F
100
AcDbEntity
  8
HIDDEN
100
AcDbLine
 10
65.35062985480414
 20
25.08575646817102
 30
0.0
 11
43.47372852721968
 21
16.68800085049281
 31
0.0
1001
DBPROPERTIES
1002
{
1000
PbHidd
1002
}
  0
LINE
  5
2EA
330
1F
100
AcDbEntity
  8
HIDDEN
100
AcDbLine
 10
36.18909693851293
 20
29.30535287655408
 30
0.0
 11
54.40021730198798
 21
44.05242737348863
 31
0.0
1001
DBPROPERTIES
1002
{
1000
PbHidd
1002
}
  0
ARC
  5
2EB
330
1F
100
AcDbEntity
  8
HIDDEN
100
AcDbCircle
 10
0.0000000000000478
 20
0.0
 30
0.0
 40
70.0
100
AcDbArc
 50
33.00001987257539
 51
38.99997660740585
1001
DBPROPERTIES
1002
{
1000
PbHidd
1002
}
  0
LINE
  5
2EC
330
1F
100
AcDbEntity
  8
HIDDEN
100
AcDbLine
 10
58.7069397561797
 20
38.12473245105191
 30
0.0
 11
39.05409278065856
 21
25.36202439719975
 31
0.0
1001
DBPROPERTIES
1002
{
1000
PbHidd
1002
}
  0
ARC
  5
2ED
330
1F
100
AcDbEntity
  8
HIDDEN
100
AcDbCircle
 10
0.0
 20
0.0
 30
0.0
 40
46.56666666666666
100
AcDbArc
 50
33.00001987257539
 51
38.99997660740585
1001
DBPROPERTIES
1002
{
1000
PbHidd
1002
}
  0
LINE
  5
2EE
330
1F
100
AcDbEntity
  8
HIDDEN
100
AcDbLine
 10
29.3053528765541
 20
36.18909693851293
 30
0.0
 11
44.05242737348865
 21
54.40021730198798
 31
0.0
1001
DBPROPERTIES
1002
{
1000
PbHidd
1002
}
  0
ARC
  5
2EF
330
1F
100
AcDbEntity
  8
HIDDEN
100
AcDbCircle
 10
0.0000000000000478
 20
0.0
 30
0.0
 40
70.0
100
AcDbArc
 50
44.99999063801582
 51
51.00000466862581
1001
DBPROPERTIES
1002
{
1000
PbHidd
1002
}
  0
LINE
  5
2F0
330
1F
100
AcDbEntity
  8
HIDDEN
100
AcDbLine
 10
49.49747468305834
 20
49.49747468305833
 30
0.0
 11
32.92760577725356
 21
32.92760577725355
 31
0.0
1001
DBPROPERTIES
1002
{
1000
PbHidd
1002
}
  0
ARC
  5
2F1
330
1F
100
AcDbEntity
  8
HIDDEN
100
AcDbCircle
 10
0.0
 20
0.0
 30
0.0
 40
46.56666666666666
100
AcDbArc
 50
44.99999063801582
 51
51.00000466862581
1001
DBPROPERTIES
1002
{
1000
PbHidd
1002
}
  0
LINE
  5
2F2
330
1F
100
AcDbEntity
  8
HIDDEN
100
AcDbLine
 10
21.14082427120489
 20
41.49120380970496
 30
0.0
 11
31.77933498176829
 21
62.37045669318573
 31
0.0
1001
DBPROPERTIES
1002
{
1000
PbHidd
1002
}
  0
ARC
  5
2F3
330
1F
100
AcDbEntity
  8
HIDDEN
100
AcDbCircle
 10
0.0000000000000478
 20
0.0
 30
0.0
 40
70.0
100
AcDbArc
 50
57.0000186992358
 51
62.99997543406626
1001
DBPROPERTIES
1002
{
1000
PbHidd
1002
}
  0
LINE
  5
2F4
330
1F
100
AcDbEntity
  8
HIDDEN
100
AcDbLine
 10
38.1247324510519
 20
58.70693975617967
 30
0.0
 11
25.36202439719975
 21
39.05409278065856
 31
0.0
1001
DBPROPERTIES
1002
{
1000
PbHidd
1002
}
  0
ARC
  5
2F5
330
1F
100
AcDbEntity
  8
HIDDEN
100
AcDbCircle
 10
0.0
 20
0.0
 30
0.0
 40
46.56666666666666
100
AcDbArc
 50
57.0000186992358
 51
62.99997543406626
1001
DBPROPERTIES
1002
{
1000
PbHidd
1002
}
  0
LINE
  5
2F6
330
1F
100
AcDbEntity
  8
HIDDEN
100
AcDbLine
 10
12.05234020027405
 20
44.97994597752759
 30
0.0
 11
18.11733315717646
 21
67.61480784023477
 31
0.0
1001
DBPROPERTIES
1002
{
1000
PbHidd
1002
}
  0
ARC
  5
2F7
330
1F
100
AcDbEntity
  8
HIDDEN
100
AcDbCircle
 10
0.0000000000000478
 20
0.0
 30
0.0
 40
70.0
100
AcDbArc
 50
68.99998946467625
 51
75.00000349528622
1001
DBPROPERTIES
1002
{
1000
PbHidd
1002
}
  0
LINE
  5
2F8
330
1F
100
AcDbEntity
  8
HIDDEN
100
AcDbLine
 10
25.08575646817102
 20
65.35062985480411
 30
0.0
 11
16.68800085049281
 21
43.47372852721968
 31
0.0
1001
DBPROPERTIES
1002
{
1000
PbHidd
1002
}
  0
ARC
  5
2F9
330
1F
100
AcDbEntity
  8
HIDDEN
100
AcDbCircle
 10
0.0
 20
0.0
 30
0.0
 40
46.56666666666666
100
AcDbArc
 50
68.99998946467625
 51
75.00000349528622
1001
DBPROPERTIES
1002
{
1000
PbHidd
1002
}
  0
LINE
  5
2FA
330
1F
100
AcDbEntity
  8
HIDDEN
100
AcDbLine
 10
2.437111029046421
 20
46.50284866840462
 30
0.0
 11
3.663516937006075
 21
69.90406743282014
 31
0.0
1001
DBPROPERTIES
1002
{
1000
PbHidd
1002
}
  0
ARC
  5
2FB
330
1F
100
AcDbEntity
  8
HIDDEN
100
AcDbCircle
 10
0.0000000000000478
 20
0.0
 30
0.0
 40
70.0
100
AcDbArc
 50
81.0000175258962
 51
86.99997426072667
1001
DBPROPERTIES
1002
{
1000
PbHidd
1002
}
  0
LINE
  5
2FC
330
1F
100
AcDbEntity
  8
HIDDEN
100
AcDbLine
 10
10.95041255281616
 20
69.13818384165963
 30
0.0
 11
7.284631588706752
 21
45.99335372704689
 31
0.0
1001
DBPROPERTIES
1002
{
1000
PbHidd
1002
}
  0
ARC
  5
2FD
330
1F
100
AcDbEntity
  8
HIDDEN
100
AcDbCircle
 10
0.0
 20
0.0
 30
0.0
 40
46.56666666666666
100
AcDbArc
 50
81.0000175258962
 51
86.99997426072667
1001
DBPROPERTIES
1002
{
1000
PbHidd
1002
}
  0
LINE
  5
2FE
330
1F
100
AcDbEntity
  8
HIDDEN
100
AcDbLine
 10
-7.284631588706736
 20
45.99335372704689
 30
0.0
 11
-10.95041255281614
 21
69.13818384165964
 31
0.0
1001
DBPROPERTIES
1002
{
1000
PbHidd
1002
}
  0
ARC
  5
2FF
330
1F
100
AcDbEntity
  8
HIDDEN
100
AcDbCircle
 10
0.0000000000000478
 20
0.0
 30
0.0
 40
70.0
100
AcDbArc
 50
92.99998829133665
 51
99.00000232194662
1001
DBPROPERTIES
1002
{
1000
PbHidd
1002
}
  0
LINE
  5
300
330
1F
100
AcDbEntity
  8
HIDDEN
100
AcDbLine
 10
-3.663516937006051
 20
69.90406743282014
 30
0.0
 11
-2.437111029046407
 21
46.50284866840465
 31
0.0
1001
DBPROPERTIES
1002
{
1000
PbHidd
1002
}
  0
ARC
  5
301
330
1F
100
AcDbEntity
  8
HIDDEN
100
AcDbCircle
 10
0.0
 20
0.0
 30
0.0
 40
46.56666666666666
100
AcDbArc
 50
92.99998829133665
 51
99.00000232194662
1001
DBPROPERTIES
1002
{
1000
PbHidd
1002
}
  0
LINE
  5
302
330
1F
100
AcDbEntity
  8
HIDDEN
100
AcDbLine
 10
-16.6880008504928
 20
43.47372852721968
 30
0.0
 11
-25.085756468171
 21
65.3506298548041
 31
0.0
1001
DBPROPERTIES
1002
{
1000
PbHidd
1002
}
  0
ARC
  5
303
330
1F
100
AcDbEntity
  8
HIDDEN
100
AcDbCircle
 10
0.0000000000000478
 20
0.0
 30
0.0
 40
70.0
100
AcDbArc
 50
105.0000163525566
 51
110.9999730873871
1001
DBPROPERTIES
1002
{
1000
PbHidd
1002
}
  0
LINE
  5
304
330
1F
100
AcDbEntity
  8
HIDDEN
100
AcDbLine
 10
-18.11733315717643
 20
67.61480784023473
 30
0.0
 11
-12.05234020027404
 21
44.9799459775276
 31
0.0
1001
DBPROPERTIES
1002
{
1000
PbHidd
1002
}
  0
ARC
  5
305
330
1F
100
AcDbEntity
  8
HIDDEN
100
AcDbCircle
 10
0.0
 20
0.0
 30
0.0
 40
46.56666666666666
100
AcDbArc
 50
105.0000163525566
 51
110.9999730873871
1001
DBPROPERTIES
1002
{
1000
PbHidd
1002
}
  0
LINE
  5
306
330
1F
100
AcDbEntity
  8
HIDDEN
100
AcDbLine
 10
-25.36202439719974
 20
39.05409278065858
 30
0.0
 11
-38.12473245105187
 21
58.70693975617968
 31
0.0
1001
DBPROPERTIES
1002
{
1000
PbHidd
1002
}
  0
ARC
  5
307
330
1F
100
AcDbEntity
  8
HIDDEN
100
AcDbCircle
 10
0.0000000000000478
 20
0.0
 30
0.0
 40
70.0
100
AcDbArc
 50
116.9999871179971
 51
123.000001148607
1001
DBPROPERTIES
1002
{
1000
PbHidd
1002
}
  0
LINE
  5
308
330
1F
100
AcDbEntity
  8
HIDDEN
100
AcDbLine
 10
-31.77933498176824
 20
62.37045669318572
 30
0.0
 11
-21.14082427120488
 21
41.49120380970499
 31
0.0
1001
DBPROPERTIES
1002
{
1000
PbHidd
1002
}
  0
ARC
  5
309
330
1F
100
AcDbEntity
  8
HIDDEN
100
AcDbCircle
 10
0.0
 20
0.0
 30
0.0
 40
46.56666666666666
100
AcDbArc
 50
116.9999871179971
 51
123.000001148607
1001
DBPROPERTIES
1002
{
1000
PbHidd
1002
}
  0
LINE
  5
30A
330
1F
100
AcDbEntity
  8
HIDDEN
100
AcDbLine
 10
-32.92760577725353
 20
32.92760577725355
 30
0.0
 11
-49.49747468305827
 21
49.4974746830583
 31
0.0
1001
DBPROPERTIES
1002
{
1000
PbHidd
1002
}
  0
ARC
  5
30B
330
1F
100
AcDbEntity
  8
HIDDEN
100
AcDbCircle
 10
0.0000000000000478
 20
0.0
 30
0.0
 40
70.0
100
AcDbArc
 50
129.000015179217
 51
134.9999719140475
1001
DBPROPERTIES
1002
{
1000
PbHidd
1002
}
  0
LINE
  5
30C
330
1F
100
AcDbEntity
  8
HIDDEN
100
AcDbLine
 10
-44.05242737348858
 20
54.40021730198794
 30
0.0
 11
-29.30535287655408
 21
36.18909693851293
 31
0.0
1001
DBPROPERTIES
1002
{
1000
PbHidd
1002
}
  0
ARC
  5
30D
330
1F
100
AcDbEntity
  8
HIDDEN
100
AcDbCircle
 10
0.0
 20
0.0
 30
0.0
 40
46.56666666666666
100
AcDbArc
 50
129.000015179217
 51
134.9999719140475
1001
DBPROPERTIES
1002
{
1000
PbHidd
1002
}
  0
LINE
  5
30E
330
1F
100
AcDbEntity
  8
HIDDEN
100
AcDbLine
 10
-39.05409278065854
 20
25.36202439719977
 30
0.0
 11
-58.70693975617962
 21
38.1247324510519
 31
0.0
1001
DBPROPERTIES
1002
{
1000
PbHidd
1002
}
  0
ARC
  5
30F
330
1F
100
AcDbEntity
  8
HIDDEN
100
AcDbCircle
 10
0.0000000000000478
 20
0.0
 30
0.0
 40
70.0
100
AcDbArc
 50
140.9999859446575
 51
146.9999999752674
1001
DBPROPERTIES
1002
{
1000
PbHidd
1002
}
  0
LINE
  5
310
330
1F
100
AcDbEntity
  8
HIDDEN
100
AcDbLine
 10
-54.40021730198788
 20
44.05242737348861
 30
0.0
 11
-36.18909693851291
 21
29.3053528765541
 31
0.0
1001
DBPROPERTIES
1002
{
1000
PbHidd
1002
}
  0
ARC
  5
311
330
1F
100
AcDbEntity
  8
HIDDEN
100
AcDbCircle
 10
0.0
 20
0.0
 30
0.0
 40
46.56666666666666
100
AcDbArc
 50
140.9999859446575
 51
146.9999999752674
1001
DBPROPERTIES
1002
{
1000
PbHidd
1002
}
  0
LINE
  5
312
330
1F
100
AcDbEntity
  8
HIDDEN
100
AcDbLine
 10
-43.47372852721966
 20
16.68800085049281
 30
0.0
 11
-65.35062985480404
 21
25.08575646817101
 31
0.0
1001
DBPROPERTIES
1002
{
1000
PbHidd
1002
}
  0
ARC
  5
313
330
1F
100
AcDbEntity
  8
HIDDEN
100
AcDbCircle
 10
0.0000000000000478
 20
0.0
 30
0.0
 40
70.0
100
AcDbArc
 50
153.0000140058774
 51
159.0000280364874
1001
DBPROPERTIES
1002
{
1000
PbHidd
1002
}
  0
LINE
  5
314
330
1F
100
AcDbEntity
  8
HIDDEN
100
AcDbLine
 10
-62.37045669318569
 20
31.77933498176826
 30
0.0
 11
-41.49120380970497
 21
21.14082427120489
 31
0.0
1001
DBPROPERTIES
1002
{
1000
PbHidd
1002
}
  0
ARC
  5
315
330
1F
100
AcDbEntity
  8
HIDDEN
100
AcDbCircle
 10
0.0
 20
0.0
 30
0.0
 40
46.56666666666665
100
AcDbArc
 50
153.0000140058774
 51
159.0000280364874
1001
DBPROPERTIES
1002
{
1000
PbHidd
1002
}
  0
LINE
  5
316
330
1F
100
AcDbEntity
  8
HIDDEN
100
AcDbLine
 10
-45.99335372704689
 20
7.284631588706761
 30
0.0
 11
-69.1381838416596
 21
10.95041255281617
 31
0.0
1001
DBPROPERTIES
1002
{
1000
PbHidd
1002
}
  0
ARC
  5
317
330
1F
100
AcDbEntity
  8
HIDDEN
100
AcDbCircle
 10
0.0000000000000478
 20
0.0
 30
0.0
 40
70.0
100
AcDbArc
 50
164.9999847713179
 51
170.9999988019279
1001
DBPROPERTIES
1002
{
1000
PbHidd
1002
}
  0
LINE
  5
318
330
1F
100
AcDbEntity
  8
HIDDEN
100
AcDbLine
 10
-67.6148078402347
 20
18.11733315717645
 30
0.0
 11
-44.97994597752759
 21
12.05234020027405
 31
0.0
1001
DBPROPERTIES
1002
{
1000
PbHidd
1002
}
  0
ARC
  5
319
330
1F
100
AcDbEntity
  8
HIDDEN
100
AcDbCircle
 10
0.0
 20
0.0
 30
0.0
 40
46.56666666666666
100
AcDbArc
 50
164.9999847713179
 51
170.9999988019279
1001
DBPROPERTIES
1002
{
1000
PbHidd
1002
}
  0
LINE
  5
31A
330
1F
100
AcDbEntity
  8
HIDDEN
100
AcDbLine
 10
-46.50284866840464
 20
-2.437111029046392
 30
0.0
 11
-69.9040674328201
 21
-3.663516937006028
 31
0.0
1001
DBPROPERTIES
1002
{
1000
PbHidd
1002
}
  0
ARC
  5
31B
330
1F
100
AcDbEntity
  8
HIDDEN
100
AcDbCircle
 10
0.0000000000000478
 20
0.0
 30
0.0
 40
70.0
100
AcDbArc
 50
177.0000128325378
 51
180.0000198478428
1001
DBPROPERTIES
1002
{
1000
PbHidd
1002
}
  0
LINE
  5
31C
330
1F
100
AcDbEntity
  8
HIDDEN
100
AcDbLine
 10
-69.9040674328201
 20
3.663516937006096
 30
0.0
 11
-46.50284866840464
 21
2.437111029046437
 31
0.0
1001
DBPROPERTIES
1002
{
1000
PbHidd
1002
}
  0
ARC
  5
31D
330
1F
100
AcDbEntity
  8
HIDDEN
100
AcDbCircle
 10
0.0
 20
0.0
 30
0.0
 40
46.56666666666666
100
AcDbArc
 50
177.0000128325378
 51
182.9999871674622
1001
DBPROPERTIES
1002
{
1000
PbHidd
1002
}
  0
LINE
  5
31E
330
1F
100
AcDbEntity
  8
HIDDEN
100
AcDbLine
 10
-44.9799459775276
 20
-12.05234020027403
 30
0.0
 11
-67.61480784023473
 21
-18.11733315717643
 31
0.0
1001
DBPROPERTIES
1002
{
1000
PbHidd
1002
}
  0
ARC
  5
31F
330
1F
100
AcDbEntity
  8
HIDDEN
100
AcDbCircle
 10
0.0000000000000478
 20
0.0
 30
0.0
 40
70.0
100
AcDbArc
 50
189.0000011980722
 51
195.0000152286821
1001
DBPROPERTIES
1002
{
1000
PbHidd
1002
}
  0
LINE
  5
320
330
1F
100
AcDbEntity
  8
HIDDEN
100
AcDbLine
 10
-69.13818384165957
 20
-10.95041255281614
 30
0.0
 11
-45.9933537270469
 21
-7.284631588706744
 31
0.0
1001
DBPROPERTIES
1002
{
1000
PbHidd
1002
}
  0
ARC
  5
321
330
1F
100
AcDbEntity
  8
HIDDEN
100
AcDbCircle
 10
0.0
 20
0.0
 30
0.0
 40
46.56666666666666
100
AcDbArc
 50
189.0000011980722
 51
195.0000152286821
1001
DBPROPERTIES
1002
{
1000
PbHidd
1002
}
  0
LINE
  5
322
330
1F
100
AcDbEntity
  8
HIDDEN
100
AcDbLine
 10
-41.49120380970499
 20
-21.14082427120488
 30
0.0
 11
-62.37045669318572
 21
-31.77933498176824
 31
0.0
1001
DBPROPERTIES
1002
{
1000
PbHidd
1002
}
  0
ARC
  5
323
330
1F
100
AcDbEntity
  8
HIDDEN
100
AcDbCircle
 10
0.0000000000000478
 20
0.0
 30
0.0
 40
70.0
100
AcDbArc
 50
200.9999719635126
 51
206.9999859941226
1001
DBPROPERTIES
1002
{
1000
PbHidd
1002
}
  0
LINE
  5
324
330
1F
100
AcDbEntity
  8
HIDDEN
100
AcDbLine
 10
-65.35062985480405
 20
-25.08575646817096
 30
0.0
 11
-43.47372852721968
 21
-16.68800085049279
 31
0.0
1001
DBPROPERTIES
1002
{
1000
PbHidd
1002
}
  0
ARC
  5
325
330
1F
100
AcDbEntity
  8
HIDDEN
100
AcDbCircle
 10
0.0
 20
0.0
 30
0.0
 40
46.56666666666666
100
AcDbArc
 50
200.9999719635126
 51
206.9999859941226
1001
DBPROPERTIES
1002
{
1000
PbHidd
1002
}
  0
LINE
  5
326
330
1F
100
AcDbEntity
  8
HIDDEN
100
AcDbLine
 10
-36.18909693851294
 20
-29.30535287655407
 30
0.0
 11
-54.40021730198794
 21
-44.05242737348856
 31
0.0
1001
DBPROPERTIES
1002
{
1000
PbHidd
1002
}
  0
ARC
  5
327
330
1F
100
AcDbEntity
  8
HIDDEN
100
AcDbCircle
 10
0.0000000000000478
 20
0.0
 30
0.0
 40
70.0
100
AcDbArc
 50
213.0000000247326
 51
219.0000140553425
1001
DBPROPERTIES
1002
{
1000
PbHidd
1002
}
  0
LINE
  5
328
330
1F
100
AcDbEntity
  8
HIDDEN
100
AcDbLine
 10
-58.70693975617965
 20
-38.12473245105184
 30
0.0
 11
-39.05409278065858
 21
-25.36202439719973
 31
0.0
1001
DBPROPERTIES
1002
{
1000
PbHidd
1002
}
  0
ARC
  5
329
330
1F
100
AcDbEntity
  8
HIDDEN
100
AcDbCircle
 10
0.0
 20
0.0
 30
0.0
 40
46.56666666666666
100
AcDbArc
 50
213.0000000247326
 51
219.0000140553425
1001
DBPROPERTIES
1002
{
1000
PbHidd
1002
}
  0
LINE
  5
32A
330
1F
100
AcDbEntity
  8
HIDDEN
100
AcDbLine
 10
-29.30535287655409
 20
-36.18909693851292
 30
0.0
 11
-44.05242737348861
 21
-54.40021730198791
 31
0.0
1001
DBPROPERTIES
1002
{
1000
PbHidd
1002
}
  0
ARC
  5
32B
330
1F
100
AcDbEntity
  8
HIDDEN
100
AcDbCircle
 10
0.0000000000000478
 20
0.0
 30
0.0
 40
70.0
100
AcDbArc
 50
225.0000280859525
 51
230.999984820783
1001
DBPROPERTIES
1002
{
1000
PbHidd
1002
}
  0
LINE
  5
32C
330
1F
100
AcDbEntity
  8
HIDDEN
100
AcDbLine
 10
-49.4974746830583
 20
-49.49747468305827
 30
0.0
 11
-32.92760577725356
 21
-32.92760577725355
 31
0.0
1001
DBPROPERTIES
1002
{
1000
PbHidd
1002
}
  0
ARC
  5
32D
330
1F
100
AcDbEntity
  8
HIDDEN
100
AcDbCircle
 10
0.0
 20
0.0
 30
0.0
 40
46.56666666666666
100
AcDbArc
 50
225.0000280859525
 51
230.999984820783
1001
DBPROPERTIES
1002
{
1000
PbHidd
1002
}
  0
LINE
  5
32E
330
1F
100
AcDbEntity
  8
HIDDEN
100
AcDbLine
 10
-21.14082427120491
 20
-41.49120380970497
 30
0.0
 11
-31.77933498176829
 21
-62.37045669318572
 31
0.0
1001
DBPROPERTIES
1002
{
1000
PbHidd
1002
}
  0
ARC
  5
32F
330
1F
100
AcDbEntity
  8
HIDDEN
100
AcDbCircle
 10
0.0000000000000478
 20
0.0
 30
0.0
 40
70.0
100
AcDbArc
 50
236.999998851393
 51
243.0000128820029
1001
DBPROPERTIES
1002
{
1000
PbHidd
1002
}
  0
LINE
  5
330
330
1F
100
AcDbEntity
  8
HIDDEN
100
AcDbLine
 10
-38.1247324510519
 20
-58.70693975617964
 30
0.0
 11
-25.36202439719977
 21
-39.05409278065856
 31
0.0
1001
DBPROPERTIES
1002
{
1000
PbHidd
1002
}
  0
ARC
  5
331
330
1F
100
AcDbEntity
  8
HIDDEN
100
AcDbCircle
 10
0.0
 20
0.0
 30
0.0
 40
46.56666666666666
100
AcDbArc
 50
236.999998851393
 51
243.0000128820029
1001
DBPROPERTIES
1002
{
1000
PbHidd
1002
}
  0
LINE
  5
332
330
1F
100
AcDbEntity
  8
HIDDEN
100
AcDbLine
 10
-12.05234020027408
 20
-44.97994597752759
 30
0.0
 11
-18.11733315717649
 21
-67.61480784023475
 31
0.0
1001
DBPROPERTIES
1002
{
1000
PbHidd
1002
}
  0
ARC
  5
333
330
1F
100
AcDbEntity
  8
HIDDEN
100
AcDbCircle
 10
0.0000000000000478
 20
0.0
 30
0.0
 40
70.0
100
AcDbArc
 50
249.0000269126129
 51
254.9999836474434
1001
DBPROPERTIES
1002
{
1000
PbHidd
1002
}
  0
LINE
  5
334
330
1F
100
AcDbEntity
  8
HIDDEN
100
AcDbLine
 10
-25.08575646817104
 20
-65.35062985480408
 30
0.0
 11
-16.68800085049284
 21
-43.47372852721968
 31
0.0
1001
DBPROPERTIES
1002
{
1000
PbHidd
1002
}
  0
ARC
  5
335
330
1F
100
AcDbEntity
  8
HIDDEN
100
AcDbCircle
 10
0.0
 20
0.0
 30
0.0
 40
46.56666666666667
100
AcDbArc
 50
249.0000269126129
 51
254.9999836474434
1001
DBPROPERTIES
1002
{
1000
PbHidd
1002
}
  0
LINE
  5
336
330
1F
100
AcDbEntity
  8
HIDDEN
100
AcDbLine
 10
-2.437111029046427
 20
-46.50284866840462
 30
0.0
 11
-3.663516937006084
 21
-69.90406743282014
 31
0.0
1001
DBPROPERTIES
1002
{
1000
PbHidd
1002
}
  0
ARC
  5
337
330
1F
100
AcDbEntity
  8
HIDDEN
100
AcDbCircle
 10
0.0000000000000478
 20
0.0
 30
0.0
 40
70.0
100
AcDbArc
 50
260.9999976780534
 51
267.0000117086634
1001
DBPROPERTIES
1002
{
1000
PbHidd
1002
}
  0
LINE
  5
338
330
1F
100
AcDbEntity
  8
HIDDEN
100
AcDbLine
 10
-10.95041255281617
 20
-69.13818384165961
 30
0.0
 11
-7.284631588706757
 21
-45.99335372704689
 31
0.0
1001
DBPROPERTIES
1002
{
1000
PbHidd
1002
}
  0
ARC
  5
339
330
1F
100
AcDbEntity
  8
HIDDEN
100
AcDbCircle
 10
0.0
 20
0.0
 30
0.0
 40
46.56666666666666
100
AcDbArc
 50
260.9999976780534
 51
267.0000117086634
1001
DBPROPERTIES
1002
{
1000
PbHidd
1002
}
  0
LINE
  5
33A
330
1F
100
AcDbEntity
  8
HIDDEN
100
AcDbLine
 10
7.284631588706709
 20
-45.9933537270469
 30
0.0
 11
10.95041255281611
 21
-69.13818384165967
 31
0.0
1001
DBPROPERTIES
1002
{
1000
PbHidd
1002
}
  0
ARC
  5
33B
330
1F
100
AcDbEntity
  8
HIDDEN
100
AcDbCircle
 10
0.0000000000000478
 20
0.0
 30
0.0
 40
70.0
100
AcDbArc
 50
273.0000257392733
 51
278.9999824741038
1001
DBPROPERTIES
1002
{
1000
PbHidd
1002
}
  0
LINE
  5
33C
330
1F
100
AcDbEntity
  8
HIDDEN
100
AcDbLine
 10
3.663516937006011
 20
-69.90406743282014
 30
0.0
 11
2.43711102904638
 21
-46.50284866840465
 31
0.0
1001
DBPROPERTIES
1002
{
1000
PbHidd
1002
}
  0
ARC
  5
33D
330
1F
100
AcDbEntity
  8
HIDDEN
100
AcDbCircle
 10
0.0
 20
0.0
 30
0.0
 40
46.56666666666666
100
AcDbArc
 50
273.0000257392733
 51
278.9999824741038
1001
DBPROPERTIES
1002
{
1000
PbHidd
1002
}
  0
LINE
  5
33E
330
1F
100
AcDbEntity
  8
HIDDEN
100
AcDbLine
 10
16.68800085049278
 20
-43.47372852721968
 30
0.0
 11
25.08575646817098
 21
-65.35062985480414
 31
0.0
1001
DBPROPERTIES
1002
{
1000
PbHidd
1002
}
  0
ARC
  5
33F
330
1F
100
AcDbEntity
  8
HIDDEN
100
AcDbCircle
 10
0.0000000000000478
 20
0.0
 30
0.0
 40
70.0
100
AcDbArc
 50
284.9999965047138
 51
291.0000105353237
1001
DBPROPERTIES
1002
{
1000
PbHidd
1002
}
  0
LINE
  5
340
330
1F
100
AcDbEntity
  8
HIDDEN
100
AcDbLine
 10
18.11733315717641
 20
-67.61480784023477
 30
0.0
 11
12.05234020027402
 21
-44.97994597752761
 31
0.0
1001
DBPROPERTIES
1002
{
1000
PbHidd
1002
}
  0
ARC
  5
341
330
1F
100
AcDbEntity
  8
HIDDEN
100
AcDbCircle
 10
0.0
 20
0.0
 30
0.0
 40
46.56666666666666
100
AcDbArc
 50
284.9999965047138
 51
291.0000105353237
1001
DBPROPERTIES
1002
{
1000
PbHidd
1002
}
  0
LINE
  5
342
330
1F
100
AcDbEntity
  8
HIDDEN
100
AcDbLine
 10
25.36202439719975
 20
-39.05409278065857
 30
0.0
 11
38.1247324510519
 21
-58.70693975617971
 31
0.0
1001
DBPROPERTIES
1002
{
1000
PbHidd
1002
}
  0
ARC
  5
343
330
1F
100
AcDbEntity
  8
HIDDEN
100
AcDbCircle
 10
0.0000000000000478
 20
0.0
 30
0.0
 40
70.0
100
AcDbArc
 50
297.0000245659338
 51
302.9999813007643
1001
DBPROPERTIES
1002
{
1000
PbHidd
1002
}
  0
LINE
  5
344
330
1F
100
AcDbEntity
  8
HIDDEN
100
AcDbLine
 10
31.77933498176826
 20
-62.37045669318575
 30
0.0
 11
21.14082427120488
 21
-41.49120380970499
 31
0.0
1001
DBPROPERTIES
1002
{
1000
PbHidd
1002
}
  0
ARC
  5
345
330
1F
100
AcDbEntity
  8
HIDDEN
100
AcDbCircle
 10
0.0
 20
0.0
 30
0.0
 40
46.56666666666666
100
AcDbArc
 50
297.0000245659338
 51
302.9999813007643
1001
DBPROPERTIES
1002
{
1000
PbHidd
1002
}
  0
LINE
  5
346
330
1F
100
AcDbEntity
  8
HIDDEN
100
AcDbLine
 10
32.92760577725353
 20
-32.92760577725358
 30
0.0
 11
49.49747468305831
 21
-49.49747468305839
 31
0.0
1001
DBPROPERTIES
1002
{
1000
PbHidd
1002
}
  0
ARC
  5
347
330
1F
100
AcDbEntity
  8
HIDDEN
100
AcDbCircle
 10
0.0000000000000478
 20
0.0
 30
0.0
 40
70.0
100
AcDbArc
 50
308.9999953313742
 51
315.0000093619842
1001
DBPROPERTIES
1002
{
1000
PbHidd
1002
}
  0
LINE
  5
348
330
1F
100
AcDbEntity
  8
HIDDEN
100
AcDbLine
 10
44.05242737348858
 20
-54.40021730198801
 30
0.0
 11
29.30535287655406
 21
-36.18909693851296
 31
0.0
1001
DBPROPERTIES
1002
{
1000
PbHidd
1002
}
  0
ARC
  5
349
330
1F
100
AcDbEntity
  8
HIDDEN
100
AcDbCircle
 10
0.0
 20
0.0
 30
0.0
 40
46.56666666666666
100
AcDbArc
 50
308.9999953313742
 51
315.0000093619842
1001
DBPROPERTIES
1002
{
1000
PbHidd
1002
}
  0
LINE
  5
34A
330
1F
100
AcDbEntity
  8
HIDDEN
100
AcDbLine
 10
39.05409278065854
 20
-25.36202439719977
 30
0.0
 11
58.70693975617968
 21
-38.12473245105194
 31
0.0
1001
DBPROPERTIES
1002
{
1000
PbHidd
1002
}
  0
ARC
  5
34B
330
1F
100
AcDbEntity
  8
HIDDEN
100
AcDbCircle
 10
0.0000000000000478
 20
0.0
 30
0.0
 40
70.0
100
AcDbArc
 50
321.0000233925941
 51
326.9999801274246
1001
DBPROPERTIES
1002
{
1000
PbHidd
1002
}
  0
LINE
  5
34C
330
1F
100
AcDbEntity
  8
HIDDEN
100
AcDbLine
 10
54.40021730198794
 20
-44.05242737348865
 30
0.0
 11
36.18909693851291
 21
-29.3053528765541
 31
0.0
1001
DBPROPERTIES
1002
{
1000
PbHidd
1002
}
  0
ARC
  5
34D
330
1F
100
AcDbEntity
  8
HIDDEN
100
AcDbCircle
 10
0.0
 20
0.0
 30
0.0
 40
46.56666666666666
100
AcDbArc
 50
321.0000233925941
 51
326.9999801274246
1001
DBPROPERTIES
1002
{
1000
PbHidd
1002
}
  0
LINE
  5
34E
330
1F
100
AcDbEntity
  8
HIDDEN
100
AcDbLine
 10
43.47372852721967
 20
-16.68800085049283
 30
0.0
 11
65.35062985480415
 21
-25.08575646817106
 31
0.0
1001
DBPROPERTIES
1002
{
1000
PbHidd
1002
}
  0
ARC
  5
34F
330
1F
100
AcDbEntity
  8
HIDDEN
100
AcDbCircle
 10
0.0000000000000478
 20
0.0
 30
0.0
 40
70.0
100
AcDbArc
 50
332.9999941580346
 51
339.0000081886445
1001
DBPROPERTIES
1002
{
1000
PbHidd
1002
}
  0
LINE
  5
350
330
1F
100
AcDbEntity
  8
HIDDEN
100
AcDbLine
 10
62.37045669318576
 20
-31.7793349817683
 30
0.0
 11
41.49120380970498
 21
-21.1408242712049
 31
0.0
1001
DBPROPERTIES
1002
{
1000
PbHidd
1002
}
  0
ARC
  5
351
330
1F
100
AcDbEntity
  8
HIDDEN
100
AcDbCircle
 10
0.0
 20
0.0
 30
0.0
 40
46.56666666666666
100
AcDbArc
 50
332.9999941580346
 51
339.0000081886445
1001
DBPROPERTIES
1002
{
1000
PbHidd
1002
}
  0
LINE
  5
352
330
1F
100
AcDbEntity
  8
HIDDEN
100
AcDbLine
 10
45.99335372704689
 20
-7.284631588706789
 30
0.0
 11
69.13818384165967
 21
-10.95041255281623
 31
0.0
1001
DBPROPERTIES
1002
{
1000
PbHidd
1002
}
  0
ARC
  5
353
330
1F
100
AcDbEntity
  8
HIDDEN
100
AcDbCircle
 10
0.0000000000000478
 20
0.0
 30
0.0
 40
70.0
100
AcDbArc
 50
345.0000222192546
 51
350.9999789540851
1001
DBPROPERTIES
1002
{
1000
PbHidd
1002
}
  0
LINE
  5
354
330
1F
100
AcDbEntity
  8
HIDDEN
100
AcDbLine
 10
67.61480784023479
 20
-18.11733315717651
 30
0.0
 11
44.97994597752759
 21
-12.05234020027408
 31
0.0
1001
DBPROPERTIES
1002
{
1000
PbHidd
1002
}
  0
ARC
  5
355
330
1F
100
AcDbEntity
  8
HIDDEN
100
AcDbCircle
 10
0.0
 20
0.0
 30
0.0
 40
46.56666666666666
100
AcDbArc
 50
345.0000222192546
 51
350.9999789540851
1001
DBPROPERTIES
1002
{
1000
PbHidd
1002
}
  0
LINE
  5
356
330
1F
100
AcDbEntity
  8
HIDDEN
100
AcDbLine
 10
44.9799459775276
 20
12.05234020027404
 30
0.0
 11
67.61480784023483
 21
18.11733315717646
 31
0.0
1001
DBPROPERTIES
1002
{
1000
PbHidd
1002
}
  0
ARC
  5
357
330
1F
100
AcDbEntity
  8
HIDDEN
100
AcDbCircle
 10
0.0000000000000478
 20
0.0
 30
0.0
 40
70.0
100
AcDbArc
 50
9.000021045914972
 51
14.99997778074544
1001
DBPROPERTIES
1002
{
1000
PbHidd
1002
}
  0
LINE
  5
358
330
1F
100
AcDbEntity
  8
HIDDEN
100
AcDbLine
 10
69.13818384165967
 20
10.95041255281616
 30
0.0
 11
45.9933537270469
 21
7.284631588706748
 31
0.0
1001
DBPROPERTIES
1002
{
1000
PbHidd
1002
}
  0
ARC
  5
359
330
1F
100
AcDbEntity
  8
HIDDEN
100
AcDbCircle
 10
0.0
 20
0.0
 30
0.0
 40
46.56666666666666
100
AcDbArc
 50
9.000021045914972
 51
14.99997778074544
1001
DBPROPERTIES
1002
{
1000
PbHidd
1002
}
  0
ARC
  5
35A
330
1F
100
AcDbEntity
  8
HIDDEN
100
AcDbCircle
 10
0.0000000000000029
 20
0.0
 30
0.0
 40
158.9155497985024
100
AcDbArc
 50
96.72111998759328
 51
173.2788811362812
1001
DBPROPERTIES
1002
{
1000
PbHidd
1002
}
  0
LINE
  5
35B
330
1F
100
AcDbEntity
  8
HIDDEN
100
AcDbLine
 10
-168.9673081431916
 20
19.77019626641708
 30
0.0
 11
-163.3102257485392
 21
19.17561294749222
 31
0.0
1001
DBPROPERTIES
1002
{
1000
PbHidd
1002
}
  0
LINE
  5
35C
330
1F
100
AcDbEntity
  8
HIDDEN
100
AcDbLine
 10
-19.7701962664171
 20
168.9673081431917
 30
0.0
 11
-19.17561294749223
 21
163.3102257485393
 31
0.0
1001
DBPROPERTIES
1002
{
1000
PbHidd
1002
}
  0
LINE
  5
35D
330
1F
100
AcDbEntity
  8
HIDDEN
100
AcDbLine
 10
-169.3854219962622
 20
15.792108684944
 30
0.0
 11
-163.7283396016098
 21
15.19752536601914
 31
0.0
1001
DBPROPERTIES
1002
{
1000
PbHidd
1002
}
  0
ARC
  5
35E
330
1F
100
AcDbEntity
  8
HIDDEN
100
AcDbCircle
 10
0.0000000000000029
 20
0.0
 30
0.0
 40
158.9155497985024
100
AcDbArc
 50
174.7211304981845
 51
185.2788695018155
1001
DBPROPERTIES
1002
{
1000
PbHidd
1002
}
  0
LINE
  5
35F
330
1F
100
AcDbEntity
  8
HIDDEN
100
AcDbLine
 10
-169.3854219962622
 20
-15.79210868494398
 30
0.0
 11
-163.7283396016098
 21
-15.19752536601912
 31
0.0
1001
DBPROPERTIES
1002
{
1000
PbHidd
1002
}
  0
ARC
  5
360
330
1F
100
AcDbEntity
  8
HIDDEN
100
AcDbCircle
 10
0.0000000000000029
 20
0.0
 30
0.0
 40
170.1199925980745
100
AcDbArc
 50
84.67359372515698
 51
89.99998127603165
1001
DBPROPERTIES
1002
{
1000
PbHidd
1002
}
  0
LINE
  5
361
330
1F
100
AcDbEntity
  8
HIDDEN
100
AcDbLine
 10
15.792108684944
 20
169.3854219962623
 30
0.0
 11
15.19752536601914
 21
163.7283396016099
 31
0.0
1001
DBPROPERTIES
1002
{
1000
PbHidd
1002
}
  0
ARC
  5
362
330
1F
100
AcDbEntity
  8
HIDDEN
100
AcDbCircle
 10
0.0000000000000029
 20
0.0
 30
0.0
 40
158.9155497985024
100
AcDbArc
 50
89.99998127603165
 51
95.27887062568999
1001
DBPROPERTIES
1002
{
1000
PbHidd
1002
}
  0
ARC
  5
363
330
1F
100
AcDbEntity
  8
HIDDEN
100
AcDbCircle
 10
0.0000000000000029
 20
0.0
 30
0.0
 40
158.9155497985024
100
AcDbArc
 50
186.7211188637188
 51
263.2788800124067
1001
DBPROPERTIES
1002
{
1000
PbHidd
1002
}
  0
LINE
  5
364
330
1F
100
AcDbEntity
  8
HIDDEN
100
AcDbLine
 10
-19.77019626641711
 20
-168.9673081431915
 30
0.0
 11
-19.17561294749225
 21
-163.3102257485392
 31
0.0
1001
DBPROPERTIES
1002
{
1000
PbHidd
1002
}
  0
LINE
  5
365
330
1F
100
AcDbEntity
  8
HIDDEN
100
AcDbLine
 10
-168.9673081431917
 20
-19.77019626641708
 30
0.0
 11
-163.3102257485393
 21
-19.17561294749223
 31
0.0
1001
DBPROPERTIES
1002
{
1000
PbHidd
1002
}
  0
ARC
  5
366
330
1F
100
AcDbEntity
  8
HIDDEN
100
AcDbCircle
 10
0.0000000000000029
 20
0.0
 30
0.0
 40
170.1199925980745
100
AcDbArc
 50
77.59395532118198
 51
83.32639806146587
1001
DBPROPERTIES
1002
{
1000
PbHidd
1002
}
  0
ARC
  5
367
330
1F
100
AcDbEntity
  8
THICK
100
AcDbCircle
 10
0.0000000000000029
 20
0.0
 30
0.0
 40
170.1199925980745
100
AcDbArc
 50
50.66453787957671
 51
77.59395532118198
1001
DBPROPERTIES
1002
{
1000
PbThick
1002
}
  0
ARC
  5
368
330
1F
100
AcDbEntity
  8
HIDDEN
100
AcDbCircle
 10
0.0000000000000029
 20
0.0
 30
0.0
 40
170.1199925980745
100
AcDbArc
 50
26.16537822179833
 51
50.66453787957671
1001
DBPROPERTIES
1002
{
1000
PbHidd
1002
}
  0
ARC
  5
369
330
1F
100
AcDbEntity
  8
THICK
100
AcDbCircle
 10
0.0000000000000029
 20
0.0
 30
0.0
 40
170.1199925980745
100
AcDbArc
 50
6.673583214565777
 51
26.16537822179833
1001
DBPROPERTIES
1002
{
1000
PbThick
1002
}
  0
LINE
  5
36A
330
1F
100
AcDbEntity
  8
HIDDEN
100
AcDbLine
 10
168.9673081431916
 20
19.77019626641705
 30
0.0
 11
163.3102257485392
 21
19.17561294749219
 31
0.0
1001
DBPROPERTIES
1002
{
1000
PbHidd
1002
}
  0
ARC
  5
36B
330
1F
100
AcDbEntity
  8
HIDDEN
100
AcDbCircle
 10
0.0000000000000029
 20
0.0
 30
0.0
 40
158.9155497985024
100
AcDbArc
 50
6.721081415782121
 51
83.27889986024954
1001
DBPROPERTIES
1002
{
1000
PbHidd
1002
}
  0
LINE
  5
36C
330
1F
100
AcDbEntity
  8
HIDDEN
100
AcDbLine
 10
19.77019626641709
 20
168.9673081431916
 30
0.0
 11
19.17561294749223
 21
163.3102257485392
 31
0.0
1001
DBPROPERTIES
1002
{
1000
PbHidd
1002
}
  0
LINE
  5
36D
330
1F
100
AcDbEntity
  8
HIDDEN
100
AcDbLine
 10
-15.79210868494402
 20
-169.3854219962623
 30
0.0
 11
-15.19752536601915
 21
-163.7283396016098
 31
0.0
1001
DBPROPERTIES
1002
{
1000
PbHidd
1002
}
  0
ARC
  5
36E
330
1F
100
AcDbEntity
  8
HIDDEN
100
AcDbCircle
 10
0.0000000000000029
 20
0.0
 30
0.0
 40
158.9155497985024
100
AcDbArc
 50
264.72112937431
 51
270.0000187239684
1001
DBPROPERTIES
1002
{
1000
PbHidd
1002
}
  0
LINE
  5
36F
330
1F
100
AcDbEntity
  8
HIDDEN
100
AcDbLine
 10
15.79210868494397
 20
-169.3854219962622
 30
0.0
 11
15.19752536601911
 21
-163.7283396016098
 31
0.0
1001
DBPROPERTIES
1002
{
1000
PbHidd
1002
}
  0
ARC
  5
370
330
1F
100
AcDbEntity
  8
THICK
100
AcDbCircle
 10
0.0000000000000029
 20
0.0
 30
0.0
 40
170.1199925980745
100
AcDbArc
 50
270.0000187239684
 51
275.326406274843
1001
DBPROPERTIES
1002
{
1000
PbThick
1002
}
  0
ARC
  5
371
330
1F
100
AcDbEntity
  8
THICK
100
AcDbCircle
 10
0.0000000000000029
 20
0.0
 30
0.0
 40
170.1199925980745
100
AcDbArc
 50
359.2359607801931
 51
5.326387550874672
1001
DBPROPERTIES
1002
{
1000
PbThick
1002
}
  0
ARC
  5
372
330
1F
100
AcDbEntity
  8
HIDDEN
100
AcDbCircle
 10
0.0000000000000029
 20
0.0
 30
0.0
 40
170.1199925980745
100
AcDbArc
 50
354.6736124491253
 51
359.2359607801931
1001
DBPROPERTIES
1002
{
1000
PbHidd
1002
}
  0
LINE
  5
373
330
1F
100
AcDbEntity
  8
HIDDEN
100
AcDbLine
 10
169.3854219962623
 20
-15.79210868494403
 30
0.0
 11
163.7283396016098
 21
-15.19752536601916
 31
0.0
1001
DBPROPERTIES
1002
{
1000
PbHidd
1002
}
  0
ARC
  5
374
330
1F
100
AcDbEntity
  8
HIDDEN
100
AcDbCircle
 10
0.0000000000000029
 20
0.0
 30
0.0
 40
158.9155497985024
100
AcDbArc
 50
354.7211106503417
 51
5.278889349658327
1001
DBPROPERTIES
1002
{
1000
PbHidd
1002
}
  0
LINE
  5
375
330
1F
100
AcDbEntity
  8
HIDDEN
100
AcDbLine
 10
169.3854219962622
 20
15.79210868494395
 30
0.0
 11
163.7283396016098
 21
15.19752536601909
 31
0.0
1001
DBPROPERTIES
1002
{
1000
PbHidd
1002
}
  0
ARC
  5
376
330
1F
100
AcDbEntity
  8
THICK
100
AcDbCircle
 10
0.0000000000000023
 20
0.0
 30
0.0
 40
153.7155497985024
100
AcDbArc
 50
154.8350832321224
 51
173.2544731342086
1001
DBPROPERTIES
1002
{
1000
PbThick
1002
}
  0
ARC
  5
377
330
1F
100
AcDbEntity
  8
HIDDEN
100
AcDbCircle
 10
0.0000000000000023
 20
0.0
 30
0.0
 40
153.7155497985024
100
AcDbArc
 50
127.6739043623867
 51
154.8350832321224
1001
DBPROPERTIES
1002
{
1000
PbHidd
1002
}
  0
ARC
  5
378
330
1F
100
AcDbEntity
  8
THICK
100
AcDbCircle
 10
0.0000000000000023
 20
0.0
 30
0.0
 40
153.7155497985024
100
AcDbArc
 50
103.4065061327388
 51
127.6739043623867
1001
DBPROPERTIES
1002
{
1000
PbThick
1002
}
  0
ARC
  5
379
330
1F
100
AcDbEntity
  8
HIDDEN
100
AcDbCircle
 10
0.0000000000000023
 20
0.0
 30
0.0
 40
153.7155497985024
100
AcDbArc
 50
96.74547069388635
 51
103.4065061327388
1001
DBPROPERTIES
1002
{
1000
PbHidd
1002
}
  0
ARC
  5
37A
330
1F
100
AcDbEntity
  8
HIDDEN
100
AcDbCircle
 10
0.0000000000000023
 20
0.0
 30
0.0
 40
153.7155497985024
100
AcDbArc
 50
179.1024241659909
 51
185.2545187955224
1001
DBPROPERTIES
1002
{
1000
PbHidd
1002
}
  0
ARC
  5
37B
330
1F
100
AcDbEntity
  8
THICK
100
AcDbCircle
 10
0.0000000000000023
 20
0.0
 30
0.0
 40
153.7155497985024
100
AcDbArc
 50
174.7454812044776
 51
179.1024241659909
1001
DBPROPERTIES
1002
{
1000
PbThick
1002
}
  0
ARC
  5
37C
330
1F
100
AcDbEntity
  8
HIDDEN
100
AcDbCircle
 10
0.0000000000000023
 20
0.0
 30
0.0
 40
153.7155497985024
100
AcDbArc
 50
89.99998127603165
 51
95.25451991939693
1001
DBPROPERTIES
1002
{
1000
PbHidd
1002
}
  0
ARC
  5
37D
330
1F
100
AcDbEntity
  8
THICK
100
AcDbCircle
 10
0.0000000000000023
 20
0.0
 30
0.0
 40
153.7155497985024
100
AcDbArc
 50
257.6922550309836
 51
263.2545293061137
1001
DBPROPERTIES
1002
{
1000
PbThick
1002
}
  0
ARC
  5
37E
330
1F
100
AcDbEntity
  8
HIDDEN
100
AcDbCircle
 10
0.0000000000000023
 20
0.0
 30
0.0
 40
153.7155497985024
100
AcDbArc
 50
230.5310188654684
 51
257.6922550309836
1001
DBPROPERTIES
1002
{
1000
PbHidd
1002
}
  0
ARC
  5
37F
330
1F
100
AcDbEntity
  8
THICK
100
AcDbCircle
 10
0.0000000000000023
 20
0.0
 30
0.0
 40
153.7155497985024
100
AcDbArc
 50
206.2636779315999
 51
230.5310188654684
1001
DBPROPERTIES
1002
{
1000
PbThick
1002
}
  0
ARC
  5
380
330
1F
100
AcDbEntity
  8
HIDDEN
100
AcDbCircle
 10
0.0000000000000023
 20
0.0
 30
0.0
 40
153.7155497985024
100
AcDbArc
 50
186.7455268657914
 51
206.2636779315999
1001
DBPROPERTIES
1002
{
1000
PbHidd
1002
}
  0
ARC
  5
381
330
1F
100
AcDbEntity
  8
HIDDEN
100
AcDbCircle
 10
0.0000000000000023
 20
0.0
 30
0.0
 40
153.7155497985024
100
AcDbArc
 50
76.24532726300306
 51
83.25449185817696
1001
DBPROPERTIES
1002
{
1000
PbHidd
1002
}
  0
ARC
  5
382
330
1F
100
AcDbEntity
  8
THICK
100
AcDbCircle
 10
0.0000000000000023
 20
0.0
 30
0.0
 40
153.7155497985024
100
AcDbArc
 50
51.9779290333551
 51
76.24532726300306
1001
DBPROPERTIES
1002
{
1000
PbThick
1002
}
  0
ARC
  5
383
330
1F
100
AcDbEntity
  8
HIDDEN
100
AcDbCircle
 10
0.0000000000000023
 20
0.0
 30
0.0
 40
153.7155497985024
100
AcDbArc
 50
24.8167501636194
 51
51.9779290333551
1001
DBPROPERTIES
1002
{
1000
PbHidd
1002
}
  0
ARC
  5
384
330
1F
100
AcDbEntity
  8
THICK
100
AcDbCircle
 10
0.0000000000000023
 20
0.0
 30
0.0
 40
153.7155497985024
100
AcDbArc
 50
6.745489417854694
 51
24.8167501636194
1001
DBPROPERTIES
1002
{
1000
PbThick
1002
}
  0
ARC
  5
385
330
1F
100
AcDbEntity
  8
THICK
100
AcDbCircle
 10
0.0000000000000023
 20
0.0
 30
0.0
 40
153.7155497985024
100
AcDbArc
 50
264.7454800806031
 51
270.0000187239684
1001
DBPROPERTIES
1002
{
1000
PbThick
1002
}
  0
ARC
  5
386
330
1F
100
AcDbEntity
  8
THICK
100
AcDbCircle
 10
0.0000000000000023
 20
0.0
 30
0.0
 40
153.7155497985024
100
AcDbArc
 50
0.5493519339714333
 51
5.254481347585753
1001
DBPROPERTIES
1002
{
1000
PbThick
1002
}
  0
ARC
  5
387
330
1F
100
AcDbEntity
  8
HIDDEN
100
AcDbCircle
 10
0.0000000000000023
 20
0.0
 30
0.0
 40
153.7155497985024
100
AcDbArc
 50
354.7455186524143
 51
0.5493519339714333
1001
DBPROPERTIES
1002
{
1000
PbHidd
1002
}
  0
ARC
  5
388
330
1F
100
AcDbEntity
  8
HIDDEN
100
AcDbCircle
 10
0.0000000000000023
 20
0.0
 30
0.0
 40
153.7155497985024
100
AcDbArc
 50
333.3881730642357
 51
353.2545105821453
1001
DBPROPERTIES
1002
{
1000
PbHidd
1002
}
  0
ARC
  5
389
330
1F
100
AcDbEntity
  8
THICK
100
AcDbCircle
 10
0.0000000000000023
 20
0.0
 30
0.0
 40
153.7155497985024
100
AcDbArc
 50
309.1207748345878
 51
333.3881730642357
1001
DBPROPERTIES
1002
{
1000
PbThick
1002
}
  0
ARC
  5
38A
330
1F
100
AcDbEntity
  8
HIDDEN
100
AcDbCircle
 10
0.0000000000000023
 20
0.0
 30
0.0
 40
153.7155497985024
100
AcDbArc
 50
281.9595959648521
 51
309.1207748345878
1001
DBPROPERTIES
1002
{
1000
PbHidd
1002
}
  0
ARC
  5
38B
330
1F
100
AcDbEntity
  8
THICK
100
AcDbCircle
 10
0.0000000000000023
 20
0.0
 30
0.0
 40
153.7155497985024
100
AcDbArc
 50
276.7455081418231
 51
281.9595959648521
1001
DBPROPERTIES
1002
{
1000
PbThick
1002
}
  0
ARC
  5
38C
330
1F
100
AcDbEntity
  8
HIDDEN
100
AcDbCircle
 10
0.0000000000000029
 20
0.0
 30
0.0
 40
158.9155497985024
100
AcDbArc
 50
276.7211001397505
 51
353.2789185842179
1001
DBPROPERTIES
1002
{
1000
PbHidd
1002
}
  0
ARC
  5
38D
330
1F
100
AcDbEntity
  8
HIDDEN
100
AcDbCircle
 10
0.0000000000000023
 20
0.0
 30
0.0
 40
164.9199925980745
100
AcDbArc
 50
77.1962653155817
 51
89.99998127603165
1001
DBPROPERTIES
1002
{
1000
PbHidd
1002
}
  0
ARC
  5
38E
330
1F
100
AcDbEntity
  8
THICK
100
AcDbCircle
 10
0.0000000000000023
 20
0.0
 30
0.0
 40
164.9199925980745
100
AcDbArc
 50
51.05185734908515
 51
77.1962653155817
1001
DBPROPERTIES
1002
{
1000
PbThick
1002
}
  0
ARC
  5
38F
330
1F
100
AcDbEntity
  8
HIDDEN
100
AcDbCircle
 10
0.0000000000000023
 20
0.0
 30
0.0
 40
164.9199925980745
100
AcDbArc
 50
25.76768821619802
 51
51.05185734908515
1001
DBPROPERTIES
1002
{
1000
PbHidd
1002
}
  0
ARC
  5
390
330
1F
100
AcDbEntity
  8
THICK
100
AcDbCircle
 10
0.0000000000000023
 20
0.0
 30
0.0
 40
164.9199925980745
100
AcDbArc
 50
359.6232802497015
 51
25.76768821619802
1001
DBPROPERTIES
1002
{
1000
PbThick
1002
}
  0
ARC
  5
391
330
1F
100
AcDbEntity
  8
HIDDEN
100
AcDbCircle
 10
0.0000000000000023
 20
0.0
 30
0.0
 40
164.9199925980745
100
AcDbArc
 50
334.3391111168144
 51
359.6232802497015
1001
DBPROPERTIES
1002
{
1000
PbHidd
1002
}
  0
ARC
  5
392
330
1F
100
AcDbEntity
  8
THICK
100
AcDbCircle
 10
0.0000000000000023
 20
0.0
 30
0.0
 40
164.9199925980745
100
AcDbArc
 50
308.1947031503178
 51
334.3391111168144
1001
DBPROPERTIES
1002
{
1000
PbThick
1002
}
  0
ARC
  5
393
330
1F
100
AcDbEntity
  8
HIDDEN
100
AcDbCircle
 10
0.0000000000000023
 20
0.0
 30
0.0
 40
164.9199925980745
100
AcDbArc
 50
282.9105340174307
 51
308.1947031503178
1001
DBPROPERTIES
1002
{
1000
PbHidd
1002
}
  0
ARC
  5
394
330
1F
100
AcDbEntity
  8
THICK
100
AcDbCircle
 10
0.0000000000000023
 20
0.0
 30
0.0
 40
164.9199925980745
100
AcDbArc
 50
270.0000187239684
 51
282.9105340174307
1001
DBPROPERTIES
1002
{
1000
PbThick
1002
}
  0
ARC
  5
395
330
1F
100
AcDbEntity
  8
THICK
100
AcDbCircle
 10
0.0000000000000029
 20
0.0
 30
0.0
 40
170.1199925980745
100
AcDbArc
 50
275.326406274843
 51
276.6736019385341
1001
DBPROPERTIES
1002
{
1000
PbThick
1002
}
  0
ARC
  5
396
330
1F
100
AcDbEntity
  8
HIDDEN
100
AcDbCircle
 10
0.0000000000000029
 20
0.0
 30
0.0
 40
170.1199925980745
100
AcDbArc
 50
334.7368584181942
 51
353.3264167854343
1001
DBPROPERTIES
1002
{
1000
PbHidd
1002
}
  0
ARC
  5
397
330
1F
100
AcDbEntity
  8
THICK
100
AcDbCircle
 10
0.0000000000000029
 20
0.0
 30
0.0
 40
170.1199925980745
100
AcDbArc
 50
307.8073836808094
 51
334.7368584181942
1001
DBPROPERTIES
1002
{
1000
PbThick
1002
}
  0
ARC
  5
398
330
1F
100
AcDbEntity
  8
HIDDEN
100
AcDbCircle
 10
0.0000000000000029
 20
0.0
 30
0.0
 40
170.1199925980745
100
AcDbArc
 50
283.3082813188105
 51
307.8073836808094
1001
DBPROPERTIES
1002
{
1000
PbHidd
1002
}
  0
ARC
  5
399
330
1F
100
AcDbEntity
  8
THICK
100
AcDbCircle
 10
0.0000000000000029
 20
0.0
 30
0.0
 40
170.1199925980745
100
AcDbArc
 50
276.6736019385341
 51
283.3082813188105
1001
DBPROPERTIES
1002
{
1000
PbThick
1002
}
  0
ARC
  5
39A
330
1F
100
AcDbEntity
  8
HIDDEN
100
AcDbCircle
 10
0.0000000000000029
 20
0.0
 30
0.0
 40
170.1199925980745
100
AcDbArc
 50
353.3264167854343
 51
354.6736124491253
1001
DBPROPERTIES
1002
{
1000
PbHidd
1002
}
  0
ARC
  5
39B
330
1F
100
AcDbEntity
  8
THICK
100
AcDbCircle
 10
0.0000000000000029
 20
0.0
 30
0.0
 40
170.1199925980745
100
AcDbArc
 50
5.326387550874672
 51
6.673583214565777
1001
DBPROPERTIES
1002
{
1000
PbThick
1002
}
  0
ARC
  5
39C
330
1F
100
AcDbEntity
  8
HIDDEN
100
AcDbCircle
 10
0.0000000000000029
 20
0.0
 30
0.0
 40
170.1199925980745
100
AcDbArc
 50
83.32639806146587
 51
84.67359372515698
1001
DBPROPERTIES
1002
{
1000
PbHidd
1002
}
  0
LINE
  5
39D
330
1F
100
AcDbEntity
  8
HIDDEN
100
AcDbLine
 10
168.9673081431916
 20
-19.77019626641713
 30
0.0
 11
163.3102257485392
 21
-19.17561294749226
 31
0.0
1001
DBPROPERTIES
1002
{
1000
PbHidd
1002
}
  0
LINE
  5
39E
330
1F
100
AcDbEntity
  8
HIDDEN
100
AcDbLine
 10
19.77019626641707
 20
-168.9673081431916
 30
0.0
 11
19.1756129474922
 21
-163.3102257485392
 31
0.0
1001
DBPROPERTIES
1002
{
1000
PbHidd
1002
}
  0
LINE
  5
39F
330
1F
100
AcDbEntity
  8
HIDDEN
100
AcDbLine
 10
163.3102257485392
 20
-19.17561294749224
 30
0.0
 11
163.7283396016098
 21
-15.19752536601914
 31
0.0
1001
DBPROPERTIES
1002
{
1000
PbHidd
1002
}
  0
LINE
  5
3A0
330
1F
100
AcDbEntity
  8
THICK
100
AcDbLine
 10
15.19752536601911
 20
-163.7283396016097
 30
0.0
 11
19.1756129474922
 21
-163.3102257485392
 31
0.0
1001
DBPROPERTIES
1002
{
1000
PbThick
1002
}
  0
LINE
  5
3A1
330
1F
100
AcDbEntity
  8
THICK
100
AcDbLine
 10
-19.17561294749224
 20
-163.3102257485392
 30
0.0
 11
-15.19752536601915
 21
-163.7283396016097
 31
0.0
1001
DBPROPERTIES
1002
{
1000
PbThick
1002
}
  0
LINE
  5
3A2
330
1F
100
AcDbEntity
  8
HIDDEN
100
AcDbLine
 10
-163.7283396016098
 20
-15.1975253660191
 30
0.0
 11
-163.3102257485392
 21
-19.17561294749219
 31
0.0
1001
DBPROPERTIES
1002
{
1000
PbHidd
1002
}
  0
LINE
  5
3A3
330
1F
100
AcDbEntity
  8
THICK
100
AcDbLine
 10
-163.3102257485392
 20
19.17561294749225
 30
0.0
 11
-163.7283396016098
 21
15.19752536601915
 31
0.0
1001
DBPROPERTIES
1002
{
1000
PbThick
1002
}
  0
LINE
  5
3A4
330
1F
100
AcDbEntity
  8
HIDDEN
100
AcDbLine
 10
-15.19752536601913
 20
163.7283396016098
 30
0.0
 11
-19.17561294749222
 21
163.3102257485392
 31
0.0
1001
DBPROPERTIES
1002
{
1000
PbHidd
1002
}
  0
LINE
  5
3A5
330
1F
100
AcDbEntity
  8
HIDDEN
100
AcDbLine
 10
19.17561294749222
 20
163.3102257485392
 30
0.0
 11
15.19752536601912
 21
163.7283396016098
 31
0.0
1001
DBPROPERTIES
1002
{
1000
PbHidd
1002
}
  0
LINE
  5
3A6
330
1F
100
AcDbEntity
  8
THICK
100
AcDbLine
 10
163.7283396016097
 20
15.19752536601914
 30
0.0
 11
163.3102257485392
 21
19.17561294749223
 31
0.0
1001
DBPROPERTIES
1002
{
1000
PbThick
1002
}
  0
LINE
  5
3A7
330
1F
100
AcDbEntity
  8
HIDDEN
100
AcDbLine
 10
141.6097653529805
 20
-16.89480265270395
 30
0.0
 11
163.3102257485392
 21
-19.17561294749226
 31
0.0
1001
DBPROPERTIES
1002
{
1000
PbHidd
1002
}
  0
LINE
  5
3A8
330
1F
100
AcDbEntity
  8
HIDDEN
100
AcDbLine
 10
163.7283396016098
 20
-15.19752536601916
 30
0.0
 11
142.0278792060511
 21
-12.91671507123086
 31
0.0
1001
DBPROPERTIES
1002
{
1000
PbHidd
1002
}
  0
LINE
  5
3A9
330
1F
100
AcDbEntity
  8
HIDDEN
100
AcDbLine
 10
142.0278792060511
 20
-12.91671507123086
 30
0.0
 11
141.6097653529805
 21
-16.89480265270395
 31
0.0
1001
DBPROPERTIES
1002
{
1000
PbHidd
1002
}
  0
LINE
  5
3AA
330
1F
100
AcDbEntity
  8
THICK
100
AcDbLine
 10
267.8348989701377
 20
-26.13956567458905
 30
0.0
 11
251.8534034601335
 21
-24.45984281060821
 31
0.0
1001
DBPROPERTIES
1002
{
1000
PbThick
1002
}
  0
LINE
  5
3AB
330
1F
100
AcDbEntity
  8
HIDDEN
100
AcDbLine
 10
251.8534034601335
 20
-24.45984281060821
 30
0.0
 11
169.3854219962623
 21
-15.79210868494403
 31
0.0
1001
DBPROPERTIES
1002
{
1000
PbHidd
1002
}
  0
LINE
  5
3AC
330
1F
100
AcDbEntity
  8
HIDDEN
100
AcDbLine
 10
267.8348989701377
 20
-26.13956567458905
 30
0.0
 11
267.8348989701377
 21
-26.13956567458905
 31
0.0
1001
DBPROPERTIES
1002
{
1000
PbHidd
1002
}
  0
LINE
  5
3AD
330
1F
100
AcDbEntity
  8
THICK
100
AcDbLine
 10
278.1779266819677
 20
-27.22666169257264
 30
0.0
 11
267.8348989701377
 21
-26.13956567458905
 31
0.0
1001
DBPROPERTIES
1002
{
1000
PbThick
1002
}
  0
LINE
  5
3AE
330
1F
100
AcDbEntity
  8
HIDDEN
100
AcDbLine
 10
278.1779266819677
 20
-27.22666169257264
 30
0.0
 11
278.1779266819677
 21
-27.22666169257264
 31
0.0
1001
DBPROPERTIES
1002
{
1000
PbHidd
1002
}
  0
LINE
  5
3AF
330
1F
100
AcDbEntity
  8
HIDDEN
100
AcDbLine
 10
142.0278792060511
 20
-12.91671507123086
 30
0.0
 11
113.8512966456039
 21
-9.955236908814857
 31
0.0
1001
DBPROPERTIES
1002
{
1000
PbHidd
1002
}
  0
LINE
  5
3B0
330
1F
100
AcDbEntity
  8
THICK
100
AcDbLine
 10
142.0278792060511
 20
12.91671507123081
 30
0.0
 11
163.7283396016098
 21
15.1975253660191
 31
0.0
1001
DBPROPERTIES
1002
{
1000
PbThick
1002
}
  0
LINE
  5
3B1
330
1F
100
AcDbEntity
  8
THICK
100
AcDbLine
 10
163.3102257485392
 20
19.17561294749219
 30
0.0
 11
141.6097653529805
 21
16.8948026527039
 31
0.0
1001
DBPROPERTIES
1002
{
1000
PbThick
1002
}
  0
LINE
  5
3B2
330
1F
100
AcDbEntity
  8
THICK
100
AcDbLine
 10
141.6097653529805
 20
16.89480265270391
 30
0.0
 11
142.0278792060511
 21
12.91671507123082
 31
0.0
1001
DBPROPERTIES
1002
{
1000
PbThick
1002
}
  0
LINE
  5
3B3
330
1F
100
AcDbEntity
  8
THICK
100
AcDbLine
 10
267.416785117067
 20
30.11765325606203
 30
0.0
 11
168.9673081431916
 21
19.77019626641705
 31
0.0
1001
DBPROPERTIES
1002
{
1000
PbThick
1002
}
  0
LINE
  5
3B4
330
1F
100
AcDbEntity
  8
HIDDEN
100
AcDbLine
 10
267.416785117067
 20
30.11765325606203
 30
0.0
 11
267.416785117067
 21
30.11765325606203
 31
0.0
1001
DBPROPERTIES
1002
{
1000
PbHidd
1002
}
  0
LINE
  5
3B5
330
1F
100
AcDbEntity
  8
THICK
100
AcDbLine
 10
277.7598128288971
 20
31.20474927404563
 30
0.0
 11
267.416785117067
 21
30.11765325606204
 31
0.0
1001
DBPROPERTIES
1002
{
1000
PbThick
1002
}
  0
LINE
  5
3B6
330
1F
100
AcDbEntity
  8
HIDDEN
100
AcDbLine
 10
277.7598128288971
 20
31.20474927404563
 30
0.0
 11
277.7598128288971
 21
31.20474927404563
 31
0.0
1001
DBPROPERTIES
1002
{
1000
PbHidd
1002
}
  0
LINE
  5
3B7
330
1F
100
AcDbEntity
  8
HIDDEN
100
AcDbLine
 10
113.4331827925333
 20
13.93332449028791
 30
0.0
 11
113.4331827925333
 21
13.93332449028791
 31
0.0
1001
DBPROPERTIES
1002
{
1000
PbHidd
1002
}
  0
LINE
  5
3B8
330
1F
100
AcDbEntity
  8
THICK
100
AcDbLine
 10
141.6097653529805
 20
16.89480265270391
 30
0.0
 11
113.4331827925333
 21
13.93332449028792
 31
0.0
1001
DBPROPERTIES
1002
{
1000
PbThick
1002
}
  0
LINE
  5
3B9
330
1F
100
AcDbEntity
  8
THICK
100
AcDbLine
 10
-16.89480265270394
 20
-141.6097653529805
 30
0.0
 11
-19.17561294749225
 21
-163.3102257485392
 31
0.0
1001
DBPROPERTIES
1002
{
1000
PbThick
1002
}
  0
LINE
  5
3BA
330
1F
100
AcDbEntity
  8
THICK
100
AcDbLine
 10
-15.19752536601915
 20
-163.7283396016098
 30
0.0
 11
-12.91671507123085
 21
-142.0278792060511
 31
0.0
1001
DBPROPERTIES
1002
{
1000
PbThick
1002
}
  0
LINE
  5
3BB
330
1F
100
AcDbEntity
  8
THICK
100
AcDbLine
 10
-12.91671507123085
 20
-142.0278792060511
 30
0.0
 11
-16.89480265270394
 21
-141.6097653529805
 31
0.0
1001
DBPROPERTIES
1002
{
1000
PbThick
1002
}
  0
LINE
  5
3BC
330
1F
100
AcDbEntity
  8
THICK
100
AcDbLine
 10
-26.13956567458903
 20
-267.8348989701377
 30
0.0
 11
-15.79210868494402
 21
-169.3854219962622
 31
0.0
1001
DBPROPERTIES
1002
{
1000
PbThick
1002
}
  0
LINE
  5
3BD
330
1F
100
AcDbEntity
  8
HIDDEN
100
AcDbLine
 10
-26.13956567458903
 20
-267.8348989701377
 30
0.0
 11
-26.13956567458903
 21
-267.8348989701377
 31
0.0
1001
DBPROPERTIES
1002
{
1000
PbHidd
1002
}
  0
LINE
  5
3BE
330
1F
100
AcDbEntity
  8
THICK
100
AcDbLine
 10
-27.22666169257262
 20
-278.1779266819677
 30
0.0
 11
-26.13956567458903
 21
-267.8348989701377
 31
0.0
1001
DBPROPERTIES
1002
{
1000
PbThick
1002
}
  0
LINE
  5
3BF
330
1F
100
AcDbEntity
  8
HIDDEN
100
AcDbLine
 10
-27.22666169257262
 20
-278.1779266819677
 30
0.0
 11
-27.22666169257262
 21
-278.1779266819677
 31
0.0
1001
DBPROPERTIES
1002
{
1000
PbHidd
1002
}
  0
LINE
  5
3C0
330
1F
100
AcDbEntity
  8
THICK
100
AcDbLine
 10
-12.91671507123085
 20
-142.0278792060511
 30
0.0
 11
-9.955236908814843
 21
-113.8512966456039
 31
0.0
1001
DBPROPERTIES
1002
{
1000
PbThick
1002
}
  0
LINE
  5
3C1
330
1F
100
AcDbEntity
  8
THICK
100
AcDbLine
 10
12.91671507123082
 20
-142.0278792060511
 30
0.0
 11
15.19752536601911
 21
-163.7283396016098
 31
0.0
1001
DBPROPERTIES
1002
{
1000
PbThick
1002
}
  0
LINE
  5
3C2
330
1F
100
AcDbEntity
  8
THICK
100
AcDbLine
 10
19.1756129474922
 20
-163.3102257485392
 30
0.0
 11
16.89480265270391
 21
-141.6097653529805
 31
0.0
1001
DBPROPERTIES
1002
{
1000
PbThick
1002
}
  0
LINE
  5
3C3
330
1F
100
AcDbEntity
  8
THICK
100
AcDbLine
 10
16.89480265270392
 20
-141.6097653529805
 30
0.0
 11
12.91671507123083
 21
-142.0278792060511
 31
0.0
1001
DBPROPERTIES
1002
{
1000
PbThick
1002
}
  0
LINE
  5
3C4
330
1F
100
AcDbEntity
  8
THICK
100
AcDbLine
 10
30.11765325606205
 20
-267.416785117067
 30
0.0
 11
19.77019626641706
 21
-168.9673081431916
 31
0.0
1001
DBPROPERTIES
1002
{
1000
PbThick
1002
}
  0
LINE
  5
3C5
330
1F
100
AcDbEntity
  8
HIDDEN
100
AcDbLine
 10
30.11765325606205
 20
-267.416785117067
 30
0.0
 11
30.11765325606205
 21
-267.416785117067
 31
0.0
1001
DBPROPERTIES
1002
{
1000
PbHidd
1002
}
  0
LINE
  5
3C6
330
1F
100
AcDbEntity
  8
THICK
100
AcDbLine
 10
31.20474927404565
 20
-277.7598128288971
 30
0.0
 11
30.11765325606206
 21
-267.416785117067
 31
0.0
1001
DBPROPERTIES
1002
{
1000
PbThick
1002
}
  0
LINE
  5
3C7
330
1F
100
AcDbEntity
  8
HIDDEN
100
AcDbLine
 10
31.20474927404565
 20
-277.7598128288971
 30
0.0
 11
31.20474927404565
 21
-277.7598128288971
 31
0.0
1001
DBPROPERTIES
1002
{
1000
PbHidd
1002
}
  0
LINE
  5
3C8
330
1F
100
AcDbEntity
  8
THICK
100
AcDbLine
 10
16.89480265270392
 20
-141.6097653529805
 30
0.0
 11
13.93332449028792
 21
-113.4331827925332
 31
0.0
1001
DBPROPERTIES
1002
{
1000
PbThick
1002
}
  0
LINE
  5
3C9
330
1F
100
AcDbEntity
  8
THICK
100
AcDbLine
 10
-141.6097653529805
 20
16.89480265270393
 30
0.0
 11
-163.3102257485392
 21
19.17561294749224
 31
0.0
1001
DBPROPERTIES
1002
{
1000
PbThick
1002
}
  0
LINE
  5
3CA
330
1F
100
AcDbEntity
  8
THICK
100
AcDbLine
 10
-163.7283396016098
 20
15.19752536601914
 30
0.0
 11
-142.0278792060511
 21
12.91671507123084
 31
0.0
1001
DBPROPERTIES
1002
{
1000
PbThick
1002
}
  0
LINE
  5
3CB
330
1F
100
AcDbEntity
  8
THICK
100
AcDbLine
 10
-142.0278792060511
 20
12.91671507123084
 30
0.0
 11
-141.6097653529805
 21
16.89480265270393
 31
0.0
1001
DBPROPERTIES
1002
{
1000
PbThick
1002
}
  0
LINE
  5
3CC
330
1F
100
AcDbEntity
  8
THICK
100
AcDbLine
 10
-267.8348989701377
 20
26.13956567458901
 30
0.0
 11
-169.3854219962622
 21
15.792108684944
 31
0.0
1001
DBPROPERTIES
1002
{
1000
PbThick
1002
}
  0
LINE
  5
3CD
330
1F
100
AcDbEntity
  8
HIDDEN
100
AcDbLine
 10
-267.8348989701377
 20
26.13956567458901
 30
0.0
 11
-267.8348989701377
 21
26.13956567458901
 31
0.0
1001
DBPROPERTIES
1002
{
1000
PbHidd
1002
}
  0
LINE
  5
3CE
330
1F
100
AcDbEntity
  8
THICK
100
AcDbLine
 10
-278.1779266819677
 20
27.22666169257261
 30
0.0
 11
-267.8348989701377
 21
26.13956567458901
 31
0.0
1001
DBPROPERTIES
1002
{
1000
PbThick
1002
}
  0
LINE
  5
3CF
330
1F
100
AcDbEntity
  8
HIDDEN
100
AcDbLine
 10
-278.1779266819677
 20
27.22666169257261
 30
0.0
 11
-278.1779266819677
 21
27.22666169257261
 31
0.0
1001
DBPROPERTIES
1002
{
1000
PbHidd
1002
}
  0
LINE
  5
3D0
330
1F
100
AcDbEntity
  8
HIDDEN
100
AcDbLine
 10
-113.8512966456038
 20
9.955236908814832
 30
0.0
 11
-113.8512966456038
 21
9.955236908814832
 31
0.0
1001
DBPROPERTIES
1002
{
1000
PbHidd
1002
}
  0
LINE
  5
3D1
330
1F
100
AcDbEntity
  8
THICK
100
AcDbLine
 10
-142.0278792060511
 20
12.91671507123084
 30
0.0
 11
-118.4923835488197
 21
10.44303479857888
 31
0.0
1001
DBPROPERTIES
1002
{
1000
PbThick
1002
}
  0
LINE
  5
3D2
330
1F
100
AcDbEntity
  8
HIDDEN
100
AcDbLine
 10
-118.4923835488197
 20
10.44303479857888
 30
0.0
 11
-113.8512966456038
 21
9.95523690881483
 31
0.0
1001
DBPROPERTIES
1002
{
1000
PbHidd
1002
}
  0
LINE
  5
3D3
330
1F
100
AcDbEntity
  8
HIDDEN
100
AcDbLine
 10
-142.0278792060511
 20
-12.91671507123083
 30
0.0
 11
-163.7283396016098
 21
-15.19752536601912
 31
0.0
1001
DBPROPERTIES
1002
{
1000
PbHidd
1002
}
  0
LINE
  5
3D4
330
1F
100
AcDbEntity
  8
HIDDEN
100
AcDbLine
 10
-163.3102257485392
 20
-19.17561294749222
 30
0.0
 11
-141.6097653529805
 21
-16.89480265270392
 31
0.0
1001
DBPROPERTIES
1002
{
1000
PbHidd
1002
}
  0
LINE
  5
3D5
330
1F
100
AcDbEntity
  8
HIDDEN
100
AcDbLine
 10
-141.6097653529805
 20
-16.89480265270392
 30
0.0
 11
-142.0278792060511
 21
-12.91671507123083
 31
0.0
1001
DBPROPERTIES
1002
{
1000
PbHidd
1002
}
  0
LINE
  5
3D6
330
1F
100
AcDbEntity
  8
THICK
100
AcDbLine
 10
-267.416785117067
 20
-30.11765325606207
 30
0.0
 11
-252.4663267620597
 21
-28.54629676378768
 31
0.0
1001
DBPROPERTIES
1002
{
1000
PbThick
1002
}
  0
LINE
  5
3D7
330
1F
100
AcDbEntity
  8
HIDDEN
100
AcDbLine
 10
-252.4663267620597
 20
-28.54629676378768
 30
0.0
 11
-168.9673081431916
 21
-19.77019626641707
 31
0.0
1001
DBPROPERTIES
1002
{
1000
PbHidd
1002
}
  0
LINE
  5
3D8
330
1F
100
AcDbEntity
  8
HIDDEN
100
AcDbLine
 10
-267.416785117067
 20
-30.11765325606207
 30
0.0
 11
-267.416785117067
 21
-30.11765325606207
 31
0.0
1001
DBPROPERTIES
1002
{
1000
PbHidd
1002
}
  0
LINE
  5
3D9
330
1F
100
AcDbEntity
  8
THICK
100
AcDbLine
 10
-277.7598128288971
 20
-31.20474927404566
 30
0.0
 11
-267.416785117067
 21
-30.11765325606207
 31
0.0
1001
DBPROPERTIES
1002
{
1000
PbThick
1002
}
  0
LINE
  5
3DA
330
1F
100
AcDbEntity
  8
HIDDEN
100
AcDbLine
 10
-277.7598128288971
 20
-31.20474927404566
 30
0.0
 11
-277.7598128288971
 21
-31.20474927404566
 31
0.0
1001
DBPROPERTIES
1002
{
1000
PbHidd
1002
}
  0
LINE
  5
3DB
330
1F
100
AcDbEntity
  8
HIDDEN
100
AcDbLine
 10
-141.6097653529805
 20
-16.89480265270392
 30
0.0
 11
-113.4331827925332
 21
-13.93332449028792
 31
0.0
1001
DBPROPERTIES
1002
{
1000
PbHidd
1002
}
  0
LINE
  5
3DC
330
1F
100
AcDbEntity
  8
HIDDEN
100
AcDbLine
 10
16.89480265270393
 20
141.6097653529805
 30
0.0
 11
19.17561294749223
 21
163.3102257485392
 31
0.0
1001
DBPROPERTIES
1002
{
1000
PbHidd
1002
}
  0
LINE
  5
3DD
330
1F
100
AcDbEntity
  8
HIDDEN
100
AcDbLine
 10
15.19752536601913
 20
163.7283396016098
 30
0.0
 11
12.91671507123083
 21
142.0278792060511
 31
0.0
1001
DBPROPERTIES
1002
{
1000
PbHidd
1002
}
  0
LINE
  5
3DE
330
1F
100
AcDbEntity
  8
HIDDEN
100
AcDbLine
 10
12.91671507123083
 20
142.0278792060511
 30
0.0
 11
16.89480265270392
 21
141.6097653529805
 31
0.0
1001
DBPROPERTIES
1002
{
1000
PbHidd
1002
}
  0
LINE
  5
3DF
330
1F
100
AcDbEntity
  8
HIDDEN
100
AcDbLine
 10
9.955236908814829
 20
113.8512966456039
 30
0.0
 11
9.955236908814829
 21
113.8512966456039
 31
0.0
1001
DBPROPERTIES
1002
{
1000
PbHidd
1002
}
  0
LINE
  5
3E0
330
1F
100
AcDbEntity
  8
HIDDEN
100
AcDbLine
 10
12.91671507123083
 20
142.0278792060511
 30
0.0
 11
9.955236908814832
 21
113.8512966456039
 31
0.0
1001
DBPROPERTIES
1002
{
1000
PbHidd
1002
}
  0
LINE
  5
3E1
330
1F
100
AcDbEntity
  8
THICK
100
AcDbLine
 10
26.13956567458899
 20
267.8348989701377
 30
0.0
 11
24.63169249785156
 21
253.4884440159113
 31
0.0
1001
DBPROPERTIES
1002
{
1000
PbThick
1002
}
  0
LINE
  5
3E2
330
1F
100
AcDbEntity
  8
HIDDEN
100
AcDbLine
 10
24.63169249785156
 20
253.4884440159113
 30
0.0
 11
15.79210868494399
 21
169.3854219962622
 31
0.0
1001
DBPROPERTIES
1002
{
1000
PbHidd
1002
}
  0
LINE
  5
3E3
330
1F
100
AcDbEntity
  8
HIDDEN
100
AcDbLine
 10
26.13956567458899
 20
267.8348989701377
 30
0.0
 11
26.13956567458899
 21
267.8348989701377
 31
0.0
1001
DBPROPERTIES
1002
{
1000
PbHidd
1002
}
  0
LINE
  5
3E4
330
1F
100
AcDbEntity
  8
THICK
100
AcDbLine
 10
27.22666169257259
 20
278.1779266819677
 30
0.0
 11
26.13956567458899
 21
267.8348989701377
 31
0.0
1001
DBPROPERTIES
1002
{
1000
PbThick
1002
}
  0
LINE
  5
3E5
330
1F
100
AcDbEntity
  8
HIDDEN
100
AcDbLine
 10
-19.17561294749223
 20
163.3102257485392
 30
0.0
 11
-16.89480265270393
 21
141.6097653529805
 31
0.0
1001
DBPROPERTIES
1002
{
1000
PbHidd
1002
}
  0
LINE
  5
3E6
330
1F
100
AcDbEntity
  8
HIDDEN
100
AcDbLine
 10
-16.89480265270393
 20
141.6097653529805
 30
0.0
 11
-12.91671507123084
 21
142.0278792060511
 31
0.0
1001
DBPROPERTIES
1002
{
1000
PbHidd
1002
}
  0
LINE
  5
3E7
330
1F
100
AcDbEntity
  8
THICK
100
AcDbLine
 10
-30.11765325606209
 20
267.416785117067
 30
0.0
 11
-28.5152233702049
 21
252.1706831706834
 31
0.0
1001
DBPROPERTIES
1002
{
1000
PbThick
1002
}
  0
LINE
  5
3E8
330
1F
100
AcDbEntity
  8
HIDDEN
100
AcDbLine
 10
-28.5152233702049
 20
252.1706831706834
 30
0.0
 11
-19.77019626641709
 21
168.9673081431916
 31
0.0
1001
DBPROPERTIES
1002
{
1000
PbHidd
1002
}
  0
LINE
  5
3E9
330
1F
100
AcDbEntity
  8
HIDDEN
100
AcDbLine
 10
-30.11765325606209
 20
267.416785117067
 30
0.0
 11
-30.11765325606209
 21
267.416785117067
 31
0.0
1001
DBPROPERTIES
1002
{
1000
PbHidd
1002
}
  0
LINE
  5
3EA
330
1F
100
AcDbEntity
  8
THICK
100
AcDbLine
 10
-31.20474927404568
 20
277.7598128288971
 30
0.0
 11
-30.11765325606209
 21
267.416785117067
 31
0.0
1001
DBPROPERTIES
1002
{
1000
PbThick
1002
}
  0
LINE
  5
3EB
330
1F
100
AcDbEntity
  8
HIDDEN
100
AcDbLine
 10
-31.20474927404568
 20
277.7598128288971
 30
0.0
 11
-31.20474927404568
 21
277.7598128288971
 31
0.0
1001
DBPROPERTIES
1002
{
1000
PbHidd
1002
}
  0
LINE
  5
3EC
330
1F
100
AcDbEntity
  8
HIDDEN
100
AcDbLine
 10
-13.93332449028793
 20
113.4331827925332
 30
0.0
 11
-13.93332449028793
 21
113.4331827925332
 31
0.0
1001
DBPROPERTIES
1002
{
1000
PbHidd
1002
}
  0
LINE
  5
3ED
330
1F
100
AcDbEntity
  8
HIDDEN
100
AcDbLine
 10
-16.89480265270393
 20
141.6097653529805
 30
0.0
 11
-13.93332449028793
 21
113.4331827925333
 31
0.0
1001
DBPROPERTIES
1002
{
1000
PbHidd
1002
}
  0
LINE
  5
3EE
330
1F
100
AcDbEntity
  8
HIDDEN
100
AcDbLine
 10
113.4331827925333
 20
-13.93332449028795
 30
0.0
 11
141.6097653529805
 21
-16.89480265270395
 31
0.0
1001
DBPROPERTIES
1002
{
1000
PbHidd
1002
}
  0
LINE
  5
3EF
330
1F
100
AcDbEntity
  8
HIDDEN
100
AcDbLine
 10
168.9673081431916
 20
-19.77019626641713
 30
0.0
 11
252.2074636621494
 21
-28.51908915563318
 31
0.0
1001
DBPROPERTIES
1002
{
1000
PbHidd
1002
}
  0
LINE
  5
3F0
330
1F
100
AcDbEntity
  8
THICK
100
AcDbLine
 10
252.2074636621494
 20
-28.51908915563318
 30
0.0
 11
267.416785117067
 21
-30.11765325606214
 31
0.0
1001
DBPROPERTIES
1002
{
1000
PbThick
1002
}
  0
LINE
  5
3F1
330
1F
100
AcDbEntity
  8
HIDDEN
100
AcDbLine
 10
267.416785117067
 20
-30.11765325606214
 30
0.0
 11
267.416785117067
 21
-30.11765325606214
 31
0.0
1001
DBPROPERTIES
1002
{
1000
PbHidd
1002
}
  0
LINE
  5
3F2
330
1F
100
AcDbEntity
  8
THICK
100
AcDbLine
 10
267.8348989701377
 20
-26.13956567458905
 30
0.0
 11
267.416785117067
 21
-30.11765325606214
 31
0.0
1001
DBPROPERTIES
1002
{
1000
PbThick
1002
}
  0
LINE
  5
3F3
330
1F
100
AcDbEntity
  8
THICK
100
AcDbLine
 10
267.416785117067
 20
-30.11765325606214
 30
0.0
 11
277.7598128288971
 21
-31.20474927404573
 31
0.0
1001
DBPROPERTIES
1002
{
1000
PbThick
1002
}
  0
LINE
  5
3F4
330
1F
100
AcDbEntity
  8
THICK
100
AcDbLine
 10
278.1779266819677
 20
-27.22666169257264
 30
0.0
 11
277.7598128288971
 21
-31.20474927404573
 31
0.0
1001
DBPROPERTIES
1002
{
1000
PbThick
1002
}
  0
LINE
  5
3F5
330
1F
100
AcDbEntity
  8
HIDDEN
100
AcDbLine
 10
277.7598128288971
 20
-31.20474927404573
 30
0.0
 11
277.7598128288971
 21
-31.20474927404573
 31
0.0
1001
DBPROPERTIES
1002
{
1000
PbHidd
1002
}
  0
LINE
  5
3F6
330
1F
100
AcDbEntity
  8
HIDDEN
100
AcDbLine
 10
160.7425646847794
 20
-14.88370777671027
 30
0.0
 11
160.3244508317088
 21
-18.86179535818336
 31
0.0
1001
DBPROPERTIES
1002
{
1000
PbHidd
1002
}
  0
LINE
  5
3F7
330
1F
100
AcDbEntity
  8
HIDDEN
100
AcDbLine
 10
136.8563653501361
 20
-12.37316706223906
 30
0.0
 11
136.4382514970654
 21
-16.35125464371215
 31
0.0
1001
DBPROPERTIES
1002
{
1000
PbHidd
1002
}
  0
LINE
  5
3F8
330
1F
100
AcDbEntity
  8
HIDDEN
100
AcDbLine
 10
113.8512966456039
 20
9.955236908814816
 30
0.0
 11
115.6985097776203
 21
10.14938683242812
 31
0.0
1001
DBPROPERTIES
1002
{
1000
PbHidd
1002
}
  0
LINE
  5
3F9
330
1F
100
AcDbEntity
  8
THICK
100
AcDbLine
 10
115.6985097776203
 20
10.14938683242812
 30
0.0
 11
142.0278792060511
 21
12.91671507123081
 31
0.0
1001
DBPROPERTIES
1002
{
1000
PbThick
1002
}
  0
LINE
  5
3FA
330
1F
100
AcDbEntity
  8
THICK
100
AcDbLine
 10
169.3854219962622
 20
15.79210868494396
 30
0.0
 11
267.8348989701377
 21
26.13956567458894
 31
0.0
1001
DBPROPERTIES
1002
{
1000
PbThick
1002
}
  0
LINE
  5
3FB
330
1F
100
AcDbEntity
  8
HIDDEN
100
AcDbLine
 10
267.8348989701377
 20
26.13956567458894
 30
0.0
 11
267.8348989701377
 21
26.13956567458894
 31
0.0
1001
DBPROPERTIES
1002
{
1000
PbHidd
1002
}
  0
LINE
  5
3FC
330
1F
100
AcDbEntity
  8
THICK
100
AcDbLine
 10
267.416785117067
 20
30.11765325606203
 30
0.0
 11
267.8348989701377
 21
26.13956567458894
 31
0.0
1001
DBPROPERTIES
1002
{
1000
PbThick
1002
}
  0
LINE
  5
3FD
330
1F
100
AcDbEntity
  8
THICK
100
AcDbLine
 10
267.8348989701377
 20
26.13956567458894
 30
0.0
 11
278.1779266819677
 21
27.22666169257253
 31
0.0
1001
DBPROPERTIES
1002
{
1000
PbThick
1002
}
  0
LINE
  5
3FE
330
1F
100
AcDbEntity
  8
THICK
100
AcDbLine
 10
277.7598128288971
 20
31.20474927404563
 30
0.0
 11
278.1779266819677
 21
27.22666169257254
 31
0.0
1001
DBPROPERTIES
1002
{
1000
PbThick
1002
}
  0
LINE
  5
3FF
330
1F
100
AcDbEntity
  8
HIDDEN
100
AcDbLine
 10
278.1779266819677
 20
27.22666169257253
 30
0.0
 11
278.1779266819677
 21
27.22666169257253
 31
0.0
1001
DBPROPERTIES
1002
{
1000
PbHidd
1002
}
  0
LINE
  5
400
330
1F
100
AcDbEntity
  8
HIDDEN
100
AcDbLine
 10
160.3244508317088
 20
18.86179535818329
 30
0.0
 11
160.7425646847794
 21
14.8837077767102
 31
0.0
1001
DBPROPERTIES
1002
{
1000
PbHidd
1002
}
  0
LINE
  5
401
330
1F
100
AcDbEntity
  8
HIDDEN
100
AcDbLine
 10
136.4382514970654
 20
16.35125464371211
 30
0.0
 11
136.8563653501361
 21
12.37316706223902
 31
0.0
1001
DBPROPERTIES
1002
{
1000
PbHidd
1002
}
  0
LINE
  5
402
330
1F
100
AcDbEntity
  8
HIDDEN
100
AcDbLine
 10
113.8512966456039
 20
9.95523690881482
 30
0.0
 11
113.8512966456039
 21
9.95523690881482
 31
0.0
1001
DBPROPERTIES
1002
{
1000
PbHidd
1002
}
  0
LINE
  5
403
330
1F
100
AcDbEntity
  8
THICK
100
AcDbLine
 10
-13.93332449028793
 20
-113.4331827925332
 30
0.0
 11
-16.89480265270394
 21
-141.6097653529805
 31
0.0
1001
DBPROPERTIES
1002
{
1000
PbThick
1002
}
  0
LINE
  5
404
330
1F
100
AcDbEntity
  8
THICK
100
AcDbLine
 10
-19.77019626641711
 20
-168.9673081431916
 30
0.0
 11
-30.11765325606213
 21
-267.416785117067
 31
0.0
1001
DBPROPERTIES
1002
{
1000
PbThick
1002
}
  0
LINE
  5
405
330
1F
100
AcDbEntity
  8
HIDDEN
100
AcDbLine
 10
-30.11765325606213
 20
-267.416785117067
 30
0.0
 11
-30.11765325606213
 21
-267.416785117067
 31
0.0
1001
DBPROPERTIES
1002
{
1000
PbHidd
1002
}
  0
LINE
  5
406
330
1F
100
AcDbEntity
  8
THICK
100
AcDbLine
 10
-26.13956567458903
 20
-267.8348989701377
 30
0.0
 11
-30.11765325606212
 21
-267.416785117067
 31
0.0
1001
DBPROPERTIES
1002
{
1000
PbThick
1002
}
  0
LINE
  5
407
330
1F
100
AcDbEntity
  8
THICK
100
AcDbLine
 10
-30.11765325606212
 20
-267.416785117067
 30
0.0
 11
-31.20474927404571
 21
-277.7598128288971
 31
0.0
1001
DBPROPERTIES
1002
{
1000
PbThick
1002
}
  0
LINE
  5
408
330
1F
100
AcDbEntity
  8
THICK
100
AcDbLine
 10
-27.22666169257262
 20
-278.1779266819677
 30
0.0
 11
-31.20474927404571
 21
-277.7598128288971
 31
0.0
1001
DBPROPERTIES
1002
{
1000
PbThick
1002
}
  0
LINE
  5
409
330
1F
100
AcDbEntity
  8
HIDDEN
100
AcDbLine
 10
-31.20474927404571
 20
-277.7598128288971
 30
0.0
 11
-31.20474927404571
 21
-277.7598128288971
 31
0.0
1001
DBPROPERTIES
1002
{
1000
PbHidd
1002
}
  0
LINE
  5
40A
330
1F
100
AcDbEntity
  8
HIDDEN
100
AcDbLine
 10
-14.88370777671026
 20
-160.7425646847794
 30
0.0
 11
-18.86179535818335
 21
-160.3244508317088
 31
0.0
1001
DBPROPERTIES
1002
{
1000
PbHidd
1002
}
  0
LINE
  5
40B
330
1F
100
AcDbEntity
  8
HIDDEN
100
AcDbLine
 10
-12.37316706223905
 20
-136.8563653501361
 30
0.0
 11
-16.35125464371214
 21
-136.4382514970654
 31
0.0
1001
DBPROPERTIES
1002
{
1000
PbHidd
1002
}
  0
LINE
  5
40C
330
1F
100
AcDbEntity
  8
THICK
100
AcDbLine
 10
9.95523690881482
 20
-113.8512966456039
 30
0.0
 11
12.91671507123082
 21
-142.0278792060511
 31
0.0
1001
DBPROPERTIES
1002
{
1000
PbThick
1002
}
  0
LINE
  5
40D
330
1F
100
AcDbEntity
  8
THICK
100
AcDbLine
 10
15.79210868494397
 20
-169.3854219962622
 30
0.0
 11
26.13956567458896
 21
-267.8348989701377
 31
0.0
1001
DBPROPERTIES
1002
{
1000
PbThick
1002
}
  0
LINE
  5
40E
330
1F
100
AcDbEntity
  8
HIDDEN
100
AcDbLine
 10
26.13956567458896
 20
-267.8348989701377
 30
0.0
 11
26.13956567458896
 21
-267.8348989701377
 31
0.0
1001
DBPROPERTIES
1002
{
1000
PbHidd
1002
}
  0
LINE
  5
40F
330
1F
100
AcDbEntity
  8
THICK
100
AcDbLine
 10
30.11765325606205
 20
-267.416785117067
 30
0.0
 11
26.13956567458896
 21
-267.8348989701377
 31
0.0
1001
DBPROPERTIES
1002
{
1000
PbThick
1002
}
  0
LINE
  5
410
330
1F
100
AcDbEntity
  8
THICK
100
AcDbLine
 10
26.13956567458896
 20
-267.8348989701377
 30
0.0
 11
27.22666169257255
 21
-278.1779266819677
 31
0.0
1001
DBPROPERTIES
1002
{
1000
PbThick
1002
}
  0
LINE
  5
411
330
1F
100
AcDbEntity
  8
THICK
100
AcDbLine
 10
31.20474927404565
 20
-277.7598128288971
 30
0.0
 11
27.22666169257256
 21
-278.1779266819677
 31
0.0
1001
DBPROPERTIES
1002
{
1000
PbThick
1002
}
  0
LINE
  5
412
330
1F
100
AcDbEntity
  8
HIDDEN
100
AcDbLine
 10
27.22666169257255
 20
-278.1779266819677
 30
0.0
 11
27.22666169257255
 21
-278.1779266819677
 31
0.0
1001
DBPROPERTIES
1002
{
1000
PbHidd
1002
}
  0
LINE
  5
413
330
1F
100
AcDbEntity
  8
HIDDEN
100
AcDbLine
 10
18.8617953581833
 20
-160.3244508317088
 30
0.0
 11
14.88370777671021
 21
-160.7425646847794
 31
0.0
1001
DBPROPERTIES
1002
{
1000
PbHidd
1002
}
  0
LINE
  5
414
330
1F
100
AcDbEntity
  8
HIDDEN
100
AcDbLine
 10
16.35125464371212
 20
-136.4382514970654
 30
0.0
 11
12.37316706223903
 21
-136.8563653501361
 31
0.0
1001
DBPROPERTIES
1002
{
1000
PbHidd
1002
}
  0
LINE
  5
415
330
1F
100
AcDbEntity
  8
THICK
100
AcDbLine
 10
-113.4331827925332
 20
13.93332449028792
 30
0.0
 11
-141.6097653529805
 21
16.89480265270394
 31
0.0
1001
DBPROPERTIES
1002
{
1000
PbThick
1002
}
  0
LINE
  5
416
330
1F
100
AcDbEntity
  8
THICK
100
AcDbLine
 10
-168.9673081431916
 20
19.7701962664171
 30
0.0
 11
-267.416785117067
 21
30.11765325606211
 31
0.0
1001
DBPROPERTIES
1002
{
1000
PbThick
1002
}
  0
LINE
  5
417
330
1F
100
AcDbEntity
  8
HIDDEN
100
AcDbLine
 10
-267.416785117067
 20
30.11765325606211
 30
0.0
 11
-267.416785117067
 21
30.11765325606211
 31
0.0
1001
DBPROPERTIES
1002
{
1000
PbHidd
1002
}
  0
LINE
  5
418
330
1F
100
AcDbEntity
  8
THICK
100
AcDbLine
 10
-267.8348989701377
 20
26.13956567458901
 30
0.0
 11
-267.416785117067
 21
30.1176532560621
 31
0.0
1001
DBPROPERTIES
1002
{
1000
PbThick
1002
}
  0
LINE
  5
419
330
1F
100
AcDbEntity
  8
THICK
100
AcDbLine
 10
-267.416785117067
 20
30.1176532560621
 30
0.0
 11
-277.7598128288971
 21
31.2047492740457
 31
0.0
1001
DBPROPERTIES
1002
{
1000
PbThick
1002
}
  0
LINE
  5
41A
330
1F
100
AcDbEntity
  8
THICK
100
AcDbLine
 10
-278.1779266819677
 20
27.22666169257261
 30
0.0
 11
-277.7598128288971
 21
31.2047492740457
 31
0.0
1001
DBPROPERTIES
1002
{
1000
PbThick
1002
}
  0
LINE
  5
41B
330
1F
100
AcDbEntity
  8
HIDDEN
100
AcDbLine
 10
-277.7598128288971
 20
31.2047492740457
 30
0.0
 11
-277.7598128288971
 21
31.2047492740457
 31
0.0
1001
DBPROPERTIES
1002
{
1000
PbHidd
1002
}
  0
LINE
  5
41C
330
1F
100
AcDbEntity
  8
HIDDEN
100
AcDbLine
 10
-160.7425646847794
 20
14.88370777671025
 30
0.0
 11
-160.3244508317088
 21
18.86179535818334
 31
0.0
1001
DBPROPERTIES
1002
{
1000
PbHidd
1002
}
  0
LINE
  5
41D
330
1F
100
AcDbEntity
  8
HIDDEN
100
AcDbLine
 10
-136.8563653501361
 20
12.37316706223904
 30
0.0
 11
-136.4382514970654
 21
16.35125464371213
 31
0.0
1001
DBPROPERTIES
1002
{
1000
PbHidd
1002
}
  0
LINE
  5
41E
330
1F
100
AcDbEntity
  8
HIDDEN
100
AcDbLine
 10
-113.4331827925332
 20
13.93332449028793
 30
0.0
 11
-113.4331827925332
 21
13.93332449028793
 31
0.0
1001
DBPROPERTIES
1002
{
1000
PbHidd
1002
}
  0
LINE
  5
41F
330
1F
100
AcDbEntity
  8
HIDDEN
100
AcDbLine
 10
-113.8512966456038
 20
-9.955236908814822
 30
0.0
 11
-142.0278792060511
 21
-12.91671507123083
 31
0.0
1001
DBPROPERTIES
1002
{
1000
PbHidd
1002
}
  0
LINE
  5
420
330
1F
100
AcDbEntity
  8
HIDDEN
100
AcDbLine
 10
-169.3854219962622
 20
-15.79210868494398
 30
0.0
 11
-252.1498440381858
 21
-24.49099997086605
 31
0.0
1001
DBPROPERTIES
1002
{
1000
PbHidd
1002
}
  0
LINE
  5
421
330
1F
100
AcDbEntity
  8
THICK
100
AcDbLine
 10
-252.1498440381858
 20
-24.49099997086605
 30
0.0
 11
-267.8348989701377
 21
-26.13956567458898
 31
0.0
1001
DBPROPERTIES
1002
{
1000
PbThick
1002
}
  0
LINE
  5
422
330
1F
100
AcDbEntity
  8
HIDDEN
100
AcDbLine
 10
-267.8348989701377
 20
-26.13956567458898
 30
0.0
 11
-267.8348989701377
 21
-26.13956567458898
 31
0.0
1001
DBPROPERTIES
1002
{
1000
PbHidd
1002
}
  0
LINE
  5
423
330
1F
100
AcDbEntity
  8
THICK
100
AcDbLine
 10
-267.416785117067
 20
-30.11765325606207
 30
0.0
 11
-267.8348989701377
 21
-26.13956567458898
 31
0.0
1001
DBPROPERTIES
1002
{
1000
PbThick
1002
}
  0
LINE
  5
424
330
1F
100
AcDbEntity
  8
THICK
100
AcDbLine
 10
-267.8348989701377
 20
-26.13956567458898
 30
0.0
 11
-278.1779266819677
 21
-27.22666169257257
 31
0.0
1001
DBPROPERTIES
1002
{
1000
PbThick
1002
}
  0
LINE
  5
425
330
1F
100
AcDbEntity
  8
THICK
100
AcDbLine
 10
-277.7598128288971
 20
-31.20474927404566
 30
0.0
 11
-278.1779266819677
 21
-27.22666169257257
 31
0.0
1001
DBPROPERTIES
1002
{
1000
PbThick
1002
}
  0
LINE
  5
426
330
1F
100
AcDbEntity
  8
HIDDEN
100
AcDbLine
 10
-278.1779266819677
 20
-27.22666169257257
 30
0.0
 11
-278.1779266819677
 21
-27.22666169257257
 31
0.0
1001
DBPROPERTIES
1002
{
1000
PbHidd
1002
}
  0
LINE
  5
427
330
1F
100
AcDbEntity
  8
HIDDEN
100
AcDbLine
 10
-160.3244508317088
 20
-18.86179535818331
 30
0.0
 11
-160.7425646847794
 21
-14.88370777671022
 31
0.0
1001
DBPROPERTIES
1002
{
1000
PbHidd
1002
}
  0
LINE
  5
428
330
1F
100
AcDbEntity
  8
HIDDEN
100
AcDbLine
 10
-136.4382514970654
 20
-16.35125464371212
 30
0.0
 11
-136.8563653501361
 21
-12.37316706223903
 31
0.0
1001
DBPROPERTIES
1002
{
1000
PbHidd
1002
}
  0
LINE
  5
429
330
1F
100
AcDbEntity
  8
HIDDEN
100
AcDbLine
 10
13.93332449028793
 20
113.4331827925333
 30
0.0
 11
16.89480265270393
 21
141.6097653529805
 31
0.0
1001
DBPROPERTIES
1002
{
1000
PbHidd
1002
}
  0
LINE
  5
42A
330
1F
100
AcDbEntity
  8
HIDDEN
100
AcDbLine
 10
19.77019626641709
 20
168.9673081431916
 30
0.0
 11
28.54270177649494
 21
252.432122742748
 31
0.0
1001
DBPROPERTIES
1002
{
1000
PbHidd
1002
}
  0
LINE
  5
42B
330
1F
100
AcDbEntity
  8
THICK
100
AcDbLine
 10
28.54270177649494
 20
252.432122742748
 30
0.0
 11
30.11765325606209
 21
267.416785117067
 31
0.0
1001
DBPROPERTIES
1002
{
1000
PbThick
1002
}
  0
LINE
  5
42C
330
1F
100
AcDbEntity
  8
HIDDEN
100
AcDbLine
 10
30.11765325606209
 20
267.416785117067
 30
0.0
 11
30.11765325606209
 21
267.416785117067
 31
0.0
1001
DBPROPERTIES
1002
{
1000
PbHidd
1002
}
  0
LINE
  5
42D
330
1F
100
AcDbEntity
  8
THICK
100
AcDbLine
 10
26.13956567458899
 20
267.8348989701377
 30
0.0
 11
30.11765325606208
 21
267.416785117067
 31
0.0
1001
DBPROPERTIES
1002
{
1000
PbThick
1002
}
  0
LINE
  5
42E
330
1F
100
AcDbEntity
  8
THICK
100
AcDbLine
 10
30.11765325606208
 20
267.416785117067
 30
0.0
 11
31.20474927404568
 21
277.7598128288971
 31
0.0
1001
DBPROPERTIES
1002
{
1000
PbThick
1002
}
  0
LINE
  5
42F
330
1F
100
AcDbEntity
  8
HIDDEN
100
AcDbLine
 10
14.88370777671024
 20
160.7425646847794
 30
0.0
 11
18.86179535818333
 21
160.3244508317088
 31
0.0
1001
DBPROPERTIES
1002
{
1000
PbHidd
1002
}
  0
LINE
  5
430
330
1F
100
AcDbEntity
  8
HIDDEN
100
AcDbLine
 10
12.37316706223903
 20
136.8563653501361
 30
0.0
 11
16.35125464371212
 21
136.4382514970654
 31
0.0
1001
DBPROPERTIES
1002
{
1000
PbHidd
1002
}
  0
LINE
  5
431
330
1F
100
AcDbEntity
  8
HIDDEN
100
AcDbLine
 10
13.93332449028793
 20
113.4331827925332
 30
0.0
 11
13.93332449028793
 21
113.4331827925332
 31
0.0
1001
DBPROPERTIES
1002
{
1000
PbHidd
1002
}
  0
LINE
  5
432
330
1F
100
AcDbEntity
  8
THICK
100
AcDbLine
 10
-30.11765325606209
 20
267.416785117067
 30
0.0
 11
-26.139565674589
 21
267.8348989701377
 31
0.0
1001
DBPROPERTIES
1002
{
1000
PbThick
1002
}
  0
LINE
  5
433
330
1F
100
AcDbEntity
  8
THICK
100
AcDbLine
 10
-31.20474927404568
 20
277.7598128288971
 30
0.0
 11
-27.22666169257259
 21
278.1779266819677
 31
0.0
1001
DBPROPERTIES
1002
{
1000
PbThick
1002
}
  0
LINE
  5
434
330
1F
100
AcDbEntity
  8
HIDDEN
100
AcDbLine
 10
-18.86179535818332
 20
160.3244508317088
 30
0.0
 11
-14.88370777671023
 21
160.7425646847794
 31
0.0
1001
DBPROPERTIES
1002
{
1000
PbHidd
1002
}
  0
LINE
  5
435
330
1F
100
AcDbEntity
  8
HIDDEN
100
AcDbLine
 10
-16.35125464371213
 20
136.4382514970654
 30
0.0
 11
-12.37316706223904
 21
136.8563653501361
 31
0.0
1001
DBPROPERTIES
1002
{
1000
PbHidd
1002
}
  0
ARC
  5
436
330
1F
100
AcDbEntity
  8
HIDDEN
100
AcDbCircle
 10
0.0000000000000528
 20
0.0
 30
0.0
 40
80.0
100
AcDbArc
 50
177.0000128325378
 51
180.0000198478428
1001
DBPROPERTIES
1002
{
1000
PbHidd
1002
}
  0
LINE
  5
437
330
1F
100
AcDbEntity
  8
HIDDEN
100
AcDbLine
 10
-79.89036278036586
 20
4.18687649943554
 30
0.0
 11
-79.89036278036586
 21
4.18687649943554
 31
0.0
1001
DBPROPERTIES
1002
{
1000
PbHidd
1002
}
  0
LINE
  5
438
330
1F
100
AcDbEntity
  8
HIDDEN
100
AcDbLine
 10
-77.27406610312542
 20
-20.70552360820163
 30
0.0
 11
-77.27406610312542
 21
-20.70552360820163
 31
0.0
1001
DBPROPERTIES
1002
{
1000
PbHidd
1002
}
  0
ARC
  5
439
330
1F
100
AcDbEntity
  8
HIDDEN
100
AcDbCircle
 10
0.0000000000000528
 20
0.0
 30
0.0
 40
80.0
100
AcDbArc
 50
189.0000011980722
 51
195.0000152286821
1001
DBPROPERTIES
1002
{
1000
PbHidd
1002
}
  0
LINE
  5
43A
330
1F
100
AcDbEntity
  8
HIDDEN
100
AcDbLine
 10
-79.01506724761097
 20
-12.51475720321845
 30
0.0
 11
-79.01506724761097
 21
-12.51475720321845
 31
0.0
1001
DBPROPERTIES
1002
{
1000
PbHidd
1002
}
  0
LINE
  5
43B
330
1F
100
AcDbEntity
  8
HIDDEN
100
AcDbLine
 10
-79.01506724761097
 20
12.51475720321848
 30
0.0
 11
-79.01506724761097
 21
12.51475720321848
 31
0.0
1001
DBPROPERTIES
1002
{
1000
PbHidd
1002
}
  0
ARC
  5
43C
330
1F
100
AcDbEntity
  8
HIDDEN
100
AcDbCircle
 10
0.0000000000000528
 20
0.0
 30
0.0
 40
80.0
100
AcDbArc
 50
164.9999847713179
 51
170.9999988019279
1001
DBPROPERTIES
1002
{
1000
PbHidd
1002
}
  0
LINE
  5
43D
330
1F
100
AcDbEntity
  8
HIDDEN
100
AcDbLine
 10
-77.2740661031254
 20
20.70552360820166
 30
0.0
 11
-77.2740661031254
 21
20.70552360820166
 31
0.0
1001
DBPROPERTIES
1002
{
1000
PbHidd
1002
}
  0
LINE
  5
43E
330
1F
100
AcDbEntity
  8
HIDDEN
100
AcDbLine
 10
-71.2805219350694
 20
-36.3192399791637
 30
0.0
 11
-71.2805219350694
 21
-36.3192399791637
 31
0.0
1001
DBPROPERTIES
1002
{
1000
PbHidd
1002
}
  0
ARC
  5
43F
330
1F
100
AcDbEntity
  8
HIDDEN
100
AcDbCircle
 10
0.0000000000000528
 20
0.0
 30
0.0
 40
80.0
100
AcDbArc
 50
200.9999719635126
 51
206.9999859941226
1001
DBPROPERTIES
1002
{
1000
PbHidd
1002
}
  0
LINE
  5
440
330
1F
100
AcDbEntity
  8
HIDDEN
100
AcDbLine
 10
-74.6864341197761
 20
-28.66943596362398
 30
0.0
 11
-74.6864341197761
 21
-28.66943596362398
 31
0.0
1001
DBPROPERTIES
1002
{
1000
PbHidd
1002
}
  0
LINE
  5
441
330
1F
100
AcDbEntity
  8
HIDDEN
100
AcDbLine
 10
-74.6864341197761
 20
28.66943596362402
 30
0.0
 11
-74.6864341197761
 21
28.66943596362402
 31
0.0
1001
DBPROPERTIES
1002
{
1000
PbHidd
1002
}
  0
ARC
  5
442
330
1F
100
AcDbEntity
  8
HIDDEN
100
AcDbCircle
 10
0.0000000000000528
 20
0.0
 30
0.0
 40
80.0
100
AcDbArc
 50
153.0000140058774
 51
159.0000280364874
1001
DBPROPERTIES
1002
{
1000
PbHidd
1002
}
  0
LINE
  5
443
330
1F
100
AcDbEntity
  8
HIDDEN
100
AcDbLine
 10
-71.28052193506937
 20
36.31923997916373
 30
0.0
 11
-71.28052193506937
 21
36.31923997916373
 31
0.0
1001
DBPROPERTIES
1002
{
1000
PbHidd
1002
}
  0
LINE
  5
444
330
1F
100
AcDbEntity
  8
HIDDEN
100
AcDbLine
 10
-62.17167691655765
 20
-50.34563128398693
 30
0.0
 11
-62.17167691655765
 21
-50.34563128398693
 31
0.0
1001
DBPROPERTIES
1002
{
1000
PbHidd
1002
}
  0
ARC
  5
445
330
1F
100
AcDbEntity
  8
HIDDEN
100
AcDbCircle
 10
0.0000000000000528
 20
0.0
 30
0.0
 40
80.0
100
AcDbArc
 50
213.0000000247326
 51
219.0000140553425
1001
DBPROPERTIES
1002
{
1000
PbHidd
1002
}
  0
LINE
  5
446
330
1F
100
AcDbEntity
  8
HIDDEN
100
AcDbLine
 10
-67.09364543563392
 20
-43.57112280120211
 30
0.0
 11
-67.09364543563392
 21
-43.57112280120211
 31
0.0
1001
DBPROPERTIES
1002
{
1000
PbHidd
1002
}
  0
LINE
  5
447
330
1F
100
AcDbEntity
  8
HIDDEN
100
AcDbLine
 10
-67.09364543563387
 20
43.57112280120218
 30
0.0
 11
-67.09364543563387
 21
43.57112280120218
 31
0.0
1001
DBPROPERTIES
1002
{
1000
PbHidd
1002
}
  0
ARC
  5
448
330
1F
100
AcDbEntity
  8
HIDDEN
100
AcDbCircle
 10
0.0000000000000528
 20
0.0
 30
0.0
 40
80.0
100
AcDbArc
 50
140.9999859446575
 51
146.9999999752674
1001
DBPROPERTIES
1002
{
1000
PbHidd
1002
}
  0
LINE
  5
449
330
1F
100
AcDbEntity
  8
HIDDEN
100
AcDbLine
 10
-62.17167691655762
 20
50.345631283987
 30
0.0
 11
-62.17167691655762
 21
50.345631283987
 31
0.0
1001
DBPROPERTIES
1002
{
1000
PbHidd
1002
}
  0
LINE
  5
44A
330
1F
100
AcDbEntity
  8
HIDDEN
100
AcDbLine
 10
-50.345631283987
 20
-62.17167691655763
 30
0.0
 11
-50.345631283987
 21
-62.17167691655763
 31
0.0
1001
DBPROPERTIES
1002
{
1000
PbHidd
1002
}
  0
ARC
  5
44B
330
1F
100
AcDbEntity
  8
HIDDEN
100
AcDbCircle
 10
0.0000000000000528
 20
0.0
 30
0.0
 40
80.0
100
AcDbArc
 50
225.0000280859525
 51
230.999984820783
1001
DBPROPERTIES
1002
{
1000
PbHidd
1002
}
  0
LINE
  5
44C
330
1F
100
AcDbEntity
  8
HIDDEN
100
AcDbLine
 10
-56.56854249492379
 20
-56.56854249492375
 30
0.0
 11
-56.56854249492379
 21
-56.56854249492375
 31
0.0
1001
DBPROPERTIES
1002
{
1000
PbHidd
1002
}
  0
LINE
  5
44D
330
1F
100
AcDbEntity
  8
HIDDEN
100
AcDbLine
 10
-56.56854249492376
 20
56.56854249492379
 30
0.0
 11
-56.56854249492376
 21
56.56854249492379
 31
0.0
1001
DBPROPERTIES
1002
{
1000
PbHidd
1002
}
  0
ARC
  5
44E
330
1F
100
AcDbEntity
  8
HIDDEN
100
AcDbCircle
 10
0.0000000000000528
 20
0.0
 30
0.0
 40
80.0
100
AcDbArc
 50
129.000015179217
 51
134.9999719140475
1001
DBPROPERTIES
1002
{
1000
PbHidd
1002
}
  0
LINE
  5
44F
330
1F
100
AcDbEntity
  8
HIDDEN
100
AcDbLine
 10
-50.34563128398696
 20
62.17167691655765
 30
0.0
 11
-50.34563128398696
 21
62.17167691655765
 31
0.0
1001
DBPROPERTIES
1002
{
1000
PbHidd
1002
}
  0
LINE
  5
450
330
1F
100
AcDbEntity
  8
HIDDEN
100
AcDbLine
 10
-36.31923997916376
 20
-71.28052193506939
 30
0.0
 11
-36.31923997916376
 21
-71.28052193506939
 31
0.0
1001
DBPROPERTIES
1002
{
1000
PbHidd
1002
}
  0
ARC
  5
451
330
1F
100
AcDbEntity
  8
HIDDEN
100
AcDbCircle
 10
0.0000000000000528
 20
0.0
 30
0.0
 40
80.0
100
AcDbArc
 50
236.999998851393
 51
243.0000128820029
1001
DBPROPERTIES
1002
{
1000
PbHidd
1002
}
  0
LINE
  5
452
330
1F
100
AcDbEntity
  8
HIDDEN
100
AcDbLine
 10
-43.57112280120217
 20
-67.09364543563389
 30
0.0
 11
-43.57112280120217
 21
-67.09364543563389
 31
0.0
1001
DBPROPERTIES
1002
{
1000
PbHidd
1002
}
  0
LINE
  5
453
330
1F
100
AcDbEntity
  8
HIDDEN
100
AcDbLine
 10
-43.57112280120214
 20
67.0936454356339
 30
0.0
 11
-43.57112280120214
 21
67.0936454356339
 31
0.0
1001
DBPROPERTIES
1002
{
1000
PbHidd
1002
}
  0
ARC
  5
454
330
1F
100
AcDbEntity
  8
HIDDEN
100
AcDbCircle
 10
0.0000000000000528
 20
0.0
 30
0.0
 40
80.0
100
AcDbArc
 50
116.9999871179971
 51
123.000001148607
1001
DBPROPERTIES
1002
{
1000
PbHidd
1002
}
  0
LINE
  5
455
330
1F
100
AcDbEntity
  8
HIDDEN
100
AcDbLine
 10
-36.31923997916372
 20
71.28052193506943
 30
0.0
 11
-36.31923997916372
 21
71.28052193506943
 31
0.0
1001
DBPROPERTIES
1002
{
1000
PbHidd
1002
}
  0
LINE
  5
456
330
1F
100
AcDbEntity
  8
HIDDEN
100
AcDbLine
 10
-20.70552360820171
 20
-77.27406610312545
 30
0.0
 11
-20.70552360820171
 21
-77.27406610312545
 31
0.0
1001
DBPROPERTIES
1002
{
1000
PbHidd
1002
}
  0
ARC
  5
457
330
1F
100
AcDbEntity
  8
HIDDEN
100
AcDbCircle
 10
0.0000000000000528
 20
0.0
 30
0.0
 40
80.0
100
AcDbArc
 50
249.0000269126129
 51
254.9999836474434
1001
DBPROPERTIES
1002
{
1000
PbHidd
1002
}
  0
LINE
  5
458
330
1F
100
AcDbEntity
  8
HIDDEN
100
AcDbLine
 10
-28.66943596362405
 20
-74.6864341197761
 30
0.0
 11
-28.66943596362406
 21
-74.6864341197761
 31
0.0
1001
DBPROPERTIES
1002
{
1000
PbHidd
1002
}
  0
LINE
  5
459
330
1F
100
AcDbEntity
  8
HIDDEN
100
AcDbLine
 10
-28.669435963624
 20
74.68643411977612
 30
0.0
 11
-28.66943596362399
 21
74.68643411977612
 31
0.0
1001
DBPROPERTIES
1002
{
1000
PbHidd
1002
}
  0
ARC
  5
45A
330
1F
100
AcDbEntity
  8
HIDDEN
100
AcDbCircle
 10
0.0000000000000528
 20
0.0
 30
0.0
 40
80.0
100
AcDbArc
 50
105.0000163525566
 51
110.9999730873871
1001
DBPROPERTIES
1002
{
1000
PbHidd
1002
}
  0
LINE
  5
45B
330
1F
100
AcDbEntity
  8
HIDDEN
100
AcDbLine
 10
-20.70552360820164
 20
77.27406610312545
 30
0.0
 11
-20.70552360820165
 21
77.27406610312545
 31
0.0
1001
DBPROPERTIES
1002
{
1000
PbHidd
1002
}
  0
LINE
  5
45C
330
1F
100
AcDbEntity
  8
HIDDEN
100
AcDbLine
 10
-4.186876499435529
 20
-79.89036278036592
 30
0.0
 11
-4.186876499435524
 21
-79.89036278036592
 31
0.0
1001
DBPROPERTIES
1002
{
1000
PbHidd
1002
}
  0
ARC
  5
45D
330
1F
100
AcDbEntity
  8
HIDDEN
100
AcDbCircle
 10
0.0000000000000528
 20
0.0
 30
0.0
 40
80.0
100
AcDbArc
 50
260.9999976780534
 51
267.0000117086634
1001
DBPROPERTIES
1002
{
1000
PbHidd
1002
}
  0
LINE
  5
45E
330
1F
100
AcDbEntity
  8
HIDDEN
100
AcDbLine
 10
-12.51475720321848
 20
-79.015067247611
 30
0.0
 11
-12.51475720321849
 21
-79.015067247611
 31
0.0
1001
DBPROPERTIES
1002
{
1000
PbHidd
1002
}
  0
LINE
  5
45F
330
1F
100
AcDbEntity
  8
HIDDEN
100
AcDbLine
 10
-12.51475720321845
 20
79.01506724761101
 30
0.0
 11
-12.51475720321844
 21
79.01506724761101
 31
0.0
1001
DBPROPERTIES
1002
{
1000
PbHidd
1002
}
  0
ARC
  5
460
330
1F
100
AcDbEntity
  8
HIDDEN
100
AcDbCircle
 10
0.0000000000000528
 20
0.0
 30
0.0
 40
80.0
100
AcDbArc
 50
92.99998829133665
 51
99.00000232194662
1001
DBPROPERTIES
1002
{
1000
PbHidd
1002
}
  0
LINE
  5
461
330
1F
100
AcDbEntity
  8
HIDDEN
100
AcDbLine
 10
-4.186876499435486
 20
79.89036278036592
 30
0.0
 11
-4.186876499435491
 21
79.89036278036592
 31
0.0
1001
DBPROPERTIES
1002
{
1000
PbHidd
1002
}
  0
LINE
  5
462
330
1F
100
AcDbEntity
  8
HIDDEN
100
AcDbLine
 10
12.5147572032184
 20
-79.01506724761103
 30
0.0
 11
12.51475720321841
 21
-79.01506724761103
 31
0.0
1001
DBPROPERTIES
1002
{
1000
PbHidd
1002
}
  0
ARC
  5
463
330
1F
100
AcDbEntity
  8
HIDDEN
100
AcDbCircle
 10
0.0000000000000528
 20
0.0
 30
0.0
 40
80.0
100
AcDbArc
 50
273.0000257392733
 51
278.9999824741038
1001
DBPROPERTIES
1002
{
1000
PbHidd
1002
}
  0
LINE
  5
464
330
1F
100
AcDbEntity
  8
HIDDEN
100
AcDbLine
 10
4.186876499435447
 20
-79.89036278036593
 30
0.0
 11
4.186876499435441
 21
-79.89036278036593
 31
0.0
1001
DBPROPERTIES
1002
{
1000
PbHidd
1002
}
  0
LINE
  5
465
330
1F
100
AcDbEntity
  8
HIDDEN
100
AcDbLine
 10
4.186876499435513
 20
79.89036278036593
 30
0.0
 11
4.186876499435519
 21
79.89036278036593
 31
0.0
1001
DBPROPERTIES
1002
{
1000
PbHidd
1002
}
  0
ARC
  5
466
330
1F
100
AcDbEntity
  8
HIDDEN
100
AcDbCircle
 10
0.0000000000000528
 20
0.0
 30
0.0
 40
80.0
100
AcDbArc
 50
81.0000175258962
 51
86.99997426072667
1001
DBPROPERTIES
1002
{
1000
PbHidd
1002
}
  0
LINE
  5
467
330
1F
100
AcDbEntity
  8
HIDDEN
100
AcDbLine
 10
12.51475720321848
 20
79.01506724761103
 30
0.0
 11
12.51475720321848
 21
79.01506724761103
 31
0.0
1001
DBPROPERTIES
1002
{
1000
PbHidd
1002
}
  0
LINE
  5
468
330
1F
100
AcDbEntity
  8
HIDDEN
100
AcDbLine
 10
28.66943596362398
 20
-74.68643411977618
 30
0.0
 11
28.66943596362399
 21
-74.68643411977618
 31
0.0
1001
DBPROPERTIES
1002
{
1000
PbHidd
1002
}
  0
ARC
  5
469
330
1F
100
AcDbEntity
  8
HIDDEN
100
AcDbCircle
 10
0.0000000000000528
 20
0.0
 30
0.0
 40
80.0
100
AcDbArc
 50
284.9999965047138
 51
291.0000105353237
1001
DBPROPERTIES
1002
{
1000
PbHidd
1002
}
  0
LINE
  5
46A
330
1F
100
AcDbEntity
  8
HIDDEN
100
AcDbLine
 10
20.70552360820163
 20
-77.27406610312548
 30
0.0
 11
20.70552360820162
 21
-77.27406610312548
 31
0.0
1001
DBPROPERTIES
1002
{
1000
PbHidd
1002
}
  0
LINE
  5
46B
330
1F
100
AcDbEntity
  8
HIDDEN
100
AcDbLine
 10
20.70552360820167
 20
77.27406610312546
 30
0.0
 11
20.70552360820167
 21
77.27406610312546
 31
0.0
1001
DBPROPERTIES
1002
{
1000
PbHidd
1002
}
  0
ARC
  5
46C
330
1F
100
AcDbEntity
  8
HIDDEN
100
AcDbCircle
 10
0.0000000000000528
 20
0.0
 30
0.0
 40
80.0
100
AcDbArc
 50
68.99998946467625
 51
75.00000349528622
1001
DBPROPERTIES
1002
{
1000
PbHidd
1002
}
  0
LINE
  5
46D
330
1F
100
AcDbEntity
  8
HIDDEN
100
AcDbLine
 10
28.66943596362404
 20
74.68643411977615
 30
0.0
 11
28.66943596362403
 21
74.68643411977615
 31
0.0
1001
DBPROPERTIES
1002
{
1000
PbHidd
1002
}
  0
LINE
  5
46E
330
1F
100
AcDbEntity
  8
HIDDEN
100
AcDbLine
 10
43.57112280120217
 20
-67.09364543563396
 30
0.0
 11
43.57112280120217
 21
-67.09364543563396
 31
0.0
1001
DBPROPERTIES
1002
{
1000
PbHidd
1002
}
  0
ARC
  5
46F
330
1F
100
AcDbEntity
  8
HIDDEN
100
AcDbCircle
 10
0.0000000000000528
 20
0.0
 30
0.0
 40
80.0
100
AcDbArc
 50
297.0000245659338
 51
302.9999813007643
1001
DBPROPERTIES
1002
{
1000
PbHidd
1002
}
  0
LINE
  5
470
330
1F
100
AcDbEntity
  8
HIDDEN
100
AcDbLine
 10
36.31923997916374
 20
-71.28052193506946
 30
0.0
 11
36.31923997916374
 21
-71.28052193506946
 31
0.0
1001
DBPROPERTIES
1002
{
1000
PbHidd
1002
}
  0
LINE
  5
471
330
1F
100
AcDbEntity
  8
HIDDEN
100
AcDbLine
 10
36.31923997916377
 20
71.28052193506943
 30
0.0
 11
36.31923997916377
 21
71.28052193506943
 31
0.0
1001
DBPROPERTIES
1002
{
1000
PbHidd
1002
}
  0
ARC
  5
472
330
1F
100
AcDbEntity
  8
HIDDEN
100
AcDbCircle
 10
0.0000000000000528
 20
0.0
 30
0.0
 40
80.0
100
AcDbArc
 50
57.0000186992358
 51
62.99997543406626
1001
DBPROPERTIES
1002
{
1000
PbHidd
1002
}
  0
LINE
  5
473
330
1F
100
AcDbEntity
  8
HIDDEN
100
AcDbLine
 10
43.57112280120219
 20
67.09364543563395
 30
0.0
 11
43.57112280120219
 21
67.09364543563395
 31
0.0
1001
DBPROPERTIES
1002
{
1000
PbHidd
1002
}
  0
LINE
  5
474
330
1F
100
AcDbEntity
  8
HIDDEN
100
AcDbLine
 10
56.56854249492378
 20
-56.56854249492387
 30
0.0
 11
56.56854249492378
 21
-56.56854249492387
 31
0.0
1001
DBPROPERTIES
1002
{
1000
PbHidd
1002
}
  0
ARC
  5
475
330
1F
100
AcDbEntity
  8
HIDDEN
100
AcDbCircle
 10
0.0000000000000528
 20
0.0
 30
0.0
 40
80.0
100
AcDbArc
 50
308.9999953313742
 51
315.0000093619842
1001
DBPROPERTIES
1002
{
1000
PbHidd
1002
}
  0
LINE
  5
476
330
1F
100
AcDbEntity
  8
HIDDEN
100
AcDbLine
 10
50.34563128398697
 20
-62.17167691655774
 30
0.0
 11
50.34563128398697
 21
-62.17167691655774
 31
0.0
1001
DBPROPERTIES
1002
{
1000
PbHidd
1002
}
  0
LINE
  5
477
330
1F
100
AcDbEntity
  8
HIDDEN
100
AcDbLine
 10
50.34563128398703
 20
62.17167691655769
 30
0.0
 11
50.34563128398703
 21
62.17167691655769
 31
0.0
1001
DBPROPERTIES
1002
{
1000
PbHidd
1002
}
  0
ARC
  5
478
330
1F
100
AcDbEntity
  8
HIDDEN
100
AcDbCircle
 10
0.0000000000000528
 20
0.0
 30
0.0
 40
80.0
100
AcDbArc
 50
44.99999063801582
 51
51.00000466862581
1001
DBPROPERTIES
1002
{
1000
PbHidd
1002
}
  0
LINE
  5
479
330
1F
100
AcDbEntity
  8
HIDDEN
100
AcDbLine
 10
56.56854249492383
 20
56.56854249492383
 30
0.0
 11
56.56854249492383
 21
56.56854249492383
 31
0.0
1001
DBPROPERTIES
1002
{
1000
PbHidd
1002
}
  0
LINE
  5
47A
330
1F
100
AcDbEntity
  8
HIDDEN
100
AcDbLine
 10
67.09364543563395
 20
-43.57112280120222
 30
0.0
 11
67.09364543563395
 21
-43.57112280120222
 31
0.0
1001
DBPROPERTIES
1002
{
1000
PbHidd
1002
}
  0
ARC
  5
47B
330
1F
100
AcDbEntity
  8
HIDDEN
100
AcDbCircle
 10
0.0000000000000528
 20
0.0
 30
0.0
 40
80.0
100
AcDbArc
 50
321.0000233925941
 51
326.9999801274246
1001
DBPROPERTIES
1002
{
1000
PbHidd
1002
}
  0
LINE
  5
47C
330
1F
100
AcDbEntity
  8
HIDDEN
100
AcDbLine
 10
62.17167691655768
 20
-50.34563128398706
 30
0.0
 11
62.17167691655768
 21
-50.34563128398706
 31
0.0
1001
DBPROPERTIES
1002
{
1000
PbHidd
1002
}
  0
LINE
  5
47D
330
1F
100
AcDbEntity
  8
HIDDEN
100
AcDbLine
 10
62.17167691655771
 20
50.34563128398702
 30
0.0
 11
62.17167691655771
 21
50.34563128398702
 31
0.0
1001
DBPROPERTIES
1002
{
1000
PbHidd
1002
}
  0
ARC
  5
47E
330
1F
100
AcDbEntity
  8
HIDDEN
100
AcDbCircle
 10
0.0000000000000528
 20
0.0
 30
0.0
 40
80.0
100
AcDbArc
 50
33.00001987257539
 51
38.99997660740585
1001
DBPROPERTIES
1002
{
1000
PbHidd
1002
}
  0
LINE
  5
47F
330
1F
100
AcDbEntity
  8
HIDDEN
100
AcDbLine
 10
67.09364543563396
 20
43.57112280120219
 30
0.0
 11
67.09364543563396
 21
43.57112280120219
 31
0.0
1001
DBPROPERTIES
1002
{
1000
PbHidd
1002
}
  0
LINE
  5
480
330
1F
100
AcDbEntity
  8
HIDDEN
100
AcDbLine
 10
74.68643411977617
 20
-28.66943596362407
 30
0.0
 11
74.68643411977617
 21
-28.66943596362407
 31
0.0
1001
DBPROPERTIES
1002
{
1000
PbHidd
1002
}
  0
ARC
  5
481
330
1F
100
AcDbEntity
  8
HIDDEN
100
AcDbCircle
 10
0.0000000000000528
 20
0.0
 30
0.0
 40
80.0
100
AcDbArc
 50
332.9999941580346
 51
339.0000081886445
1001
DBPROPERTIES
1002
{
1000
PbHidd
1002
}
  0
LINE
  5
482
330
1F
100
AcDbEntity
  8
HIDDEN
100
AcDbLine
 10
71.28052193506944
 20
-36.3192399791638
 30
0.0
 11
71.28052193506944
 21
-36.3192399791638
 31
0.0
1001
DBPROPERTIES
1002
{
1000
PbHidd
1002
}
  0
LINE
  5
483
330
1F
100
AcDbEntity
  8
HIDDEN
100
AcDbLine
 10
71.28052193506947
 20
36.31923997916375
 30
0.0
 11
71.28052193506947
 21
36.31923997916375
 31
0.0
1001
DBPROPERTIES
1002
{
1000
PbHidd
1002
}
  0
ARC
  5
484
330
1F
100
AcDbEntity
  8
HIDDEN
100
AcDbCircle
 10
0.0000000000000528
 20
0.0
 30
0.0
 40
80.0
100
AcDbArc
 50
20.99999181135542
 51
27.0000058419654
1001
DBPROPERTIES
1002
{
1000
PbHidd
1002
}
  0
LINE
  5
485
330
1F
100
AcDbEntity
  8
HIDDEN
100
AcDbLine
 10
74.68643411977618
 20
28.66943596362403
 30
0.0
 11
74.68643411977618
 21
28.66943596362403
 31
0.0
1001
DBPROPERTIES
1002
{
1000
PbHidd
1002
}
  0
LINE
  5
486
330
1F
100
AcDbEntity
  8
HIDDEN
100
AcDbLine
 10
79.01506724761106
 20
-12.51475720321855
 30
0.0
 11
79.01506724761106
 21
-12.51475720321855
 31
0.0
1001
DBPROPERTIES
1002
{
1000
PbHidd
1002
}
  0
ARC
  5
487
330
1F
100
AcDbEntity
  8
HIDDEN
100
AcDbCircle
 10
0.0000000000000528
 20
0.0
 30
0.0
 40
80.0
100
AcDbArc
 50
345.0000222192546
 51
350.9999789540851
1001
DBPROPERTIES
1002
{
1000
PbHidd
1002
}
  0
LINE
  5
488
330
1F
100
AcDbEntity
  8
HIDDEN
100
AcDbLine
 10
77.2740661031255
 20
-20.70552360820174
 30
0.0
 11
77.2740661031255
 21
-20.70552360820174
 31
0.0
1001
DBPROPERTIES
1002
{
1000
PbHidd
1002
}
  0
ARC
  5
489
330
1F
100
AcDbEntity
  8
HIDDEN
100
AcDbCircle
 10
0.0000000000000528
 20
0.0
 30
0.0
 40
80.0
100
AcDbArc
 50
9.000021045914972
 51
14.99997778074544
1001
DBPROPERTIES
1002
{
1000
PbHidd
1002
}
  0
LINE
  5
48A
330
1F
100
AcDbEntity
  8
HIDDEN
100
AcDbLine
 10
79.01506724761106
 20
12.51475720321847
 30
0.0
 11
79.01506724761106
 21
12.51475720321847
 31
0.0
1001
DBPROPERTIES
1002
{
1000
PbHidd
1002
}
  0
LINE
  5
48B
330
1F
100
AcDbEntity
  8
HIDDEN
100
AcDbLine
 10
77.2740661031255
 20
20.70552360820167
 30
0.0
 11
77.2740661031255
 21
20.70552360820167
 31
0.0
1001
DBPROPERTIES
1002
{
1000
PbHidd
1002
}
  0
LINE
  5
48C
330
1F
100
AcDbEntity
  8
HIDDEN
100
AcDbLine
 10
-69.90406743282013
 20
3.663516937006097
 30
0.0
 11
-69.90406743282013
 21
3.663516937006097
 31
0.0
1001
DBPROPERTIES
1002
{
1000
PbHidd
1002
}
  0
LINE
  5
48D
330
1F
100
AcDbEntity
  8
HIDDEN
100
AcDbLine
 10
-67.61480784023473
 20
-18.11733315717643
 30
0.0
 11
-67.61480784023473
 21
-18.11733315717643
 31
0.0
1001
DBPROPERTIES
1002
{
1000
PbHidd
1002
}
  0
LINE
  5
48E
330
1F
100
AcDbEntity
  8
HIDDEN
100
AcDbLine
 10
-69.13818384165958
 20
-10.95041255281614
 30
0.0
 11
-69.13818384165958
 21
-10.95041255281614
 31
0.0
1001
DBPROPERTIES
1002
{
1000
PbHidd
1002
}
  0
LINE
  5
48F
330
1F
100
AcDbEntity
  8
HIDDEN
100
AcDbLine
 10
-69.1381838416596
 20
10.95041255281617
 30
0.0
 11
-69.1381838416596
 21
10.95041255281617
 31
0.0
1001
DBPROPERTIES
1002
{
1000
PbHidd
1002
}
  0
LINE
  5
490
330
1F
100
AcDbEntity
  8
HIDDEN
100
AcDbLine
 10
-67.61480784023473
 20
18.11733315717645
 30
0.0
 11
-67.61480784023473
 21
18.11733315717645
 31
0.0
1001
DBPROPERTIES
1002
{
1000
PbHidd
1002
}
  0
LINE
  5
491
330
1F
100
AcDbEntity
  8
HIDDEN
100
AcDbLine
 10
-62.37045669318571
 20
-31.77933498176824
 30
0.0
 11
-62.37045669318572
 21
-31.77933498176824
 31
0.0
1001
DBPROPERTIES
1002
{
1000
PbHidd
1002
}
  0
LINE
  5
492
330
1F
100
AcDbEntity
  8
HIDDEN
100
AcDbLine
 10
-65.35062985480408
 20
-25.08575646817098
 30
0.0
 11
-65.35062985480408
 21
-25.08575646817098
 31
0.0
1001
DBPROPERTIES
1002
{
1000
PbHidd
1002
}
  0
LINE
  5
493
330
1F
100
AcDbEntity
  8
HIDDEN
100
AcDbLine
 10
-65.35062985480408
 20
25.08575646817102
 30
0.0
 11
-65.35062985480408
 21
25.08575646817102
 31
0.0
1001
DBPROPERTIES
1002
{
1000
PbHidd
1002
}
  0
LINE
  5
494
330
1F
100
AcDbEntity
  8
HIDDEN
100
AcDbLine
 10
-62.37045669318572
 20
31.77933498176827
 30
0.0
 11
-62.3704566931857
 21
31.77933498176827
 31
0.0
1001
DBPROPERTIES
1002
{
1000
PbHidd
1002
}
  0
LINE
  5
495
330
1F
100
AcDbEntity
  8
HIDDEN
100
AcDbLine
 10
-54.40021730198794
 20
-44.05242737348857
 30
0.0
 11
-54.40021730198796
 21
-44.05242737348857
 31
0.0
1001
DBPROPERTIES
1002
{
1000
PbHidd
1002
}
  0
LINE
  5
496
330
1F
100
AcDbEntity
  8
HIDDEN
100
AcDbLine
 10
-58.70693975617968
 20
-38.12473245105184
 30
0.0
 11
-58.70693975617966
 21
-38.12473245105184
 31
0.0
1001
DBPROPERTIES
1002
{
1000
PbHidd
1002
}
  0
LINE
  5
497
330
1F
100
AcDbEntity
  8
HIDDEN
100
AcDbLine
 10
-58.70693975617962
 20
38.12473245105191
 30
0.0
 11
-58.70693975617964
 21
38.12473245105191
 31
0.0
1001
DBPROPERTIES
1002
{
1000
PbHidd
1002
}
  0
LINE
  5
498
330
1F
100
AcDbEntity
  8
HIDDEN
100
AcDbLine
 10
-54.40021730198792
 20
44.05242737348863
 30
0.0
 11
-54.4002173019879
 21
44.05242737348863
 31
0.0
1001
DBPROPERTIES
1002
{
1000
PbHidd
1002
}
  0
LINE
  5
499
330
1F
100
AcDbEntity
  8
HIDDEN
100
AcDbLine
 10
-44.05242737348861
 20
-54.40021730198792
 30
0.0
 11
-44.05242737348863
 21
-54.40021730198792
 31
0.0
1001
DBPROPERTIES
1002
{
1000
PbHidd
1002
}
  0
LINE
  5
49A
330
1F
100
AcDbEntity
  8
HIDDEN
100
AcDbLine
 10
-49.49747468305832
 20
-49.49747468305829
 30
0.0
 11
-49.49747468305831
 21
-49.49747468305829
 31
0.0
1001
DBPROPERTIES
1002
{
1000
PbHidd
1002
}
  0
LINE
  5
49B
330
1F
100
AcDbEntity
  8
HIDDEN
100
AcDbLine
 10
-49.49747468305829
 20
49.49747468305831
 30
0.0
 11
-49.4974746830583
 21
49.49747468305831
 31
0.0
1001
DBPROPERTIES
1002
{
1000
PbHidd
1002
}
  0
LINE
  5
49C
330
1F
100
AcDbEntity
  8
HIDDEN
100
AcDbLine
 10
-44.05242737348861
 20
54.40021730198794
 30
0.0
 11
-44.05242737348859
 21
54.40021730198794
 31
0.0
1001
DBPROPERTIES
1002
{
1000
PbHidd
1002
}
  0
LINE
  5
49D
330
1F
100
AcDbEntity
  8
HIDDEN
100
AcDbLine
 10
-31.77933498176829
 20
-62.37045669318572
 30
0.0
 11
-31.77933498176829
 21
-62.37045669318572
 31
0.0
1001
DBPROPERTIES
1002
{
1000
PbHidd
1002
}
  0
LINE
  5
49E
330
1F
100
AcDbEntity
  8
HIDDEN
100
AcDbLine
 10
-38.12473245105191
 20
-58.70693975617964
 30
0.0
 11
-38.12473245105189
 21
-58.70693975617964
 31
0.0
1001
DBPROPERTIES
1002
{
1000
PbHidd
1002
}
  0
LINE
  5
49F
330
1F
100
AcDbEntity
  8
HIDDEN
100
AcDbLine
 10
-38.12473245105186
 20
58.70693975617966
 30
0.0
 11
-38.12473245105188
 21
58.70693975617966
 31
0.0
1001
DBPROPERTIES
1002
{
1000
PbHidd
1002
}
  0
LINE
  5
4A0
330
1F
100
AcDbEntity
  8
HIDDEN
100
AcDbLine
 10
-31.77933498176826
 20
62.37045669318574
 30
0.0
 11
-31.77933498176825
 21
62.37045669318574
 31
0.0
1001
DBPROPERTIES
1002
{
1000
PbHidd
1002
}
  0
LINE
  5
4A1
330
1F
100
AcDbEntity
  8
HIDDEN
100
AcDbLine
 10
-18.11733315717649
 20
-67.61480784023476
 30
0.0
 11
-18.1173331571765
 21
-67.61480784023476
 31
0.0
1001
DBPROPERTIES
1002
{
1000
PbHidd
1002
}
  0
LINE
  5
4A2
330
1F
100
AcDbEntity
  8
HIDDEN
100
AcDbLine
 10
-25.08575646817105
 20
-65.35062985480408
 30
0.0
 11
-25.08575646817104
 21
-65.35062985480408
 31
0.0
1001
DBPROPERTIES
1002
{
1000
PbHidd
1002
}
  0
LINE
  5
4A3
330
1F
100
AcDbEntity
  8
HIDDEN
100
AcDbLine
 10
-25.085756468171
 20
65.35062985480411
 30
0.0
 11
-25.085756468171
 21
65.35062985480411
 31
0.0
1001
DBPROPERTIES
1002
{
1000
PbHidd
1002
}
  0
LINE
  5
4A4
330
1F
100
AcDbEntity
  8
HIDDEN
100
AcDbLine
 10
-18.11733315717645
 20
67.61480784023476
 30
0.0
 11
-18.11733315717644
 21
67.61480784023476
 31
0.0
1001
DBPROPERTIES
1002
{
1000
PbHidd
1002
}
  0
LINE
  5
4A5
330
1F
100
AcDbEntity
  8
HIDDEN
100
AcDbLine
 10
-3.663516937006081
 20
-69.90406743282017
 30
0.0
 11
-3.66351693700609
 21
-69.90406743282017
 31
0.0
1001
DBPROPERTIES
1002
{
1000
PbHidd
1002
}
  0
LINE
  5
4A6
330
1F
100
AcDbEntity
  8
HIDDEN
100
AcDbLine
 10
-10.95041255281618
 20
-69.13818384165964
 30
0.0
 11
-10.95041255281617
 21
-69.13818384165964
 31
0.0
1001
DBPROPERTIES
1002
{
1000
PbHidd
1002
}
  0
LINE
  5
4A7
330
1F
100
AcDbEntity
  8
HIDDEN
100
AcDbLine
 10
-10.95041255281613
 20
69.13818384165963
 30
0.0
 11
-10.95041255281614
 21
69.13818384165963
 31
0.0
1001
DBPROPERTIES
1002
{
1000
PbHidd
1002
}
  0
LINE
  5
4A8
330
1F
100
AcDbEntity
  8
HIDDEN
100
AcDbLine
 10
-3.663516937006058
 20
69.90406743282017
 30
0.0
 11
-3.663516937006048
 21
69.90406743282017
 31
0.0
1001
DBPROPERTIES
1002
{
1000
PbHidd
1002
}
  0
LINE
  5
4A9
330
1F
100
AcDbEntity
  8
HIDDEN
100
AcDbLine
 10
10.95041255281611
 20
-69.13818384165967
 30
0.0
 11
10.9504125528161
 21
-69.13818384165967
 31
0.0
1001
DBPROPERTIES
1002
{
1000
PbHidd
1002
}
  0
LINE
  5
4AA
330
1F
100
AcDbEntity
  8
HIDDEN
100
AcDbLine
 10
3.663516937006008
 20
-69.90406743282017
 30
0.0
 11
3.663516937006018
 21
-69.90406743282017
 31
0.0
1001
DBPROPERTIES
1002
{
1000
PbHidd
1002
}
  0
LINE
  5
4AB
330
1F
100
AcDbEntity
  8
HIDDEN
100
AcDbLine
 10
3.663516937006081
 20
69.90406743282017
 30
0.0
 11
3.663516937006071
 21
69.90406743282017
 31
0.0
1001
DBPROPERTIES
1002
{
1000
PbHidd
1002
}
  0
LINE
  5
4AC
330
1F
100
AcDbEntity
  8
HIDDEN
100
AcDbLine
 10
10.95041255281616
 20
69.13818384165964
 30
0.0
 11
10.95041255281618
 21
69.13818384165964
 31
0.0
1001
DBPROPERTIES
1002
{
1000
PbHidd
1002
}
  0
LINE
  5
4AD
330
1F
100
AcDbEntity
  8
HIDDEN
100
AcDbLine
 10
25.08575646817099
 20
-65.35062985480414
 30
0.0
 11
25.08575646817098
 21
-65.35062985480414
 31
0.0
1001
DBPROPERTIES
1002
{
1000
PbHidd
1002
}
  0
LINE
  5
4AE
330
1F
100
AcDbEntity
  8
HIDDEN
100
AcDbLine
 10
18.11733315717642
 20
-67.6148078402348
 30
0.0
 11
18.11733315717643
 21
-67.6148078402348
 31
0.0
1001
DBPROPERTIES
1002
{
1000
PbHidd
1002
}
  0
LINE
  5
4AF
330
1F
100
AcDbEntity
  8
HIDDEN
100
AcDbLine
 10
18.11733315717646
 20
67.61480784023479
 30
0.0
 11
18.11733315717646
 21
67.61480784023479
 31
0.0
1001
DBPROPERTIES
1002
{
1000
PbHidd
1002
}
  0
LINE
  5
4B0
330
1F
100
AcDbEntity
  8
HIDDEN
100
AcDbLine
 10
25.08575646817103
 20
65.35062985480414
 30
0.0
 11
25.08575646817103
 21
65.35062985480414
 31
0.0
1001
DBPROPERTIES
1002
{
1000
PbHidd
1002
}
  0
LINE
  5
4B1
330
1F
100
AcDbEntity
  8
HIDDEN
100
AcDbLine
 10
38.12473245105191
 20
-58.70693975617971
 30
0.0
 11
38.12473245105189
 21
-58.70693975617971
 31
0.0
1001
DBPROPERTIES
1002
{
1000
PbHidd
1002
}
  0
LINE
  5
4B2
330
1F
100
AcDbEntity
  8
HIDDEN
100
AcDbLine
 10
31.77933498176827
 20
-62.37045669318577
 30
0.0
 11
31.77933498176828
 21
-62.37045669318577
 31
0.0
1001
DBPROPERTIES
1002
{
1000
PbHidd
1002
}
  0
LINE
  5
4B3
330
1F
100
AcDbEntity
  8
HIDDEN
100
AcDbLine
 10
31.77933498176831
 20
62.37045669318577
 30
0.0
 11
31.7793349817683
 21
62.37045669318577
 31
0.0
1001
DBPROPERTIES
1002
{
1000
PbHidd
1002
}
  0
LINE
  5
4B4
330
1F
100
AcDbEntity
  8
HIDDEN
100
AcDbLine
 10
38.12473245105191
 20
58.7069397561797
 30
0.0
 11
38.12473245105193
 21
58.7069397561797
 31
0.0
1001
DBPROPERTIES
1002
{
1000
PbHidd
1002
}
  0
LINE
  5
4B5
330
1F
100
AcDbEntity
  8
HIDDEN
100
AcDbLine
 10
49.49747468305832
 20
-49.49747468305839
 30
0.0
 11
49.49747468305831
 21
-49.49747468305839
 31
0.0
1001
DBPROPERTIES
1002
{
1000
PbHidd
1002
}
  0
LINE
  5
4B6
330
1F
100
AcDbEntity
  8
HIDDEN
100
AcDbLine
 10
44.05242737348859
 20
-54.40021730198802
 30
0.0
 11
44.05242737348861
 21
-54.40021730198802
 31
0.0
1001
DBPROPERTIES
1002
{
1000
PbHidd
1002
}
  0
LINE
  5
4B7
330
1F
100
AcDbEntity
  8
HIDDEN
100
AcDbLine
 10
44.05242737348865
 20
54.40021730198799
 30
0.0
 11
44.05242737348864
 21
54.40021730198799
 31
0.0
1001
DBPROPERTIES
1002
{
1000
PbHidd
1002
}
  0
LINE
  5
4B8
330
1F
100
AcDbEntity
  8
HIDDEN
100
AcDbLine
 10
49.49747468305835
 20
49.49747468305834
 30
0.0
 11
49.49747468305836
 21
49.49747468305834
 31
0.0
1001
DBPROPERTIES
1002
{
1000
PbHidd
1002
}
  0
LINE
  5
4B9
330
1F
100
AcDbEntity
  8
HIDDEN
100
AcDbLine
 10
58.70693975617971
 20
-38.12473245105195
 30
0.0
 11
58.70693975617969
 21
-38.12473245105195
 31
0.0
1001
DBPROPERTIES
1002
{
1000
PbHidd
1002
}
  0
LINE
  5
4BA
330
1F
100
AcDbEntity
  8
HIDDEN
100
AcDbLine
 10
54.40021730198796
 20
-44.05242737348868
 30
0.0
 11
54.40021730198798
 21
-44.05242737348868
 31
0.0
1001
DBPROPERTIES
1002
{
1000
PbHidd
1002
}
  0
LINE
  5
4BB
330
1F
100
AcDbEntity
  8
HIDDEN
100
AcDbLine
 10
54.400217301988
 20
44.05242737348864
 30
0.0
 11
54.40021730198799
 21
44.05242737348864
 31
0.0
1001
DBPROPERTIES
1002
{
1000
PbHidd
1002
}
  0
LINE
  5
4BC
330
1F
100
AcDbEntity
  8
HIDDEN
100
AcDbLine
 10
58.70693975617971
 20
38.12473245105193
 30
0.0
 11
58.70693975617973
 21
38.12473245105193
 31
0.0
1001
DBPROPERTIES
1002
{
1000
PbHidd
1002
}
  0
LINE
  5
4BD
330
1F
100
AcDbEntity
  8
HIDDEN
100
AcDbLine
 10
65.35062985480415
 20
-25.08575646817107
 30
0.0
 11
65.35062985480415
 21
-25.08575646817107
 31
0.0
1001
DBPROPERTIES
1002
{
1000
PbHidd
1002
}
  0
LINE
  5
4BE
330
1F
100
AcDbEntity
  8
HIDDEN
100
AcDbLine
 10
62.37045669318577
 20
-31.77933498176832
 30
0.0
 11
62.37045669318579
 21
-31.77933498176832
 31
0.0
1001
DBPROPERTIES
1002
{
1000
PbHidd
1002
}
  0
LINE
  5
4BF
330
1F
100
AcDbEntity
  8
HIDDEN
100
AcDbLine
 10
62.37045669318579
 20
31.77933498176829
 30
0.0
 11
62.37045669318578
 21
31.77933498176829
 31
0.0
1001
DBPROPERTIES
1002
{
1000
PbHidd
1002
}
  0
LINE
  5
4C0
330
1F
100
AcDbEntity
  8
HIDDEN
100
AcDbLine
 10
65.35062985480417
 20
25.08575646817103
 30
0.0
 11
65.35062985480417
 21
25.08575646817103
 31
0.0
1001
DBPROPERTIES
1002
{
1000
PbHidd
1002
}
  0
LINE
  5
4C1
330
1F
100
AcDbEntity
  8
HIDDEN
100
AcDbLine
 10
69.13818384165968
 20
-10.95041255281623
 30
0.0
 11
69.13818384165968
 21
-10.95041255281623
 31
0.0
1001
DBPROPERTIES
1002
{
1000
PbHidd
1002
}
  0
LINE
  5
4C2
330
1F
100
AcDbEntity
  8
HIDDEN
100
AcDbLine
 10
67.61480784023482
 20
-18.11733315717652
 30
0.0
 11
67.61480784023482
 21
-18.11733315717652
 31
0.0
1001
DBPROPERTIES
1002
{
1000
PbHidd
1002
}
  0
ARC
  5
4C3
330
1F
100
AcDbEntity
  8
HIDDEN
100
AcDbCircle
 10
0.0000000000000528
 20
0.0
 30
0.0
 40
112.0
100
AcDbArc
 50
0.0
 51
9.000021045914972
1001
DBPROPERTIES
1002
{
1000
PbHidd
1002
}
  0
LINE
  5
4C4
330
1F
100
AcDbEntity
  8
HIDDEN
100
AcDbLine
 10
79.015067247611
 20
12.51475720321847
 30
0.0
 11
110.6210941466554
 21
17.52066008450585
 31
0.0
1001
DBPROPERTIES
1002
{
1000
PbHidd
1002
}
  0
LINE
  5
4C5
330
1F
100
AcDbEntity
  8
HIDDEN
100
AcDbLine
 10
108.1836925443757
 20
28.98773305148233
 30
0.0
 11
77.27406610312552
 21
20.70552360820167
 31
0.0
1001
DBPROPERTIES
1002
{
1000
PbHidd
1002
}
  0
ARC
  5
4C6
330
1F
100
AcDbEntity
  8
HIDDEN
100
AcDbCircle
 10
0.0000000000000528
 20
0.0
 30
0.0
 40
112.0
100
AcDbArc
 50
14.99997778074544
 51
20.99999181135542
1001
DBPROPERTIES
1002
{
1000
PbHidd
1002
}
  0
LINE
  5
4C7
330
1F
100
AcDbEntity
  8
HIDDEN
100
AcDbLine
 10
74.68643411977614
 20
28.66943596362401
 30
0.0
 11
104.5610077676866
 21
40.13721034907362
 31
0.0
1001
DBPROPERTIES
1002
{
1000
PbHidd
1002
}
  0
LINE
  5
4C8
330
1F
100
AcDbEntity
  8
HIDDEN
100
AcDbLine
 10
99.79273070909726
 20
50.84693597082925
 30
0.0
 11
71.28052193506949
 21
36.31923997916375
 31
0.0
1001
DBPROPERTIES
1002
{
1000
PbHidd
1002
}
  0
ARC
  5
4C9
330
1F
100
AcDbEntity
  8
HIDDEN
100
AcDbCircle
 10
0.0000000000000528
 20
0.0
 30
0.0
 40
112.0
100
AcDbArc
 50
27.0000058419654
 51
33.00001987257539
1001
DBPROPERTIES
1002
{
1000
PbHidd
1002
}
  0
LINE
  5
4CA
330
1F
100
AcDbEntity
  8
HIDDEN
100
AcDbLine
 10
67.09364543563393
 20
43.57112280120216
 30
0.0
 11
93.93110360988746
 21
60.99957192168301
 31
0.0
1001
DBPROPERTIES
1002
{
1000
PbHidd
1002
}
  0
LINE
  5
4CB
330
1F
100
AcDbEntity
  8
HIDDEN
100
AcDbLine
 10
87.04034768318073
 20
70.48388379758177
 30
0.0
 11
62.17167691655769
 21
50.345631283987
 31
0.0
1001
DBPROPERTIES
1002
{
1000
PbHidd
1002
}
  0
ARC
  5
4CC
330
1F
100
AcDbEntity
  8
HIDDEN
100
AcDbCircle
 10
0.0000000000000528
 20
0.0
 30
0.0
 40
112.0
100
AcDbArc
 50
38.99997660740585
 51
44.99999063801582
1001
DBPROPERTIES
1002
{
1000
PbHidd
1002
}
  0
LINE
  5
4CD
330
1F
100
AcDbEntity
  8
HIDDEN
100
AcDbLine
 10
56.56854249492382
 20
56.5685424949238
 30
0.0
 11
79.19595949289332
 21
79.19595949289331
 31
0.0
1001
DBPROPERTIES
1002
{
1000
PbHidd
1002
}
  0
LINE
  5
4CE
330
1F
100
AcDbEntity
  8
HIDDEN
100
AcDbLine
 10
70.48388379758183
 20
87.04034768318076
 30
0.0
 11
50.34563128398703
 21
62.17167691655769
 31
0.0
1001
DBPROPERTIES
1002
{
1000
PbHidd
1002
}
  0
ARC
  5
4CF
330
1F
100
AcDbEntity
  8
HIDDEN
100
AcDbCircle
 10
0.0000000000000528
 20
0.0
 30
0.0
 40
112.0
100
AcDbArc
 50
51.00000466862581
 51
57.0000186992358
1001
DBPROPERTIES
1002
{
1000
PbHidd
1002
}
  0
LINE
  5
4D0
330
1F
100
AcDbEntity
  8
HIDDEN
100
AcDbLine
 10
43.57112280120217
 20
67.0936454356339
 30
0.0
 11
60.99957192168302
 21
93.93110360988743
 31
0.0
1001
DBPROPERTIES
1002
{
1000
PbHidd
1002
}
  0
LINE
  5
4D1
330
1F
100
AcDbEntity
  8
HIDDEN
100
AcDbLine
 10
50.84693597082924
 20
99.79273070909713
 30
0.0
 11
36.31923997916374
 21
71.28052193506937
 31
0.0
1001
DBPROPERTIES
1002
{
1000
PbHidd
1002
}
  0
ARC
  5
4D2
330
1F
100
AcDbEntity
  8
HIDDEN
100
AcDbCircle
 10
0.0000000000000528
 20
0.0
 30
0.0
 40
112.0
100
AcDbArc
 50
62.99997543406626
 51
68.99998946467625
1001
DBPROPERTIES
1002
{
1000
PbHidd
1002
}
  0
LINE
  5
4D3
330
1F
100
AcDbEntity
  8
HIDDEN
100
AcDbLine
 10
28.66943596362402
 20
74.68643411977611
 30
0.0
 11
40.13721034907362
 21
104.5610077676865
 31
0.0
1001
DBPROPERTIES
1002
{
1000
PbHidd
1002
}
  0
LINE
  5
4D4
330
1F
100
AcDbEntity
  8
HIDDEN
100
AcDbLine
 10
28.98773305148233
 20
108.1836925443756
 30
0.0
 11
20.70552360820166
 21
77.27406610312545
 31
0.0
1001
DBPROPERTIES
1002
{
1000
PbHidd
1002
}
  0
ARC
  5
4D5
330
1F
100
AcDbEntity
  8
HIDDEN
100
AcDbCircle
 10
0.0000000000000528
 20
0.0
 30
0.0
 40
112.0
100
AcDbArc
 50
75.00000349528622
 51
81.0000175258962
1001
DBPROPERTIES
1002
{
1000
PbHidd
1002
}
  0
LINE
  5
4D6
330
1F
100
AcDbEntity
  8
HIDDEN
100
AcDbLine
 10
12.51475720321847
 20
79.01506724761097
 30
0.0
 11
17.52066008450585
 21
110.6210941466553
 31
0.0
1001
DBPROPERTIES
1002
{
1000
PbHidd
1002
}
  0
LINE
  5
4D7
330
1F
100
AcDbEntity
  8
HIDDEN
100
AcDbLine
 10
5.861627099209718
 20
111.8465078925122
 30
0.0
 11
4.186876499435513
 21
79.89036278036588
 31
0.0
1001
DBPROPERTIES
1002
{
1000
PbHidd
1002
}
  0
ARC
  5
4D8
330
1F
100
AcDbEntity
  8
HIDDEN
100
AcDbCircle
 10
0.0000000000000528
 20
0.0
 30
0.0
 40
112.0
100
AcDbArc
 50
86.99997426072667
 51
92.99998829133665
1001
DBPROPERTIES
1002
{
1000
PbHidd
1002
}
  0
LINE
  5
4D9
330
1F
100
AcDbEntity
  8
HIDDEN
100
AcDbLine
 10
-4.186876499435487
 20
79.89036278036588
 30
0.0
 11
-5.861627099209678
 21
111.8465078925122
 31
0.0
1001
DBPROPERTIES
1002
{
1000
PbHidd
1002
}
  0
LINE
  5
4DA
330
1F
100
AcDbEntity
  8
HIDDEN
100
AcDbLine
 10
-17.52066008450582
 20
110.6210941466554
 30
0.0
 11
-12.51475720321845
 21
79.01506724761101
 31
0.0
1001
DBPROPERTIES
1002
{
1000
PbHidd
1002
}
  0
ARC
  5
4DB
330
1F
100
AcDbEntity
  8
HIDDEN
100
AcDbCircle
 10
0.0000000000000528
 20
0.0
 30
0.0
 40
112.0
100
AcDbArc
 50
99.00000232194662
 51
105.0000163525566
1001
DBPROPERTIES
1002
{
1000
PbHidd
1002
}
  0
LINE
  5
4DC
330
1F
100
AcDbEntity
  8
HIDDEN
100
AcDbLine
 10
-20.70552360820163
 20
77.27406610312539
 30
0.0
 11
-28.98773305148229
 21
108.1836925443756
 31
0.0
1001
DBPROPERTIES
1002
{
1000
PbHidd
1002
}
  0
LINE
  5
4DD
330
1F
100
AcDbEntity
  8
HIDDEN
100
AcDbLine
 10
-40.13721034907358
 20
104.5610077676865
 30
0.0
 11
-28.66943596362399
 21
74.6864341197761
 31
0.0
1001
DBPROPERTIES
1002
{
1000
PbHidd
1002
}
  0
ARC
  5
4DE
330
1F
100
AcDbEntity
  8
HIDDEN
100
AcDbCircle
 10
0.0000000000000528
 20
0.0
 30
0.0
 40
112.0
100
AcDbArc
 50
110.9999730873871
 51
116.9999871179971
1001
DBPROPERTIES
1002
{
1000
PbHidd
1002
}
  0
LINE
  5
4DF
330
1F
100
AcDbEntity
  8
HIDDEN
100
AcDbLine
 10
-36.3192399791637
 20
71.28052193506939
 30
0.0
 11
-50.84693597082918
 21
99.79273070909713
 31
0.0
1001
DBPROPERTIES
1002
{
1000
PbHidd
1002
}
  0
LINE
  5
4E0
330
1F
100
AcDbEntity
  8
HIDDEN
100
AcDbLine
 10
-60.999571921683
 20
93.93110360988749
 30
0.0
 11
-43.57112280120214
 21
67.0936454356339
 31
0.0
1001
DBPROPERTIES
1002
{
1000
PbHidd
1002
}
  0
ARC
  5
4E1
330
1F
100
AcDbEntity
  8
HIDDEN
100
AcDbCircle
 10
0.0000000000000528
 20
0.0
 30
0.0
 40
112.0
100
AcDbArc
 50
123.000001148607
 51
129.000015179217
1001
DBPROPERTIES
1002
{
1000
PbHidd
1002
}
  0
LINE
  5
4E2
330
1F
100
AcDbEntity
  8
HIDDEN
100
AcDbLine
 10
-50.34563128398695
 20
62.17167691655762
 30
0.0
 11
-70.48388379758171
 21
87.04034768318067
 31
0.0
1001
DBPROPERTIES
1002
{
1000
PbHidd
1002
}
  0
LINE
  5
4E3
330
1F
100
AcDbEntity
  8
HIDDEN
100
AcDbLine
 10
-79.19595949289322
 20
79.19595949289327
 30
0.0
 11
-56.56854249492373
 21
56.56854249492376
 31
0.0
1001
DBPROPERTIES
1002
{
1000
PbHidd
1002
}
  0
ARC
  5
4E4
330
1F
100
AcDbEntity
  8
HIDDEN
100
AcDbCircle
 10
0.0000000000000528
 20
0.0
 30
0.0
 40
112.0
100
AcDbArc
 50
134.9999719140475
 51
140.9999859446575
1001
DBPROPERTIES
1002
{
1000
PbHidd
1002
}
  0
LINE
  5
4E5
330
1F
100
AcDbEntity
  8
HIDDEN
100
AcDbLine
 10
-62.17167691655757
 20
50.34563128398698
 30
0.0
 11
-87.04034768318058
 21
70.48388379758175
 31
0.0
1001
DBPROPERTIES
1002
{
1000
PbHidd
1002
}
  0
LINE
  5
4E6
330
1F
100
AcDbEntity
  8
HIDDEN
100
AcDbLine
 10
-93.9311036098874
 20
60.99957192168304
 30
0.0
 11
-67.09364543563386
 21
43.57112280120217
 31
0.0
1001
DBPROPERTIES
1002
{
1000
PbHidd
1002
}
  0
ARC
  5
4E7
330
1F
100
AcDbEntity
  8
HIDDEN
100
AcDbCircle
 10
0.0000000000000528
 20
0.0
 30
0.0
 40
112.0
100
AcDbArc
 50
146.9999999752674
 51
153.0000140058774
1001
DBPROPERTIES
1002
{
1000
PbHidd
1002
}
  0
LINE
  5
4E8
330
1F
100
AcDbEntity
  8
HIDDEN
100
AcDbLine
 10
-71.28052193506933
 20
36.31923997916371
 30
0.0
 11
-99.79273070909707
 21
50.84693597082919
 31
0.0
1001
DBPROPERTIES
1002
{
1000
PbHidd
1002
}
  0
LINE
  5
4E9
330
1F
100
AcDbEntity
  8
HIDDEN
100
AcDbLine
 10
-104.5610077676865
 20
40.13721034907361
 30
0.0
 11
-74.68643411977605
 21
28.66943596362401
 31
0.0
1001
DBPROPERTIES
1002
{
1000
PbHidd
1002
}
  0
ARC
  5
4EA
330
1F
100
AcDbEntity
  8
HIDDEN
100
AcDbCircle
 10
0.0000000000000528
 20
0.0
 30
0.0
 40
112.0
100
AcDbArc
 50
159.0000280364874
 51
164.9999847713179
1001
DBPROPERTIES
1002
{
1000
PbHidd
1002
}
  0
LINE
  5
4EB
330
1F
100
AcDbEntity
  8
HIDDEN
100
AcDbLine
 10
-77.27406610312536
 20
20.70552360820165
 30
0.0
 11
-108.1836925443755
 21
28.98773305148232
 31
0.0
1001
DBPROPERTIES
1002
{
1000
PbHidd
1002
}
  0
LINE
  5
4EC
330
1F
100
AcDbEntity
  8
HIDDEN
100
AcDbLine
 10
-110.6210941466553
 20
17.52066008450588
 30
0.0
 11
-79.01506724761096
 21
12.51475720321848
 31
0.0
1001
DBPROPERTIES
1002
{
1000
PbHidd
1002
}
  0
ARC
  5
4ED
330
1F
100
AcDbEntity
  8
HIDDEN
100
AcDbCircle
 10
0.0000000000000528
 20
0.0
 30
0.0
 40
112.0
100
AcDbArc
 50
170.9999988019279
 51
177.0000128325378
1001
DBPROPERTIES
1002
{
1000
PbHidd
1002
}
  0
LINE
  5
4EE
330
1F
100
AcDbEntity
  8
HIDDEN
100
AcDbLine
 10
-79.89036278036582
 20
4.186876499435538
 30
0.0
 11
-111.8465078925122
 21
5.861627099209755
 31
0.0
1001
DBPROPERTIES
1002
{
1000
PbHidd
1002
}
  0
LINE
  5
4EF
330
1F
100
AcDbEntity
  8
HIDDEN
100
AcDbLine
 10
-111.8465078925122
 20
-5.861627099209645
 30
0.0
 11
-79.89036278036583
 21
-4.18687649943546
 31
0.0
1001
DBPROPERTIES
1002
{
1000
PbHidd
1002
}
  0
ARC
  5
4F0
330
1F
100
AcDbEntity
  8
HIDDEN
100
AcDbCircle
 10
0.0000000000000528
 20
0.0
 30
0.0
 40
112.0
100
AcDbArc
 50
182.9999871674622
 51
189.0000011980722
1001
DBPROPERTIES
1002
{
1000
PbHidd
1002
}
  0
LINE
  5
4F1
330
1F
100
AcDbEntity
  8
HIDDEN
100
AcDbLine
 10
-79.01506724761092
 20
-12.51475720321844
 30
0.0
 11
-110.6210941466553
 21
-17.52066008450582
 31
0.0
1001
DBPROPERTIES
1002
{
1000
PbHidd
1002
}
  0
LINE
  5
4F2
330
1F
100
AcDbEntity
  8
HIDDEN
100
AcDbLine
 10
-108.1836925443756
 20
-28.98773305148229
 30
0.0
 11
-77.27406610312542
 21
-20.70552360820163
 31
0.0
1001
DBPROPERTIES
1002
{
1000
PbHidd
1002
}
  0
ARC
  5
4F3
330
1F
100
AcDbEntity
  8
HIDDEN
100
AcDbCircle
 10
0.0000000000000528
 20
0.0
 30
0.0
 40
112.0
100
AcDbArc
 50
195.0000152286821
 51
200.9999719635126
1001
DBPROPERTIES
1002
{
1000
PbHidd
1002
}
  0
LINE
  5
4F4
330
1F
100
AcDbEntity
  8
HIDDEN
100
AcDbLine
 10
-74.68643411977604
 20
-28.66943596362395
 30
0.0
 11
-104.5610077676865
 21
-40.13721034907355
 31
0.0
1001
DBPROPERTIES
1002
{
1000
PbHidd
1002
}
  0
LINE
  5
4F5
330
1F
100
AcDbEntity
  8
HIDDEN
100
AcDbLine
 10
-99.79273070909719
 20
-50.84693597082919
 30
0.0
 11
-71.2805219350694
 21
-36.3192399791637
 31
0.0
1001
DBPROPERTIES
1002
{
1000
PbHidd
1002
}
  0
ARC
  5
4F6
330
1F
100
AcDbEntity
  8
HIDDEN
100
AcDbCircle
 10
0.0000000000000528
 20
0.0
 30
0.0
 40
112.0
100
AcDbArc
 50
206.9999859941226
 51
213.0000000247326
1001
DBPROPERTIES
1002
{
1000
PbHidd
1002
}
  0
LINE
  5
4F7
330
1F
100
AcDbEntity
  8
HIDDEN
100
AcDbLine
 10
-67.09364543563389
 20
-43.5711228012021
 30
0.0
 11
-93.93110360988743
 21
-60.99957192168293
 31
0.0
1001
DBPROPERTIES
1002
{
1000
PbHidd
1002
}
  0
LINE
  5
4F8
330
1F
100
AcDbEntity
  8
HIDDEN
100
AcDbLine
 10
-87.04034768318073
 20
-70.48388379758173
 30
0.0
 11
-62.17167691655764
 21
-50.34563128398693
 31
0.0
1001
DBPROPERTIES
1002
{
1000
PbHidd
1002
}
  0
ARC
  5
4F9
330
1F
100
AcDbEntity
  8
HIDDEN
100
AcDbCircle
 10
0.0000000000000528
 20
0.0
 30
0.0
 40
112.0
100
AcDbArc
 50
219.0000140553425
 51
225.0000280859525
1001
DBPROPERTIES
1002
{
1000
PbHidd
1002
}
  0
LINE
  5
4FA
330
1F
100
AcDbEntity
  8
HIDDEN
100
AcDbLine
 10
-56.56854249492376
 20
-56.56854249492373
 30
0.0
 11
-79.19595949289327
 21
-79.19595949289322
 31
0.0
1001
DBPROPERTIES
1002
{
1000
PbHidd
1002
}
  0
LINE
  5
4FB
330
1F
100
AcDbEntity
  8
HIDDEN
100
AcDbLine
 10
-70.48388379758177
 20
-87.04034768318064
 30
0.0
 11
-50.34563128398697
 21
-62.1716769165576
 31
0.0
1001
DBPROPERTIES
1002
{
1000
PbHidd
1002
}
  0
ARC
  5
4FC
330
1F
100
AcDbEntity
  8
HIDDEN
100
AcDbCircle
 10
0.0000000000000528
 20
0.0
 30
0.0
 40
112.0
100
AcDbArc
 50
230.999984820783
 51
236.999998851393
1001
DBPROPERTIES
1002
{
1000
PbHidd
1002
}
  0
LINE
  5
4FD
330
1F
100
AcDbEntity
  8
HIDDEN
100
AcDbLine
 10
-43.57112280120216
 20
-67.09364543563387
 30
0.0
 11
-60.99957192168303
 21
-93.93110360988742
 31
0.0
1001
DBPROPERTIES
1002
{
1000
PbHidd
1002
}
  0
LINE
  5
4FE
330
1F
100
AcDbEntity
  8
HIDDEN
100
AcDbLine
 10
-50.84693597082926
 20
-99.79273070909716
 30
0.0
 11
-36.31923997916376
 21
-71.2805219350694
 31
0.0
1001
DBPROPERTIES
1002
{
1000
PbHidd
1002
}
  0
ARC
  5
4FF
330
1F
100
AcDbEntity
  8
HIDDEN
100
AcDbCircle
 10
0.0000000000000528
 20
0.0
 30
0.0
 40
112.0
100
AcDbArc
 50
243.0000128820029
 51
249.0000269126129
1001
DBPROPERTIES
1002
{
1000
PbHidd
1002
}
  0
LINE
  5
500
330
1F
100
AcDbEntity
  8
HIDDEN
100
AcDbLine
 10
-28.66943596362404
 20
-74.68643411977607
 30
0.0
 11
-40.13721034907366
 21
-104.5610077676865
 31
0.0
1001
DBPROPERTIES
1002
{
1000
PbHidd
1002
}
  0
LINE
  5
501
330
1F
100
AcDbEntity
  8
HIDDEN
100
AcDbLine
 10
-28.98773305148239
 20
-108.1836925443756
 30
0.0
 11
-20.70552360820171
 21
-77.27406610312545
 31
0.0
1001
DBPROPERTIES
1002
{
1000
PbHidd
1002
}
  0
ARC
  5
502
330
1F
100
AcDbEntity
  8
HIDDEN
100
AcDbCircle
 10
0.0000000000000528
 20
0.0
 30
0.0
 40
112.0
100
AcDbArc
 50
254.9999836474434
 51
260.9999976780534
1001
DBPROPERTIES
1002
{
1000
PbHidd
1002
}
  0
LINE
  5
503
330
1F
100
AcDbEntity
  8
HIDDEN
100
AcDbLine
 10
-12.51475720321848
 20
-79.01506724761096
 30
0.0
 11
-17.52066008450586
 21
-110.6210941466553
 31
0.0
1001
DBPROPERTIES
1002
{
1000
PbHidd
1002
}
  0
LINE
  5
504
330
1F
100
AcDbEntity
  8
HIDDEN
100
AcDbLine
 10
-5.861627099209732
 20
-111.8465078925122
 30
0.0
 11
-4.186876499435524
 21
-79.89036278036588
 31
0.0
1001
DBPROPERTIES
1002
{
1000
PbHidd
1002
}
  0
ARC
  5
505
330
1F
100
AcDbEntity
  8
HIDDEN
100
AcDbCircle
 10
0.0000000000000528
 20
0.0
 30
0.0
 40
112.0
100
AcDbArc
 50
267.0000117086634
 51
273.0000257392733
1001
DBPROPERTIES
1002
{
1000
PbHidd
1002
}
  0
LINE
  5
506
330
1F
100
AcDbEntity
  8
HIDDEN
100
AcDbLine
 10
4.186876499435442
 20
-79.89036278036589
 30
0.0
 11
5.861627099209617
 21
-111.8465078925122
 31
0.0
1001
DBPROPERTIES
1002
{
1000
PbHidd
1002
}
  0
LINE
  5
507
330
1F
100
AcDbEntity
  8
HIDDEN
100
AcDbLine
 10
17.52066008450577
 20
-110.6210941466555
 30
0.0
 11
12.5147572032184
 21
-79.01506724761103
 31
0.0
1001
DBPROPERTIES
1002
{
1000
PbHidd
1002
}
  0
ARC
  5
508
330
1F
100
AcDbEntity
  8
HIDDEN
100
AcDbCircle
 10
0.0000000000000528
 20
0.0
 30
0.0
 40
112.0
100
AcDbArc
 50
278.9999824741038
 51
284.9999965047138
1001
DBPROPERTIES
1002
{
1000
PbHidd
1002
}
  0
LINE
  5
509
330
1F
100
AcDbEntity
  8
HIDDEN
100
AcDbLine
 10
20.70552360820161
 20
-77.27406610312542
 30
0.0
 11
28.98773305148225
 21
-108.1836925443756
 31
0.0
1001
DBPROPERTIES
1002
{
1000
PbHidd
1002
}
  0
LINE
  5
50A
330
1F
100
AcDbEntity
  8
HIDDEN
100
AcDbLine
 10
40.13721034907356
 20
-104.5610077676866
 30
0.0
 11
28.66943596362398
 21
-74.68643411977615
 31
0.0
1001
DBPROPERTIES
1002
{
1000
PbHidd
1002
}
  0
ARC
  5
50B
330
1F
100
AcDbEntity
  8
HIDDEN
100
AcDbCircle
 10
0.0000000000000528
 20
0.0
 30
0.0
 40
112.0
100
AcDbArc
 50
291.0000105353237
 51
297.0000245659338
1001
DBPROPERTIES
1002
{
1000
PbHidd
1002
}
  0
LINE
  5
50C
330
1F
100
AcDbEntity
  8
HIDDEN
100
AcDbLine
 10
36.31923997916372
 20
-71.28052193506942
 30
0.0
 11
50.84693597082918
 21
-99.79273070909716
 31
0.0
1001
DBPROPERTIES
1002
{
1000
PbHidd
1002
}
  0
LINE
  5
50D
330
1F
100
AcDbEntity
  8
HIDDEN
100
AcDbLine
 10
60.99957192168302
 20
-93.93110360988751
 30
0.0
 11
43.57112280120216
 21
-67.09364543563396
 31
0.0
1001
DBPROPERTIES
1002
{
1000
PbHidd
1002
}
  0
ARC
  5
50E
330
1F
100
AcDbEntity
  8
HIDDEN
100
AcDbCircle
 10
0.0000000000000528
 20
0.0
 30
0.0
 40
112.0
100
AcDbArc
 50
302.9999813007643
 51
308.9999953313742
1001
DBPROPERTIES
1002
{
1000
PbHidd
1002
}
  0
LINE
  5
50F
330
1F
100
AcDbEntity
  8
HIDDEN
100
AcDbLine
 10
50.34563128398695
 20
-62.17167691655772
 30
0.0
 11
70.48388379758171
 21
-87.04034768318078
 31
0.0
1001
DBPROPERTIES
1002
{
1000
PbHidd
1002
}
  0
LINE
  5
510
330
1F
100
AcDbEntity
  8
HIDDEN
100
AcDbLine
 10
79.19595949289328
 20
-79.19595949289341
 30
0.0
 11
56.56854249492378
 21
-56.56854249492386
 31
0.0
1001
DBPROPERTIES
1002
{
1000
PbHidd
1002
}
  0
ARC
  5
511
330
1F
100
AcDbEntity
  8
HIDDEN
100
AcDbCircle
 10
0.0000000000000528
 20
0.0
 30
0.0
 40
112.0
100
AcDbArc
 50
315.0000093619842
 51
321.0000233925941
1001
DBPROPERTIES
1002
{
1000
PbHidd
1002
}
  0
LINE
  5
512
330
1F
100
AcDbEntity
  8
HIDDEN
100
AcDbLine
 10
62.17167691655764
 20
-50.34563128398703
 30
0.0
 11
87.04034768318066
 21
-70.4838837975818
 31
0.0
1001
DBPROPERTIES
1002
{
1000
PbHidd
1002
}
  0
LINE
  5
513
330
1F
100
AcDbEntity
  8
HIDDEN
100
AcDbLine
 10
93.93110360988749
 20
-60.99957192168308
 30
0.0
 11
67.09364543563393
 21
-43.57112280120221
 31
0.0
1001
DBPROPERTIES
1002
{
1000
PbHidd
1002
}
  0
ARC
  5
514
330
1F
100
AcDbEntity
  8
HIDDEN
100
AcDbCircle
 10
0.0000000000000528
 20
0.0
 30
0.0
 40
112.0
100
AcDbArc
 50
326.9999801274246
 51
332.9999941580346
1001
DBPROPERTIES
1002
{
1000
PbHidd
1002
}
  0
LINE
  5
515
330
1F
100
AcDbEntity
  8
HIDDEN
100
AcDbLine
 10
71.28052193506943
 20
-36.31923997916377
 30
0.0
 11
99.79273070909719
 21
-50.84693597082928
 31
0.0
1001
DBPROPERTIES
1002
{
1000
PbHidd
1002
}
  0
LINE
  5
516
330
1F
100
AcDbEntity
  8
HIDDEN
100
AcDbLine
 10
104.5610077676866
 20
-40.13721034907369
 30
0.0
 11
74.68643411977617
 21
-28.66943596362407
 31
0.0
1001
DBPROPERTIES
1002
{
1000
PbHidd
1002
}
  0
ARC
  5
517
330
1F
100
AcDbEntity
  8
HIDDEN
100
AcDbCircle
 10
0.0000000000000528
 20
0.0
 30
0.0
 40
112.0
100
AcDbArc
 50
339.0000081886445
 51
345.0000222192546
1001
DBPROPERTIES
1002
{
1000
PbHidd
1002
}
  0
LINE
  5
518
330
1F
100
AcDbEntity
  8
HIDDEN
100
AcDbLine
 10
77.27406610312546
 20
-20.70552360820173
 30
0.0
 11
108.1836925443756
 21
-28.98773305148241
 31
0.0
1001
DBPROPERTIES
1002
{
1000
PbHidd
1002
}
  0
LINE
  5
519
330
1F
100
AcDbEntity
  8
HIDDEN
100
AcDbLine
 10
110.6210941466555
 20
-17.52066008450597
 30
0.0
 11
79.01506724761106
 21
-12.51475720321855
 31
0.0
1001
DBPROPERTIES
1002
{
1000
PbHidd
1002
}
  0
LINE
  5
51A
330
1F
100
AcDbEntity
  8
HIDDEN
100
AcDbLine
 10
69.13818384165968
 20
10.95041255281617
 30
0.0
 11
69.13818384165968
 21
10.95041255281617
 31
0.0
1001
DBPROPERTIES
1002
{
1000
PbHidd
1002
}
  0
LINE
  5
51B
330
1F
100
AcDbEntity
  8
HIDDEN
100
AcDbLine
 10
67.61480784023483
 20
18.11733315717646
 30
0.0
 11
67.61480784023483
 21
18.11733315717646
 31
0.0
1001
DBPROPERTIES
1002
{
1000
PbHidd
1002
}
  0
LINE
  5
51C
330
1F
100
AcDbEntity
  8
HIDDEN
100
AcDbLine
 10
110.6210941466555
 20
17.52066008450586
 30
0.0
 11
110.6210941466555
 21
17.52066008450586
 31
0.0
1001
DBPROPERTIES
1002
{
1000
PbHidd
1002
}
  0
LINE
  5
51D
330
1F
100
AcDbEntity
  8
HIDDEN
100
AcDbLine
 10
45.99335372704691
 20
7.284631588706747
 30
0.0
 11
45.99335372704691
 21
7.284631588706747
 31
0.0
1001
DBPROPERTIES
1002
{
1000
PbHidd
1002
}
  0
LINE
  5
51E
330
1F
100
AcDbEntity
  8
HIDDEN
100
AcDbLine
 10
45.99335372704689
 20
-7.284631588706787
 30
0.0
 11
45.99335372704689
 21
-7.284631588706787
 31
0.0
1001
DBPROPERTIES
1002
{
1000
PbHidd
1002
}
  0
LINE
  5
51F
330
1F
100
AcDbEntity
  8
HIDDEN
100
AcDbLine
 10
43.47372852721967
 20
-16.68800085049283
 30
0.0
 11
43.47372852721967
 21
-16.68800085049283
 31
0.0
1001
DBPROPERTIES
1002
{
1000
PbHidd
1002
}
  0
LINE
  5
520
330
1F
100
AcDbEntity
  8
HIDDEN
100
AcDbLine
 10
104.5610077676866
 20
-40.1372103490737
 30
0.0
 11
104.5610077676866
 21
-40.1372103490737
 31
0.0
1001
DBPROPERTIES
1002
{
1000
PbHidd
1002
}
  0
LINE
  5
521
330
1F
100
AcDbEntity
  8
HIDDEN
100
AcDbLine
 10
44.9799459775276
 20
-12.05234020027409
 30
0.0
 11
44.9799459775276
 21
-12.05234020027409
 31
0.0
1001
DBPROPERTIES
1002
{
1000
PbHidd
1002
}
  0
LINE
  5
522
330
1F
100
AcDbEntity
  8
HIDDEN
100
AcDbLine
 10
99.79273070909723
 20
-50.84693597082929
 30
0.0
 11
99.79273070909723
 21
-50.84693597082929
 31
0.0
1001
DBPROPERTIES
1002
{
1000
PbHidd
1002
}
  0
LINE
  5
523
330
1F
100
AcDbEntity
  8
HIDDEN
100
AcDbLine
 10
93.9311036098875
 20
-60.9995719216831
 30
0.0
 11
93.9311036098875
 21
-60.9995719216831
 31
0.0
1001
DBPROPERTIES
1002
{
1000
PbHidd
1002
}
  0
LINE
  5
524
330
1F
100
AcDbEntity
  8
HIDDEN
100
AcDbLine
 10
39.05409278065855
 20
-25.36202439719977
 30
0.0
 11
39.05409278065855
 21
-25.36202439719977
 31
0.0
1001
DBPROPERTIES
1002
{
1000
PbHidd
1002
}
  0
LINE
  5
525
330
1F
100
AcDbEntity
  8
HIDDEN
100
AcDbLine
 10
41.49120380970498
 20
-21.14082427120491
 30
0.0
 11
41.49120380970498
 21
-21.14082427120491
 31
0.0
1001
DBPROPERTIES
1002
{
1000
PbHidd
1002
}
  0
LINE
  5
526
330
1F
100
AcDbEntity
  8
HIDDEN
100
AcDbLine
 10
87.04034768318073
 20
-70.48388379758185
 30
0.0
 11
87.04034768318073
 21
-70.48388379758185
 31
0.0
1001
DBPROPERTIES
1002
{
1000
PbHidd
1002
}
  0
LINE
  5
527
330
1F
100
AcDbEntity
  8
HIDDEN
100
AcDbLine
 10
79.19595949289328
 20
-79.19595949289341
 30
0.0
 11
79.19595949289328
 21
-79.19595949289341
 31
0.0
1001
DBPROPERTIES
1002
{
1000
PbHidd
1002
}
  0
LINE
  5
528
330
1F
100
AcDbEntity
  8
HIDDEN
100
AcDbLine
 10
32.92760577725353
 20
-32.92760577725358
 30
0.0
 11
32.92760577725353
 21
-32.92760577725358
 31
0.0
1001
DBPROPERTIES
1002
{
1000
PbHidd
1002
}
  0
LINE
  5
529
330
1F
100
AcDbEntity
  8
HIDDEN
100
AcDbLine
 10
36.18909693851292
 20
-29.30535287655411
 30
0.0
 11
36.18909693851292
 21
-29.30535287655411
 31
0.0
1001
DBPROPERTIES
1002
{
1000
PbHidd
1002
}
  0
LINE
  5
52A
330
1F
100
AcDbEntity
  8
HIDDEN
100
AcDbLine
 10
70.48388379758174
 20
-87.04034768318081
 30
0.0
 11
70.48388379758174
 21
-87.04034768318081
 31
0.0
1001
DBPROPERTIES
1002
{
1000
PbHidd
1002
}
  0
LINE
  5
52B
330
1F
100
AcDbEntity
  8
HIDDEN
100
AcDbLine
 10
60.99957192168302
 20
-93.93110360988751
 30
0.0
 11
60.99957192168303
 21
-93.93110360988751
 31
0.0
1001
DBPROPERTIES
1002
{
1000
PbHidd
1002
}
  0
LINE
  5
52C
330
1F
100
AcDbEntity
  8
HIDDEN
100
AcDbLine
 10
25.36202439719975
 20
-39.05409278065857
 30
0.0
 11
25.36202439719975
 21
-39.05409278065857
 31
0.0
1001
DBPROPERTIES
1002
{
1000
PbHidd
1002
}
  0
LINE
  5
52D
330
1F
100
AcDbEntity
  8
HIDDEN
100
AcDbLine
 10
29.30535287655406
 20
-36.18909693851297
 30
0.0
 11
29.30535287655406
 21
-36.18909693851297
 31
0.0
1001
DBPROPERTIES
1002
{
1000
PbHidd
1002
}
  0
LINE
  5
52E
330
1F
100
AcDbEntity
  8
HIDDEN
100
AcDbLine
 10
50.84693597082924
 20
-99.79273070909721
 30
0.0
 11
50.84693597082923
 21
-99.79273070909721
 31
0.0
1001
DBPROPERTIES
1002
{
1000
PbHidd
1002
}
  0
LINE
  5
52F
330
1F
100
AcDbEntity
  8
HIDDEN
100
AcDbLine
 10
40.13721034907358
 20
-104.5610077676866
 30
0.0
 11
40.13721034907358
 21
-104.5610077676866
 31
0.0
1001
DBPROPERTIES
1002
{
1000
PbHidd
1002
}
  0
LINE
  5
530
330
1F
100
AcDbEntity
  8
HIDDEN
100
AcDbLine
 10
16.68800085049279
 20
-43.47372852721968
 30
0.0
 11
16.68800085049279
 21
-43.47372852721968
 31
0.0
1001
DBPROPERTIES
1002
{
1000
PbHidd
1002
}
  0
LINE
  5
531
330
1F
100
AcDbEntity
  8
HIDDEN
100
AcDbLine
 10
21.14082427120488
 20
-41.491203809705
 30
0.0
 11
21.14082427120488
 21
-41.491203809705
 31
0.0
1001
DBPROPERTIES
1002
{
1000
PbHidd
1002
}
  0
LINE
  5
532
330
1F
100
AcDbEntity
  8
HIDDEN
100
AcDbLine
 10
28.98773305148227
 20
-108.1836925443757
 30
0.0
 11
28.98773305148227
 21
-108.1836925443757
 31
0.0
1001
DBPROPERTIES
1002
{
1000
PbHidd
1002
}
  0
LINE
  5
533
330
1F
100
AcDbEntity
  8
HIDDEN
100
AcDbLine
 10
17.52066008450577
 20
-110.6210941466555
 30
0.0
 11
17.52066008450577
 21
-110.6210941466555
 31
0.0
1001
DBPROPERTIES
1002
{
1000
PbHidd
1002
}
  0
LINE
  5
534
330
1F
100
AcDbEntity
  8
HIDDEN
100
AcDbLine
 10
7.284631588706714
 20
-45.9933537270469
 30
0.0
 11
7.284631588706714
 21
-45.9933537270469
 31
0.0
1001
DBPROPERTIES
1002
{
1000
PbHidd
1002
}
  0
LINE
  5
535
330
1F
100
AcDbEntity
  8
HIDDEN
100
AcDbLine
 10
12.05234020027402
 20
-44.97994597752761
 30
0.0
 11
12.05234020027402
 21
-44.97994597752761
 31
0.0
1001
DBPROPERTIES
1002
{
1000
PbHidd
1002
}
  0
LINE
  5
536
330
1F
100
AcDbEntity
  8
HIDDEN
100
AcDbLine
 10
5.861627099209625
 20
-111.8465078925123
 30
0.0
 11
5.861627099209621
 21
-111.8465078925123
 31
0.0
1001
DBPROPERTIES
1002
{
1000
PbHidd
1002
}
  0
LINE
  5
537
330
1F
100
AcDbEntity
  8
HIDDEN
100
AcDbLine
 10
-5.861627099209736
 20
-111.8465078925123
 30
0.0
 11
-5.861627099209732
 21
-111.8465078925123
 31
0.0
1001
DBPROPERTIES
1002
{
1000
PbHidd
1002
}
  0
LINE
  5
538
330
1F
100
AcDbEntity
  8
HIDDEN
100
AcDbLine
 10
-2.437111029046426
 20
-46.50284866840463
 30
0.0
 11
-2.437111029046426
 21
-46.50284866840463
 31
0.0
1001
DBPROPERTIES
1002
{
1000
PbHidd
1002
}
  0
LINE
  5
539
330
1F
100
AcDbEntity
  8
HIDDEN
100
AcDbLine
 10
2.437111029046379
 20
-46.50284866840465
 30
0.0
 11
2.437111029046379
 21
-46.50284866840465
 31
0.0
1001
DBPROPERTIES
1002
{
1000
PbHidd
1002
}
  0
LINE
  5
53A
330
1F
100
AcDbEntity
  8
HIDDEN
100
AcDbLine
 10
-17.52066008450587
 20
-110.6210941466554
 30
0.0
 11
-17.52066008450588
 21
-110.6210941466554
 31
0.0
1001
DBPROPERTIES
1002
{
1000
PbHidd
1002
}
  0
LINE
  5
53B
330
1F
100
AcDbEntity
  8
HIDDEN
100
AcDbLine
 10
-28.98773305148239
 20
-108.1836925443756
 30
0.0
 11
-28.98773305148239
 21
-108.1836925443756
 31
0.0
1001
DBPROPERTIES
1002
{
1000
PbHidd
1002
}
  0
LINE
  5
53C
330
1F
100
AcDbEntity
  8
HIDDEN
100
AcDbLine
 10
-12.05234020027407
 20
-44.97994597752759
 30
0.0
 11
-12.05234020027407
 21
-44.97994597752759
 31
0.0
1001
DBPROPERTIES
1002
{
1000
PbHidd
1002
}
  0
LINE
  5
53D
330
1F
100
AcDbEntity
  8
HIDDEN
100
AcDbLine
 10
-7.284631588706762
 20
-45.9933537270469
 30
0.0
 11
-7.284631588706762
 21
-45.9933537270469
 31
0.0
1001
DBPROPERTIES
1002
{
1000
PbHidd
1002
}
  0
LINE
  5
53E
330
1F
100
AcDbEntity
  8
HIDDEN
100
AcDbLine
 10
-40.13721034907368
 20
-104.5610077676866
 30
0.0
 11
-40.13721034907368
 21
-104.5610077676866
 31
0.0
1001
DBPROPERTIES
1002
{
1000
PbHidd
1002
}
  0
LINE
  5
53F
330
1F
100
AcDbEntity
  8
HIDDEN
100
AcDbLine
 10
-50.84693597082926
 20
-99.79273070909716
 30
0.0
 11
-50.84693597082926
 21
-99.79273070909716
 31
0.0
1001
DBPROPERTIES
1002
{
1000
PbHidd
1002
}
  0
LINE
  5
540
330
1F
100
AcDbEntity
  8
HIDDEN
100
AcDbLine
 10
-21.1408242712049
 20
-41.49120380970498
 30
0.0
 11
-21.1408242712049
 21
-41.49120380970498
 31
0.0
1001
DBPROPERTIES
1002
{
1000
PbHidd
1002
}
  0
LINE
  5
541
330
1F
100
AcDbEntity
  8
HIDDEN
100
AcDbLine
 10
-16.68800085049284
 20
-43.47372852721968
 30
0.0
 11
-16.68800085049284
 21
-43.47372852721968
 31
0.0
1001
DBPROPERTIES
1002
{
1000
PbHidd
1002
}
  0
LINE
  5
542
330
1F
100
AcDbEntity
  8
HIDDEN
100
AcDbLine
 10
-60.99957192168304
 20
-93.93110360988744
 30
0.0
 11
-60.99957192168305
 21
-93.93110360988744
 31
0.0
1001
DBPROPERTIES
1002
{
1000
PbHidd
1002
}
  0
LINE
  5
543
330
1F
100
AcDbEntity
  8
HIDDEN
100
AcDbLine
 10
-70.4838837975818
 20
-87.04034768318068
 30
0.0
 11
-70.4838837975818
 21
-87.04034768318068
 31
0.0
1001
DBPROPERTIES
1002
{
1000
PbHidd
1002
}
  0
LINE
  5
544
330
1F
100
AcDbEntity
  8
HIDDEN
100
AcDbLine
 10
-29.30535287655409
 20
-36.18909693851292
 30
0.0
 11
-29.30535287655409
 21
-36.18909693851292
 31
0.0
1001
DBPROPERTIES
1002
{
1000
PbHidd
1002
}
  0
LINE
  5
545
330
1F
100
AcDbEntity
  8
HIDDEN
100
AcDbLine
 10
-25.36202439719978
 20
-39.05409278065856
 30
0.0
 11
-25.36202439719978
 21
-39.05409278065856
 31
0.0
1001
DBPROPERTIES
1002
{
1000
PbHidd
1002
}
  0
LINE
  5
546
330
1F
100
AcDbEntity
  8
HIDDEN
100
AcDbLine
 10
-79.19595949289331
 20
-79.19595949289328
 30
0.0
 11
-79.19595949289331
 21
-79.19595949289328
 31
0.0
1001
DBPROPERTIES
1002
{
1000
PbHidd
1002
}
  0
LINE
  5
547
330
1F
100
AcDbEntity
  8
HIDDEN
100
AcDbLine
 10
-87.04034768318074
 20
-70.48388379758174
 30
0.0
 11
-87.04034768318074
 21
-70.48388379758174
 31
0.0
1001
DBPROPERTIES
1002
{
1000
PbHidd
1002
}
  0
LINE
  5
548
330
1F
100
AcDbEntity
  8
HIDDEN
100
AcDbLine
 10
-36.18909693851294
 20
-29.30535287655407
 30
0.0
 11
-36.18909693851294
 21
-29.30535287655407
 31
0.0
1001
DBPROPERTIES
1002
{
1000
PbHidd
1002
}
  0
LINE
  5
549
330
1F
100
AcDbEntity
  8
HIDDEN
100
AcDbLine
 10
-32.92760577725357
 20
-32.92760577725355
 30
0.0
 11
-32.92760577725357
 21
-32.92760577725355
 31
0.0
1001
DBPROPERTIES
1002
{
1000
PbHidd
1002
}
  0
LINE
  5
54A
330
1F
100
AcDbEntity
  8
HIDDEN
100
AcDbLine
 10
-93.93110360988747
 20
-60.99957192168296
 30
0.0
 11
-93.93110360988747
 21
-60.99957192168296
 31
0.0
1001
DBPROPERTIES
1002
{
1000
PbHidd
1002
}
  0
LINE
  5
54B
330
1F
100
AcDbEntity
  8
HIDDEN
100
AcDbLine
 10
-99.79273070909717
 20
-50.84693597082919
 30
0.0
 11
-99.79273070909717
 21
-50.84693597082919
 31
0.0
1001
DBPROPERTIES
1002
{
1000
PbHidd
1002
}
  0
LINE
  5
54C
330
1F
100
AcDbEntity
  8
HIDDEN
100
AcDbLine
 10
-41.49120380970499
 20
-21.14082427120488
 30
0.0
 11
-41.49120380970499
 21
-21.14082427120488
 31
0.0
1001
DBPROPERTIES
1002
{
1000
PbHidd
1002
}
  0
LINE
  5
54D
330
1F
100
AcDbEntity
  8
HIDDEN
100
AcDbLine
 10
-39.05409278065858
 20
-25.36202439719974
 30
0.0
 11
-39.05409278065858
 21
-25.36202439719974
 31
0.0
1001
DBPROPERTIES
1002
{
1000
PbHidd
1002
}
  0
LINE
  5
54E
330
1F
100
AcDbEntity
  8
HIDDEN
100
AcDbLine
 10
-104.5610077676866
 20
-40.13721034907357
 30
0.0
 11
-104.5610077676866
 21
-40.13721034907357
 31
0.0
1001
DBPROPERTIES
1002
{
1000
PbHidd
1002
}
  0
LINE
  5
54F
330
1F
100
AcDbEntity
  8
HIDDEN
100
AcDbLine
 10
-108.1836925443756
 20
-28.98773305148229
 30
0.0
 11
-108.1836925443756
 21
-28.98773305148229
 31
0.0
1001
DBPROPERTIES
1002
{
1000
PbHidd
1002
}
  0
LINE
  5
550
330
1F
100
AcDbEntity
  8
HIDDEN
100
AcDbLine
 10
-44.9799459775276
 20
-12.05234020027404
 30
0.0
 11
-44.9799459775276
 21
-12.05234020027404
 31
0.0
1001
DBPROPERTIES
1002
{
1000
PbHidd
1002
}
  0
LINE
  5
551
330
1F
100
AcDbEntity
  8
HIDDEN
100
AcDbLine
 10
-43.47372852721969
 20
-16.6880008504928
 30
0.0
 11
-43.47372852721969
 21
-16.6880008504928
 31
0.0
1001
DBPROPERTIES
1002
{
1000
PbHidd
1002
}
  0
LINE
  5
552
330
1F
100
AcDbEntity
  8
HIDDEN
100
AcDbLine
 10
-110.6210941466554
 20
-17.52066008450583
 30
0.0
 11
-110.6210941466554
 21
-17.52066008450583
 31
0.0
1001
DBPROPERTIES
1002
{
1000
PbHidd
1002
}
  0
LINE
  5
553
330
1F
100
AcDbEntity
  8
HIDDEN
100
AcDbLine
 10
-111.8465078925122
 20
-5.861627099209649
 30
0.0
 11
-111.8465078925122
 21
-5.861627099209649
 31
0.0
1001
DBPROPERTIES
1002
{
1000
PbHidd
1002
}
  0
LINE
  5
554
330
1F
100
AcDbEntity
  8
HIDDEN
100
AcDbLine
 10
-46.50284866840464
 20
-2.437111029046397
 30
0.0
 11
-46.50284866840464
 21
-2.437111029046397
 31
0.0
1001
DBPROPERTIES
1002
{
1000
PbHidd
1002
}
  0
LINE
  5
555
330
1F
100
AcDbEntity
  8
HIDDEN
100
AcDbLine
 10
-45.99335372704691
 20
-7.284631588706741
 30
0.0
 11
-45.99335372704691
 21
-7.284631588706741
 31
0.0
1001
DBPROPERTIES
1002
{
1000
PbHidd
1002
}
  0
LINE
  5
556
330
1F
100
AcDbEntity
  8
HIDDEN
100
AcDbLine
 10
-111.8465078925122
 20
5.861627099209757
 30
0.0
 11
-111.8465078925122
 21
5.861627099209757
 31
0.0
1001
DBPROPERTIES
1002
{
1000
PbHidd
1002
}
  0
LINE
  5
557
330
1F
100
AcDbEntity
  8
HIDDEN
100
AcDbLine
 10
-110.6210941466554
 20
17.52066008450588
 30
0.0
 11
-110.6210941466554
 21
17.52066008450588
 31
0.0
1001
DBPROPERTIES
1002
{
1000
PbHidd
1002
}
  0
LINE
  5
558
330
1F
100
AcDbEntity
  8
HIDDEN
100
AcDbLine
 10
-45.99335372704689
 20
7.284631588706761
 30
0.0
 11
-45.99335372704689
 21
7.284631588706761
 31
0.0
1001
DBPROPERTIES
1002
{
1000
PbHidd
1002
}
  0
LINE
  5
559
330
1F
100
AcDbEntity
  8
HIDDEN
100
AcDbLine
 10
-46.50284866840465
 20
2.437111029046441
 30
0.0
 11
-46.50284866840465
 21
2.437111029046441
 31
0.0
1001
DBPROPERTIES
1002
{
1000
PbHidd
1002
}
  0
LINE
  5
55A
330
1F
100
AcDbEntity
  8
HIDDEN
100
AcDbLine
 10
-108.1836925443756
 20
28.98773305148234
 30
0.0
 11
-108.1836925443756
 21
28.98773305148234
 31
0.0
1001
DBPROPERTIES
1002
{
1000
PbHidd
1002
}
  0
LINE
  5
55B
330
1F
100
AcDbEntity
  8
HIDDEN
100
AcDbLine
 10
-104.5610077676865
 20
40.13721034907363
 30
0.0
 11
-104.5610077676865
 21
40.13721034907363
 31
0.0
1001
DBPROPERTIES
1002
{
1000
PbHidd
1002
}
  0
LINE
  5
55C
330
1F
100
AcDbEntity
  8
HIDDEN
100
AcDbLine
 10
-43.47372852721967
 20
16.68800085049281
 30
0.0
 11
-43.47372852721967
 21
16.68800085049281
 31
0.0
1001
DBPROPERTIES
1002
{
1000
PbHidd
1002
}
  0
LINE
  5
55D
330
1F
100
AcDbEntity
  8
HIDDEN
100
AcDbLine
 10
-44.9799459775276
 20
12.05234020027406
 30
0.0
 11
-44.9799459775276
 21
12.05234020027406
 31
0.0
1001
DBPROPERTIES
1002
{
1000
PbHidd
1002
}
  0
LINE
  5
55E
330
1F
100
AcDbEntity
  8
HIDDEN
100
AcDbLine
 10
-99.79273070909714
 20
50.84693597082924
 30
0.0
 11
-99.79273070909714
 21
50.84693597082924
 31
0.0
1001
DBPROPERTIES
1002
{
1000
PbHidd
1002
}
  0
LINE
  5
55F
330
1F
100
AcDbEntity
  8
HIDDEN
100
AcDbLine
 10
-93.93110360988743
 20
60.99957192168306
 30
0.0
 11
-93.93110360988743
 21
60.99957192168306
 31
0.0
1001
DBPROPERTIES
1002
{
1000
PbHidd
1002
}
  0
LINE
  5
560
330
1F
100
AcDbEntity
  8
HIDDEN
100
AcDbLine
 10
-39.05409278065855
 20
25.36202439719977
 30
0.0
 11
-39.05409278065855
 21
25.36202439719977
 31
0.0
1001
DBPROPERTIES
1002
{
1000
PbHidd
1002
}
  0
LINE
  5
561
330
1F
100
AcDbEntity
  8
HIDDEN
100
AcDbLine
 10
-41.49120380970498
 20
21.1408242712049
 30
0.0
 11
-41.49120380970498
 21
21.1408242712049
 31
0.0
1001
DBPROPERTIES
1002
{
1000
PbHidd
1002
}
  0
LINE
  5
562
330
1F
100
AcDbEntity
  8
HIDDEN
100
AcDbLine
 10
-87.04034768318067
 20
70.48388379758181
 30
0.0
 11
-87.04034768318067
 21
70.48388379758181
 31
0.0
1001
DBPROPERTIES
1002
{
1000
PbHidd
1002
}
  0
LINE
  5
563
330
1F
100
AcDbEntity
  8
HIDDEN
100
AcDbLine
 10
-79.19595949289328
 20
79.19595949289331
 30
0.0
 11
-79.19595949289328
 21
79.19595949289331
 31
0.0
1001
DBPROPERTIES
1002
{
1000
PbHidd
1002
}
  0
LINE
  5
564
330
1F
100
AcDbEntity
  8
HIDDEN
100
AcDbLine
 10
-32.92760577725354
 20
32.92760577725355
 30
0.0
 11
-32.92760577725354
 21
32.92760577725355
 31
0.0
1001
DBPROPERTIES
1002
{
1000
PbHidd
1002
}
  0
LINE
  5
565
330
1F
100
AcDbEntity
  8
HIDDEN
100
AcDbLine
 10
-36.18909693851292
 20
29.30535287655411
 30
0.0
 11
-36.18909693851292
 21
29.30535287655411
 31
0.0
1001
DBPROPERTIES
1002
{
1000
PbHidd
1002
}
  0
LINE
  5
566
330
1F
100
AcDbEntity
  8
HIDDEN
100
AcDbLine
 10
-70.48388379758175
 20
87.04034768318071
 30
0.0
 11
-70.48388379758175
 21
87.04034768318071
 31
0.0
1001
DBPROPERTIES
1002
{
1000
PbHidd
1002
}
  0
LINE
  5
567
330
1F
100
AcDbEntity
  8
HIDDEN
100
AcDbLine
 10
-60.999571921683
 20
93.93110360988747
 30
0.0
 11
-60.99957192168299
 21
93.93110360988747
 31
0.0
1001
DBPROPERTIES
1002
{
1000
PbHidd
1002
}
  0
LINE
  5
568
330
1F
100
AcDbEntity
  8
HIDDEN
100
AcDbLine
 10
-25.36202439719975
 20
39.05409278065857
 30
0.0
 11
-25.36202439719975
 21
39.05409278065857
 31
0.0
1001
DBPROPERTIES
1002
{
1000
PbHidd
1002
}
  0
LINE
  5
569
330
1F
100
AcDbEntity
  8
HIDDEN
100
AcDbLine
 10
-29.30535287655408
 20
36.18909693851294
 30
0.0
 11
-29.30535287655408
 21
36.18909693851294
 31
0.0
1001
DBPROPERTIES
1002
{
1000
PbHidd
1002
}
  0
LINE
  5
56A
330
1F
100
AcDbEntity
  8
HIDDEN
100
AcDbLine
 10
-50.8469359708292
 20
99.79273070909719
 30
0.0
 11
-50.84693597082921
 21
99.79273070909719
 31
0.0
1001
DBPROPERTIES
1002
{
1000
PbHidd
1002
}
  0
LINE
  5
56B
330
1F
100
AcDbEntity
  8
HIDDEN
100
AcDbLine
 10
-40.1372103490736
 20
104.5610077676866
 30
0.0
 11
-40.13721034907359
 21
104.5610077676866
 31
0.0
1001
DBPROPERTIES
1002
{
1000
PbHidd
1002
}
  0
LINE
  5
56C
330
1F
100
AcDbEntity
  8
HIDDEN
100
AcDbLine
 10
-16.68800085049281
 20
43.47372852721968
 30
0.0
 11
-16.68800085049281
 21
43.47372852721968
 31
0.0
1001
DBPROPERTIES
1002
{
1000
PbHidd
1002
}
  0
LINE
  5
56D
330
1F
100
AcDbEntity
  8
HIDDEN
100
AcDbLine
 10
-21.14082427120489
 20
41.491203809705
 30
0.0
 11
-21.14082427120489
 21
41.491203809705
 31
0.0
1001
DBPROPERTIES
1002
{
1000
PbHidd
1002
}
  0
LINE
  5
56E
330
1F
100
AcDbEntity
  8
HIDDEN
100
AcDbLine
 10
-28.9877330514823
 20
108.1836925443756
 30
0.0
 11
-28.98773305148231
 21
108.1836925443756
 31
0.0
1001
DBPROPERTIES
1002
{
1000
PbHidd
1002
}
  0
LINE
  5
56F
330
1F
100
AcDbEntity
  8
HIDDEN
100
AcDbLine
 10
-17.52066008450582
 20
110.6210941466554
 30
0.0
 11
-17.52066008450582
 21
110.6210941466554
 31
0.0
1001
DBPROPERTIES
1002
{
1000
PbHidd
1002
}
  0
LINE
  5
570
330
1F
100
AcDbEntity
  8
HIDDEN
100
AcDbLine
 10
-7.284631588706739
 20
45.99335372704689
 30
0.0
 11
-7.284631588706739
 21
45.99335372704689
 31
0.0
1001
DBPROPERTIES
1002
{
1000
PbHidd
1002
}
  0
LINE
  5
571
330
1F
100
AcDbEntity
  8
HIDDEN
100
AcDbLine
 10
-12.05234020027404
 20
44.97994597752761
 30
0.0
 11
-12.05234020027404
 21
44.97994597752761
 31
0.0
1001
DBPROPERTIES
1002
{
1000
PbHidd
1002
}
  0
LINE
  5
572
330
1F
100
AcDbEntity
  8
HIDDEN
100
AcDbLine
 10
-5.861627099209678
 20
111.8465078925123
 30
0.0
 11
-5.861627099209682
 21
111.8465078925123
 31
0.0
1001
DBPROPERTIES
1002
{
1000
PbHidd
1002
}
  0
LINE
  5
573
330
1F
100
AcDbEntity
  8
HIDDEN
100
AcDbLine
 10
5.861627099209723
 20
111.8465078925123
 30
0.0
 11
5.861627099209726
 21
111.8465078925123
 31
0.0
1001
DBPROPERTIES
1002
{
1000
PbHidd
1002
}
  0
LINE
  5
574
330
1F
100
AcDbEntity
  8
HIDDEN
100
AcDbLine
 10
2.437111029046422
 20
46.50284866840463
 30
0.0
 11
2.437111029046422
 21
46.50284866840463
 31
0.0
1001
DBPROPERTIES
1002
{
1000
PbHidd
1002
}
  0
LINE
  5
575
330
1F
100
AcDbEntity
  8
HIDDEN
100
AcDbLine
 10
-2.437111029046404
 20
46.50284866840465
 30
0.0
 11
-2.437111029046404
 21
46.50284866840465
 31
0.0
1001
DBPROPERTIES
1002
{
1000
PbHidd
1002
}
  0
LINE
  5
576
330
1F
100
AcDbEntity
  8
HIDDEN
100
AcDbLine
 10
17.52066008450587
 20
110.6210941466554
 30
0.0
 11
17.52066008450587
 21
110.6210941466554
 31
0.0
1001
DBPROPERTIES
1002
{
1000
PbHidd
1002
}
  0
LINE
  5
577
330
1F
100
AcDbEntity
  8
HIDDEN
100
AcDbLine
 10
28.98773305148234
 20
108.1836925443757
 30
0.0
 11
28.98773305148234
 21
108.1836925443757
 31
0.0
1001
DBPROPERTIES
1002
{
1000
PbHidd
1002
}
  0
LINE
  5
578
330
1F
100
AcDbEntity
  8
HIDDEN
100
AcDbLine
 10
12.05234020027405
 20
44.9799459775276
 30
0.0
 11
12.05234020027405
 21
44.9799459775276
 31
0.0
1001
DBPROPERTIES
1002
{
1000
PbHidd
1002
}
  0
LINE
  5
579
330
1F
100
AcDbEntity
  8
HIDDEN
100
AcDbLine
 10
7.284631588706756
 20
45.9933537270469
 30
0.0
 11
7.284631588706756
 21
45.9933537270469
 31
0.0
1001
DBPROPERTIES
1002
{
1000
PbHidd
1002
}
  0
LINE
  5
57A
330
1F
100
AcDbEntity
  8
HIDDEN
100
AcDbLine
 10
40.13721034907365
 20
104.5610077676866
 30
0.0
 11
40.13721034907364
 21
104.5610077676866
 31
0.0
1001
DBPROPERTIES
1002
{
1000
PbHidd
1002
}
  0
LINE
  5
57B
330
1F
100
AcDbEntity
  8
HIDDEN
100
AcDbLine
 10
50.84693597082927
 20
99.79273070909721
 30
0.0
 11
50.84693597082928
 21
99.79273070909721
 31
0.0
1001
DBPROPERTIES
1002
{
1000
PbHidd
1002
}
  0
LINE
  5
57C
330
1F
100
AcDbEntity
  8
HIDDEN
100
AcDbLine
 10
21.14082427120489
 20
41.49120380970497
 30
0.0
 11
21.14082427120489
 21
41.49120380970497
 31
0.0
1001
DBPROPERTIES
1002
{
1000
PbHidd
1002
}
  0
LINE
  5
57D
330
1F
100
AcDbEntity
  8
HIDDEN
100
AcDbLine
 10
16.68800085049282
 20
43.47372852721968
 30
0.0
 11
16.68800085049282
 21
43.47372852721968
 31
0.0
1001
DBPROPERTIES
1002
{
1000
PbHidd
1002
}
  0
LINE
  5
57E
330
1F
100
AcDbEntity
  8
HIDDEN
100
AcDbLine
 10
60.99957192168306
 20
93.9311036098875
 30
0.0
 11
60.99957192168306
 21
93.9311036098875
 31
0.0
1001
DBPROPERTIES
1002
{
1000
PbHidd
1002
}
  0
LINE
  5
57F
330
1F
100
AcDbEntity
  8
HIDDEN
100
AcDbLine
 10
70.48388379758183
 20
87.04034768318076
 30
0.0
 11
70.48388379758183
 21
87.04034768318076
 31
0.0
1001
DBPROPERTIES
1002
{
1000
PbHidd
1002
}
  0
LINE
  5
580
330
1F
100
AcDbEntity
  8
HIDDEN
100
AcDbLine
 10
29.30535287655409
 20
36.18909693851293
 30
0.0
 11
29.30535287655409
 21
36.18909693851293
 31
0.0
1001
DBPROPERTIES
1002
{
1000
PbHidd
1002
}
  0
LINE
  5
581
330
1F
100
AcDbEntity
  8
HIDDEN
100
AcDbLine
 10
25.36202439719976
 20
39.05409278065856
 30
0.0
 11
25.36202439719976
 21
39.05409278065856
 31
0.0
1001
DBPROPERTIES
1002
{
1000
PbHidd
1002
}
  0
LINE
  5
582
330
1F
100
AcDbEntity
  8
HIDDEN
100
AcDbLine
 10
79.19595949289334
 20
79.19595949289334
 30
0.0
 11
79.19595949289334
 21
79.19595949289334
 31
0.0
1001
DBPROPERTIES
1002
{
1000
PbHidd
1002
}
  0
LINE
  5
583
330
1F
100
AcDbEntity
  8
HIDDEN
100
AcDbLine
 10
87.04034768318077
 20
70.4838837975818
 30
0.0
 11
87.04034768318077
 21
70.4838837975818
 31
0.0
1001
DBPROPERTIES
1002
{
1000
PbHidd
1002
}
  0
LINE
  5
584
330
1F
100
AcDbEntity
  8
HIDDEN
100
AcDbLine
 10
36.18909693851293
 20
29.30535287655408
 30
0.0
 11
36.18909693851293
 21
29.30535287655408
 31
0.0
1001
DBPROPERTIES
1002
{
1000
PbHidd
1002
}
  0
LINE
  5
585
330
1F
100
AcDbEntity
  8
HIDDEN
100
AcDbLine
 10
32.92760577725357
 20
32.92760577725355
 30
0.0
 11
32.92760577725357
 21
32.92760577725355
 31
0.0
1001
DBPROPERTIES
1002
{
1000
PbHidd
1002
}
  0
LINE
  5
586
330
1F
100
AcDbEntity
  8
HIDDEN
100
AcDbLine
 10
93.93110360988753
 20
60.99957192168304
 30
0.0
 11
93.93110360988753
 21
60.99957192168304
 31
0.0
1001
DBPROPERTIES
1002
{
1000
PbHidd
1002
}
  0
LINE
  5
587
330
1F
100
AcDbEntity
  8
HIDDEN
100
AcDbLine
 10
99.79273070909724
 20
50.84693597082925
 30
0.0
 11
99.79273070909724
 21
50.84693597082925
 31
0.0
1001
DBPROPERTIES
1002
{
1000
PbHidd
1002
}
  0
LINE
  5
588
330
1F
100
AcDbEntity
  8
HIDDEN
100
AcDbLine
 10
41.49120380970499
 20
21.14082427120488
 30
0.0
 11
41.49120380970499
 21
21.14082427120488
 31
0.0
1001
DBPROPERTIES
1002
{
1000
PbHidd
1002
}
  0
LINE
  5
589
330
1F
100
AcDbEntity
  8
HIDDEN
100
AcDbLine
 10
39.05409278065857
 20
25.36202439719975
 30
0.0
 11
39.05409278065857
 21
25.36202439719975
 31
0.0
1001
DBPROPERTIES
1002
{
1000
PbHidd
1002
}
  0
LINE
  5
58A
330
1F
100
AcDbEntity
  8
HIDDEN
100
AcDbLine
 10
104.5610077676866
 20
40.13721034907364
 30
0.0
 11
104.5610077676866
 21
40.13721034907364
 31
0.0
1001
DBPROPERTIES
1002
{
1000
PbHidd
1002
}
  0
LINE
  5
58B
330
1F
100
AcDbEntity
  8
HIDDEN
100
AcDbLine
 10
108.1836925443757
 20
28.98773305148233
 30
0.0
 11
108.1836925443757
 21
28.98773305148233
 31
0.0
1001
DBPROPERTIES
1002
{
1000
PbHidd
1002
}
  0
LINE
  5
58C
330
1F
100
AcDbEntity
  8
HIDDEN
100
AcDbLine
 10
44.9799459775276
 20
12.05234020027405
 30
0.0
 11
44.9799459775276
 21
12.05234020027405
 31
0.0
1001
DBPROPERTIES
1002
{
1000
PbHidd
1002
}
  0
LINE
  5
58D
330
1F
100
AcDbEntity
  8
HIDDEN
100
AcDbLine
 10
43.47372852721969
 20
16.68800085049281
 30
0.0
 11
43.47372852721969
 21
16.68800085049281
 31
0.0
1001
DBPROPERTIES
1002
{
1000
PbHidd
1002
}
  0
LINE
  5
58E
330
1F
100
AcDbEntity
  8
HIDDEN
100
AcDbLine
 10
108.1836925443757
 20
-28.98773305148242
 30
0.0
 11
108.1836925443757
 21
-28.98773305148242
 31
0.0
1001
DBPROPERTIES
1002
{
1000
PbHidd
1002
}
  0
ARC
  5
58F
330
1F
100
AcDbEntity
  8
HIDDEN
100
AcDbCircle
 10
0.0000000000000573
 20
0.0
 30
0.0
 40
100.0
100
AcDbArc
 50
350.9999789540851
 51
9.000021045914972
1001
DBPROPERTIES
1002
{
1000
PbHidd
1002
}
  0
ARC
  5
590
330
1F
100
AcDbEntity
  8
HIDDEN
100
AcDbCircle
 10
0.0000000000000573
 20
0.0
 30
0.0
 40
100.0
100
AcDbArc
 50
339.0000081886445
 51
345.0000222192546
1001
DBPROPERTIES
1002
{
1000
PbHidd
1002
}
  0
ARC
  5
591
330
1F
100
AcDbEntity
  8
HIDDEN
100
AcDbCircle
 10
0.0000000000000573
 20
0.0
 30
0.0
 40
100.0
100
AcDbArc
 50
326.9999801274246
 51
332.9999941580346
1001
DBPROPERTIES
1002
{
1000
PbHidd
1002
}
  0
ARC
  5
592
330
1F
100
AcDbEntity
  8
HIDDEN
100
AcDbCircle
 10
0.0000000000000573
 20
0.0
 30
0.0
 40
100.0
100
AcDbArc
 50
315.0000093619842
 51
321.0000233925941
1001
DBPROPERTIES
1002
{
1000
PbHidd
1002
}
  0
ARC
  5
593
330
1F
100
AcDbEntity
  8
HIDDEN
100
AcDbCircle
 10
0.0000000000000573
 20
0.0
 30
0.0
 40
100.0
100
AcDbArc
 50
302.9999813007643
 51
308.9999953313742
1001
DBPROPERTIES
1002
{
1000
PbHidd
1002
}
  0
ARC
  5
594
330
1F
100
AcDbEntity
  8
HIDDEN
100
AcDbCircle
 10
0.0000000000000573
 20
0.0
 30
0.0
 40
100.0
100
AcDbArc
 50
291.0000105353237
 51
297.0000245659338
1001
DBPROPERTIES
1002
{
1000
PbHidd
1002
}
  0
ARC
  5
595
330
1F
100
AcDbEntity
  8
HIDDEN
100
AcDbCircle
 10
0.0000000000000573
 20
0.0
 30
0.0
 40
100.0
100
AcDbArc
 50
278.9999824741038
 51
284.9999965047138
1001
DBPROPERTIES
1002
{
1000
PbHidd
1002
}
  0
ARC
  5
596
330
1F
100
AcDbEntity
  8
HIDDEN
100
AcDbCircle
 10
0.0000000000000573
 20
0.0
 30
0.0
 40
100.0
100
AcDbArc
 50
270.0000187239684
 51
273.0000257392733
1001
DBPROPERTIES
1002
{
1000
PbHidd
1002
}
  0
ARC
  5
597
330
1F
100
AcDbEntity
  8
HIDDEN
100
AcDbCircle
 10
0.0000000000000573
 20
0.0
 30
0.0
 40
100.0
100
AcDbArc
 50
254.9999836474434
 51
260.9999976780534
1001
DBPROPERTIES
1002
{
1000
PbHidd
1002
}
  0
ARC
  5
598
330
1F
100
AcDbEntity
  8
HIDDEN
100
AcDbCircle
 10
0.0000000000000573
 20
0.0
 30
0.0
 40
100.0
100
AcDbArc
 50
243.0000128820029
 51
249.0000269126129
1001
DBPROPERTIES
1002
{
1000
PbHidd
1002
}
  0
ARC
  5
599
330
1F
100
AcDbEntity
  8
HIDDEN
100
AcDbCircle
 10
0.0000000000000573
 20
0.0
 30
0.0
 40
100.0
100
AcDbArc
 50
230.999984820783
 51
236.999998851393
1001
DBPROPERTIES
1002
{
1000
PbHidd
1002
}
  0
ARC
  5
59A
330
1F
100
AcDbEntity
  8
HIDDEN
100
AcDbCircle
 10
0.0000000000000573
 20
0.0
 30
0.0
 40
100.0
100
AcDbArc
 50
219.0000140553425
 51
225.0000280859525
1001
DBPROPERTIES
1002
{
1000
PbHidd
1002
}
  0
ARC
  5
59B
330
1F
100
AcDbEntity
  8
HIDDEN
100
AcDbCircle
 10
0.0000000000000573
 20
0.0
 30
0.0
 40
100.0
100
AcDbArc
 50
206.9999859941226
 51
213.0000000247326
1001
DBPROPERTIES
1002
{
1000
PbHidd
1002
}
  0
ARC
  5
59C
330
1F
100
AcDbEntity
  8
HIDDEN
100
AcDbCircle
 10
0.0000000000000573
 20
0.0
 30
0.0
 40
100.0
100
AcDbArc
 50
195.0000152286821
 51
200.9999719635126
1001
DBPROPERTIES
1002
{
1000
PbHidd
1002
}
  0
ARC
  5
59D
330
1F
100
AcDbEntity
  8
HIDDEN
100
AcDbCircle
 10
0.0000000000000573
 20
0.0
 30
0.0
 40
100.0
100
AcDbArc
 50
182.9999871674622
 51
189.0000011980722
1001
DBPROPERTIES
1002
{
1000
PbHidd
1002
}
  0
ARC
  5
59E
330
1F
100
AcDbEntity
  8
HIDDEN
100
AcDbCircle
 10
0.0000000000000573
 20
0.0
 30
0.0
 40
100.0
100
AcDbArc
 50
170.9999988019279
 51
177.0000128325378
1001
DBPROPERTIES
1002
{
1000
PbHidd
1002
}
  0
ARC
  5
59F
330
1F
100
AcDbEntity
  8
HIDDEN
100
AcDbCircle
 10
0.0000000000000573
 20
0.0
 30
0.0
 40
100.0
100
AcDbArc
 50
159.0000280364874
 51
164.9999847713179
1001
DBPROPERTIES
1002
{
1000
PbHidd
1002
}
  0
ARC
  5
5A0
330
1F
100
AcDbEntity
  8
HIDDEN
100
AcDbCircle
 10
0.0000000000000573
 20
0.0
 30
0.0
 40
100.0
100
AcDbArc
 50
146.9999999752674
 51
153.0000140058774
1001
DBPROPERTIES
1002
{
1000
PbHidd
1002
}
  0
ARC
  5
5A1
330
1F
100
AcDbEntity
  8
HIDDEN
100
AcDbCircle
 10
0.0000000000000573
 20
0.0
 30
0.0
 40
100.0
100
AcDbArc
 50
134.9999719140475
 51
140.9999859446575
1001
DBPROPERTIES
1002
{
1000
PbHidd
1002
}
  0
ARC
  5
5A2
330
1F
100
AcDbEntity
  8
HIDDEN
100
AcDbCircle
 10
0.0000000000000573
 20
0.0
 30
0.0
 40
100.0
100
AcDbArc
 50
123.000001148607
 51
129.000015179217
1001
DBPROPERTIES
1002
{
1000
PbHidd
1002
}
  0
ARC
  5
5A3
330
1F
100
AcDbEntity
  8
HIDDEN
100
AcDbCircle
 10
0.0000000000000573
 20
0.0
 30
0.0
 40
100.0
100
AcDbArc
 50
110.9999730873871
 51
116.9999871179971
1001
DBPROPERTIES
1002
{
1000
PbHidd
1002
}
  0
ARC
  5
5A4
330
1F
100
AcDbEntity
  8
HIDDEN
100
AcDbCircle
 10
0.0000000000000573
 20
0.0
 30
0.0
 40
100.0
100
AcDbArc
 50
99.00000232194662
 51
105.0000163525566
1001
DBPROPERTIES
1002
{
1000
PbHidd
1002
}
  0
ARC
  5
5A5
330
1F
100
AcDbEntity
  8
HIDDEN
100
AcDbCircle
 10
0.0000000000000573
 20
0.0
 30
0.0
 40
100.0
100
AcDbArc
 50
86.99997426072667
 51
89.99998127603165
1001
DBPROPERTIES
1002
{
1000
PbHidd
1002
}
  0
ARC
  5
5A6
330
1F
100
AcDbEntity
  8
HIDDEN
100
AcDbCircle
 10
0.0000000000000573
 20
0.0
 30
0.0
 40
100.0
100
AcDbArc
 50
75.00000349528622
 51
81.0000175258962
1001
DBPROPERTIES
1002
{
1000
PbHidd
1002
}
  0
ARC
  5
5A7
330
1F
100
AcDbEntity
  8
HIDDEN
100
AcDbCircle
 10
0.0000000000000573
 20
0.0
 30
0.0
 40
100.0
100
AcDbArc
 50
62.99997543406626
 51
68.99998946467625
1001
DBPROPERTIES
1002
{
1000
PbHidd
1002
}
  0
ARC
  5
5A8
330
1F
100
AcDbEntity
  8
HIDDEN
100
AcDbCircle
 10
0.0000000000000573
 20
0.0
 30
0.0
 40
100.0
100
AcDbArc
 50
51.00000466862581
 51
57.0000186992358
1001
DBPROPERTIES
1002
{
1000
PbHidd
1002
}
  0
ARC
  5
5A9
330
1F
100
AcDbEntity
  8
HIDDEN
100
AcDbCircle
 10
0.0000000000000573
 20
0.0
 30
0.0
 40
100.0
100
AcDbArc
 50
38.99997660740585
 51
44.99999063801582
1001
DBPROPERTIES
1002
{
1000
PbHidd
1002
}
  0
ARC
  5
5AA
330
1F
100
AcDbEntity
  8
HIDDEN
100
AcDbCircle
 10
0.0000000000000573
 20
0.0
 30
0.0
 40
100.0
100
AcDbArc
 50
27.0000058419654
 51
33.00001987257539
1001
DBPROPERTIES
1002
{
1000
PbHidd
1002
}
  0
ARC
  5
5AB
330
1F
100
AcDbEntity
  8
HIDDEN
100
AcDbCircle
 10
0.0000000000000573
 20
0.0
 30
0.0
 40
100.0
100
AcDbArc
 50
14.99997778074544
 51
20.99999181135542
1001
DBPROPERTIES
1002
{
1000
PbHidd
1002
}
  0
ARC
  5
5AC
330
1F
100
AcDbEntity
  8
HIDDEN
100
AcDbCircle
 10
0.0
 20
0.0
 30
0.0
 40
18.66666666666667
100
AcDbArc
 50
179.9999801521572
 51
0.0
1001
DBPROPERTIES
1002
{
1000
PbHidd
1002
}
  0
LINE
  5
5AD
330
1F
100
AcDbEntity
  8
THICK
100
AcDbLine
 10
46.0749424839106
 20
81.16779402087653
 30
0.0
 11
173.5881960442397
 21
182.8562204650534
 31
0.0
1001
DBPROPERTIES
1002
{
1000
PbThick
1002
}
  0
LINE
  5
5AE
330
1F
100
AcDbEntity
  8
THICK
100
AcDbLine
 10
218.0308745419233
 20
127.1268643294632
 30
0.0
 11
89.9309741632823
 21
24.97060265901003
 31
0.0
1001
DBPROPERTIES
1002
{
1000
PbThick
1002
}
  0
ELLIPSE
  5
5AF
330
1F
100
AcDbEntity
  8
THICK
100
AcDbEllipse
 10
104.7060703581983
 20
82.33895347670773
 30
0.0
 11
96.32163864006128
 21
76.81394358899594
 31
0.0
210
0.0
220
0.0
230
1.0
 40
0.891006524188368
 41
0.0
 42
0.3306684359576049
1001
DBPROPERTIES
1002
{
1000
PbThick
1002
}
  0
ELLIPSE
  5
5B0
330
1F
100
AcDbEntity
  8
THICK
100
AcDbEllipse
 10
104.7060703581983
 20
82.33895347670773
 30
0.0
 11
96.32163864006128
 21
76.81394358899594
 31
0.0
210
0.0
220
0.0
230
1.0
 40
0.891006524188368
 41
-0.3306684359576054
 42
0.0
1001
DBPROPERTIES
1002
{
1000
PbThick
1002
}
  0
LINE
  5
5B1
330
1F
100
AcDbEntity
  8
HIDDEN
100
AcDbLine
 10
89.66255485068669
 20
25.91789668855697
 30
0.0
 11
217.4647576484666
 21
127.8367524603387
 31
0.0
1001
DBPROPERTIES
1002
{
1000
PbHidd
1002
}
  0
LINE
  5
5B2
330
1F
100
AcDbEntity
  8
HIDDEN
100
AcDbLine
 10
217.4647576484666
 20
127.8367524603387
 30
0.0
 11
218.0308745419233
 21
127.1268643294632
 31
0.0
1001
DBPROPERTIES
1002
{
1000
PbHidd
1002
}
  0
LINE
  5
5B3
330
1F
100
AcDbEntity
  8
THICK
100
AcDbLine
 10
45.21987635300314
 20
81.64725282414722
 30
0.0
 11
173.022079150783
 21
183.5661085959289
 31
0.0
1001
DBPROPERTIES
1002
{
1000
PbThick
1002
}
  0
LINE
  5
5B4
330
1F
100
AcDbEntity
  8
THICK
100
AcDbLine
 10
173.022079150783
 20
183.5661085959289
 30
0.0
 11
173.5881960442397
 21
182.8562204650534
 31
0.0
1001
DBPROPERTIES
1002
{
1000
PbThick
1002
}
  0
ELLIPSE
  5
5B5
330
1F
100
AcDbEntity
  8
HIDDEN
100
AcDbEllipse
 10
104.1399534647416
 20
83.04884160758328
 30
0.0
 11
-96.32163864006128
 21
-76.81394358899594
 31
0.0
210
0.0
220
0.0
230
1.0
 40
0.891006524188368
 41
2.810924217632188
 42
3.141592653589793
1001
DBPROPERTIES
1002
{
1000
PbHidd
1002
}
  0
ELLIPSE
  5
5B6
330
1F
100
AcDbEntity
  8
THICK
100
AcDbEllipse
 10
104.1399534647416
 20
83.04884160758328
 30
0.0
 11
-96.32163864006128
 21
-76.81394358899594
 31
0.0
210
0.0
220
0.0
230
1.0
 40
0.891006524188368
 41
3.141592653589793
 42
3.472261089547398
1001
DBPROPERTIES
1002
{
1000
PbThick
1002
}
  0
LINE
  5
5B7
330
1F
100
AcDbEntity
  8
THICK
100
AcDbLine
 10
235.3318115674463
 20
-91.2010984152138
 30
0.0
 11
75.59384855704171
 21
-54.74195074571375
 31
0.0
1001
DBPROPERTIES
1002
{
1000
PbThick
1002
}
  0
ELLIPSE
  5
5B8
330
1F
100
AcDbEntity
  8
THICK
100
AcDbEllipse
 10
129.6583531226002
 20
-30.52500442310402
 30
0.0
 11
120.1111187808007
 21
-27.41457906341795
 31
0.0
210
0.0
220
0.0
230
1.0
 40
0.891006524188368
 41
0.0
 42
0.3306684359576053
1001
DBPROPERTIES
1002
{
1000
PbThick
1002
}
  0
ELLIPSE
  5
5B9
330
1F
100
AcDbEntity
  8
THICK
100
AcDbEllipse
 10
129.6583531226002
 20
-30.52500442310402
 30
0.0
 11
120.1111187808007
 21
-27.41457906341795
 31
0.0
210
0.0
220
0.0
230
1.0
 40
0.891006524188368
 41
-0.3306684359576054
 42
0.0
1001
DBPROPERTIES
1002
{
1000
PbThick
1002
}
  0
LINE
  5
5BA
330
1F
100
AcDbEntity
  8
THICK
100
AcDbLine
 10
92.18679348794751
 20
14.58445122456176
 30
0.0
 11
251.1932198813315
 21
-21.70772798582586
 31
0.0
1001
DBPROPERTIES
1002
{
1000
PbThick
1002
}
  0
LINE
  5
5BB
330
1F
100
AcDbEntity
  8
HIDDEN
100
AcDbLine
 10
76.16711614847017
 20
-53.94146390983988
 30
0.0
 11
235.533856347465
 21
-90.31588239509088
 31
0.0
1001
DBPROPERTIES
1002
{
1000
PbHidd
1002
}
  0
LINE
  5
5BC
330
1F
100
AcDbEntity
  8
HIDDEN
100
AcDbLine
 10
235.5338563474651
 20
-90.3158823950909
 30
0.0
 11
235.3318115674464
 21
-91.2010984152138
 31
0.0
1001
DBPROPERTIES
1002
{
1000
PbHidd
1002
}
  0
LINE
  5
5BD
330
1F
100
AcDbEntity
  8
THICK
100
AcDbLine
 10
92.02852446235539
 20
15.55190651954803
 30
0.0
 11
251.3952646613502
 21
-20.82251196570294
 31
0.0
1001
DBPROPERTIES
1002
{
1000
PbThick
1002
}
  0
LINE
  5
5BE
330
1F
100
AcDbEntity
  8
THICK
100
AcDbLine
 10
251.3952646613503
 20
-20.82251196570297
 30
0.0
 11
251.1932198813316
 21
-21.70772798582589
 31
0.0
1001
DBPROPERTIES
1002
{
1000
PbThick
1002
}
  0
ELLIPSE
  5
5BF
330
1F
100
AcDbEntity
  8
HIDDEN
100
AcDbEllipse
 10
129.8603979026189
 20
-29.6397884029811
 30
0.0
 11
-120.1111187808007
 21
27.41457906341795
 31
0.0
210
0.0
220
0.0
230
1.0
 40
0.891006524188368
 41
2.810924217632188
 42
3.141592653589793
1001
DBPROPERTIES
1002
{
1000
PbHidd
1002
}
  0
ELLIPSE
  5
5C0
330
1F
100
AcDbEntity
  8
THICK
100
AcDbEllipse
 10
129.8603979026189
 20
-29.6397884029811
 30
0.0
 11
-120.1111187808007
 21
27.41457906341795
 31
0.0
210
0.0
220
0.0
230
1.0
 40
0.891006524188368
 41
3.141592653589793
 42
3.472261089547398
1001
DBPROPERTIES
1002
{
1000
PbThick
1002
}
  0
LINE
  5
5C1
330
1F
100
AcDbEntity
  8
THICK
100
AcDbLine
 10
68.88010872767417
 20
-62.98128081243571
 30
0.0
 11
139.6446257398977
 21
-209.925314506425
 31
0.0
1001
DBPROPERTIES
1002
{
1000
PbThick
1002
}
  0
LINE
  5
5C2
330
1F
100
AcDbEntity
  8
THICK
100
AcDbLine
 10
75.4230945885646
 20
-240.852773889864
 30
0.0
 11
4.333013153855767
 21
-93.23269870662122
 31
0.0
1001
DBPROPERTIES
1002
{
1000
PbThick
1002
}
  0
ELLIPSE
  5
5C3
330
1F
100
AcDbEntity
  8
THICK
100
AcDbEllipse
 10
56.97525143728112
 20
-120.4030113957039
 30
0.0
 11
53.45447665928315
 21
-110.999364525578
 31
0.0
210
0.0
220
0.0
230
1.0
 40
0.8910065241883679
 41
0.0
 42
0.3306684359576054
1001
DBPROPERTIES
1002
{
1000
PbThick
1002
}
  0
ELLIPSE
  5
5C4
330
1F
100
AcDbEntity
  8
THICK
100
AcDbEllipse
 10
56.97525143728112
 20
-120.4030113957039
 30
0.0
 11
53.45447665928315
 21
-110.999364525578
 31
0.0
210
0.0
220
0.0
230
1.0
 40
0.8910065241883679
 41
-0.3306684359576054
 42
0.0
1001
DBPROPERTIES
1002
{
1000
PbThick
1002
}
  0
LINE
  5
5C5
330
1F
100
AcDbEntity
  8
HIDDEN
100
AcDbLine
 10
5.316285460434955
 20
-93.18180197878911
 30
0.0
 11
76.24115720174218
 21
-240.4588156987623
 31
0.0
1001
DBPROPERTIES
1002
{
1000
PbHidd
1002
}
  0
LINE
  5
5C6
330
1F
100
AcDbEntity
  8
HIDDEN
100
AcDbLine
 10
76.24115720174227
 20
-240.4588156987625
 30
0.0
 11
75.42309458856468
 21
-240.8527738898642
 31
0.0
1001
DBPROPERTIES
1002
{
1000
PbHidd
1002
}
  0
LINE
  5
5C7
330
1F
100
AcDbEntity
  8
THICK
100
AcDbLine
 10
69.53781661176802
 20
-62.2543425953501
 30
0.0
 11
140.4626883530753
 21
-209.5313563153233
 31
0.0
1001
DBPROPERTIES
1002
{
1000
PbThick
1002
}
  0
LINE
  5
5C8
330
1F
100
AcDbEntity
  8
THICK
100
AcDbLine
 10
140.4626883530753
 20
-209.5313563153234
 30
0.0
 11
139.6446257398977
 21
-209.9253145064251
 31
0.0
1001
DBPROPERTIES
1002
{
1000
PbThick
1002
}
  0
ELLIPSE
  5
5C9
330
1F
100
AcDbEntity
  8
HIDDEN
100
AcDbEllipse
 10
57.7933140504587
 20
-120.0090532046022
 30
0.0
 11
-53.45447665928315
 21
110.999364525578
 31
0.0
210
0.0
220
0.0
230
1.0
 40
0.8910065241883679
 41
2.810924217632188
 42
3.141592653589793
1001
DBPROPERTIES
1002
{
1000
PbHidd
1002
}
  0
ELLIPSE
  5
5CA
330
1F
100
AcDbEntity
  8
THICK
100
AcDbEllipse
 10
57.7933140504587
 20
-120.0090532046022
 30
0.0
 11
-53.45447665928315
 21
110.999364525578
 31
0.0
210
0.0
220
0.0
230
1.0
 40
0.8910065241883679
 41
3.141592653589793
 42
3.472261089547398
1001
DBPROPERTIES
1002
{
1000
PbThick
1002
}
  0
LINE
  5
5CB
330
1F
100
AcDbEntity
  8
THICK
100
AcDbLine
 10
-6.294702802696307
 20
-93.12082381367138
 30
0.0
 11
-77.05921981491986
 21
-240.0648575076607
 31
0.0
1001
DBPROPERTIES
1002
{
1000
PbThick
1002
}
  0
LINE
  5
5CC
330
1F
100
AcDbEntity
  8
THICK
100
AcDbLine
 10
-141.280750966253
 20
-209.1373981242216
 30
0.0
 11
-70.19066953154405
 21
-61.51732294097884
 31
0.0
1001
DBPROPERTIES
1002
{
1000
PbThick
1002
}
  0
ELLIPSE
  5
5CD
330
1F
100
AcDbEntity
  8
THICK
100
AcDbEllipse
 10
-58.61137666363634
 20
-119.6150950135005
 30
0.0
 11
-53.45447665928318
 21
-110.9993645255781
 31
0.0
210
0.0
220
0.0
230
1.0
 40
0.8910065241883677
 41
0.0
 42
0.3306684359576053
1001
DBPROPERTIES
1002
{
1000
PbThick
1002
}
  0
ELLIPSE
  5
5CE
330
1F
100
AcDbEntity
  8
THICK
100
AcDbEllipse
 10
-58.61137666363634
 20
-119.6150950135005
 30
0.0
 11
-53.45447665928318
 21
-110.9993645255781
 31
0.0
210
0.0
220
0.0
230
1.0
 40
0.8910065241883677
 41
-0.3306684359576053
 42
0.0
1001
DBPROPERTIES
1002
{
1000
PbThick
1002
}
  0
LINE
  5
5CF
330
1F
100
AcDbEntity
  8
HIDDEN
100
AcDbLine
 10
-69.53781661176805
 20
-62.25434259535011
 30
0.0
 11
-140.4626883530754
 21
-209.5313563153233
 31
0.0
1001
DBPROPERTIES
1002
{
1000
PbHidd
1002
}
  0
LINE
  5
5D0
330
1F
100
AcDbEntity
  8
HIDDEN
100
AcDbLine
 10
-140.4626883530754
 20
-209.5313563153234
 30
0.0
 11
-141.280750966253
 21
-209.1373981242218
 31
0.0
1001
DBPROPERTIES
1002
{
1000
PbHidd
1002
}
  0
LINE
  5
5D1
330
1F
100
AcDbEntity
  8
THICK
100
AcDbLine
 10
-5.316285460434976
 20
-93.18180197878914
 30
0.0
 11
-76.24115720174227
 21
-240.4588156987624
 31
0.0
1001
DBPROPERTIES
1002
{
1000
PbThick
1002
}
  0
LINE
  5
5D2
330
1F
100
AcDbEntity
  8
THICK
100
AcDbLine
 10
-76.24115720174231
 20
-240.4588156987625
 30
0.0
 11
-77.0592198149199
 21
-240.0648575076608
 31
0.0
1001
DBPROPERTIES
1002
{
1000
PbThick
1002
}
  0
ELLIPSE
  5
5D3
330
1F
100
AcDbEntity
  8
HIDDEN
100
AcDbEllipse
 10
-57.79331405045875
 20
-120.0090532046022
 30
0.0
 11
53.45447665928318
 21
110.9993645255781
 31
0.0
210
0.0
220
0.0
230
1.0
 40
0.8910065241883677
 41
2.810924217632188
 42
3.141592653589793
1001
DBPROPERTIES
1002
{
1000
PbHidd
1002
}
  0
ELLIPSE
  5
5D4
330
1F
100
AcDbEntity
  8
THICK
100
AcDbEllipse
 10
-57.79331405045875
 20
-120.0090532046022
 30
0.0
 11
53.45447665928318
 21
110.9993645255781
 31
0.0
210
0.0
220
0.0
230
1.0
 40
0.8910065241883677
 41
3.141592653589793
 42
3.472261089547398
1001
DBPROPERTIES
1002
{
1000
PbThick
1002
}
  0
LINE
  5
5D5
330
1F
100
AcDbEntity
  8
THICK
100
AcDbLine
 10
-251.5973094413689
 20
-19.93729594557997
 30
0.0
 11
-91.85934643096427
 21
16.52185172392002
 31
0.0
1001
DBPROPERTIES
1002
{
1000
PbThick
1002
}
  0
ELLIPSE
  5
5D6
330
1F
100
AcDbEntity
  8
THICK
100
AcDbEllipse
 10
-130.0624426826375
 20
-28.75457238285814
 30
0.0
 11
-120.1111187808007
 21
-27.41457906341792
 31
0.0
210
0.0
220
0.0
230
1.0
 40
0.8910065241883679
 41
0.0
 42
0.3306684359576051
1001
DBPROPERTIES
1002
{
1000
PbThick
1002
}
  0
ELLIPSE
  5
5D7
330
1F
100
AcDbEntity
  8
THICK
100
AcDbEllipse
 10
-130.0624426826375
 20
-28.75457238285814
 30
0.0
 11
-120.1111187808007
 21
-27.41457906341792
 31
0.0
210
0.0
220
0.0
230
1.0
 40
0.8910065241883679
 41
-0.3306684359576053
 42
0.0
1001
DBPROPERTIES
1002
{
1000
PbThick
1002
}
  0
LINE
  5
5D8
330
1F
100
AcDbEntity
  8
THICK
100
AcDbLine
 10
-76.72947473409968
 20
-53.1384871645803
 30
0.0
 11
-235.7359011274837
 21
-89.4306663749679
 31
0.0
1001
DBPROPERTIES
1002
{
1000
PbThick
1002
}
  0
LINE
  5
5D9
330
1F
100
AcDbEntity
  8
HIDDEN
100
AcDbLine
 10
-92.02852446235539
 20
15.55190651954805
 30
0.0
 11
-251.3952646613502
 21
-20.82251196570289
 31
0.0
1001
DBPROPERTIES
1002
{
1000
PbHidd
1002
}
  0
LINE
  5
5DA
330
1F
100
AcDbEntity
  8
HIDDEN
100
AcDbLine
 10
-251.3952646613503
 20
-20.82251196570292
 30
0.0
 11
-251.597309441369
 21
-19.93729594558
 31
0.0
1001
DBPROPERTIES
1002
{
1000
PbHidd
1002
}
  0
LINE
  5
5DB
330
1F
100
AcDbEntity
  8
THICK
100
AcDbLine
 10
-76.1671161484702
 20
-53.94146390983987
 30
0.0
 11
-235.533856347465
 21
-90.31588239509082
 31
0.0
1001
DBPROPERTIES
1002
{
1000
PbThick
1002
}
  0
LINE
  5
5DC
330
1F
100
AcDbEntity
  8
THICK
100
AcDbLine
 10
-235.5338563474651
 20
-90.31588239509082
 30
0.0
 11
-235.7359011274837
 21
-89.43066637496791
 31
0.0
1001
DBPROPERTIES
1002
{
1000
PbThick
1002
}
  0
ELLIPSE
  5
5DD
330
1F
100
AcDbEntity
  8
HIDDEN
100
AcDbEllipse
 10
-129.8603979026189
 20
-29.63978840298106
 30
0.0
 11
120.1111187808007
 21
27.41457906341792
 31
0.0
210
0.0
220
0.0
230
1.0
 40
0.8910065241883679
 41
2.810924217632188
 42
3.141592653589793
1001
DBPROPERTIES
1002
{
1000
PbHidd
1002
}
  0
ELLIPSE
  5
5DE
330
1F
100
AcDbEntity
  8
THICK
100
AcDbEllipse
 10
-129.8603979026189
 20
-29.63978840298106
 30
0.0
 11
120.1111187808007
 21
27.41457906341792
 31
0.0
210
0.0
220
0.0
230
1.0
 40
0.8910065241883679
 41
3.141592653589793
 42
3.472261089547398
1001
DBPROPERTIES
1002
{
1000
PbThick
1002
}
  0
LINE
  5
5DF
330
1F
100
AcDbEntity
  8
THICK
100
AcDbLine
 10
-89.3853871946807
 20
26.85821414703737
 30
0.0
 11
-216.8986407550098
 21
128.5466405912143
 31
0.0
1001
DBPROPERTIES
1002
{
1000
PbThick
1002
}
  0
LINE
  5
5E0
330
1F
100
AcDbEntity
  8
THICK
100
AcDbLine
 10
-172.4559622573263
 20
184.2759967268046
 30
0.0
 11
-44.35606187868531
 21
82.11973505635139
 31
0.0
1001
DBPROPERTIES
1002
{
1000
PbThick
1002
}
  0
ELLIPSE
  5
5E1
330
1F
100
AcDbEntity
  8
THICK
100
AcDbEllipse
 10
-103.5738365712848
 20
83.75872973845887
 30
0.0
 11
-96.32163864006127
 21
76.813943588996
 31
0.0
210
0.0
220
0.0
230
1.0
 40
0.891006524188368
 41
0.0
 42
0.3306684359576053
1001
DBPROPERTIES
1002
{
1000
PbThick
1002
}
  0
ELLIPSE
  5
5E2
330
1F
100
AcDbEntity
  8
THICK
100
AcDbEllipse
 10
-103.5738365712848
 20
83.75872973845887
 30
0.0
 11
-96.32163864006127
 21
76.813943588996
 31
0.0
210
0.0
220
0.0
230
1.0
 40
0.891006524188368
 41
-0.3306684359576054
 42
0.0
1001
DBPROPERTIES
1002
{
1000
PbThick
1002
}
  0
LINE
  5
5E3
330
1F
100
AcDbEntity
  8
HIDDEN
100
AcDbLine
 10
-45.21987635300312
 20
81.64725282414724
 30
0.0
 11
-173.022079150783
 21
183.566108595929
 31
0.0
1001
DBPROPERTIES
1002
{
1000
PbHidd
1002
}
  0
LINE
  5
5E4
330
1F
100
AcDbEntity
  8
HIDDEN
100
AcDbLine
 10
-173.022079150783
 20
183.566108595929
 30
0.0
 11
-172.4559622573262
 21
184.2759967268046
 31
0.0
1001
DBPROPERTIES
1002
{
1000
PbHidd
1002
}
  0
LINE
  5
5E5
330
1F
100
AcDbEntity
  8
THICK
100
AcDbLine
 10
-89.66255485068666
 20
25.917896688557
 30
0.0
 11
-217.4647576484665
 21
127.8367524603388
 31
0.0
1001
DBPROPERTIES
1002
{
1000
PbThick
1002
}
  0
LINE
  5
5E6
330
1F
100
AcDbEntity
  8
THICK
100
AcDbLine
 10
-217.4647576484665
 20
127.8367524603387
 30
0.0
 11
-216.8986407550098
 21
128.5466405912143
 31
0.0
1001
DBPROPERTIES
1002
{
1000
PbThick
1002
}
  0
ELLIPSE
  5
5E7
330
1F
100
AcDbEntity
  8
HIDDEN
100
AcDbEllipse
 10
-104.1399534647416
 20
83.04884160758331
 30
0.0
 11
96.32163864006127
 21
-76.813943588996
 31
0.0
210
0.0
220
0.0
230
1.0
 40
0.891006524188368
 41
2.810924217632188
 42
3.141592653589793
1001
DBPROPERTIES
1002
{
1000
PbHidd
1002
}
  0
ELLIPSE
  5
5E8
330
1F
100
AcDbEntity
  8
THICK
100
AcDbEllipse
 10
-104.1399534647416
 20
83.04884160758331
 30
0.0
 11
96.32163864006127
 21
-76.813943588996
 31
0.0
210
0.0
220
0.0
230
1.0
 40
0.891006524188368
 41
-3.141592653589793
 42
-2.810924217632188
1001
DBPROPERTIES
1002
{
1000
PbThick
1002
}
  0
LINE
  5
5E9
330
1F
100
AcDbEntity
  8
THICK
100
AcDbLine
 10
-34.73227996805563
 20
86.63013239821183
 30
0.0
 11
-34.73227996805564
 21
249.725705318612
 31
0.0
1001
DBPROPERTIES
1002
{
1000
PbThick
1002
}
  0
LINE
  5
5EA
330
1F
100
AcDbEntity
  8
THICK
100
AcDbLine
 10
36.54824196701382
 20
249.725705318612
 30
0.0
 11
36.54824196701382
 21
85.87978295403244
 31
0.0
1001
DBPROPERTIES
1002
{
1000
PbThick
1002
}
  0
ELLIPSE
  5
5EB
330
1F
100
AcDbEntity
  8
THICK
100
AcDbEllipse
 10
0.9079809994791003
 20
133.2
 30
0.0
 11
0.0
 21
123.2
 31
0.0
210
0.0
220
0.0
230
1.0
 40
0.8910065241883679
 41
0.0
 42
0.3306684359576052
1001
DBPROPERTIES
1002
{
1000
PbThick
1002
}
  0
ELLIPSE
  5
5EC
330
1F
100
AcDbEntity
  8
THICK
100
AcDbEllipse
 10
0.9079809994791003
 20
133.2
 30
0.0
 11
0.0
 21
123.2
 31
0.0
210
0.0
220
0.0
230
1.0
 40
0.8910065241883679
 41
-0.3306684359576054
 42
0.0
1001
DBPROPERTIES
1002
{
1000
PbThick
1002
}
  0
LINE
  5
5ED
330
1F
100
AcDbEntity
  8
HIDDEN
100
AcDbLine
 10
35.64026096753472
 20
86.26055245172692
 30
0.0
 11
35.64026096753473
 21
249.725705318612
 31
0.0
1001
DBPROPERTIES
1002
{
1000
PbHidd
1002
}
  0
LINE
  5
5EE
330
1F
100
AcDbEntity
  8
HIDDEN
100
AcDbLine
 10
35.64026096753472
 20
249.725705318612
 30
0.0
 11
36.54824196701382
 21
249.725705318612
 31
0.0
1001
DBPROPERTIES
1002
{
1000
PbHidd
1002
}
  0
LINE
  5
5EF
330
1F
100
AcDbEntity
  8
THICK
100
AcDbLine
 10
-35.64026096753472
 20
86.26055245172692
 30
0.0
 11
-35.64026096753473
 21
249.725705318612
 31
0.0
1001
DBPROPERTIES
1002
{
1000
PbThick
1002
}
  0
LINE
  5
5F0
330
1F
100
AcDbEntity
  8
THICK
100
AcDbLine
 10
-35.64026096753472
 20
249.725705318612
 30
0.0
 11
-34.73227996805562
 21
249.725705318612
 31
0.0
1001
DBPROPERTIES
1002
{
1000
PbThick
1002
}
  0
ELLIPSE
  5
5F1
330
1F
100
AcDbEntity
  8
HIDDEN
100
AcDbEllipse
 10
0.0000000000000067
 20
133.2
 30
0.0
 11
0.0
 21
-123.2
 31
0.0
210
0.0
220
0.0
230
1.0
 40
0.8910065241883679
 41
2.810924217632188
 42
3.141592653589793
1001
DBPROPERTIES
1002
{
1000
PbHidd
1002
}
  0
ELLIPSE
  5
5F2
330
1F
100
AcDbEntity
  8
THICK
100
AcDbEllipse
 10
0.0000000000000067
 20
133.2
 30
0.0
 11
0.0
 21
-123.2
 31
0.0
210
0.0
220
0.0
230
1.0
 40
0.8910065241883679
 41
3.141592653589793
 42
3.472261089547398
1001
DBPROPERTIES
1002
{
1000
PbThick
1002
}
  0
ARC
  5
5F3
330
1F
100
AcDbEntity
  8
THICK
100
AcDbCircle
 10
0.0
 20
-0.0000000000000007
 30
0.0
 40
93.33333333333333
100
AcDbArc
 50
89.99998127603165
 51
180.0000198478428
1001
DBPROPERTIES
1002
{
1000
PbThick
1002
}
  0
LINE
  5
5F4
330
1F
100
AcDbEntity
  8
THICK
100
AcDbLine
 10
201.0277099609375
 20
-159.1528930664062
 30
0.0
 11
200.4615936279297
 21
-159.8627777099609
 31
0.0
1001
DBPROPERTIES
1002
{
1000
PbThick
1002
}
  0
LINE
  5
5F5
330
1F
100
AcDbEntity
  8
THICK
100
AcDbLine
 10
249.7694702148438
 20
57.93958282470703
 30
0.0
 11
249.9715118408203
 21
57.05436706542969
 31
0.0
1001
DBPROPERTIES
1002
{
1000
PbThick
1002
}
  0
LINE
  5
5F6
330
1F
100
AcDbEntity
  8
THICK
100
AcDbLine
 10
110.4297256469727
 20
231.4023742675781
 30
0.0
 11
111.2477874755859
 21
231.0084228515625
 31
0.0
1001
DBPROPERTIES
1002
{
1000
PbThick
1002
}
  0
LINE
  5
5F7
330
1F
100
AcDbEntity
  8
THICK
100
AcDbLine
 10
-112.0658569335938
 20
230.6144561767578
 30
0.0
 11
-111.2477874755859
 21
231.0084228515625
 31
0.0
1001
DBPROPERTIES
1002
{
1000
PbThick
1002
}
  0
LINE
  5
5F8
330
1F
100
AcDbEntity
  8
THICK
100
AcDbLine
 10
-250.1735687255859
 20
56.16915130615234
 30
0.0
 11
-249.9715118408203
 21
57.05436706542969
 31
0.0
1001
DBPROPERTIES
1002
{
1000
PbThick
1002
}
  0
LINE
  5
5F9
330
1F
100
AcDbEntity
  8
THICK
100
AcDbLine
 10
-199.8954772949219
 20
-160.5726776123047
 30
0.0
 11
-200.4615936279297
 21
-159.8627777099609
 31
0.0
1001
DBPROPERTIES
1002
{
1000
PbThick
1002
}
  0
LINE
  5
5FA
330
1F
100
AcDbEntity
  8
THICK
100
AcDbLine
 10
0.9079809784889221
 20
-256.3999938964844
 30
0.0
 11
0.0000000000000134
 21
-256.3999938964844
 31
0.0
1001
DBPROPERTIES
1002
{
1000
PbThick
1002
}
  0
LINE
  5
5FB
330
1F
100
AcDbEntity
  8
THICK
100
AcDbLine
 10
201.0277094497291
 20
159.1528964995788
 30
0.0
 11
200.4615929790189
 21
159.862784100347
 31
0.0
1001
DBPROPERTIES
1002
{
1000
PbThick
1002
}
  0
LINE
  5
5FC
330
1F
100
AcDbEntity
  8
THICK
100
AcDbLine
 10
249.7694719255645
 20
-57.93958338941635
 30
0.0
 11
249.9715166519269
 21
-57.05436760437708
 31
0.0
1001
DBPROPERTIES
1002
{
1000
PbThick
1002
}
  0
LINE
  5
5FD
330
1F
100
AcDbEntity
  8
THICK
100
AcDbLine
 10
110.4297278596685
 20
-231.4023760353649
 30
0.0
 11
111.2477897560132
 21
-231.0084181894717
 31
0.0
1001
DBPROPERTIES
1002
{
1000
PbThick
1002
}
  0
LINE
  5
5FE
330
1F
100
AcDbEntity
  8
THICK
100
AcDbLine
 10
-112.0658541582163
 20
-230.6144591368208
 30
0.0
 11
-111.2477897560133
 21
-231.0084181894717
 31
0.0
1001
DBPROPERTIES
1002
{
1000
PbThick
1002
}
  0
LINE
  5
5FF
330
1F
100
AcDbEntity
  8
THICK
100
AcDbLine
 10
-250.1735615340132
 20
-56.16915113706668
 30
0.0
 11
-249.9715166519269
 21
-57.05436760437704
 31
0.0
1001
DBPROPERTIES
1002
{
1000
PbThick
1002
}
  0
LINE
  5
600
330
1F
100
AcDbEntity
  8
THICK
100
AcDbLine
 10
-199.8954749752593
 20
160.5726736234983
 30
0.0
 11
-200.4615929790188
 21
159.8627841003471
 31
0.0
1001
DBPROPERTIES
1002
{
1000
PbThick
1002
}
  0
LINE
  5
601
330
1F
100
AcDbEntity
  8
THICK
100
AcDbLine
 10
0.9079809510923436
 20
256.4
 30
0.0
 11
0.0000000000000067
 21
256.4
 31
0.0
1001
DBPROPERTIES
1002
{
1000
PbThick
1002
}
  0
ENDSEC
  0
SECTION
  2
OBJECTS
  0
DICTIONARY
  5
C
330
0
100
AcDbDictionary
  3
ACAD_GROUP
350
D
  3
ACAD_LAYOUT
350
1A
  3
ACAD_MATERIAL
350
43
  3
ACAD_MLEADERSTYLE
350
6B
  3
ACAD_MLINESTYLE
350
17
  3
ACAD_PLOTSETTINGS
350
19
  3
ACAD_SCALELIST
350
47
  3
ACAD_VISUALSTYLE
350
2A
  3
ACDBVARIABLEDICTIONARY
350
602
1001
ACAD
1000
TREAT_AS_HARD
1070
     0
  0
DICTIONARY
  5
D
102
{ACAD_REACTORS
330
C
102
}
330
C
100
AcDbDictionary
1001
ACAD
1000
TREAT_AS_HARD
1070
     0
  0
DICTIONARY
  5
1A
102
{ACAD_REACTORS
330
C
102
}
330
C
100
AcDbDictionary
1001
ACAD
1000
TREAT_AS_HARD
1070
     0
  0
DICTIONARY
  5
43
102
{ACAD_REACTORS
330
C
102
}
330
C
100
AcDbDictionary
  3
BYBLOCK
350
45
  3
BYLAYER
350
44
  3
GLOBAL
350
46
1001
ACAD
1000
TREAT_AS_HARD
1070
     0
  0
DICTIONARY
  5
6B
102
{ACAD_REACTORS
330
C
102
}
330
C
100
AcDbDictionary
  3
STANDARD
350
6C
1001
ACAD
1000
TREAT_AS_HARD
1070
     0
  0
DICTIONARY
  5
17
102
{ACAD_REACTORS
330
C
102
}
330
C
100
AcDbDictionary
  3
STANDARD
350
18
1001
ACAD
1000
TREAT_AS_HARD
1070
     0
  0
DICTIONARY
  5
19
102
{ACAD_REACTORS
330
C
102
}
330
C
100
AcDbDictionary
1001
ACAD
1000
TREAT_AS_HARD
1070
     0
  0
DICTIONARY
  5
47
102
{ACAD_REACTORS
330
C
102
}
330
C
100
AcDbDictionary
  3
A0
350
48
  3
A1
350
49
  3
A2
350
4A
  3
A3
350
4B
  3
A4
350
4C
  3
A5
350
4D
  3
A6
350
4E
  3
A7
350
4F
  3
A8
350
50
  3
A9
350
51
  3
B0
350
52
  3
B1
350
53
  3
B2
350
54
  3
B3
350
55
  3
B4
350
56
  3
B5
350
57
  3
B6
350
58
  3
B7
350
59
  3
B8
350
5A
  3
B9
350
5B
  3
C0
350
5C
  3
C1
350
5D
  3
C2
350
5E
  3
C3
350
5F
  3
C4
350
60
  3
C5
350
61
  3
C6
350
62
  3
C7
350
63
  3
C8
350
64
  3
C9
350
65
  3
D0
350
66
  3
D1
350
67
  3
D2
350
68
1001
ACAD
1000
TREAT_AS_HARD
1070
     0
  0
DICTIONARY
  5
2A
102
{ACAD_REACTORS
330
C
102
}
330
C
100
AcDbDictionary
  3
2DWIREFRAME
350
2F
  3
BASIC
350
32
  3
BRIGHTEN
350
36
  3
COLORCHANGE
350
3A
  3
CONCEPTUAL
350
34
  3
DIM
350
35
  3
EDGECOLOROFF
350
3D
  3
FACEPATTERN
350
39
  3
FLAT
350
2B
  3
FLATWITHEDGES
350
2C
  3
GOURAUD
350
2D
  3
GOURAUDWITHEDGES
350
2E
  3
HIDDEN
350
31
  3
JITTEROFF
350
3B
  3
LINEPATTERN
350
38
  3
OVERHANGOFF
350
3C
  3
REALISTIC
350
33
  3
SHADED
350
42
  3
SHADED_WITH_EDGES
350
41
  3
SHADES_OF_GRAY
350
3E
  3
SKETCHY
350
3F
  3
THICKEN
350
37
  3
WIREFRAME
350
30
  3
X-RAY
350
40
1001
ACAD
1000
TREAT_AS_HARD
1070
     0
  0
DICTIONARY
  5
602
102
{ACAD_REACTORS
330
C
102
}
330
C
100
AcDbDictionary
  3
CANNOSCALE
350
60D
  3
CENTEREXE
350
609
  3
CENTERLTYPEFILE
350
60A
  3
CMLEADERSTYLE
350
604
  3
CTABLESTYLE
350
603
  3
DIMASSOC
350
60B
  3
HIDETEXT
350
60C
  3
MSLTSCALE
350
60E
  3
PSOLHEIGHT
350
606
  3
PSOLWIDTH
350
605
1001
ACAD
1000
TREAT_AS_HARD
1070
     0
  0
MATERIAL
  5
45
102
{ACAD_REACTORS
330
43
102
}
102
{ACAD_XDICTIONARY
360
611
102
}
330
43
100
AcDbMaterial
  1
BYBLOCK
  0
MATERIAL
  5
44
102
{ACAD_REACTORS
330
43
102
}
102
{ACAD_XDICTIONARY
360
60F
102
}
330
43
100
AcDbMaterial
  1
BYLAYER
  0
MATERIAL
  5
46
102
{ACAD_REACTORS
330
43
102
}
102
{ACAD_XDICTIONARY
360
613
102
}
330
43
100
AcDbMaterial
  1
GLOBAL
  0
ACAD_PROXY_OBJECT
  5
6C
102
{ACAD_REACTORS
330
6B
102
}
330
6B
100
AcDbZombieObject
 90
      499
 91
      505
 93
      610
310
40901902A4063FBFFFFFE0000000000000020400000000000020404214DD185B99185C990000000000000104090141901A00000000000004100000000000000041025764000000000000039000
340
14
340
0
340
11
340
0
 94
        0
1001
ACAD_MLEADERVER
1070
     2
  0
MLINESTYLE
  5
18
102
{ACAD_REACTORS
330
17
102
}
330
17
100
AcDbMlineStyle
  2
Standard
 70
     0
  3

 62
   256
 51
90.0
 52
90.0
 71
     2
 49
0.5
 62
   256
  6
BYLAYER
 49
-0.5
 62
   256
  6
BYLAYER
  0
ACAD_PROXY_OBJECT
  5
48
102
{ACAD_REACTORS
330
47
102
}
330
47
100
AcDbZombieObject
 90
      499
 91
      503
 93
       41
310
903313A31580
  0
ACAD_PROXY_OBJECT
  5
49
102
{ACAD_REACTORS
330
47
102
}
330
47
100
AcDbZombieObject
 90
      499
 91
      503
 93
      105
310
903313A324000000000000004000
  0
ACAD_PROXY_OBJECT
  5
4A
102
{ACAD_REACTORS
330
47
102
}
330
47
100
AcDbZombieObject
 90
      499
 91
      503
 93
      105
310
903313A344000000000000104000
  0
ACAD_PROXY_OBJECT
  5
4B
102
{ACAD_REACTORS
330
47
102
}
330
47
100
AcDbZombieObject
 90
      499
 91
      503
 93
      105
310
903313A354000000000000144000
  0
ACAD_PROXY_OBJECT
  5
4C
102
{ACAD_REACTORS
330
47
102
}
330
47
100
AcDbZombieObject
 90
      499
 91
      503
 93
      105
310
903313A384000000000000204000
  0
ACAD_PROXY_OBJECT
  5
4D
102
{ACAD_REACTORS
330
47
102
}
330
47
100
AcDbZombieObject
 90
      499
 91
      503
 93
      113
310
904313A31304000000000000244000
  0
ACAD_PROXY_OBJECT
  5
4E
102
{ACAD_REACTORS
330
47
102
}
330
47
100
AcDbZombieObject
 90
      499
 91
      503
 93
      113
310
904313A31364000000000000304000
  0
ACAD_PROXY_OBJECT
  5
4F
102
{ACAD_REACTORS
330
47
102
}
330
47
100
AcDbZombieObject
 90
      499
 91
      503
 93
      113
310
904313A32304000000000000344000
  0
ACAD_PROXY_OBJECT
  5
50
102
{ACAD_REACTORS
330
47
102
}
330
47
100
AcDbZombieObject
 90
      499
 91
      503
 93
      113
310
904313A333040000000000003E4000
  0
ACAD_PROXY_OBJECT
  5
51
102
{ACAD_REACTORS
330
47
102
}
330
47
100
AcDbZombieObject
 90
      499
 91
      503
 93
      113
310
904313A34304000000000000444000
  0
ACAD_PROXY_OBJECT
  5
52
102
{ACAD_REACTORS
330
47
102
}
330
47
100
AcDbZombieObject
 90
      499
 91
      503
 93
      113
310
904313A35304000000000000494000
  0
ACAD_PROXY_OBJECT
  5
53
102
{ACAD_REACTORS
330
47
102
}
330
47
100
AcDbZombieObject
 90
      499
 91
      503
 93
      121
310
905313A3130304000000000000594000
  0
ACAD_PROXY_OBJECT
  5
54
102
{ACAD_REACTORS
330
47
102
}
330
47
100
AcDbZombieObject
 90
      499
 91
      503
 93
      105
310
903323A310000000000000010100
  0
ACAD_PROXY_OBJECT
  5
55
102
{ACAD_REACTORS
330
47
102
}
330
47
100
AcDbZombieObject
 90
      499
 91
      503
 93
      105
310
903343A310000000000000410100
  0
ACAD_PROXY_OBJECT
  5
56
102
{ACAD_REACTORS
330
47
102
}
330
47
100
AcDbZombieObject
 90
      499
 91
      503
 93
      105
310
903383A310000000000000810100
  0
ACAD_PROXY_OBJECT
  5
57
102
{ACAD_REACTORS
330
47
102
}
330
47
100
AcDbZombieObject
 90
      499
 91
      503
 93
      113
310
90431303A310000000000000910100
  0
ACAD_PROXY_OBJECT
  5
58
102
{ACAD_REACTORS
330
47
102
}
330
47
100
AcDbZombieObject
 90
      499
 91
      503
 93
      121
310
9053130303A310000000000001650100
  0
ACAD_PROXY_OBJECT
  5
59
102
{ACAD_REACTORS
330
47
102
}
330
47
100
AcDbZombieObject
 90
      499
 91
      503
 93
      257
310
90E312F31323822203D2031272D3022000000000000200FC000000000000284000
  0
ACAD_PROXY_OBJECT
  5
5A
102
{ACAD_REACTORS
330
47
102
}
330
47
100
AcDbZombieObject
 90
      499
 91
      503
 93
      249
310
90D312F363422203D2031272D3022000000000000240FC000000000000284000
  0
ACAD_PROXY_OBJECT
  5
5B
102
{ACAD_REACTORS
330
47
102
}
330
47
100
AcDbZombieObject
 90
      499
 91
      503
 93
      249
310
90D312F333222203D2031272D3022000000000000280FC000000000000284000
  0
ACAD_PROXY_OBJECT
  5
5C
102
{ACAD_REACTORS
330
47
102
}
330
47
100
AcDbZombieObject
 90
      499
 91
      503
 93
      249
310
90D312F313622203D2031272D30220000000000002C0FC000000000000284000
  0
ACAD_PROXY_OBJECT
  5
5D
102
{ACAD_REACTORS
330
47
102
}
330
47
100
AcDbZombieObject
 90
      499
 91
      503
 93
      249
310
90D332F333222203D2031272D30220000000000002E0FC000000000000284000
  0
ACAD_PROXY_OBJECT
  5
5E
102
{ACAD_REACTORS
330
47
102
}
330
47
100
AcDbZombieObject
 90
      499
 91
      503
 93
      241
310
90C312F3822203D2031272D3022000000000000300FC000000000000284000
  0
ACAD_PROXY_OBJECT
  5
5F
102
{ACAD_REACTORS
330
47
102
}
330
47
100
AcDbZombieObject
 90
      499
 91
      503
 93
      249
310
90D332F313622203D2031272D3022000000000000320FC000000000000284000
  0
ACAD_PROXY_OBJECT
  5
60
102
{ACAD_REACTORS
330
47
102
}
330
47
100
AcDbZombieObject
 90
      499
 91
      503
 93
      241
310
90C312F3422203D2031272D3022000000000000340FC000000000000284000
  0
ACAD_PROXY_OBJECT
  5
61
102
{ACAD_REACTORS
330
47
102
}
330
47
100
AcDbZombieObject
 90
      499
 91
      503
 93
      241
310
90C332F3822203D2031272D3022000000000000360FC000000000000284000
  0
ACAD_PROXY_OBJECT
  5
62
102
{ACAD_REACTORS
330
47
102
}
330
47
100
AcDbZombieObject
 90
      499
 91
      503
 93
      241
310
90C312F3222203D2031272D3022000000000000380FC000000000000284000
  0
ACAD_PROXY_OBJECT
  5
63
102
{ACAD_REACTORS
330
47
102
}
330
47
100
AcDbZombieObject
 90
      499
 91
      503
 93
      241
310
90C332F3422203D2031272D30220000000000003A0FC000000000000284000
  0
ACAD_PROXY_OBJECT
  5
64
102
{ACAD_REACTORS
330
47
102
}
330
47
100
AcDbZombieObject
 90
      499
 91
      503
 93
      161
310
90A3122203D2031272D30224000000000000284000
  0
ACAD_PROXY_OBJECT
  5
65
102
{ACAD_REACTORS
330
47
102
}
330
47
100
AcDbZombieObject
 90
      499
 91
      503
 93
      257
310
90E312D312F3222203D2031272D30220000000000003E0FC000000000000284000
  0
ACAD_PROXY_OBJECT
  5
66
102
{ACAD_REACTORS
330
47
102
}
330
47
100
AcDbZombieObject
 90
      499
 91
      503
 93
      225
310
90A3322203D2031272D302200000000000002100000000000000284000
  0
ACAD_PROXY_OBJECT
  5
67
102
{ACAD_REACTORS
330
47
102
}
330
47
100
AcDbZombieObject
 90
      499
 91
      503
 93
      225
310
90A3622203D2031272D302200000000000006100000000000000284000
  0
ACAD_PROXY_OBJECT
  5
68
102
{ACAD_REACTORS
330
47
102
}
330
47
100
AcDbZombieObject
 90
      499
 91
      503
 93
      249
310
90D31272D3022203D2031272D30220000000000000A100000000000000284000
  0
ACAD_PROXY_OBJECT
  5
2F
102
{ACAD_REACTORS
330
2A
102
}
330
2A
100
AcDbZombieObject
 90
      499
 91
      501
 93
      436
310
42CC9915DA5C99599C985B595049028333333333333E33F0000000000000F90107901411070040501600405405064090741402480A0340
1001
ACAD
1000
AcDbSavedByObjectVersion
1070
     0
  0
ACAD_PROXY_OBJECT
  5
32
102
{ACAD_REACTORS
330
2A
102
}
330
2A
100
AcDbZombieObject
 90
      499
 91
      501
 93
      388
310
4150985CDA58D07406404333333333333E33F0000000000000F90107A41107004050150841D405064090741402480A0350
1001
ACAD
1000
AcDbSavedByObjectVersion
1070
     0
  0
ACAD_PROXY_OBJECT
  5
36
102
{ACAD_REACTORS
330
2A
102
}
330
2A
100
AcDbZombieObject
 90
      499
 91
      501
 93
      428
310
42109C9A59DA1D195B90C409028333333333333E33F0000000000000F9010790141107004050150841D405064090741402480A029950
1001
ACAD
1000
AcDbSavedByObjectVersion
1070
     0
  0
ACAD_PROXY_OBJECT
  5
3A
102
{ACAD_REACTORS
330
2A
102
}
330
2A
100
AcDbZombieObject
 90
      499
 91
      501
 93
      452
310
42D0DBDB1BDC90DA185B99D95104090240C333333333333E33F0000000000000F90108901411070040501508421405064090741402480A0350
1001
ACAD
1000
AcDbSavedByObjectVersion
1070
     0
  0
ACAD_PROXY_OBJECT
  5
34
102
{ACAD_REACTORS
330
2A
102
}
330
2A
100
AcDbZombieObject
 90
      499
 91
      501
 93
      500
310
4290DBDB98D95C1D1D585B10940D028333333333333E33F0000000000000F90107902409070040501000000000018199010841D405064090740C02480A0340
1001
ACAD
1000
AcDbSavedByObjectVersion
1070
     0
  0
ACAD_PROXY_OBJECT
  5
35
102
{ACAD_REACTORS
330
2A
102
}
330
2A
100
AcDbZombieObject
 90
      499
 91
      501
 93
      412
310
40D11A5B50B409028333333333333E33F0000000000000F9010790141107004050150841D405064090741402480A02677FFFFFD0
1001
ACAD
1000
AcDbSavedByObjectVersion
1070
     0
  0
ACAD_PROXY_OBJECT
  5
3D
102
{ACAD_REACTORS
330
2A
102
}
330
2A
100
AcDbZombieObject
 90
      499
 91
      501
 93
      452
310
43115919D950DBDB1BDC93D999916409028333333333333E33F0000000000000F9010790141107004050150841D405064090741402480A0350
1001
ACAD
1000
AcDbSavedByObjectVersion
1070
     0
  0
ACAD_PROXY_OBJECT
  5
39
102
{ACAD_REACTORS
330
2A
102
}
330
2A
100
AcDbZombieObject
 90
      499
 91
      501
 93
      444
310
42D19858D95C185D1D195C9B90F409028333333333333E33F0000000000000F9010790141107004050150841D405064090741402480A0350
1001
ACAD
1000
AcDbSavedByObjectVersion
1070
     0
  0
ACAD_PROXY_OBJECT
  5
2B
102
{ACAD_REACTORS
330
2A
102
}
330
2A
100
AcDbZombieObject
 90
      499
 91
      501
 93
      380
310
41119B185D240901404333333333333E33F0000000000000F9010740A907004050150841D405064090741402480A1B50
1001
ACAD
1000
AcDbSavedByObjectVersion
1070
     0
  0
ACAD_PROXY_OBJECT
  5
2C
102
{ACAD_REACTORS
330
2A
102
}
330
2A
100
AcDbZombieObject
 90
      499
 91
      501
 93
      468
310
43519B185D15DA5D1A115919D95CD0140901404333333333333E33F0000000000000F90107409019070040501600405405064090741402480A1B50
1001
ACAD
1000
AcDbSavedByObjectVersion
1070
     0
  0
ACAD_PROXY_OBJECT
  5
2D
102
{ACAD_REACTORS
330
2A
102
}
330
2A
100
AcDbZombieObject
 90
      499
 91
      501
 93
      404
310
41D1DBDD5C985D5910240902404333333333333E33F0000000000000F9010740A9070040501641D405064090741402480A1B50
1001
ACAD
1000
AcDbSavedByObjectVersion
1070
     0
  0
ACAD_PROXY_OBJECT
  5
2E
102
{ACAD_REACTORS
330
2A
102
}
330
2A
100
AcDbZombieObject
 90
      499
 91
      501
 93
      492
310
4411DBDD5C985D5915DA5D1A115919D95CD0340902404333333333333E33F0000000000000F90107409019070040501600405405064090741402480A1B50
1001
ACAD
1000
AcDbSavedByObjectVersion
1070
     0
  0
ACAD_PROXY_OBJECT
  5
31
102
{ACAD_REACTORS
330
2A
102
}
330
2A
100
AcDbZombieObject
 90
      499
 91
      501
 93
      476
310
41921A5919195B90640502408333333333333E33F0000000000000F901079024090700405020000000000001110200405405064090740C02480A0340
1001
ACAD
1000
AcDbSavedByObjectVersion
1070
     0
  0
ACAD_PROXY_OBJECT
  5
3B
102
{ACAD_REACTORS
330
2A
102
}
330
2A
100
AcDbZombieObject
 90
      499
 91
      501
 93
      428
310
42529A5D1D195C93D999914409028333333333333E33F0000000000000F9010790141107004050150A41D405064090741402480A0350
1001
ACAD
1000
AcDbSavedByObjectVersion
1070
     0
  0
ACAD_PROXY_OBJECT
  5
38
102
{ACAD_REACTORS
330
2A
102
}
330
2A
100
AcDbZombieObject
 90
      499
 91
      501
 93
      444
310
42D31A5B995C185D1D195C9B90E409028333333333333E33F0000000000000F9010790141107004050750841D405064090741402483A0350
1001
ACAD
1000
AcDbSavedByObjectVersion
1070
     0
  0
ACAD_PROXY_OBJECT
  5
3C
102
{ACAD_REACTORS
330
2A
102
}
330
2A
100
AcDbZombieObject
 90
      499
 91
      501
 93
      444
310
42D3DD995C9A185B99D3D999915409028333333333333E33F0000000000000F9010790141107004050150941D405064090741402480A0350
1001
ACAD
1000
AcDbSavedByObjectVersion
1070
     0
  0
ACAD_PROXY_OBJECT
  5
33
102
{ACAD_REACTORS
330
2A
102
}
330
2A
100
AcDbZombieObject
 90
      499
 91
      501
 93
      428
310
425499585B1A5CDD1A58D08409038333333333333E33F0000000000000F9010740A907004050150800405405064090740C02480A1B40
1001
ACAD
1000
AcDbSavedByObjectVersion
1070
     0
  0
ACAD_PROXY_OBJECT
  5
42
102
{ACAD_REACTORS
330
2A
102
}
330
2A
100
AcDbZombieObject
 90
      499
 91
      501
 93
      420
310
4194DA1859195911B40902404333333333333E33F0000000000000F9010740A41107004050150800405405064090840C02480A0B40
1001
ACAD
1000
AcDbSavedByObjectVersion
1070
     0
  0
ACAD_PROXY_OBJECT
  5
41
102
{ACAD_REACTORS
330
2A
102
}
330
2A
100
AcDbZombieObject
 90
      499
 91
      501
 93
      516
310
4454DA18591959081DDA5D1A08195919D95CD1A40902404333333333333E33F0000000000000F901074090142907004050250800405405064090740C02480A0B40
1001
ACAD
1000
AcDbSavedByObjectVersion
1070
     0
  0
ACAD_PROXY_OBJECT
  5
3E
102
{ACAD_REACTORS
330
2A
102
}
330
2A
100
AcDbZombieObject
 90
      499
 91
      501
 93
      532
310
4394DA1859195CC81BD98811DC985E5174090240C333333333333E33F0000000000000F901079024090741D01000000000000111010841D405064090740C02480A0340
1001
ACAD
1000
AcDbSavedByObjectVersion
1070
     0
  0
ACAD_PROXY_OBJECT
  5
3F
102
{ACAD_REACTORS
330
2A
102
}
330
2A
100
AcDbZombieObject
 90
      499
 91
      501
 93
      476
310
41D4DAD95D18DA1E51840502408333333333333E33F0000000000000F901079024090741D01000000000000111010B41D405064090741802480A0340
1001
ACAD
1000
AcDbSavedByObjectVersion
1070
     0
  0
ACAD_PROXY_OBJECT
  5
37
102
{ACAD_REACTORS
330
2A
102
}
330
2A
100
AcDbZombieObject
 90
      499
 91
      501
 93
      412
310
41D51A1A58DAD95B90D409028333333333333E33F0000000000000F9010790141107004050150C41D405064090741402480A0350
1001
ACAD
1000
AcDbSavedByObjectVersion
1070
     0
  0
ACAD_PROXY_OBJECT
  5
30
102
{ACAD_REACTORS
330
2A
102
}
330
2A
100
AcDbZombieObject
 90
      499
 91
      501
 93
      420
310
4255DA5C99599C985B595059028333333333333E33F0000000000000F90107901411070040501600405405064090740C02480A0340
1001
ACAD
1000
AcDbSavedByObjectVersion
1070
     0
  0
ACAD_PROXY_OBJECT
  5
40
102
{ACAD_REACTORS
330
2A
102
}
330
2A
100
AcDbZombieObject
 90
      499
 91
      501
 93
      404
310
41560B54985E51940902404000000000000E03F0000000000000F9010740501907004050150841D405064090740C02480A1B40
1001
ACAD
1000
AcDbSavedByObjectVersion
1070
     0
  0
DICTIONARYVAR
  5
60D
102
{ACAD_REACTORS
330
602
102
}
330
602
100
DictionaryVariables
280
     0
  1
1:1
  0
DICTIONARYVAR
  5
609
102
{ACAD_REACTORS
330
602
102
}
330
602
100
DictionaryVariables
280
     0
  1
3.500000
  0
DICTIONARYVAR
  5
60A
102
{ACAD_REACTORS
330
602
102
}
330
602
100
DictionaryVariables
280
     0
  1
acadiso.lin
  0
DICTIONARYVAR
  5
604
102
{ACAD_REACTORS
330
602
102
}
330
602
100
DictionaryVariables
280
     0
  1
Standard
  0
DICTIONARYVAR
  5
603
102
{ACAD_REACTORS
330
602
102
}
330
602
100
DictionaryVariables
280
     0
  1
Standard
  0
DICTIONARYVAR
  5
60B
102
{ACAD_REACTORS
330
602
102
}
330
602
100
DictionaryVariables
280
     0
  1
2
  0
DICTIONARYVAR
  5
60C
102
{ACAD_REACTORS
330
602
102
}
330
602
100
DictionaryVariables
280
     0
  1
1
  0
DICTIONARYVAR
  5
60E
102
{ACAD_REACTORS
330
602
102
}
330
602
100
DictionaryVariables
280
     0
  1
1
  0
DICTIONARYVAR
  5
606
102
{ACAD_REACTORS
330
602
102
}
330
602
100
DictionaryVariables
280
     0
  1
80.000000
  0
DICTIONARYVAR
  5
605
102
{ACAD_REACTORS
330
602
102
}
330
602
100
DictionaryVariables
280
     0
  1
5.000000
  0
DICTIONARY
  5
611
330
45
100
AcDbDictionary
  3
ACAD_XREC_ROUNDTRIP
360
612
1001
ACAD
1000
TREAT_AS_HARD
1070
     1
  0
DICTIONARY
  5
60F
330
44
100
AcDbDictionary
  3
ACAD_XREC_ROUNDTRIP
360
610
1001
ACAD
1000
TREAT_AS_HARD
1070
     1
  0
DICTIONARY
  5
613
330
46
100
AcDbDictionary
  3
ACAD_XREC_ROUNDTRIP
360
614
1001
ACAD
1000
TREAT_AS_HARD
1070
     1
  0
XRECORD
  5
612
102
{ACAD_REACTORS
330
611
102
}
330
611
100
AcDbXrecord
102
MATERIAL
148
0.0
149
0.0
149
0.0
 93
        0
 94
      127
282
     0
 72
     1
 77
     1
171
     1
175
     1
179
     1
273
     0
  0
XRECORD
  5
610
102
{ACAD_REACTORS
330
60F
102
}
330
60F
100
AcDbXrecord
102
MATERIAL
148
0.0
149
0.0
149
0.0
 93
        0
 94
      127
282
     0
 72
     1
 77
     1
171
     1
175
     1
179
     1
273
     0
  0
XRECORD
  5
614
102
{ACAD_REACTORS
330
613
102
}
330
613
100
AcDbXrecord
102
MATERIAL
148
0.0
149
0.0
149
0.0
 93
        0
 94
      127
282
     0
 72
     1
 77
     1
171
     1
175
     1
179
     1
273
     0
  0
ENDSEC
  0
EOF
