  0
SECTION
  2
HEADER
  9
$ACADVER
  1
AC1012
  9
$DWGCODEPAGE
  3
ansi_1252
  9
$INSBASE
 10
0.0
 20
0.0
 30
0.0
  9
$EXTMIN
 10
1.000000000000000E+20
 20
1.000000000000000E+20
 30
1.000000000000000E+20
  9
$EXTMAX
 10
-1.000000000000000E+20
 20
-1.000000000000000E+20
 30
-1.000000000000000E+20
  9
$LIMMIN
 10
0.0
 20
0.0
  9
$LIMMAX
 10
420.0
 20
297.0
  9
$ORTHOMODE
 70
     0
  9
$REGENMODE
 70
     1
  9
$FILLMODE
 70
     1
  9
$QTEXTMODE
 70
     0
  9
$MIRRTEXT
 70
     1
  9
$DRAGMODE
 70
     2
  9
$LTSCALE
 40
1.0
  9
$OSMODE
 70
    37
  9
$ATTMODE
 70
     1
  9
$TEXTSIZE
 40
2.5
  9
$TRACEWID
 40
1.0
  9
$TEXTSTYLE
  7
STANDARD
  9
$CLAYER
  8
0
  9
$CELTYPE
  6
BYLAYER
  9
$CECOLOR
 62
   256
  9
$CELTSCALE
 40
1.0
  9
$DELOBJ
 70
     1
  9
$DISPSILH
 70
     0
  9
$DIMSCALE
 40
1.0
  9
$DIMASZ
 40
2.5
  9
$DIMEXO
 40
0.625
  9
$DIMDLI
 40
3.75
  9
$DIMRND
 40
0.0
  9
$DIMDLE
 40
0.0
  9
$DIMEXE
 40
1.25
  9
$DIMTP
 40
0.0
  9
$DIMTM
 40
0.0
  9
$DIMTXT
 40
2.5
  9
$DIMCEN
 40
2.5
  9
$DIMTSZ
 40
0.0
  9
$DIMTOL
 70
     0
  9
$DIMLIM
 70
     0
  9
$DIMTIH
 70
     0
  9
$DIMTOH
 70
     0
  9
$DIMSE1
 70
     0
  9
$DIMSE2
 70
     0
  9
$DIMTAD
 70
     1
  9
$DIMZIN
 70
     8
  9
$DIMBLK
  1

  9
$DIMASO
 70
     1
  9
$DIMSHO
 70
     1
  9
$DIMPOST
  1

  9
$DIMAPOST
  1

  9
$DIMALT
 70
     0
  9
$DIMALTD
 70
     3
  9
$DIMALTF
 40
0.03937007874016
  9
$DIMLFAC
 40
1.0
  9
$DIMTOFL
 70
     1
  9
$DIMTVP
 40
0.0
  9
$DIMTIX
 70
     0
  9
$DIMSOXD
 70
     0
  9
$DIMSAH
 70
     0
  9
$DIMBLK1
  1

  9
$DIMBLK2
  1

  9
$DIMSTYLE
  2
ISO-25
  9
$DIMCLRD
 70
     0
  9
$DIMCLRE
 70
     0
  9
$DIMCLRT
 70
     0
  9
$DIMTFAC
 40
1.0
  9
$DIMGAP
 40
0.625
  9
$DIMJUST
 70
     0
  9
$DIMSD1
 70
     0
  9
$DIMSD2
 70
     0
  9
$DIMTOLJ
 70
     0
  9
$DIMTZIN
 70
     8
  9
$DIMALTZ
 70
     0
  9
$DIMALTTZ
 70
     0
  9
$DIMFIT
 70
     3
  9
$DIMUPT
 70
     0
  9
$DIMUNIT
 70
     2
  9
$DIMDEC
 70
     2
  9
$DIMTDEC
 70
     2
  9
$DIMALTU
 70
     2
  9
$DIMALTTD
 70
     3
  9
$DIMTXSTY
  7
STANDARD
  9
$DIMAUNIT
 70
     0
  9
$LUNITS
 70
     2
  9
$LUPREC
 70
     4
  9
$SKETCHINC
 40
1.0
  9
$FILLETRAD
 40
10.0
  9
$AUNITS
 70
     0
  9
$AUPREC
 70
     0
  9
$MENU
  1
.
  9
$ELEVATION
 40
0.0
  9
$PELEVATION
 40
0.0
  9
$THICKNESS
 40
0.0
  9
$LIMCHECK
 70
     0
  9
$CHAMFERA
 40
0.0
  9
$CHAMFERB
 40
0.0
  9
$CHAMFERC
 40
0.0
  9
$CHAMFERD
 40
0.0
  9
$SKPOLY
 70
     0
  9
$TDCREATE
 40
2457819.65307662
  9
$TDUPDATE
 40
2457819.653079329
  9
$TDINDWG
 40
0.0000000116
  9
$TDUSRTIMER
 40
0.0000000116
  9
$USRTIMER
 70
     1
  9
$ANGBASE
 50
0.0
  9
$ANGDIR
 70
     0
  9
$PDMODE
 70
     0
  9
$PDSIZE
 40
0.0
  9
$PLINEWID
 40
0.0
  9
$COORDS
 70
     1
  9
$SPLFRAME
 70
     0
  9
$SPLINETYPE
 70
     6
  9
$SPLINESEGS
 70
     8
  9
$ATTDIA
 70
     0
  9
$ATTREQ
 70
     1
  9
$HANDLING
 70
     1
  9
$HANDSEED
  5
58A
  9
$SURFTAB1
 70
     6
  9
$SURFTAB2
 70
     6
  9
$SURFTYPE
 70
     6
  9
$SURFU
 70
     6
  9
$SURFV
 70
     6
  9
$UCSNAME
  2

  9
$UCSORG
 10
0.0
 20
0.0
 30
0.0
  9
$UCSXDIR
 10
1.0
 20
0.0
 30
0.0
  9
$UCSYDIR
 10
0.0
 20
1.0
 30
0.0
  9
$PUCSNAME
  2

  9
$PUCSORG
 10
0.0
 20
0.0
 30
0.0
  9
$PUCSXDIR
 10
1.0
 20
0.0
 30
0.0
  9
$PUCSYDIR
 10
0.0
 20
1.0
 30
0.0
  9
$USERI1
 70
     0
  9
$USERI2
 70
     0
  9
$USERI3
 70
     0
  9
$USERI4
 70
     0
  9
$USERI5
 70
     0
  9
$USERR1
 40
0.0
  9
$USERR2
 40
0.0
  9
$USERR3
 40
0.0
  9
$USERR4
 40
0.0
  9
$USERR5
 40
0.0
  9
$WORLDVIEW
 70
     1
  9
$SHADEDGE
 70
     3
  9
$SHADEDIF
 70
    70
  9
$TILEMODE
 70
     1
  9
$MAXACTVP
 70
    64
  9
$PINSBASE
 10
0.0
 20
0.0
 30
0.0
  9
$PLIMCHECK
 70
     0
  9
$PEXTMIN
 10
1.000000000000000E+20
 20
1.000000000000000E+20
 30
1.000000000000000E+20
  9
$PEXTMAX
 10
-1.000000000000000E+20
 20
-1.000000000000000E+20
 30
-1.000000000000000E+20
  9
$PLIMMIN
 10
0.0
 20
0.0
  9
$PLIMMAX
 10
420.0
 20
297.0
  9
$UNITMODE
 70
     0
  9
$VISRETAIN
 70
     1
  9
$PLINEGEN
 70
     0
  9
$PSLTSCALE
 70
     1
  9
$TREEDEPTH
 70
  3020
  9
$PICKSTYLE
 70
     1
  9
$CMLSTYLE
  2
STANDARD
  9
$CMLJUST
 70
     0
  9
$CMLSCALE
 40
20.0
  9
$SAVEIMAGES
 70
     1
  0
ENDSEC
  0
SECTION
  2
CLASSES
  0
CLASS
  1
ACDBDICTIONARYWDFLT
  2
AcDbDictionaryWithDefault
  3
ObjectDBX Classes
 90
    32768
280
     0
281
     0
  0
CLASS
  1
VISUALSTYLE
  2
AcDbVisualStyle
  3
ObjectDBX Classes
 90
     4095
280
     0
281
     0
  0
CLASS
  1
MATERIAL
  2
AcDbMaterial
  3
ObjectDBX Classes
 90
     1153
280
     0
281
     0
  0
CLASS
  1
SCALE
  2
AcDbScale
  3
ObjectDBX Classes
 90
     1153
280
     0
281
     0
  0
CLASS
  1
TABLESTYLE
  2
AcDbTableStyle
  3
ObjectDBX Classes
 90
     4095
280
     0
281
     0
  0
CLASS
  1
MLEADERSTYLE
  2
AcDbMLeaderStyle
  3
ACDB_MLEADERSTYLE_CLASS
 90
     4095
280
     0
281
     0
  0
CLASS
  1
SUN
  2
AcDbSun
  3
SCENEOE
 90
     1153
280
     0
281
     0
  0
CLASS
  1
DICTIONARYVAR
  2
AcDbDictionaryVar
  3
ObjectDBX Classes
 90
        0
280
     0
281
     0
  0
CLASS
  1
XRECORD
  2
AcDbXrecord
  3
ObjectDBX Classes
 90
    32768
280
     0
281
     0
  0
CLASS
  1
LWPOLYLINE
  2
AcDbPolyline
  3
ObjectDBX Classes
 90
    32768
280
     0
281
     1
  0
CLASS
  1
HATCH
  2
AcDbHatch
  3
ObjectDBX Classes
 90
    32768
280
     0
281
     1
  0
CLASS
  1
ACDBPLACEHOLDER
  2
AcDbPlaceHolder
  3
ObjectDBX Classes
 90
        0
280
     0
281
     0
  0
CLASS
  1
LAYOUT
  2
AcDbLayout
  3
ObjectDBX Classes
 90
        0
280
     0
281
     0
  0
ENDSEC
  0
SECTION
  2
TABLES
  0
TABLE
  2
VPORT
  5
8
330
0
100
AcDbSymbolTable
 70
     1
  0
VPORT
  5
29
330
8
100
AcDbSymbolTableRecord
100
AcDbViewportTableRecord
  2
*ACTIVE
 70
     0
 10
0.0
 20
0.0
 11
1.0
 21
1.0
 12
-9.959292143521054
 22
-2.181545137600324
 13
0.0
 23
0.0
 14
10.0
 24
10.0
 15
10.0
 25
10.0
 16
0.0
 26
0.0
 36
1.0
 17
0.0
 27
0.0
 37
0.0
 40
411.1780977235571
 41
0.9562673010829129
 42
50.0
 43
0.0
 44
0.0
 50
0.0
 51
0.0
 71
     0
 72
   100
 73
     1
 74
     3
 75
     0
 76
     0
 77
     0
 78
     0
  0
ENDTAB
  0
TABLE
  2
LTYPE
  5
5
330
0
100
AcDbSymbolTable
 70
     1
  0
LTYPE
  5
14
330
5
100
AcDbSymbolTableRecord
100
AcDbLinetypeTableRecord
  2
BYBLOCK
 70
     0
  3

 72
    65
 73
     0
 40
0.0
  0
LTYPE
  5
15
330
5
100
AcDbSymbolTableRecord
100
AcDbLinetypeTableRecord
  2
BYLAYER
 70
     0
  3

 72
    65
 73
     0
 40
0.0
  0
LTYPE
  5
16
330
5
100
AcDbSymbolTableRecord
100
AcDbLinetypeTableRecord
  2
CONTINUOUS
 70
     0
  3
Solid line
 72
    65
 73
     0
 40
0.0
  0
ENDTAB
  0
TABLE
  2
LAYER
  5
2
330
0
100
AcDbSymbolTable
 70
     4
  0
LAYER
  5
10
330
2
100
AcDbSymbolTableRecord
100
AcDbLayerTableRecord
  2
0
 70
     0
 62
     7
  6
CONTINUOUS
  0
LAYER
  5
6E
330
2
100
AcDbSymbolTableRecord
100
AcDbLayerTableRecord
  2
THICK
 70
     0
 62
     7
  6
CONTINUOUS
  0
LAYER
  5
6F
330
2
100
AcDbSymbolTableRecord
100
AcDbLayerTableRecord
  2
HIDDEN
 70
     0
 62
     7
  6
CONTINUOUS
  0
LAYER
  5
70
330
2
100
AcDbSymbolTableRecord
100
AcDbLayerTableRecord
  2
HASHLINES
 70
     0
 62
     7
  6
CONTINUOUS
  0
ENDTAB
  0
TABLE
  2
STYLE
  5
3
330
0
100
AcDbSymbolTable
 70
     1
  0
STYLE
  5
11
330
3
100
AcDbSymbolTableRecord
100
AcDbTextStyleTableRecord
  2
STANDARD
 70
     0
 40
0.0
 41
1.0
 50
0.0
 71
     0
 42
2.5
  3
txt
  4

  0
ENDTAB
  0
TABLE
  2
VIEW
  5
6
330
0
100
AcDbSymbolTable
 70
     0
  0
ENDTAB
  0
TABLE
  2
UCS
  5
7
330
0
100
AcDbSymbolTable
 70
     0
  0
ENDTAB
  0
TABLE
  2
APPID
  5
9
330
0
100
AcDbSymbolTable
 70
     3
  0
APPID
  5
12
330
9
100
AcDbSymbolTableRecord
100
AcDbRegAppTableRecord
  2
ACAD
 70
     0
  0
APPID
  5
71
330
9
100
AcDbSymbolTableRecord
100
AcDbRegAppTableRecord
  2
DBPROPERTIES
 70
     0
  0
APPID
  5
589
330
9
100
AcDbSymbolTableRecord
100
AcDbRegAppTableRecord
  2
ACAD_MLEADERVER
 70
     0
  0
ENDTAB
  0
TABLE
  2
DIMSTYLE
  5
A
330
0
100
AcDbSymbolTable
 70
     1
  0
DIMSTYLE
105
27
330
A
100
AcDbSymbolTableRecord
100
AcDbDimStyleTableRecord
  2
ISO-25
 70
     0
  3

  4

  5

  6

  7

 40
1.0
 41
2.5
 42
0.625
 43
3.75
 44
1.25
 45
0.0
 46
0.0
 47
0.0
 48
0.0
140
2.5
141
2.5
142
0.0
143
0.03937007874016
144
1.0
145
0.0
146
1.0
147
0.625
 71
     0
 72
     0
 73
     0
 74
     0
 75
     0
 76
     0
 77
     1
 78
     8
170
     0
171
     3
172
     1
173
     0
174
     0
175
     0
176
     0
177
     0
178
     0
270
     2
271
     2
272
     2
273
     2
274
     3
340
11
275
     0
280
     0
281
     0
282
     0
283
     0
284
     8
285
     0
286
     0
287
     3
288
     0
  0
ENDTAB
  0
TABLE
  2
BLOCK_RECORD
  5
1
330
0
100
AcDbSymbolTable
 70
     1
  0
BLOCK_RECORD
  5
1F
330
1
100
AcDbSymbolTableRecord
100
AcDbBlockTableRecord
  2
*MODEL_SPACE
  0
BLOCK_RECORD
  5
1B
330
1
100
AcDbSymbolTableRecord
100
AcDbBlockTableRecord
  2
*PAPER_SPACE
  0
ENDTAB
  0
ENDSEC
  0
SECTION
  2
BLOCKS
  0
BLOCK
  5
20
330
1F
100
AcDbEntity
  8
0
100
AcDbBlockBegin
  2
*MODEL_SPACE
 70
     0
 10
0.0
 20
0.0
 30
0.0
  3
*MODEL_SPACE
  1

  0
ENDBLK
  5
21
330
1F
100
AcDbEntity
  8
0
100
AcDbBlockEnd
  0
BLOCK
  5
1C
330
1B
100
AcDbEntity
 67
     1
  8
0
100
AcDbBlockBegin
  2
*PAPER_SPACE
 70
     0
 10
0.0
 20
0.0
 30
0.0
  3
*PAPER_SPACE
  1

  0
ENDBLK
  5
1D
330
1B
100
AcDbEntity
 67
     1
  8
0
100
AcDbBlockEnd
  0
ENDSEC
  0
SECTION
  2
ENTITIES
  0
ELLIPSE
  5
72
330
1F
100
AcDbEntity
  8
HIDDEN
100
AcDbEllipse
 10
6.772925269031784
 20
15.10552534091507
 30
0.0
 11
131.061664875737
 21
-151.3369749928946
 31
0.0
210
0.0
220
0.0
230
1.0
 40
0.7500000000000001
 41
-1.877625501275615
 42
-1.176168463392935
1001
DBPROPERTIES
1002
{
1000
PbHidd
1002
}
  0
LINE
  5
73
330
1F
100
AcDbEntity
  8
HIDDEN
100
AcDbLine
 10
-47.61737096347176
 20
-133.8193661884126
 30
0.0
 11
-77.16737096347175
 21
-159.4104168702428
 31
0.0
1001
DBPROPERTIES
1002
{
1000
PbHidd
1002
}
  0
ELLIPSE
  5
74
330
1F
100
AcDbEntity
  8
THICK
100
AcDbEllipse
 10
-22.77707473096821
 20
-10.48552534091508
 30
0.0
 11
-131.061664875737
 21
151.3369749928946
 31
0.0
210
0.0
220
0.0
230
1.0
 40
0.7500000000000001
 41
1.26396715231418
 42
1.965424190196857
1001
DBPROPERTIES
1002
{
1000
PbThick
1002
}
  0
LINE
  5
75
330
1F
100
AcDbEntity
  8
THICK
100
AcDbLine
 10
-170.564308976733
 20
-58.48152474335237
 30
0.0
 11
-171.4166095218239
 21
-56.80768878766526
 31
0.0
1001
DBPROPERTIES
1002
{
1000
PbThick
1002
}
  0
LINE
  5
76
330
1F
100
AcDbEntity
  8
THICK
100
AcDbLine
 10
-171.4166095218239
 20
-56.80768878766526
 30
0.0
 11
-172.2408037328238
 21
-55.11192767320426
 31
0.0
1001
DBPROPERTIES
1002
{
1000
PbThick
1002
}
  0
LINE
  5
77
330
1F
100
AcDbEntity
  8
THICK
100
AcDbLine
 10
-172.2408037328238
 20
-55.11192767320426
 30
0.0
 11
-173.0372461174435
 21
-53.39504315437873
 31
0.0
1001
DBPROPERTIES
1002
{
1000
PbThick
1002
}
  0
LINE
  5
78
330
1F
100
AcDbEntity
  8
THICK
100
AcDbLine
 10
-173.0372461174435
 20
-53.39504315437873
 30
0.0
 11
-173.8063251048447
 21
-51.65784040781752
 31
0.0
1001
DBPROPERTIES
1002
{
1000
PbThick
1002
}
  0
LINE
  5
79
330
1F
100
AcDbEntity
  8
THICK
100
AcDbLine
 10
-173.8063251048447
 20
-51.65784040781752
 30
0.0
 11
-174.5483521504523
 21
-49.90107525201734
 31
0.0
1001
DBPROPERTIES
1002
{
1000
PbThick
1002
}
  0
LINE
  5
7A
330
1F
100
AcDbEntity
  8
THICK
100
AcDbLine
 10
-174.5483521504523
 20
-49.90107525201734
 30
0.0
 11
-175.2635843502553
 21
-48.12547625057071
 31
0.0
1001
DBPROPERTIES
1002
{
1000
PbThick
1002
}
  0
LINE
  5
7B
330
1F
100
AcDbEntity
  8
THICK
100
AcDbLine
 10
-175.2635843502553
 20
-48.12547625057071
 30
0.0
 11
-175.9523052292405
 21
-46.33176433767565
 31
0.0
1001
DBPROPERTIES
1002
{
1000
PbThick
1002
}
  0
LINE
  5
7C
330
1F
100
AcDbEntity
  8
THICK
100
AcDbLine
 10
-175.9523052292405
 20
-46.33176433767565
 30
0.0
 11
-176.6147766517684
 21
-44.52067881370512
 31
0.0
1001
DBPROPERTIES
1002
{
1000
PbThick
1002
}
  0
LINE
  5
7D
330
1F
100
AcDbEntity
  8
THICK
100
AcDbLine
 10
-176.6147766517684
 20
-44.52067881370512
 30
0.0
 11
-177.2512486272835
 21
-42.69291615050525
 31
0.0
1001
DBPROPERTIES
1002
{
1000
PbThick
1002
}
  0
LINE
  5
7E
330
1F
100
AcDbEntity
  8
THICK
100
AcDbLine
 10
-177.2512486272835
 20
-42.69291615050525
 30
0.0
 11
-177.8619253888628
 21
-40.84914639092426
 31
0.0
1001
DBPROPERTIES
1002
{
1000
PbThick
1002
}
  0
LINE
  5
7F
330
1F
100
AcDbEntity
  8
THICK
100
AcDbLine
 10
-177.8619253888628
 20
-40.84914639092426
 30
0.0
 11
-178.4469989087589
 21
-38.99005743291278
 31
0.0
1001
DBPROPERTIES
1002
{
1000
PbThick
1002
}
  0
LINE
  5
80
330
1F
100
AcDbEntity
  8
THICK
100
AcDbLine
 10
-178.4469989087589
 20
-38.99005743291278
 30
0.0
 11
-179.0066837735248
 21
-37.11631302690317
 31
0.0
1001
DBPROPERTIES
1002
{
1000
PbThick
1002
}
  0
LINE
  5
81
330
1F
100
AcDbEntity
  8
THICK
100
AcDbLine
 10
-179.0066837735248
 20
-37.11631302690317
 30
0.0
 11
-179.5411974307367
 21
-35.22859922279486
 31
0.0
1001
DBPROPERTIES
1002
{
1000
PbThick
1002
}
  0
LINE
  5
82
330
1F
100
AcDbEntity
  8
THICK
100
AcDbLine
 10
-179.5411974307367
 20
-35.22859922279486
 30
0.0
 11
-180.0507441134717
 21
-33.32757945618654
 31
0.0
1001
DBPROPERTIES
1002
{
1000
PbThick
1002
}
  0
LINE
  5
83
330
1F
100
AcDbEntity
  8
THICK
100
AcDbLine
 10
-180.0507441134717
 20
-33.32757945618654
 30
0.0
 11
-180.5355062572391
 21
-31.41394658046598
 31
0.0
1001
DBPROPERTIES
1002
{
1000
PbThick
1002
}
  0
LINE
  5
84
330
1F
100
AcDbEntity
  8
THICK
100
AcDbLine
 10
-180.5355062572391
 20
-31.41394658046598
 30
0.0
 11
-180.995673379177
 21
-29.48835836848338
 31
0.0
1001
DBPROPERTIES
1002
{
1000
PbThick
1002
}
  0
LINE
  5
85
330
1F
100
AcDbEntity
  8
HIDDEN
100
AcDbLine
 10
-180.995673379177
 20
-29.48835836848338
 30
0.0
 11
-181.1171105401651
 21
-28.96041488301438
 31
0.0
1001
DBPROPERTIES
1002
{
1000
PbHidd
1002
}
  0
LINE
  5
86
330
1F
100
AcDbEntity
  8
HIDDEN
100
AcDbLine
 10
-181.1171105401651
 20
-28.96041488301438
 30
0.0
 11
-181.2367348252694
 21
-28.43164134480005
 31
0.0
1001
DBPROPERTIES
1002
{
1000
PbHidd
1002
}
  0
LINE
  5
87
330
1F
100
AcDbEntity
  8
HIDDEN
100
AcDbLine
 10
-181.2367348252694
 20
-28.43164134480005
 30
0.0
 11
-181.3545406493856
 21
-27.90204817578715
 31
0.0
1001
DBPROPERTIES
1002
{
1000
PbHidd
1002
}
  0
LINE
  5
88
330
1F
100
AcDbEntity
  8
HIDDEN
100
AcDbLine
 10
-181.3545406493856
 20
-27.90204817578715
 30
0.0
 11
-181.4705346882338
 21
-27.37166097906741
 31
0.0
1001
DBPROPERTIES
1002
{
1000
PbHidd
1002
}
  0
LINE
  5
89
330
1F
100
AcDbEntity
  8
HIDDEN
100
AcDbLine
 10
-181.4705346882338
 20
-27.37166097906741
 30
0.0
 11
-181.5847226638599
 21
-26.84047810282847
 31
0.0
1001
DBPROPERTIES
1002
{
1000
PbHidd
1002
}
  0
LINE
  5
8A
330
1F
100
AcDbEntity
  8
HIDDEN
100
AcDbLine
 10
-181.5847226638599
 20
-26.84047810282847
 30
0.0
 11
-181.6970999448338
 21
-26.3085306166717
 31
0.0
1001
DBPROPERTIES
1002
{
1000
PbHidd
1002
}
  0
LINE
  5
8B
330
1F
100
AcDbEntity
  8
HIDDEN
100
AcDbLine
 10
-181.6971160323146
 20
-26.3085150698416
 30
0.0
 11
-156.4350424803873
 21
-4.430917621601566
 31
0.0
1001
DBPROPERTIES
1002
{
1000
PbHidd
1002
}
  0
LINE
  5
8C
330
1F
100
AcDbEntity
  8
HIDDEN
100
AcDbLine
 10
-156.4349444119969
 20
-4.430862170881328
 30
0.0
 11
-155.5513748949647
 21
-6.060261040880171
 31
0.0
1001
DBPROPERTIES
1002
{
1000
PbHidd
1002
}
  0
LINE
  5
8D
330
1F
100
AcDbEntity
  8
HIDDEN
100
AcDbLine
 10
-155.5513748949647
 20
-6.060261040880171
 30
0.0
 11
-154.6616623943993
 21
-7.695290769965064
 31
0.0
1001
DBPROPERTIES
1002
{
1000
PbHidd
1002
}
  0
LINE
  5
8E
330
1F
100
AcDbEntity
  8
HIDDEN
100
AcDbLine
 10
-154.6616623943993
 20
-7.695290769965064
 30
0.0
 11
-153.7663837364887
 21
-9.335871838210052
 31
0.0
1001
DBPROPERTIES
1002
{
1000
PbHidd
1002
}
  0
LINE
  5
8F
330
1F
100
AcDbEntity
  8
HIDDEN
100
AcDbLine
 10
-153.7663837364887
 20
-9.335871838210052
 30
0.0
 11
-152.8660751502498
 21
-10.98190891487683
 31
0.0
1001
DBPROPERTIES
1002
{
1000
PbHidd
1002
}
  0
LINE
  5
90
330
1F
100
AcDbEntity
  8
HIDDEN
100
AcDbLine
 10
-152.8660751502498
 20
-10.98190891487683
 30
0.0
 11
-151.9613638696679
 21
-12.63337069743182
 31
0.0
1001
DBPROPERTIES
1002
{
1000
PbHidd
1002
}
  0
LINE
  5
91
330
1F
100
AcDbEntity
  8
HIDDEN
100
AcDbLine
 10
-151.9613638696679
 20
-12.63337069743182
 30
0.0
 11
-151.0529350289786
 21
-14.29026533059942
 31
0.0
1001
DBPROPERTIES
1002
{
1000
PbHidd
1002
}
  0
LINE
  5
92
330
1F
100
AcDbEntity
  8
HIDDEN
100
AcDbLine
 10
-151.0529350289786
 20
-14.29026533059942
 30
0.0
 11
-150.1414360262693
 21
-15.95262726950721
 31
0.0
1001
DBPROPERTIES
1002
{
1000
PbHidd
1002
}
  0
LINE
  5
93
330
1F
100
AcDbEntity
  8
HIDDEN
100
AcDbLine
 10
-150.1414360262693
 20
-15.95262726950721
 30
0.0
 11
-149.2275416422997
 21
-17.62047755854487
 31
0.0
1001
DBPROPERTIES
1002
{
1000
PbHidd
1002
}
  0
LINE
  5
94
330
1F
100
AcDbEntity
  8
HIDDEN
100
AcDbLine
 10
-149.2275416422997
 20
-17.62047755854487
 30
0.0
 11
-148.3119105823075
 21
-19.29383857908086
 31
0.0
1001
DBPROPERTIES
1002
{
1000
PbHidd
1002
}
  0
LINE
  5
95
330
1F
100
AcDbEntity
  8
HIDDEN
100
AcDbLine
 10
-148.3119105823075
 20
-19.29383857908086
 30
0.0
 11
-147.3952166733781
 21
-20.97273715684817
 31
0.0
1001
DBPROPERTIES
1002
{
1000
PbHidd
1002
}
  0
LINE
  5
96
330
1F
100
AcDbEntity
  8
HIDDEN
100
AcDbLine
 10
-147.3952166733781
 20
-20.97273715684817
 30
0.0
 11
-146.4781755673252
 21
-22.65722108006811
 31
0.0
1001
DBPROPERTIES
1002
{
1000
PbHidd
1002
}
  0
LINE
  5
97
330
1F
100
AcDbEntity
  8
HIDDEN
100
AcDbLine
 10
-146.4781755673252
 20
-22.65722108006811
 30
0.0
 11
-145.5615782562336
 21
-24.34743641979797
 31
0.0
1001
DBPROPERTIES
1002
{
1000
PbHidd
1002
}
  0
LINE
  5
98
330
1F
100
AcDbEntity
  8
HIDDEN
100
AcDbLine
 10
-145.5615782562336
 20
-24.34743641979797
 30
0.0
 11
-144.6462289466871
 21
-26.04353864689677
 31
0.0
1001
DBPROPERTIES
1002
{
1000
PbHidd
1002
}
  0
LINE
  5
99
330
1F
100
AcDbEntity
  8
HIDDEN
100
AcDbLine
 10
-144.6462289466871
 20
-26.04353864689677
 30
0.0
 11
-143.7329460134427
 21
-27.74566042168397
 31
0.0
1001
DBPROPERTIES
1002
{
1000
PbHidd
1002
}
  0
LINE
  5
9A
330
1F
100
AcDbEntity
  8
HIDDEN
100
AcDbLine
 10
-143.7329460134427
 20
-27.74566042168397
 30
0.0
 11
-142.8225794394512
 21
-29.45401007301442
 31
0.0
1001
DBPROPERTIES
1002
{
1000
PbHidd
1002
}
  0
LINE
  5
9B
330
1F
100
AcDbEntity
  8
HIDDEN
100
AcDbLine
 10
-142.8225794394512
 20
-29.45401007301442
 30
0.0
 11
-141.9160497795631
 21
-31.16885704680062
 31
0.0
1001
DBPROPERTIES
1002
{
1000
PbHidd
1002
}
  0
LINE
  5
9C
330
1F
100
AcDbEntity
  8
HIDDEN
100
AcDbLine
 10
-141.9160497795631
 20
-31.16885704680062
 30
0.0
 11
-141.0143097396724
 21
-32.89047472224716
 31
0.0
1001
DBPROPERTIES
1002
{
1000
PbHidd
1002
}
  0
ELLIPSE
  5
9D
330
1F
100
AcDbEntity
  8
THICK
100
AcDbEllipse
 10
-133.2726085862432
 20
194.3763459033591
 30
0.0
 11
-10.0
 21
-6.123031769111886E-16
 31
0.0
210
0.0
220
0.0
230
1.0
 40
0.4999999999999999
 41
-2.094395102393196
 42
-1.274090353955858
1001
DBPROPERTIES
1002
{
1000
PbThick
1002
}
  0
ELLIPSE
  5
9E
330
1F
100
AcDbEntity
  8
HIDDEN
100
AcDbEllipse
 10
-133.2726085862432
 20
187.8811553749758
 30
0.0
 11
10.0
 21
6.123031769111886E-16
 31
0.0
210
0.0
220
0.0
230
1.0
 40
0.4999999999999999
 41
1.047197551196597
 42
1.867502299633935
1001
DBPROPERTIES
1002
{
1000
PbHidd
1002
}
  0
LINE
  5
9F
330
1F
100
AcDbEntity
  8
HIDDEN
100
AcDbLine
 10
-136.1963256334706
 20
199.1578696831743
 30
0.0
 11
-136.1963256334706
 21
192.662679154791
 31
0.0
1001
DBPROPERTIES
1002
{
1000
PbHidd
1002
}
  0
ELLIPSE
  5
A0
330
1F
100
AcDbEntity
  8
THICK
100
AcDbEllipse
 10
-178.3060111873222
 20
148.8810847035892
 30
0.0
 11
10.0
 21
6.123031769111886E-16
 31
0.0
210
0.0
220
0.0
230
1.0
 40
0.4999999999999999
 41
-2.91469985083053
 42
-2.094395102393194
1001
DBPROPERTIES
1002
{
1000
PbThick
1002
}
  0
ELLIPSE
  5
A1
330
1F
100
AcDbEntity
  8
THICK
100
AcDbEllipse
 10
-178.3060111873222
 20
155.3762752319725
 30
0.0
 11
-10.0
 21
-6.123031769111886E-16
 31
0.0
210
0.0
220
0.0
230
1.0
 40
0.4999999999999999
 41
0.2268928027592627
 42
1.047197551196599
1001
DBPROPERTIES
1002
{
1000
PbThick
1002
}
  0
LINE
  5
A2
330
1F
100
AcDbEntity
  8
THICK
100
AcDbLine
 10
-188.0497118351745
 20
154.2515199602531
 30
0.0
 11
-188.0497118351745
 21
147.7563294318699
 31
0.0
1001
DBPROPERTIES
1002
{
1000
PbThick
1002
}
  0
ELLIPSE
  5
A3
330
1F
100
AcDbEntity
  8
HIDDEN
100
AcDbEllipse
 10
-177.4593098867826
 20
149.6143495392737
 30
0.0
 11
4.0
 21
2.449212707644755E-16
 31
0.0
210
0.0
220
0.0
230
1.0
 40
0.4999999999999999
 41
1.047197551196603
 42
3.141624131523473
1001
DBPROPERTIES
1002
{
1000
PbHidd
1002
}
  0
ELLIPSE
  5
A4
330
1F
100
AcDbEntity
  8
HIDDEN
100
AcDbEllipse
 10
-177.4593098867826
 20
149.6143495392737
 30
0.0
 11
4.0
 21
2.449212707644755E-16
 31
0.0
210
0.0
220
0.0
230
1.0
 40
0.4999999999999999
 41
-3.141561175656113
 42
-2.094395102393198
1001
DBPROPERTIES
1002
{
1000
PbHidd
1002
}
  0
ELLIPSE
  5
A5
330
1F
100
AcDbEntity
  8
THICK
100
AcDbEllipse
 10
-177.4593098867826
 20
156.109540067657
 30
0.0
 11
-4.0
 21
-2.449212707644755E-16
 31
0.0
210
0.0
220
0.0
230
1.0
 40
0.4999999999999999
 41
0.0000314779336798
 42
1.047197551196603
1001
DBPROPERTIES
1002
{
1000
PbThick
1002
}
  0
ELLIPSE
  5
A6
330
1F
100
AcDbEntity
  8
THICK
100
AcDbEllipse
 10
-177.4593098867826
 20
156.109540067657
 30
0.0
 11
-4.0
 21
-2.449212707644755E-16
 31
0.0
210
0.0
220
0.0
230
1.0
 40
0.4999999999999999
 41
-2.094395102393198
 42
0.0000314779336796
1001
DBPROPERTIES
1002
{
1000
PbThick
1002
}
  0
ELLIPSE
  5
A7
330
1F
100
AcDbEntity
  8
HIDDEN
100
AcDbEllipse
 10
-134.1193098867826
 20
187.1478905392913
 30
0.0
 11
4.0
 21
2.449212707644755E-16
 31
0.0
210
0.0
220
0.0
230
1.0
 40
0.4999999999999999
 41
1.047197551196595
 42
3.141624131523473
1001
DBPROPERTIES
1002
{
1000
PbHidd
1002
}
  0
ELLIPSE
  5
A8
330
1F
100
AcDbEntity
  8
HIDDEN
100
AcDbEllipse
 10
-134.1193098867826
 20
187.1478905392913
 30
0.0
 11
4.0
 21
2.449212707644755E-16
 31
0.0
210
0.0
220
0.0
230
1.0
 40
0.4999999999999999
 41
-3.141561175656113
 42
-2.094395102393198
1001
DBPROPERTIES
1002
{
1000
PbHidd
1002
}
  0
ELLIPSE
  5
A9
330
1F
100
AcDbEntity
  8
THICK
100
AcDbEllipse
 10
-134.1193098867826
 20
193.6430810676746
 30
0.0
 11
-4.0
 21
-2.449212707644755E-16
 31
0.0
210
0.0
220
0.0
230
1.0
 40
0.4999999999999999
 41
0.0000314779336656
 42
1.047197551196595
1001
DBPROPERTIES
1002
{
1000
PbThick
1002
}
  0
ELLIPSE
  5
AA
330
1F
100
AcDbEntity
  8
THICK
100
AcDbEllipse
 10
-134.1193098867826
 20
193.6430810676746
 30
0.0
 11
-4.0
 21
-2.449212707644755E-16
 31
0.0
210
0.0
220
0.0
230
1.0
 40
0.4999999999999999
 41
-2.094395102393198
 42
0.0000314779336654
1001
DBPROPERTIES
1002
{
1000
PbThick
1002
}
  0
ELLIPSE
  5
AB
330
1F
100
AcDbEntity
  8
HIDDEN
100
AcDbEllipse
 10
-155.7893098867827
 20
168.3811200392825
 30
0.0
 11
-29.55
 21
-1.809355887772562E-15
 31
0.0
210
0.0
220
0.0
230
1.0
 40
0.4999999999999999
 41
0.000011685060126
 42
1.047197551196598
1001
DBPROPERTIES
1002
{
1000
PbHidd
1002
}
  0
ELLIPSE
  5
AC
330
1F
100
AcDbEntity
  8
HIDDEN
100
AcDbEllipse
 10
-155.7893098867827
 20
168.3811200392825
 30
0.0
 11
-29.55
 21
-1.809355887772562E-15
 31
0.0
210
0.0
220
0.0
230
1.0
 40
0.4999999999999999
 41
-2.094395102393196
 42
0.0000116850601262
1001
DBPROPERTIES
1002
{
1000
PbHidd
1002
}
  0
ELLIPSE
  5
AD
330
1F
100
AcDbEntity
  8
HIDDEN
100
AcDbEllipse
 10
-155.7893098867827
 20
111.4884421869645
 30
0.0
 11
29.48476176154314
 21
4.730619920075258
 31
0.0
210
0.0
220
0.0
230
1.0
 40
0.4148460546918957
 41
0.9807364855270364
 42
3.07517463804313
1001
DBPROPERTIES
1002
{
1000
PbHidd
1002
}
  0
ELLIPSE
  5
AE
330
1F
100
AcDbEntity
  8
THICK
100
AcDbEllipse
 10
-155.7893098867827
 20
111.4884421869645
 30
0.0
 11
29.48476176154314
 21
4.730619920075258
 31
0.0
210
0.0
220
0.0
230
1.0
 40
0.4148460546918957
 41
3.07517463804313
 42
4.122329139116831
1001
DBPROPERTIES
1002
{
1000
PbThick
1002
}
  0
ELLIPSE
  5
AF
330
1F
100
AcDbEntity
  8
HIDDEN
100
AcDbEllipse
 10
-155.7893098867827
 20
85.15088755927826
 30
0.0
 11
29.37322087151794
 21
-5.74461182012479
 31
0.0
210
0.0
220
0.0
230
1.0
 40
0.5618211002366332
 41
-1.984957014448714
 42
-1.750703526573622
1001
DBPROPERTIES
1002
{
1000
PbHidd
1002
}
  0
ELLIPSE
  5
B0
330
1F
100
AcDbEntity
  8
HIDDEN
100
AcDbEllipse
 10
-155.7893098867827
 20
44.97249999999998
 30
0.0
 11
-29.55
 21
-1.809355887772562E-15
 31
0.0
210
0.0
220
0.0
230
1.0
 40
0.4999999999999999
 41
1.089006416668553
 42
1.089511361353139
1001
DBPROPERTIES
1002
{
1000
PbHidd
1002
}
  0
ELLIPSE
  5
B1
330
1F
100
AcDbEntity
  8
THICK
100
AcDbEllipse
 10
-155.7893098867827
 20
44.97249999999998
 30
0.0
 11
-29.55
 21
-1.809355887772562E-15
 31
0.0
210
0.0
220
0.0
230
1.0
 40
0.4999999999999999
 41
1.047197551196598
 42
1.089006416668553
1001
DBPROPERTIES
1002
{
1000
PbThick
1002
}
  0
LINE
  5
B2
330
1F
100
AcDbEntity
  8
HIDDEN
100
AcDbLine
 10
-164.2206346140226
 20
69.9425811017241
 30
0.0
 11
-164.8125471462251
 21
67.8974307117621
 31
0.0
1001
DBPROPERTIES
1002
{
1000
PbHidd
1002
}
  0
LINE
  5
B3
330
1F
100
AcDbEntity
  8
HIDDEN
100
AcDbLine
 10
-164.8125471462251
 20
67.8974307117621
 30
0.0
 11
-165.3666579239749
 21
65.83952337143246
 31
0.0
1001
DBPROPERTIES
1002
{
1000
PbHidd
1002
}
  0
LINE
  5
B4
330
1F
100
AcDbEntity
  8
HIDDEN
100
AcDbLine
 10
-165.3666579239749
 20
65.83952337143246
 30
0.0
 11
-165.8833872781745
 21
63.76938015840861
 31
0.0
1001
DBPROPERTIES
1002
{
1000
PbHidd
1002
}
  0
LINE
  5
B5
330
1F
100
AcDbEntity
  8
HIDDEN
100
AcDbLine
 10
-165.8833872781745
 20
63.76938015840861
 30
0.0
 11
-166.3630789768139
 21
61.68752537634452
 31
0.0
1001
DBPROPERTIES
1002
{
1000
PbHidd
1002
}
  0
LINE
  5
B6
330
1F
100
AcDbEntity
  8
HIDDEN
100
AcDbLine
 10
-166.3630789768139
 20
61.68752537634452
 30
0.0
 11
-166.8062225483644
 21
59.59471591534735
 31
0.0
1001
DBPROPERTIES
1002
{
1000
PbHidd
1002
}
  0
LINE
  5
B7
330
1F
100
AcDbEntity
  8
HIDDEN
100
AcDbLine
 10
-166.8062225483644
 20
59.59471591534735
 30
0.0
 11
-167.213272367373
 21
57.49185709144794
 31
0.0
1001
DBPROPERTIES
1002
{
1000
PbHidd
1002
}
  0
LINE
  5
B8
330
1F
100
AcDbEntity
  8
HIDDEN
100
AcDbLine
 10
-167.213272367373
 20
57.49185709144794
 30
0.0
 11
-167.5847082837101
 21
55.3798610241655
 31
0.0
1001
DBPROPERTIES
1002
{
1000
PbHidd
1002
}
  0
LINE
  5
B9
330
1F
100
AcDbEntity
  8
HIDDEN
100
AcDbLine
 10
-167.5847082837101
 20
55.3798610241655
 30
0.0
 11
-167.921022408071
 21
53.25964612543505
 31
0.0
1001
DBPROPERTIES
1002
{
1000
PbHidd
1002
}
  0
LINE
  5
BA
330
1F
100
AcDbEntity
  8
HIDDEN
100
AcDbLine
 10
-167.921022408071
 20
53.25964612543505
 30
0.0
 11
-168.2227007182806
 21
51.13217693934318
 31
0.0
1001
DBPROPERTIES
1002
{
1000
PbHidd
1002
}
  0
LINE
  5
BB
330
1F
100
AcDbEntity
  8
HIDDEN
100
AcDbLine
 10
-168.2227007182806
 20
51.13217693934318
 30
0.0
 11
-168.4902576605358
 21
48.99851047051846
 31
0.0
1001
DBPROPERTIES
1002
{
1000
PbHidd
1002
}
  0
LINE
  5
BC
330
1F
100
AcDbEntity
  8
HIDDEN
100
AcDbLine
 10
-168.4902576605358
 20
48.99851047051846
 30
0.0
 11
-168.7242512614212
 21
46.86008135469749
 31
0.0
1001
DBPROPERTIES
1002
{
1000
PbHidd
1002
}
  0
LINE
  5
BD
330
1F
100
AcDbEntity
  8
HIDDEN
100
AcDbLine
 10
-168.7242512614212
 20
46.86008135469749
 30
0.0
 11
-168.9252255212056
 21
44.71818170163128
 31
0.0
1001
DBPROPERTIES
1002
{
1000
PbHidd
1002
}
  0
LINE
  5
BE
330
1F
100
AcDbEntity
  8
HIDDEN
100
AcDbLine
 10
-168.9252255212056
 20
44.71818170163128
 30
0.0
 11
-169.0936986909512
 21
42.57413500550582
 31
0.0
1001
DBPROPERTIES
1002
{
1000
PbHidd
1002
}
  0
LINE
  5
BF
330
1F
100
AcDbEntity
  8
HIDDEN
100
AcDbLine
 10
-169.0936986909512
 20
42.57413500550582
 30
0.0
 11
-169.2302292080672
 21
40.42931903312576
 31
0.0
1001
DBPROPERTIES
1002
{
1000
PbHidd
1002
}
  0
LINE
  5
C0
330
1F
100
AcDbEntity
  8
HIDDEN
100
AcDbLine
 10
-169.2302292080672
 20
40.42931903312576
 30
0.0
 11
-169.3353838093163
 21
38.28536667440545
 31
0.0
1001
DBPROPERTIES
1002
{
1000
PbHidd
1002
}
  0
LINE
  5
C1
330
1F
100
AcDbEntity
  8
HIDDEN
100
AcDbLine
 10
-169.3353838093163
 20
38.28536667440545
 30
0.0
 11
-169.4097662829026
 21
36.1440041057074
 31
0.0
1001
DBPROPERTIES
1002
{
1000
PbHidd
1002
}
  0
LINE
  5
C2
330
1F
100
AcDbEntity
  8
HIDDEN
100
AcDbLine
 10
-169.4097662829026
 20
36.1440041057074
 30
0.0
 11
-169.4539549417062
 21
34.00694842866381
 31
0.0
1001
DBPROPERTIES
1002
{
1000
PbHidd
1002
}
  0
LINE
  5
C3
330
1F
100
AcDbEntity
  8
HIDDEN
100
AcDbLine
 10
-169.4539549417062
 20
34.00694842866381
 30
0.0
 11
-169.4685526202568
 21
31.8759276779261
 31
0.0
1001
DBPROPERTIES
1002
{
1000
PbHidd
1002
}
  0
ELLIPSE
  5
C4
330
1F
100
AcDbEntity
  8
HIDDEN
100
AcDbEllipse
 10
-155.7893098867827
 20
85.15088755927826
 30
0.0
 11
29.37322087151794
 21
-5.74461182012479
 31
0.0
210
0.0
220
0.0
230
1.0
 40
0.5618211002366332
 41
-3.032111515522415
 42
-1.984957014448714
1001
DBPROPERTIES
1002
{
1000
PbHidd
1002
}
  0
ELLIPSE
  5
C5
330
1F
100
AcDbEntity
  8
HIDDEN
100
AcDbEllipse
 10
-155.7893098867827
 20
85.15088755927826
 30
0.0
 11
29.37322087151794
 21
-5.74461182012479
 31
0.0
210
0.0
220
0.0
230
1.0
 40
0.5618211002366332
 41
1.156635639141079
 42
3.251073791657172
1001
DBPROPERTIES
1002
{
1000
PbHidd
1002
}
  0
LINE
  5
C6
330
1F
100
AcDbEntity
  8
HIDDEN
100
AcDbLine
 10
-141.0143098867827
 20
17.58963778163676
 30
0.0
 11
-141.0143098867827
 21
57.76802534091506
 31
0.0
1001
DBPROPERTIES
1002
{
1000
PbHidd
1002
}
  0
ELLIPSE
  5
C7
330
1F
100
AcDbEntity
  8
HIDDEN
100
AcDbEllipse
 10
-155.7893098867827
 20
4.794112440721674
 30
0.0
 11
29.48476176154314
 21
4.730619920075258
 31
0.0
210
0.0
220
0.0
230
1.0
 40
0.4148460546918957
 41
0.9807364855270364
 42
1.877367880785561
1001
DBPROPERTIES
1002
{
1000
PbHidd
1002
}
  0
LINE
  5
C8
330
1F
100
AcDbEntity
  8
HIDDEN
100
AcDbLine
 10
-181.1861036824791
 20
51.65970599446735
 30
0.0
 11
-180.8047233837989
 21
50.32427984483001
 31
0.0
1001
DBPROPERTIES
1002
{
1000
PbHidd
1002
}
  0
LINE
  5
C9
330
1F
100
AcDbEntity
  8
HIDDEN
100
AcDbLine
 10
-180.8047233837989
 20
50.32427984483001
 30
0.0
 11
-180.405559580004
 21
48.97629755175051
 31
0.0
1001
DBPROPERTIES
1002
{
1000
PbHidd
1002
}
  0
LINE
  5
CA
330
1F
100
AcDbEntity
  8
HIDDEN
100
AcDbLine
 10
-180.405559580004
 20
48.97629755175051
 30
0.0
 11
-179.988625202318
 21
47.61599341362821
 31
0.0
1001
DBPROPERTIES
1002
{
1000
PbHidd
1002
}
  0
LINE
  5
CB
330
1F
100
AcDbEntity
  8
HIDDEN
100
AcDbLine
 10
-179.988625202318
 20
47.61599341362821
 30
0.0
 11
-179.5539615183113
 21
46.24360605463227
 31
0.0
1001
DBPROPERTIES
1002
{
1000
PbHidd
1002
}
  0
LINE
  5
CC
330
1F
100
AcDbEntity
  8
HIDDEN
100
AcDbLine
 10
-179.5539615183113
 20
46.24360605463227
 30
0.0
 11
-179.1015965810551
 21
44.8593721425235
 31
0.0
1001
DBPROPERTIES
1002
{
1000
PbHidd
1002
}
  0
LINE
  5
CD
330
1F
100
AcDbEntity
  8
HIDDEN
100
AcDbLine
 10
-179.1015965810551
 20
44.8593721425235
 30
0.0
 11
-178.6315719561427
 21
43.46353024985192
 31
0.0
1001
DBPROPERTIES
1002
{
1000
PbHidd
1002
}
  0
LINE
  5
CE
330
1F
100
AcDbEntity
  8
HIDDEN
100
AcDbLine
 10
-178.6315719561427
 20
43.46353024985192
 30
0.0
 11
-178.1439176635989
 21
42.05631121141589
 31
0.0
1001
DBPROPERTIES
1002
{
1000
PbHidd
1002
}
  0
LINE
  5
CF
330
1F
100
AcDbEntity
  8
HIDDEN
100
AcDbLine
 10
-178.1439176635989
 20
42.05631121141589
 30
0.0
 11
-177.6387594613237
 21
40.63794046291056
 31
0.0
1001
DBPROPERTIES
1002
{
1000
PbHidd
1002
}
  0
LINE
  5
D0
330
1F
100
AcDbEntity
  8
HIDDEN
100
AcDbLine
 10
-177.6387594613237
 20
40.63794046291056
 30
0.0
 11
-177.1162554966799
 21
39.20864260388718
 31
0.0
1001
DBPROPERTIES
1002
{
1000
PbHidd
1002
}
  0
LINE
  5
D1
330
1F
100
AcDbEntity
  8
HIDDEN
100
AcDbLine
 10
-177.1162554966799
 20
39.20864260388718
 30
0.0
 11
-176.5765646322858
 21
37.76863748493646
 31
0.0
1001
DBPROPERTIES
1002
{
1000
PbHidd
1002
}
  0
LINE
  5
D2
330
1F
100
AcDbEntity
  8
HIDDEN
100
AcDbLine
 10
-176.5765646322858
 20
37.76863748493646
 30
0.0
 11
-176.0198318010052
 21
36.31814176138149
 31
0.0
1001
DBPROPERTIES
1002
{
1000
PbHidd
1002
}
  0
LINE
  5
D3
330
1F
100
AcDbEntity
  8
HIDDEN
100
AcDbLine
 10
-176.0198318010052
 20
36.31814176138149
 30
0.0
 11
-175.4462158654563
 21
34.85738023925008
 31
0.0
1001
DBPROPERTIES
1002
{
1000
PbHidd
1002
}
  0
LINE
  5
D4
330
1F
100
AcDbEntity
  8
HIDDEN
100
AcDbLine
 10
-175.4462158654563
 20
34.85738023925008
 30
0.0
 11
-174.8558747345834
 21
33.38657359503912
 31
0.0
1001
DBPROPERTIES
1002
{
1000
PbHidd
1002
}
  0
LINE
  5
D5
330
1F
100
AcDbEntity
  8
HIDDEN
100
AcDbLine
 10
-174.8558747345834
 20
33.38657359503912
 30
0.0
 11
-174.2489823928522
 21
31.90593227953763
 31
0.0
1001
DBPROPERTIES
1002
{
1000
PbHidd
1002
}
  0
LINE
  5
D6
330
1F
100
AcDbEntity
  8
HIDDEN
100
AcDbLine
 10
-174.2489823928522
 20
31.90593227953763
 30
0.0
 11
-173.6257903413155
 21
30.41565938802301
 31
0.0
1001
DBPROPERTIES
1002
{
1000
PbHidd
1002
}
  0
LINE
  5
D7
330
1F
100
AcDbEntity
  8
HIDDEN
100
AcDbLine
 10
-173.6257903413155
 20
30.41565938802301
 30
0.0
 11
-172.9865562799089
 21
28.91595760281961
 31
0.0
1001
DBPROPERTIES
1002
{
1000
PbHidd
1002
}
  0
LINE
  5
D8
330
1F
100
AcDbEntity
  8
HIDDEN
100
AcDbLine
 10
-172.9865562799089
 20
28.91595760281961
 30
0.0
 11
-172.3315520767412
 21
27.40703259504284
 31
0.0
1001
DBPROPERTIES
1002
{
1000
PbHidd
1002
}
  0
LINE
  5
D9
330
1F
100
AcDbEntity
  8
HIDDEN
100
AcDbLine
 10
-172.3315520767412
 20
27.40703259504284
 30
0.0
 11
-171.6610344780737
 21
25.8890878729232
 31
0.0
1001
DBPROPERTIES
1002
{
1000
PbHidd
1002
}
  0
LINE
  5
DA
330
1F
100
AcDbEntity
  8
HIDDEN
100
AcDbLine
 10
-171.6610344780737
 20
25.8890878729232
 30
0.0
 11
-170.975300827339
 21
24.36233425925208
 31
0.0
1001
DBPROPERTIES
1002
{
1000
PbHidd
1002
}
  0
LINE
  5
DB
330
1F
100
AcDbEntity
  8
HIDDEN
100
AcDbLine
 10
-170.975300827339
 20
24.36233425925208
 30
0.0
 11
-170.274596563648
 21
22.82696979575037
 31
0.0
1001
DBPROPERTIES
1002
{
1000
PbHidd
1002
}
  0
LINE
  5
DC
330
1F
100
AcDbEntity
  8
HIDDEN
100
AcDbLine
 10
-170.274596563648
 20
22.82696979575037
 30
0.0
 11
-169.5592223682933
 21
21.28319911091307
 31
0.0
1001
DBPROPERTIES
1002
{
1000
PbHidd
1002
}
  0
LINE
  5
DD
330
1F
100
AcDbEntity
  8
HIDDEN
100
AcDbLine
 10
-169.5592223682933
 20
21.28319911091307
 30
0.0
 11
-168.8295593001772
 21
19.73121039275554
 31
0.0
1001
DBPROPERTIES
1002
{
1000
PbHidd
1002
}
  0
LINE
  5
DE
330
1F
100
AcDbEntity
  8
HIDDEN
100
AcDbLine
 10
-168.8295593001772
 20
19.73121039275554
 30
0.0
 11
-168.0859619892037
 21
18.17118750352337
 31
0.0
1001
DBPROPERTIES
1002
{
1000
PbHidd
1002
}
  0
LINE
  5
DF
330
1F
100
AcDbEntity
  8
HIDDEN
100
AcDbLine
 10
-168.0859619892037
 20
18.17118750352337
 30
0.0
 11
-167.3288256624484
 21
16.60331831639829
 31
0.0
1001
DBPROPERTIES
1002
{
1000
PbHidd
1002
}
  0
LINE
  5
E0
330
1F
100
AcDbEntity
  8
HIDDEN
100
AcDbLine
 10
-167.3288256624484
 20
16.60331831639829
 30
0.0
 11
-166.5585059034898
 21
15.02778586771967
 31
0.0
1001
DBPROPERTIES
1002
{
1000
PbHidd
1002
}
  0
ELLIPSE
  5
E1
330
1F
100
AcDbEntity
  8
HIDDEN
100
AcDbEllipse
 10
-155.7893098867827
 20
44.10647459621554
 30
0.0
 11
-29.55
 21
-1.809355887772562E-15
 31
0.0
210
0.0
220
0.0
230
1.0
 40
0.4999999999999999
 41
-0.5366002808026794
 42
-0.5105972703939572
1001
DBPROPERTIES
1002
{
1000
PbHidd
1002
}
  0
LINE
  5
E2
330
1F
100
AcDbEntity
  8
THICK
100
AcDbLine
 10
-185.0049844732958
 20
-0.9473191846431561
 30
0.0
 11
-185.1087781822765
 21
1.001233456767393
 31
0.0
1001
DBPROPERTIES
1002
{
1000
PbThick
1002
}
  0
LINE
  5
E3
330
1F
100
AcDbEntity
  8
THICK
100
AcDbLine
 10
-185.1087781822765
 20
1.001233456767393
 30
0.0
 11
-185.1930556156508
 21
2.951012762066744
 31
0.0
1001
DBPROPERTIES
1002
{
1000
PbThick
1002
}
  0
LINE
  5
E4
330
1F
100
AcDbEntity
  8
THICK
100
AcDbLine
 10
-185.1930556156508
 20
2.951012762066744
 30
0.0
 11
-185.2580045152335
 21
4.90142761961607
 31
0.0
1001
DBPROPERTIES
1002
{
1000
PbThick
1002
}
  0
LINE
  5
E5
330
1F
100
AcDbEntity
  8
THICK
100
AcDbLine
 10
-185.2580045152335
 20
4.90142761961607
 30
0.0
 11
-185.3038672512425
 21
6.851892776763902
 31
0.0
1001
DBPROPERTIES
1002
{
1000
PbThick
1002
}
  0
LINE
  5
E6
330
1F
100
AcDbEntity
  8
THICK
100
AcDbLine
 10
-185.3038672512425
 20
6.851892776763902
 30
0.0
 11
-185.3308881012442
 21
8.801834543545354
 31
0.0
1001
DBPROPERTIES
1002
{
1000
PbThick
1002
}
  0
LINE
  5
E7
330
1F
100
AcDbEntity
  8
THICK
100
AcDbLine
 10
-185.3308881012442
 20
8.801834543545354
 30
0.0
 11
-185.3392962209576
 21
10.75066385261171
 31
0.0
1001
DBPROPERTIES
1002
{
1000
PbThick
1002
}
  0
LINE
  5
E8
330
1F
100
AcDbEntity
  8
HIDDEN
100
AcDbLine
 10
-185.3392962209576
 20
10.75066385261171
 30
0.0
 11
-185.3266444026745
 21
12.9553536820264
 31
0.0
1001
DBPROPERTIES
1002
{
1000
PbHidd
1002
}
  0
LINE
  5
E9
330
1F
100
AcDbEntity
  8
HIDDEN
100
AcDbLine
 10
-185.3266444026745
 20
12.9553536820264
 30
0.0
 11
-185.2908370496775
 21
15.15703271505159
 31
0.0
1001
DBPROPERTIES
1002
{
1000
PbHidd
1002
}
  0
LINE
  5
EA
330
1F
100
AcDbEntity
  8
HIDDEN
100
AcDbLine
 10
-185.2908370496775
 20
15.15703271505159
 30
0.0
 11
-185.2323058316205
 21
17.35487687307823
 31
0.0
1001
DBPROPERTIES
1002
{
1000
PbHidd
1002
}
  0
LINE
  5
EB
330
1F
100
AcDbEntity
  8
HIDDEN
100
AcDbLine
 10
-185.2323058316205
 20
17.35487687307823
 30
0.0
 11
-185.151455989159
 21
19.54804618904086
 31
0.0
1001
DBPROPERTIES
1002
{
1000
PbHidd
1002
}
  0
LINE
  5
EC
330
1F
100
AcDbEntity
  8
HIDDEN
100
AcDbLine
 10
-185.151455989159
 20
19.54804618904086
 30
0.0
 11
-185.0486805021242
 21
21.73570101070769
 31
0.0
1001
DBPROPERTIES
1002
{
1000
PbHidd
1002
}
  0
LINE
  5
ED
330
1F
100
AcDbEntity
  8
HIDDEN
100
AcDbLine
 10
-185.0486805021242
 20
21.73570101070769
 30
0.0
 11
-184.9244242546687
 21
23.91701611872982
 31
0.0
1001
DBPROPERTIES
1002
{
1000
PbHidd
1002
}
  0
LINE
  5
EE
330
1F
100
AcDbEntity
  8
HIDDEN
100
AcDbLine
 10
-184.9244242546687
 20
23.91701611872982
 30
0.0
 11
-184.7790905800997
 21
26.09116145691602
 31
0.0
1001
DBPROPERTIES
1002
{
1000
PbHidd
1002
}
  0
LINE
  5
EF
330
1F
100
AcDbEntity
  8
HIDDEN
100
AcDbLine
 10
-184.7790905800997
 20
26.09116145691602
 30
0.0
 11
-184.6131218414425
 21
28.25732429262957
 31
0.0
1001
DBPROPERTIES
1002
{
1000
PbHidd
1002
}
  0
LINE
  5
F0
330
1F
100
AcDbEntity
  8
HIDDEN
100
AcDbLine
 10
-184.6131218414425
 20
28.25732429262957
 30
0.0
 11
-184.4270339666703
 21
30.41469826329367
 31
0.0
1001
DBPROPERTIES
1002
{
1000
PbHidd
1002
}
  0
LINE
  5
F1
330
1F
100
AcDbEntity
  8
HIDDEN
100
AcDbLine
 10
-184.4270339666703
 20
30.41469826329367
 30
0.0
 11
-184.2213166931771
 21
32.56247082227282
 31
0.0
1001
DBPROPERTIES
1002
{
1000
PbHidd
1002
}
  0
LINE
  5
F2
330
1F
100
AcDbEntity
  8
HIDDEN
100
AcDbLine
 10
-184.2213166931771
 20
32.56247082227282
 30
0.0
 11
-183.9964460670205
 21
34.69982271756258
 31
0.0
1001
DBPROPERTIES
1002
{
1000
PbHidd
1002
}
  0
LINE
  5
F3
330
1F
100
AcDbEntity
  8
HIDDEN
100
AcDbLine
 10
-183.9964460670205
 20
34.69982271756258
 30
0.0
 11
-183.7529113487573
 21
36.82594016366814
 31
0.0
1001
DBPROPERTIES
1002
{
1000
PbHidd
1002
}
  0
LINE
  5
F4
330
1F
100
AcDbEntity
  8
HIDDEN
100
AcDbLine
 10
-183.7529113487573
 20
36.82594016366814
 30
0.0
 11
-183.4912289431979
 21
38.94001390734107
 31
0.0
1001
DBPROPERTIES
1002
{
1000
PbHidd
1002
}
  0
LINE
  5
F5
330
1F
100
AcDbEntity
  8
HIDDEN
100
AcDbLine
 10
-183.4912289431979
 20
38.94001390734107
 30
0.0
 11
-183.2118965570263
 21
41.04123480369
 31
0.0
1001
DBPROPERTIES
1002
{
1000
PbHidd
1002
}
  0
LINE
  5
F6
330
1F
100
AcDbEntity
  8
HIDDEN
100
AcDbLine
 10
-183.2118965570263
 20
41.04123480369
 30
0.0
 11
-182.9154610417025
 21
43.12880844530248
 31
0.0
1001
DBPROPERTIES
1002
{
1000
PbHidd
1002
}
  0
LINE
  5
F7
330
1F
100
AcDbEntity
  8
HIDDEN
100
AcDbLine
 10
-182.9154610417025
 20
43.12880844530248
 30
0.0
 11
-182.6025167422638
 21
45.20195743860569
 31
0.0
1001
DBPROPERTIES
1002
{
1000
PbHidd
1002
}
  0
LINE
  5
F8
330
1F
100
AcDbEntity
  8
HIDDEN
100
AcDbLine
 10
-182.6025167422638
 20
45.20195743860569
 30
0.0
 11
-182.2736190159023
 21
47.25989237812458
 31
0.0
1001
DBPROPERTIES
1002
{
1000
PbHidd
1002
}
  0
LINE
  5
F9
330
1F
100
AcDbEntity
  8
HIDDEN
100
AcDbLine
 10
-182.2736190159023
 20
47.25989237812458
 30
0.0
 11
-181.9293625056785
 21
49.30183519923759
 31
0.0
1001
DBPROPERTIES
1002
{
1000
PbHidd
1002
}
  0
LINE
  5
FA
330
1F
100
AcDbEntity
  8
HIDDEN
100
AcDbLine
 10
-181.9293625056785
 20
49.30183519923759
 30
0.0
 11
-181.5702873277276
 21
51.32699319796372
 31
0.0
1001
DBPROPERTIES
1002
{
1000
PbHidd
1002
}
  0
ELLIPSE
  5
FB
330
1F
100
AcDbEntity
  8
THICK
100
AcDbEllipse
 10
-155.7893098867827
 20
4.794112440721674
 30
0.0
 11
29.48476176154314
 21
4.730619920075258
 31
0.0
210
0.0
220
0.0
230
1.0
 40
0.4148460546918957
 41
-3.057487563321281
 42
-2.160856168062756
1001
DBPROPERTIES
1002
{
1000
PbThick
1002
}
  0
LINE
  5
FC
330
1F
100
AcDbEntity
  8
THICK
100
AcDbLine
 10
-170.5643098867826
 20
-8.001412900193396
 30
0.0
 11
-170.5643098867826
 21
32.17697465908491
 31
0.0
1001
DBPROPERTIES
1002
{
1000
PbThick
1002
}
  0
ELLIPSE
  5
FD
330
1F
100
AcDbEntity
  8
THICK
100
AcDbEllipse
 10
-9.440283512687856
 20
-14.33552534091507
 30
0.0
 11
-120.9799983468342
 21
139.6956692242104
 31
0.0
210
0.0
220
0.0
230
1.0
 40
0.75
 41
-0.857071947850131
 42
0.0000001621414171
1001
DBPROPERTIES
1002
{
1000
PbThick
1002
}
  0
ELLIPSE
  5
FE
330
1F
100
AcDbEntity
  8
THICK
100
AcDbEllipse
 10
-9.440283512687856
 20
-14.33552534091507
 30
0.0
 11
-120.9799983468342
 21
139.6956692242104
 31
0.0
210
0.0
220
0.0
230
1.0
 40
0.75
 41
0.0000001621414171
 42
0.2644551505885002
1001
DBPROPERTIES
1002
{
1000
PbThick
1002
}
  0
ELLIPSE
  5
FF
330
1F
100
AcDbEntity
  8
HIDDEN
100
AcDbEllipse
 10
20.10971648731214
 20
11.25552534091508
 30
0.0
 11
120.9799983468342
 21
-139.6956692242104
 31
0.0
210
0.0
220
0.0
230
1.0
 40
0.75
 41
-3.141592491448376
 42
-2.877137503001294
1001
DBPROPERTIES
1002
{
1000
PbHidd
1002
}
  0
ELLIPSE
  5
100
330
1F
100
AcDbEntity
  8
THICK
100
AcDbEllipse
 10
20.10971648731214
 20
11.25552534091508
 30
0.0
 11
120.9799983468342
 21
-139.6956692242104
 31
0.0
210
0.0
220
0.0
230
1.0
 40
0.75
 41
2.284520705739662
 42
3.14159281573121
1001
DBPROPERTIES
1002
{
1000
PbThick
1002
}
  0
LINE
  5
101
330
1F
100
AcDbEntity
  8
HIDDEN
100
AcDbLine
 10
-124.0500159813564
 20
122.3780604256195
 30
0.0
 11
-127.762849115708
 21
119.1626526112585
 31
0.0
1001
DBPROPERTIES
1002
{
1000
PbHidd
1002
}
  0
LINE
  5
102
330
1F
100
AcDbEntity
  8
HIDDEN
100
AcDbLine
 10
-127.7627994630408
 20
119.1626906347352
 30
0.0
 11
-127.638714239326
 21
119.5044812310843
 31
0.0
1001
DBPROPERTIES
1002
{
1000
PbHidd
1002
}
  0
LINE
  5
103
330
1F
100
AcDbEntity
  8
HIDDEN
100
AcDbLine
 10
-127.638714239326
 20
119.5044812310843
 30
0.0
 11
-127.517977131581
 21
119.8390266353667
 31
0.0
1001
DBPROPERTIES
1002
{
1000
PbHidd
1002
}
  0
LINE
  5
104
330
1F
100
AcDbEntity
  8
HIDDEN
100
AcDbLine
 10
-127.517977131581
 20
119.8390266353667
 30
0.0
 11
-127.4007864991476
 21
120.1661825878831
 31
0.0
1001
DBPROPERTIES
1002
{
1000
PbHidd
1002
}
  0
LINE
  5
105
330
1F
100
AcDbEntity
  8
HIDDEN
100
AcDbLine
 10
-127.4007864991476
 20
120.1661825878831
 30
0.0
 11
-127.2873762612003
 21
120.4857369083879
 31
0.0
1001
DBPROPERTIES
1002
{
1000
PbHidd
1002
}
  0
LINE
  5
106
330
1F
100
AcDbEntity
  8
HIDDEN
100
AcDbLine
 10
-127.2873762612003
 20
120.4857369083879
 30
0.0
 11
-127.1780116712245
 21
120.7974919681135
 31
0.0
1001
DBPROPERTIES
1002
{
1000
PbHidd
1002
}
  0
LINE
  5
107
330
1F
100
AcDbEntity
  8
HIDDEN
100
AcDbLine
 10
-127.1780116712245
 20
120.7974919681135
 30
0.0
 11
-127.0729598900544
 21
121.1012352719806
 31
0.0
1001
DBPROPERTIES
1002
{
1000
PbHidd
1002
}
  0
LINE
  5
108
330
1F
100
AcDbEntity
  8
HIDDEN
100
AcDbLine
 10
-127.0729598900544
 20
121.1012352719806
 30
0.0
 11
-126.9724616495261
 21
121.3967466955157
 31
0.0
1001
DBPROPERTIES
1002
{
1000
PbHidd
1002
}
  0
LINE
  5
109
330
1F
100
AcDbEntity
  8
HIDDEN
100
AcDbLine
 10
-126.9724616495261
 20
121.3967466955157
 30
0.0
 11
-126.8768105394716
 21
121.6838279802837
 31
0.0
1001
DBPROPERTIES
1002
{
1000
PbHidd
1002
}
  0
LINE
  5
10A
330
1F
100
AcDbEntity
  8
HIDDEN
100
AcDbLine
 10
-126.8768105394716
 20
121.6838279802837
 30
0.0
 11
-126.7862595525517
 21
121.9622636424142
 31
0.0
1001
DBPROPERTIES
1002
{
1000
PbHidd
1002
}
  0
LINE
  5
10B
330
1F
100
AcDbEntity
  8
HIDDEN
100
AcDbLine
 10
-126.7862595525517
 20
121.9622636424142
 30
0.0
 11
-126.7010654961245
 21
122.231841501662
 31
0.0
1001
DBPROPERTIES
1002
{
1000
PbHidd
1002
}
  0
LINE
  5
10C
330
1F
100
AcDbEntity
  8
HIDDEN
100
AcDbLine
 10
-126.7010654961245
 20
122.231841501662
 30
0.0
 11
-126.621595256003
 21
122.4922556169542
 31
0.0
1001
DBPROPERTIES
1002
{
1000
PbHidd
1002
}
  0
LINE
  5
10D
330
1F
100
AcDbEntity
  8
HIDDEN
100
AcDbLine
 10
-126.621595256003
 20
122.4922556169542
 30
0.0
 11
-126.5482576796698
 21
122.7431306710983
 31
0.0
1001
DBPROPERTIES
1002
{
1000
PbHidd
1002
}
  0
LINE
  5
10E
330
1F
100
AcDbEntity
  8
HIDDEN
100
AcDbLine
 10
-126.5482576796698
 20
122.7431306710983
 30
0.0
 11
-126.4814710144096
 21
122.9841315014716
 31
0.0
1001
DBPROPERTIES
1002
{
1000
PbHidd
1002
}
  0
LINE
  5
10F
330
1F
100
AcDbEntity
  8
HIDDEN
100
AcDbLine
 10
-126.4814710144096
 20
122.9841315014716
 30
0.0
 11
-126.4216383856592
 21
123.2149009608177
 31
0.0
1001
DBPROPERTIES
1002
{
1000
PbHidd
1002
}
  0
LINE
  5
110
330
1F
100
AcDbEntity
  8
HIDDEN
100
AcDbLine
 10
-126.4216383856592
 20
123.2149009608177
 30
0.0
 11
-126.3692142803273
 21
123.4350196440829
 31
0.0
1001
DBPROPERTIES
1002
{
1000
PbHidd
1002
}
  0
LINE
  5
111
330
1F
100
AcDbEntity
  8
HIDDEN
100
AcDbLine
 10
-126.3692142803273
 20
123.4350196440829
 30
0.0
 11
-126.3247963684952
 21
123.6439894479361
 31
0.0
1001
DBPROPERTIES
1002
{
1000
PbHidd
1002
}
  0
LINE
  5
112
330
1F
100
AcDbEntity
  8
HIDDEN
100
AcDbLine
 10
-126.3247963684952
 20
123.6439894479361
 30
0.0
 11
-126.2889389989918
 21
123.8412689294471
 31
0.0
1001
DBPROPERTIES
1002
{
1000
PbHidd
1002
}
  0
LINE
  5
113
330
1F
100
AcDbEntity
  8
HIDDEN
100
AcDbLine
 10
-126.2889389989918
 20
123.8412689294471
 30
0.0
 11
-126.2622442802064
 21
124.0264444077366
 31
0.0
1001
DBPROPERTIES
1002
{
1000
PbHidd
1002
}
  0
LINE
  5
114
330
1F
100
AcDbEntity
  8
HIDDEN
100
AcDbLine
 10
-126.2622442802064
 20
124.0264444077366
 30
0.0
 11
-126.2454382764206
 21
124.1994611895296
 31
0.0
1001
DBPROPERTIES
1002
{
1000
PbHidd
1002
}
  0
LINE
  5
115
330
1F
100
AcDbEntity
  8
HIDDEN
100
AcDbLine
 10
-126.2454382764206
 20
124.1994611895296
 30
0.0
 11
-126.2394247576756
 21
124.3592058628727
 31
0.0
1001
DBPROPERTIES
1002
{
1000
PbHidd
1002
}
  0
LINE
  5
116
330
1F
100
AcDbEntity
  8
HIDDEN
100
AcDbLine
 10
-126.2394247576756
 20
124.3592058628727
 30
0.0
 11
-126.2444184158397
 21
124.4956770124084
 31
0.0
1001
DBPROPERTIES
1002
{
1000
PbHidd
1002
}
  0
LINE
  5
117
330
1F
100
AcDbEntity
  8
HIDDEN
100
AcDbLine
 10
-126.2444184158397
 20
124.4956770124084
 30
0.0
 11
-126.2604909078316
 21
124.6182875288426
 31
0.0
1001
DBPROPERTIES
1002
{
1000
PbHidd
1002
}
  0
LINE
  5
118
330
1F
100
AcDbEntity
  8
HIDDEN
100
AcDbLine
 10
-126.2604909078316
 20
124.6182875288426
 30
0.0
 11
-126.2883993358859
 21
124.7259504863883
 31
0.0
1001
DBPROPERTIES
1002
{
1000
PbHidd
1002
}
  0
LINE
  5
119
330
1F
100
AcDbEntity
  8
HIDDEN
100
AcDbLine
 10
-126.2883993358859
 20
124.7259504863883
 30
0.0
 11
-126.3289253238868
 21
124.8176080622142
 31
0.0
1001
DBPROPERTIES
1002
{
1000
PbHidd
1002
}
  0
LINE
  5
11A
330
1F
100
AcDbEntity
  8
HIDDEN
100
AcDbLine
 10
-126.3289253238868
 20
124.8176080622142
 30
0.0
 11
-126.3827389867518
 21
124.8923568984205
 31
0.0
1001
DBPROPERTIES
1002
{
1000
PbHidd
1002
}
  0
LINE
  5
11B
330
1F
100
AcDbEntity
  8
HIDDEN
100
AcDbLine
 10
-126.3827389867518
 20
124.8923568984205
 30
0.0
 11
-126.4504506978125
 21
124.9494993858674
 31
0.0
1001
DBPROPERTIES
1002
{
1000
PbHidd
1002
}
  0
LINE
  5
11C
330
1F
100
AcDbEntity
  8
HIDDEN
100
AcDbLine
 10
-126.4504506978125
 20
124.9494993858674
 30
0.0
 11
-126.532660000087
 21
124.9882725707067
 31
0.0
1001
DBPROPERTIES
1002
{
1000
PbHidd
1002
}
  0
LINE
  5
11D
330
1F
100
AcDbEntity
  8
HIDDEN
100
AcDbLine
 10
-126.532660000087
 20
124.9882725707067
 30
0.0
 11
-126.6299432085145
 21
125.0079844289027
 31
0.0
1001
DBPROPERTIES
1002
{
1000
PbHidd
1002
}
  0
LINE
  5
11E
330
1F
100
AcDbEntity
  8
HIDDEN
100
AcDbLine
 10
-126.6299432085145
 20
125.0079844289027
 30
0.0
 11
-126.7427495303828
 21
125.0080626151726
 31
0.0
1001
DBPROPERTIES
1002
{
1000
PbHidd
1002
}
  0
LINE
  5
11F
330
1F
100
AcDbEntity
  8
HIDDEN
100
AcDbLine
 10
-126.7427495303828
 20
125.0080626151726
 30
0.0
 11
-126.871504331122
 21
124.9880347188818
 31
0.0
1001
DBPROPERTIES
1002
{
1000
PbHidd
1002
}
  0
LINE
  5
120
330
1F
100
AcDbEntity
  8
HIDDEN
100
AcDbLine
 10
-126.871504331122
 20
124.9880347188818
 30
0.0
 11
-127.0166443542412
 21
124.9473991283211
 31
0.0
1001
DBPROPERTIES
1002
{
1000
PbHidd
1002
}
  0
LINE
  5
121
330
1F
100
AcDbEntity
  8
HIDDEN
100
AcDbLine
 10
-127.0166443542412
 20
124.9473991283211
 30
0.0
 11
-127.1785512074609
 21
124.8857872538653
 31
0.0
1001
DBPROPERTIES
1002
{
1000
PbHidd
1002
}
  0
LINE
  5
122
330
1F
100
AcDbEntity
  8
HIDDEN
100
AcDbLine
 10
-127.1785512074609
 20
124.8857872538653
 30
0.0
 11
-127.3574466871251
 21
124.8029176185165
 31
0.0
1001
DBPROPERTIES
1002
{
1000
PbHidd
1002
}
  0
LINE
  5
123
330
1F
100
AcDbEntity
  8
HIDDEN
100
AcDbLine
 10
-127.3574466871251
 20
124.8029176185165
 30
0.0
 11
-127.5535757821923
 21
124.6985410434997
 31
0.0
1001
DBPROPERTIES
1002
{
1000
PbHidd
1002
}
  0
LINE
  5
124
330
1F
100
AcDbEntity
  8
HIDDEN
100
AcDbLine
 10
-127.5535757821923
 20
124.6985410434997
 30
0.0
 11
-127.7670167659379
 21
124.5724992509086
 31
0.0
1001
DBPROPERTIES
1002
{
1000
PbHidd
1002
}
  0
LINE
  5
125
330
1F
100
AcDbEntity
  8
HIDDEN
100
AcDbLine
 10
-127.7670167659379
 20
124.5724992509086
 30
0.0
 11
-127.9977627301914
 21
124.4248139225035
 31
0.0
1001
DBPROPERTIES
1002
{
1000
PbHidd
1002
}
  0
LINE
  5
126
330
1F
100
AcDbEntity
  8
HIDDEN
100
AcDbLine
 10
-127.9977627301914
 20
124.4248139225035
 30
0.0
 11
-128.2457512861825
 21
124.2554937524978
 31
0.0
1001
DBPROPERTIES
1002
{
1000
PbHidd
1002
}
  0
LINE
  5
127
330
1F
100
AcDbEntity
  8
HIDDEN
100
AcDbLine
 10
-128.2457512861825
 20
124.2554937524978
 30
0.0
 11
-128.5108801809573
 21
124.0646134248365
 31
0.0
1001
DBPROPERTIES
1002
{
1000
PbHidd
1002
}
  0
LINE
  5
128
330
1F
100
AcDbEntity
  8
HIDDEN
100
AcDbLine
 10
-128.5108801809573
 20
124.0646134248365
 30
0.0
 11
-128.7928875629715
 21
123.8524289508232
 31
0.0
1001
DBPROPERTIES
1002
{
1000
PbHidd
1002
}
  0
LINE
  5
129
330
1F
100
AcDbEntity
  8
HIDDEN
100
AcDbLine
 10
-128.7928875629715
 20
123.8524289508232
 30
0.0
 11
-129.0914347616177
 21
123.6192414773618
 31
0.0
1001
DBPROPERTIES
1002
{
1000
PbHidd
1002
}
  0
LINE
  5
12A
330
1F
100
AcDbEntity
  8
HIDDEN
100
AcDbLine
 10
-129.0914347616177
 20
123.6192414773618
 30
0.0
 11
-129.406166136697
 21
123.365364803164
 31
0.0
1001
DBPROPERTIES
1002
{
1000
PbHidd
1002
}
  0
LINE
  5
12B
330
1F
100
AcDbEntity
  8
HIDDEN
100
AcDbLine
 10
-129.406166136697
 20
123.365364803164
 30
0.0
 11
-129.7365314309451
 21
123.0913075524884
 31
0.0
1001
DBPROPERTIES
1002
{
1000
PbHidd
1002
}
  0
LINE
  5
12C
330
1F
100
AcDbEntity
  8
HIDDEN
100
AcDbLine
 10
-129.7365314309451
 20
123.0913075524884
 30
0.0
 11
-130.0819071024407
 21
122.7976382017669
 31
0.0
1001
DBPROPERTIES
1002
{
1000
PbHidd
1002
}
  0
LINE
  5
12D
330
1F
100
AcDbEntity
  8
HIDDEN
100
AcDbLine
 10
-130.0819071024407
 20
122.7976382017669
 30
0.0
 11
-130.4420727247144
 21
122.4845934222891
 31
0.0
1001
DBPROPERTIES
1002
{
1000
PbHidd
1002
}
  0
LINE
  5
12E
330
1F
100
AcDbEntity
  8
HIDDEN
100
AcDbLine
 10
-130.4420727247144
 20
122.4845934222891
 30
0.0
 11
-130.8175791667242
 21
122.1516808887539
 31
0.0
1001
DBPROPERTIES
1002
{
1000
PbHidd
1002
}
  0
LINE
  5
12F
330
1F
100
AcDbEntity
  8
HIDDEN
100
AcDbLine
 10
-130.8175791667242
 20
122.1516808887539
 30
0.0
 11
-131.2078659390241
 21
121.7993641332219
 31
0.0
1001
DBPROPERTIES
1002
{
1000
PbHidd
1002
}
  0
LINE
  5
130
330
1F
100
AcDbEntity
  8
HIDDEN
100
AcDbLine
 10
-131.2078659390241
 20
121.7993641332219
 30
0.0
 11
-131.6122438593316
 21
121.4281723626515
 31
0.0
1001
DBPROPERTIES
1002
{
1000
PbHidd
1002
}
  0
LINE
  5
131
330
1F
100
AcDbEntity
  8
HIDDEN
100
AcDbLine
 10
-131.6122438593316
 20
121.4281723626515
 30
0.0
 11
-132.0299593446309
 21
121.038757577926
 31
0.0
1001
DBPROPERTIES
1002
{
1000
PbHidd
1002
}
  0
LINE
  5
132
330
1F
100
AcDbEntity
  8
HIDDEN
100
AcDbLine
 10
-132.0299593446309
 20
121.038757577926
 30
0.0
 11
-132.4601577032041
 21
120.6318541585207
 31
0.0
1001
DBPROPERTIES
1002
{
1000
PbHidd
1002
}
  0
LINE
  5
133
330
1F
100
AcDbEntity
  8
HIDDEN
100
AcDbLine
 10
-132.4601577032041
 20
120.6318541585207
 30
0.0
 11
-132.9019333522906
 21
120.2082125579381
 31
0.0
1001
DBPROPERTIES
1002
{
1000
PbHidd
1002
}
  0
LINE
  5
134
330
1F
100
AcDbEntity
  8
HIDDEN
100
AcDbLine
 10
-132.9019333522906
 20
120.2082125579381
 30
0.0
 11
-133.3544282736366
 21
119.7685948956053
 31
0.0
1001
DBPROPERTIES
1002
{
1000
PbHidd
1002
}
  0
LINE
  5
135
330
1F
100
AcDbEntity
  8
HIDDEN
100
AcDbLine
 10
-133.3544282736366
 20
119.7685948956053
 30
0.0
 11
-133.8166247183723
 21
119.3138862161584
 31
0.0
1001
DBPROPERTIES
1002
{
1000
PbHidd
1002
}
  0
LINE
  5
136
330
1F
100
AcDbEntity
  8
HIDDEN
100
AcDbLine
 10
-133.8166247183723
 20
119.3138862161584
 30
0.0
 11
-134.287495639303
 21
118.844986224068
 31
0.0
1001
DBPROPERTIES
1002
{
1000
PbHidd
1002
}
  0
LINE
  5
137
330
1F
100
AcDbEntity
  8
HIDDEN
100
AcDbLine
 10
-134.287495639303
 20
118.844986224068
 30
0.0
 11
-134.765998527491
 21
118.362843568984
 31
0.0
1001
DBPROPERTIES
1002
{
1000
PbHidd
1002
}
  0
LINE
  5
138
330
1F
100
AcDbEntity
  8
HIDDEN
100
AcDbLine
 10
-134.765998527491
 20
118.362843568984
 30
0.0
 11
-135.2510152342121
 21
117.8684783926298
 31
0.0
1001
DBPROPERTIES
1002
{
1000
PbHidd
1002
}
  0
LINE
  5
139
330
1F
100
AcDbEntity
  8
HIDDEN
100
AcDbLine
 10
-135.2510152342121
 20
117.8684783926298
 30
0.0
 11
-135.7414171557891
 21
117.3629422314013
 31
0.0
1001
DBPROPERTIES
1002
{
1000
PbHidd
1002
}
  0
LINE
  5
13A
330
1F
100
AcDbEntity
  8
HIDDEN
100
AcDbLine
 10
-135.7414171557891
 20
117.3629422314013
 30
0.0
 11
-136.2361700668377
 21
116.8471957617765
 31
0.0
1001
DBPROPERTIES
1002
{
1000
PbHidd
1002
}
  0
LINE
  5
13B
330
1F
100
AcDbEntity
  8
HIDDEN
100
AcDbLine
 10
-136.2361700668377
 20
116.8471957617765
 30
0.0
 11
-136.7344346314297
 21
116.3220263180539
 31
0.0
1001
DBPROPERTIES
1002
{
1000
PbHidd
1002
}
  0
LINE
  5
13C
330
1F
100
AcDbEntity
  8
HIDDEN
100
AcDbLine
 10
-136.7344346314297
 20
116.3220263180539
 30
0.0
 11
-137.2350897787214
 21
115.7885154166794
 31
0.0
1001
DBPROPERTIES
1002
{
1000
PbHidd
1002
}
  0
LINE
  5
13D
330
1F
100
AcDbEntity
  8
HIDDEN
100
AcDbLine
 10
-137.2350897787214
 20
115.7885154166794
 30
0.0
 11
-137.7370289459379
 21
115.2477823490693
 31
0.0
1001
DBPROPERTIES
1002
{
1000
PbHidd
1002
}
  0
LINE
  5
13E
330
1F
100
AcDbEntity
  8
HIDDEN
100
AcDbLine
 10
-137.7370289459379
 20
115.2477823490693
 30
0.0
 11
-138.2391257510137
 21
114.7009533491982
 31
0.0
1001
DBPROPERTIES
1002
{
1000
PbHidd
1002
}
  0
LINE
  5
13F
330
1F
100
AcDbEntity
  8
HIDDEN
100
AcDbLine
 10
-138.2391257510137
 20
114.7009533491982
 30
0.0
 11
-138.7402594679167
 21
114.1492229068959
 31
0.0
1001
DBPROPERTIES
1002
{
1000
PbHidd
1002
}
  0
LINE
  5
140
330
1F
100
AcDbEntity
  8
HIDDEN
100
AcDbLine
 10
-138.7402594679167
 20
114.1492229068959
 30
0.0
 11
-139.2393254461367
 21
113.5937868489708
 31
0.0
1001
DBPROPERTIES
1002
{
1000
PbHidd
1002
}
  0
LINE
  5
141
330
1F
100
AcDbEntity
  8
HIDDEN
100
AcDbLine
 10
-139.2393254461367
 20
113.5937868489708
 30
0.0
 11
-139.7351983282113
 21
113.0358019884019
 31
0.0
1001
DBPROPERTIES
1002
{
1000
PbHidd
1002
}
  0
LINE
  5
142
330
1F
100
AcDbEntity
  8
HIDDEN
100
AcDbLine
 10
-139.7351983282113
 20
113.0358019884019
 30
0.0
 11
-140.2268396779824
 21
112.4765328208056
 31
0.0
1001
DBPROPERTIES
1002
{
1000
PbHidd
1002
}
  0
LINE
  5
143
330
1F
100
AcDbEntity
  8
HIDDEN
100
AcDbLine
 10
-140.2268396779824
 20
112.4765328208056
 30
0.0
 11
-140.7132212098138
 21
111.9172726503957
 31
0.0
1001
DBPROPERTIES
1002
{
1000
PbHidd
1002
}
  0
LINE
  5
144
330
1F
100
AcDbEntity
  8
HIDDEN
100
AcDbLine
 10
-140.7132212098138
 20
111.9172726503957
 30
0.0
 11
-141.1933160685807
 21
111.3593135425264
 31
0.0
1001
DBPROPERTIES
1002
{
1000
PbHidd
1002
}
  0
LINE
  5
145
330
1F
100
AcDbEntity
  8
HIDDEN
100
AcDbLine
 10
-141.1933160685807
 20
111.3593135425264
 30
0.0
 11
-141.6660969223213
 21
110.8039545827548
 31
0.0
1001
DBPROPERTIES
1002
{
1000
PbHidd
1002
}
  0
LINE
  5
146
330
1F
100
AcDbEntity
  8
HIDDEN
100
AcDbLine
 10
-141.6660969223213
 20
110.8039545827548
 30
0.0
 11
-142.1305364390735
 21
110.2524750348893
 31
0.0
1001
DBPROPERTIES
1002
{
1000
PbHidd
1002
}
  0
LINE
  5
147
330
1F
100
AcDbEntity
  8
HIDDEN
100
AcDbLine
 10
-142.1305364390735
 20
110.2524750348893
 30
0.0
 11
-142.5865748309023
 21
109.7050899945798
 31
0.0
1001
DBPROPERTIES
1002
{
1000
PbHidd
1002
}
  0
LINE
  5
148
330
1F
100
AcDbEntity
  8
HIDDEN
100
AcDbLine
 10
-142.5865748309023
 20
109.7050899945798
 30
0.0
 11
-143.0363687220177
 21
109.1593804884332
 31
0.0
1001
DBPROPERTIES
1002
{
1000
PbHidd
1002
}
  0
LINE
  5
149
330
1F
100
AcDbEntity
  8
HIDDEN
100
AcDbLine
 10
-143.0363687220177
 20
109.1593804884332
 30
0.0
 11
-143.4802416158832
 21
108.6150759545299
 31
0.0
1001
DBPROPERTIES
1002
{
1000
PbHidd
1002
}
  0
LINE
  5
14A
330
1F
100
AcDbEntity
  8
HIDDEN
100
AcDbLine
 10
-143.4802416158832
 20
108.6150759545299
 30
0.0
 11
-143.9183346661294
 21
108.0720453519267
 31
0.0
1001
DBPROPERTIES
1002
{
1000
PbHidd
1002
}
  0
LINE
  5
14B
330
1F
100
AcDbEntity
  8
HIDDEN
100
AcDbLine
 10
-143.9183346661294
 20
108.0720453519267
 30
0.0
 11
-144.3508333013143
 21
107.5301539026275
 31
0.0
1001
DBPROPERTIES
1002
{
1000
PbHidd
1002
}
  0
LINE
  5
14C
330
1F
100
AcDbEntity
  8
HIDDEN
100
AcDbLine
 10
-144.3508333013143
 20
107.5301539026275
 30
0.0
 11
-144.7778771736284
 21
106.9892866503843
 31
0.0
1001
DBPROPERTIES
1002
{
1000
PbHidd
1002
}
  0
LINE
  5
14D
330
1F
100
AcDbEntity
  8
HIDDEN
100
AcDbLine
 10
-144.7778771736284
 20
106.9892866503843
 30
0.0
 11
-145.1996074317864
 21
106.4493268685422
 31
0.0
1001
DBPROPERTIES
1002
{
1000
PbHidd
1002
}
  0
LINE
  5
14E
330
1F
100
AcDbEntity
  8
HIDDEN
100
AcDbLine
 10
-145.1996074317864
 20
106.4493268685422
 30
0.0
 11
-145.6161661781776
 21
105.9101636117893
 31
0.0
1001
DBPROPERTIES
1002
{
1000
PbHidd
1002
}
  0
LINE
  5
14F
330
1F
100
AcDbEntity
  8
HIDDEN
100
AcDbLine
 10
-145.6161661781776
 20
105.9101636117893
 30
0.0
 11
-146.0276596863914
 21
105.371664579848
 31
0.0
1001
DBPROPERTIES
1002
{
1000
PbHidd
1002
}
  0
LINE
  5
150
330
1F
100
AcDbEntity
  8
HIDDEN
100
AcDbLine
 10
-146.0276596863914
 20
105.371664579848
 30
0.0
 11
-146.4342337365727
 21
104.8337309011657
 31
0.0
1001
DBPROPERTIES
1002
{
1000
PbHidd
1002
}
  0
LINE
  5
151
330
1F
100
AcDbEntity
  8
HIDDEN
100
AcDbLine
 10
-146.4342337365727
 20
104.8337309011657
 30
0.0
 11
-146.8359891492321
 21
104.2962782556674
 31
0.0
1001
DBPROPERTIES
1002
{
1000
PbHidd
1002
}
  0
LINE
  5
152
330
1F
100
AcDbEntity
  8
HIDDEN
100
AcDbLine
 10
-146.8359891492321
 20
104.2962782556674
 30
0.0
 11
-147.2330001789409
 21
103.7591904277706
 31
0.0
1001
DBPROPERTIES
1002
{
1000
PbHidd
1002
}
  0
LINE
  5
153
330
1F
100
AcDbEntity
  8
HIDDEN
100
AcDbLine
 10
-147.2330001789409
 20
103.7591904277706
 30
0.0
 11
-147.6253816774414
 21
103.2223948563258
 31
0.0
1001
DBPROPERTIES
1002
{
1000
PbHidd
1002
}
  0
LINE
  5
154
330
1F
100
AcDbEntity
  8
HIDDEN
100
AcDbLine
 10
-147.6253816774414
 20
103.2223948563258
 30
0.0
 11
-148.013208852979
 21
102.6857811070939
 31
0.0
1001
DBPROPERTIES
1002
{
1000
PbHidd
1002
}
  0
LINE
  5
155
330
1F
100
AcDbEntity
  8
HIDDEN
100
AcDbLine
 10
-148.013208852979
 20
102.6857811070939
 30
0.0
 11
-148.3965833427972
 21
102.1492661969786
 31
0.0
1001
DBPROPERTIES
1002
{
1000
PbHidd
1002
}
  0
LINE
  5
156
330
1F
100
AcDbEntity
  8
HIDDEN
100
AcDbLine
 10
-148.3965833427972
 20
102.1492661969786
 30
0.0
 11
-148.7755926159662
 21
101.6127443323442
 31
0.0
1001
DBPROPERTIES
1002
{
1000
PbHidd
1002
}
  0
LINE
  5
157
330
1F
100
AcDbEntity
  8
HIDDEN
100
AcDbLine
 10
-148.7755926159662
 20
101.6127443323442
 30
0.0
 11
-149.1503260489048
 21
101.0761344967405
 31
0.0
1001
DBPROPERTIES
1002
{
1000
PbHidd
1002
}
  0
LINE
  5
158
330
1F
100
AcDbEntity
  8
HIDDEN
100
AcDbLine
 10
-149.1503260489048
 20
101.0761344967405
 30
0.0
 11
-149.5208585759754
 21
100.5393636179453
 31
0.0
1001
DBPROPERTIES
1002
{
1000
PbHidd
1002
}
  0
LINE
  5
159
330
1F
100
AcDbEntity
  8
HIDDEN
100
AcDbLine
 10
-149.5208585759754
 20
100.5393636179453
 30
0.0
 11
-149.8871967408728
 21
100.0024005487134
 31
0.0
1001
DBPROPERTIES
1002
{
1000
PbHidd
1002
}
  0
LINE
  5
15A
330
1F
100
AcDbEntity
  8
HIDDEN
100
AcDbLine
 10
-149.8871828470049
 20
100.0024175581504
 30
0.0
 11
-153.6000159813564
 21
96.78700974378938
 31
0.0
1001
DBPROPERTIES
1002
{
1000
PbHidd
1002
}
  0
ELLIPSE
  5
15B
330
1F
100
AcDbEntity
  8
HIDDEN
100
AcDbEllipse
 10
6.772925269031784
 20
15.10552534091507
 30
0.0
 11
131.061664875737
 21
-151.3369749928946
 31
0.0
210
0.0
220
0.0
230
1.0
 40
0.7500000000000001
 41
-1.072921680257483
 42
-0.8570719478501305
1001
DBPROPERTIES
1002
{
1000
PbHidd
1002
}
  0
ELLIPSE
  5
15C
330
1F
100
AcDbEntity
  8
THICK
100
AcDbEllipse
 10
-22.77707473096821
 20
-10.48552534091508
 30
0.0
 11
-131.061664875737
 21
151.3369749928946
 31
0.0
210
0.0
220
0.0
230
1.0
 40
0.7500000000000001
 41
2.068670973332309
 42
2.284520705739662
1001
DBPROPERTIES
1002
{
1000
PbThick
1002
}
  0
LINE
  5
15D
330
1F
100
AcDbEntity
  8
HIDDEN
100
AcDbLine
 10
-59.91080595822197
 20
-169.1209404222519
 30
0.0
 11
-30.36080595822198
 21
-143.5298897404218
 31
0.0
1001
DBPROPERTIES
1002
{
1000
PbHidd
1002
}
  0
ELLIPSE
  5
15E
330
1F
100
AcDbEntity
  8
HIDDEN
100
AcDbEllipse
 10
-176.2578203052279
 20
104.2284148731214
 30
0.0
 11
-0.9217557166961414
 21
-3.193055466969566
 31
0.0
210
0.0
220
0.0
230
1.0
 40
0.4330127018922194
 41
-0.9827937232473339
 42
0.0000066435089641
1001
DBPROPERTIES
1002
{
1000
PbHidd
1002
}
  0
ELLIPSE
  5
15F
330
1F
100
AcDbEntity
  8
HIDDEN
100
AcDbEllipse
 10
-176.2578203052279
 20
104.2284148731214
 30
0.0
 11
-0.9217557166961414
 21
-3.193055466969566
 31
0.0
210
0.0
220
0.0
230
1.0
 40
0.4330127018922194
 41
0.0000066435089641
 42
0.9829127533620343
1001
DBPROPERTIES
1002
{
1000
PbHidd
1002
}
  0
ELLIPSE
  5
160
330
1F
100
AcDbEntity
  8
HIDDEN
100
AcDbEllipse
 10
-176.2578203052279
 20
104.2284148731214
 30
0.0
 11
-0.9217557166961414
 21
-3.193055466969566
 31
0.0
210
0.0
220
0.0
230
1.0
 40
0.4330127018922194
 41
0.9829127533620343
 42
2.158798930342464
1001
DBPROPERTIES
1002
{
1000
PbHidd
1002
}
  0
LINE
  5
161
330
1F
100
AcDbEntity
  8
HIDDEN
100
AcDbLine
 10
-174.5960962932701
 20
105.6675026565899
 30
0.0
 11
-174.5961049898188
 21
103.7487176593375
 31
0.0
1001
DBPROPERTIES
1002
{
1000
PbHidd
1002
}
  0
ELLIPSE
  5
162
330
1F
100
AcDbEntity
  8
HIDDEN
100
AcDbEllipse
 10
-177.338998895265
 20
104.5405242481214
 30
0.0
 11
-0.9217557166961414
 21
-3.193055466969566
 31
0.0
210
0.0
220
0.0
230
1.0
 40
0.4330127018922194
 41
-0.9827937232473339
 42
0.0000066435089668
1001
DBPROPERTIES
1002
{
1000
PbHidd
1002
}
  0
ELLIPSE
  5
163
330
1F
100
AcDbEntity
  8
HIDDEN
100
AcDbEllipse
 10
-177.338998895265
 20
104.5405242481214
 30
0.0
 11
-0.9217557166961414
 21
-3.193055466969566
 31
0.0
210
0.0
220
0.0
230
1.0
 40
0.4330127018922194
 41
0.0000066435089669
 42
0.5011626497676082
1001
DBPROPERTIES
1002
{
1000
PbHidd
1002
}
  0
ELLIPSE
  5
164
330
1F
100
AcDbEntity
  8
HIDDEN
100
AcDbEllipse
 10
-177.338998895265
 20
104.5405242481214
 30
0.0
 11
-0.9217557166961414
 21
-3.193055466969566
 31
0.0
210
0.0
220
0.0
230
1.0
 40
0.4330127018922194
 41
0.5011626497676082
 42
2.158798930342464
1001
DBPROPERTIES
1002
{
1000
PbHidd
1002
}
  0
ELLIPSE
  5
165
330
1F
100
AcDbEntity
  8
HIDDEN
100
AcDbEllipse
 10
-177.9249192075129
 20
104.7096648731214
 30
0.0
 11
-1.109400392450457
 21
-3.843075691322092
 31
0.0
210
0.0
220
0.0
230
1.0
 40
0.4330127018922194
 41
-0.9827937232473319
 42
0.5011626497675995
1001
DBPROPERTIES
1002
{
1000
PbHidd
1002
}
  0
ELLIPSE
  5
166
330
1F
100
AcDbEntity
  8
HIDDEN
100
AcDbEllipse
 10
-177.9249192075129
 20
104.7096648731214
 30
0.0
 11
-1.109400392450457
 21
-3.843075691322092
 31
0.0
210
0.0
220
0.0
230
1.0
 40
0.4330127018922194
 41
0.5011626497675995
 42
2.158798930342465
1001
DBPROPERTIES
1002
{
1000
PbHidd
1002
}
  0
ELLIPSE
  5
167
330
1F
100
AcDbEntity
  8
HIDDEN
100
AcDbEllipse
 10
-177.9249192075129
 20
104.7096648731214
 30
0.0
 11
-0.9217557166961414
 21
-3.193055466969566
 31
0.0
210
0.0
220
0.0
230
1.0
 40
0.4330127018922194
 41
-0.9827937232473339
 42
0.0000066435089668
1001
DBPROPERTIES
1002
{
1000
PbHidd
1002
}
  0
ELLIPSE
  5
168
330
1F
100
AcDbEntity
  8
HIDDEN
100
AcDbEllipse
 10
-177.9249192075129
 20
104.7096648731214
 30
0.0
 11
-0.9217557166961414
 21
-3.193055466969566
 31
0.0
210
0.0
220
0.0
230
1.0
 40
0.4330127018922194
 41
0.0000066435089669
 42
2.158798930342464
1001
DBPROPERTIES
1002
{
1000
PbHidd
1002
}
  0
ELLIPSE
  5
169
330
1F
100
AcDbEntity
  8
HIDDEN
100
AcDbEllipse
 10
-187.3415923089753
 20
107.4280242481214
 30
0.0
 11
-0.9217557166961414
 21
-3.193055466969566
 31
0.0
210
0.0
220
0.0
230
1.0
 40
0.4330127018922194
 41
-0.9827937232473339
 42
0.0000066435089668
1001
DBPROPERTIES
1002
{
1000
PbHidd
1002
}
  0
ELLIPSE
  5
16A
330
1F
100
AcDbEntity
  8
HIDDEN
100
AcDbEllipse
 10
-187.3415923089753
 20
107.4280242481214
 30
0.0
 11
-0.9217557166961414
 21
-3.193055466969566
 31
0.0
210
0.0
220
0.0
230
1.0
 40
0.4330127018922194
 41
0.0000066435089669
 42
0.5011626497676087
1001
DBPROPERTIES
1002
{
1000
PbHidd
1002
}
  0
ELLIPSE
  5
16B
330
1F
100
AcDbEntity
  8
HIDDEN
100
AcDbEllipse
 10
-187.3415923089753
 20
107.4280242481214
 30
0.0
 11
-0.9217557166961414
 21
-3.193055466969566
 31
0.0
210
0.0
220
0.0
230
1.0
 40
0.4330127018922194
 41
0.5011626497676087
 42
2.158798930342464
1001
DBPROPERTIES
1002
{
1000
PbHidd
1002
}
  0
ELLIPSE
  5
16C
330
1F
100
AcDbEntity
  8
HIDDEN
100
AcDbEllipse
 10
-187.9275126212232
 20
107.5971648731214
 30
0.0
 11
-1.109400392450458
 21
-3.843075691322092
 31
0.0
210
0.0
220
0.0
230
1.0
 40
0.4330127018922194
 41
-0.9827937232473319
 42
0.5011626497676004
1001
DBPROPERTIES
1002
{
1000
PbHidd
1002
}
  0
ELLIPSE
  5
16D
330
1F
100
AcDbEntity
  8
HIDDEN
100
AcDbEllipse
 10
-187.9275126212232
 20
107.5971648731214
 30
0.0
 11
-1.109400392450458
 21
-3.843075691322092
 31
0.0
210
0.0
220
0.0
230
1.0
 40
0.4330127018922194
 41
0.5011626497676003
 42
2.158798930342465
1001
DBPROPERTIES
1002
{
1000
PbHidd
1002
}
  0
ELLIPSE
  5
16E
330
1F
100
AcDbEntity
  8
HIDDEN
100
AcDbEllipse
 10
-176.2578203052279
 20
-2.465914873121443
 30
0.0
 11
-0.9217557166961414
 21
-3.193055466969566
 31
0.0
210
0.0
220
0.0
230
1.0
 40
0.4330127018922194
 41
-0.9827937232473309
 42
0.0000066435089673
1001
DBPROPERTIES
1002
{
1000
PbHidd
1002
}
  0
ELLIPSE
  5
16F
330
1F
100
AcDbEntity
  8
HIDDEN
100
AcDbEllipse
 10
-176.2578203052279
 20
-2.465914873121443
 30
0.0
 11
-0.9217557166961414
 21
-3.193055466969566
 31
0.0
210
0.0
220
0.0
230
1.0
 40
0.4330127018922194
 41
0.0000066435089672
 42
0.9829127533620333
1001
DBPROPERTIES
1002
{
1000
PbHidd
1002
}
  0
ELLIPSE
  5
170
330
1F
100
AcDbEntity
  8
HIDDEN
100
AcDbEllipse
 10
-176.2578203052279
 20
-2.465914873121443
 30
0.0
 11
-0.9217557166961414
 21
-3.193055466969566
 31
0.0
210
0.0
220
0.0
230
1.0
 40
0.4330127018922194
 41
0.9829127533620333
 42
2.158798930342462
1001
DBPROPERTIES
1002
{
1000
PbHidd
1002
}
  0
LINE
  5
171
330
1F
100
AcDbEntity
  8
HIDDEN
100
AcDbLine
 10
-174.5960962932701
 20
-1.026824446753181
 30
0.0
 11
-174.5961049898188
 21
-2.945609444005518
 31
0.0
1001
DBPROPERTIES
1002
{
1000
PbHidd
1002
}
  0
ELLIPSE
  5
172
330
1F
100
AcDbEntity
  8
HIDDEN
100
AcDbEllipse
 10
-177.338998895265
 20
-2.153805498121444
 30
0.0
 11
-0.9217557166961414
 21
-3.193055466969566
 31
0.0
210
0.0
220
0.0
230
1.0
 40
0.4330127018922194
 41
-0.9827937232473309
 42
0.0000066435089673
1001
DBPROPERTIES
1002
{
1000
PbHidd
1002
}
  0
ELLIPSE
  5
173
330
1F
100
AcDbEntity
  8
HIDDEN
100
AcDbEllipse
 10
-177.338998895265
 20
-2.153805498121444
 30
0.0
 11
-0.9217557166961414
 21
-3.193055466969566
 31
0.0
210
0.0
220
0.0
230
1.0
 40
0.4330127018922194
 41
0.0000066435089672
 42
0.5011626497676089
1001
DBPROPERTIES
1002
{
1000
PbHidd
1002
}
  0
ELLIPSE
  5
174
330
1F
100
AcDbEntity
  8
HIDDEN
100
AcDbEllipse
 10
-177.338998895265
 20
-2.153805498121444
 30
0.0
 11
-0.9217557166961414
 21
-3.193055466969566
 31
0.0
210
0.0
220
0.0
230
1.0
 40
0.4330127018922194
 41
0.5011626497676089
 42
2.158798930342462
1001
DBPROPERTIES
1002
{
1000
PbHidd
1002
}
  0
ELLIPSE
  5
175
330
1F
100
AcDbEntity
  8
HIDDEN
100
AcDbEllipse
 10
-177.9249192075129
 20
-1.984664873121447
 30
0.0
 11
-1.109400392450457
 21
-3.843075691322092
 31
0.0
210
0.0
220
0.0
230
1.0
 40
0.4330127018922194
 41
-0.9827937232473294
 42
0.5011626497675998
1001
DBPROPERTIES
1002
{
1000
PbHidd
1002
}
  0
ELLIPSE
  5
176
330
1F
100
AcDbEntity
  8
HIDDEN
100
AcDbEllipse
 10
-177.9249192075129
 20
-1.984664873121447
 30
0.0
 11
-1.109400392450457
 21
-3.843075691322092
 31
0.0
210
0.0
220
0.0
230
1.0
 40
0.4330127018922194
 41
0.5011626497675999
 42
2.158798930342464
1001
DBPROPERTIES
1002
{
1000
PbHidd
1002
}
  0
ELLIPSE
  5
177
330
1F
100
AcDbEntity
  8
HIDDEN
100
AcDbEllipse
 10
-177.9249192075129
 20
-1.984664873121447
 30
0.0
 11
-0.9217557166961414
 21
-3.193055466969566
 31
0.0
210
0.0
220
0.0
230
1.0
 40
0.4330127018922194
 41
-0.9827937232473309
 42
0.0000066435089673
1001
DBPROPERTIES
1002
{
1000
PbHidd
1002
}
  0
ELLIPSE
  5
178
330
1F
100
AcDbEntity
  8
HIDDEN
100
AcDbEllipse
 10
-177.9249192075129
 20
-1.984664873121447
 30
0.0
 11
-0.9217557166961414
 21
-3.193055466969566
 31
0.0
210
0.0
220
0.0
230
1.0
 40
0.4330127018922194
 41
0.0000066435089672
 42
2.158798930342462
1001
DBPROPERTIES
1002
{
1000
PbHidd
1002
}
  0
ELLIPSE
  5
179
330
1F
100
AcDbEntity
  8
HIDDEN
100
AcDbEllipse
 10
-187.3415923089753
 20
0.7336945018785586
 30
0.0
 11
-0.9217557166961414
 21
-3.193055466969566
 31
0.0
210
0.0
220
0.0
230
1.0
 40
0.4330127018922194
 41
-0.9827937232473309
 42
0.0000066435089673
1001
DBPROPERTIES
1002
{
1000
PbHidd
1002
}
  0
ELLIPSE
  5
17A
330
1F
100
AcDbEntity
  8
HIDDEN
100
AcDbEllipse
 10
-187.3415923089753
 20
0.7336945018785586
 30
0.0
 11
-0.9217557166961414
 21
-3.193055466969566
 31
0.0
210
0.0
220
0.0
230
1.0
 40
0.4330127018922194
 41
0.0000066435089672
 42
0.5011626497676088
1001
DBPROPERTIES
1002
{
1000
PbHidd
1002
}
  0
ELLIPSE
  5
17B
330
1F
100
AcDbEntity
  8
HIDDEN
100
AcDbEllipse
 10
-187.3415923089753
 20
0.7336945018785586
 30
0.0
 11
-0.9217557166961414
 21
-3.193055466969566
 31
0.0
210
0.0
220
0.0
230
1.0
 40
0.4330127018922194
 41
0.5011626497676088
 42
2.158798930342462
1001
DBPROPERTIES
1002
{
1000
PbHidd
1002
}
  0
ELLIPSE
  5
17C
330
1F
100
AcDbEntity
  8
HIDDEN
100
AcDbEllipse
 10
-187.9275126212232
 20
0.9028351268785557
 30
0.0
 11
-1.109400392450458
 21
-3.843075691322092
 31
0.0
210
0.0
220
0.0
230
1.0
 40
0.4330127018922194
 41
-0.9827937232473294
 42
0.5011626497676003
1001
DBPROPERTIES
1002
{
1000
PbHidd
1002
}
  0
ELLIPSE
  5
17D
330
1F
100
AcDbEntity
  8
HIDDEN
100
AcDbEllipse
 10
-187.9275126212232
 20
0.9028351268785557
 30
0.0
 11
-1.109400392450458
 21
-3.843075691322092
 31
0.0
210
0.0
220
0.0
230
1.0
 40
0.4330127018922194
 41
0.5011626497676004
 42
2.158798930342464
1001
DBPROPERTIES
1002
{
1000
PbHidd
1002
}
  0
ELLIPSE
  5
17E
330
1F
100
AcDbEntity
  8
HIDDEN
100
AcDbEllipse
 10
156.3392360181858
 20
-98.47841487312135
 30
0.0
 11
0.9217557166961414
 21
3.193055466969566
 31
0.0
210
0.0
220
0.0
230
1.0
 40
0.4330127018922196
 41
0.9829127533620359
 42
2.158798930342464
1001
DBPROPERTIES
1002
{
1000
PbHidd
1002
}
  0
ELLIPSE
  5
17F
330
1F
100
AcDbEntity
  8
HIDDEN
100
AcDbEllipse
 10
156.3392360181858
 20
-98.47841487312135
 30
0.0
 11
0.9217557166961414
 21
3.193055466969566
 31
0.0
210
0.0
220
0.0
230
1.0
 40
0.4330127018922196
 41
0.0000066435089641
 42
0.9829127533620359
1001
DBPROPERTIES
1002
{
1000
PbHidd
1002
}
  0
ELLIPSE
  5
180
330
1F
100
AcDbEntity
  8
HIDDEN
100
AcDbEllipse
 10
156.3392360181858
 20
-98.47841487312135
 30
0.0
 11
0.9217557166961414
 21
3.193055466969566
 31
0.0
210
0.0
220
0.0
230
1.0
 40
0.4330127018922196
 41
-0.9827937232473337
 42
0.0000066435089641
1001
DBPROPERTIES
1002
{
1000
PbHidd
1002
}
  0
LINE
  5
181
330
1F
100
AcDbEntity
  8
HIDDEN
100
AcDbLine
 10
154.6775172681858
 20
-97.99871898078739
 30
0.0
 11
154.6775172681858
 21
-99.91750397803973
 31
0.0
1001
DBPROPERTIES
1002
{
1000
PbHidd
1002
}
  0
ELLIPSE
  5
182
330
1F
100
AcDbEntity
  8
HIDDEN
100
AcDbEllipse
 10
157.4204146082229
 20
-98.79052424812136
 30
0.0
 11
0.9217557166961414
 21
3.193055466969566
 31
0.0
210
0.0
220
0.0
230
1.0
 40
0.4330127018922196
 41
0.5011626497676079
 42
2.158798930342464
1001
DBPROPERTIES
1002
{
1000
PbHidd
1002
}
  0
ELLIPSE
  5
183
330
1F
100
AcDbEntity
  8
HIDDEN
100
AcDbEllipse
 10
157.4204146082229
 20
-98.79052424812136
 30
0.0
 11
0.9217557166961414
 21
3.193055466969566
 31
0.0
210
0.0
220
0.0
230
1.0
 40
0.4330127018922196
 41
0.0000066428929384
 42
0.5011626497676079
1001
DBPROPERTIES
1002
{
1000
PbHidd
1002
}
  0
ELLIPSE
  5
184
330
1F
100
AcDbEntity
  8
HIDDEN
100
AcDbEllipse
 10
157.4204146082229
 20
-98.79052424812136
 30
0.0
 11
0.9217557166961414
 21
3.193055466969566
 31
0.0
210
0.0
220
0.0
230
1.0
 40
0.4330127018922196
 41
-0.9827937232473337
 42
0.0000066428929384
1001
DBPROPERTIES
1002
{
1000
PbHidd
1002
}
  0
ELLIPSE
  5
185
330
1F
100
AcDbEntity
  8
HIDDEN
100
AcDbEllipse
 10
158.0063349204708
 20
-98.95966487312135
 30
0.0
 11
1.109400392450457
 21
3.843075691322092
 31
0.0
210
0.0
220
0.0
230
1.0
 40
0.4330127018922196
 41
0.5011626497675993
 42
2.158798930342466
1001
DBPROPERTIES
1002
{
1000
PbHidd
1002
}
  0
ELLIPSE
  5
186
330
1F
100
AcDbEntity
  8
HIDDEN
100
AcDbEllipse
 10
158.0063349204708
 20
-98.95966487312135
 30
0.0
 11
1.109400392450457
 21
3.843075691322092
 31
0.0
210
0.0
220
0.0
230
1.0
 40
0.4330127018922196
 41
-0.9827937232473317
 42
0.5011626497675993
1001
DBPROPERTIES
1002
{
1000
PbHidd
1002
}
  0
ELLIPSE
  5
187
330
1F
100
AcDbEntity
  8
HIDDEN
100
AcDbEllipse
 10
158.0063349204708
 20
-98.95966487312135
 30
0.0
 11
0.9217557166961414
 21
3.193055466969566
 31
0.0
210
0.0
220
0.0
230
1.0
 40
0.4330127018922196
 41
0.0000066435089669
 42
2.158798930342464
1001
DBPROPERTIES
1002
{
1000
PbHidd
1002
}
  0
ELLIPSE
  5
188
330
1F
100
AcDbEntity
  8
HIDDEN
100
AcDbEllipse
 10
158.0063349204708
 20
-98.95966487312135
 30
0.0
 11
0.9217557166961414
 21
3.193055466969566
 31
0.0
210
0.0
220
0.0
230
1.0
 40
0.4330127018922196
 41
-0.9827937232473337
 42
0.0000066435089668
1001
DBPROPERTIES
1002
{
1000
PbHidd
1002
}
  0
ELLIPSE
  5
189
330
1F
100
AcDbEntity
  8
HIDDEN
100
AcDbEllipse
 10
167.4230080219332
 20
-101.6780242481214
 30
0.0
 11
0.9217557166961414
 21
3.193055466969566
 31
0.0
210
0.0
220
0.0
230
1.0
 40
0.4330127018922196
 41
0.5011626497676079
 42
2.158798930342464
1001
DBPROPERTIES
1002
{
1000
PbHidd
1002
}
  0
ELLIPSE
  5
18A
330
1F
100
AcDbEntity
  8
HIDDEN
100
AcDbEllipse
 10
167.4230080219332
 20
-101.6780242481214
 30
0.0
 11
0.9217557166961414
 21
3.193055466969566
 31
0.0
210
0.0
220
0.0
230
1.0
 40
0.4330127018922196
 41
0.3229616248439082
 42
0.5011626497676079
1001
DBPROPERTIES
1002
{
1000
PbHidd
1002
}
  0
ELLIPSE
  5
18B
330
1F
100
AcDbEntity
  8
THICK
100
AcDbEllipse
 10
167.4230080219332
 20
-101.6780242481214
 30
0.0
 11
0.9217557166961414
 21
3.193055466969566
 31
0.0
210
0.0
220
0.0
230
1.0
 40
0.4330127018922196
 41
0.0000066429007731
 42
0.3229616248439082
1001
DBPROPERTIES
1002
{
1000
PbThick
1002
}
  0
ELLIPSE
  5
18C
330
1F
100
AcDbEntity
  8
THICK
100
AcDbEllipse
 10
167.4230080219332
 20
-101.6780242481214
 30
0.0
 11
0.9217557166961414
 21
3.193055466969566
 31
0.0
210
0.0
220
0.0
230
1.0
 40
0.4330127018922196
 41
-0.9827937232473337
 42
0.0000066429007731
1001
DBPROPERTIES
1002
{
1000
PbThick
1002
}
  0
ELLIPSE
  5
18D
330
1F
100
AcDbEntity
  8
THICK
100
AcDbEllipse
 10
168.0089283341811
 20
-101.8471648731214
 30
0.0
 11
1.109400392450457
 21
3.843075691322092
 31
0.0
210
0.0
220
0.0
230
1.0
 40
0.4330127018922194
 41
0.5011626497675996
 42
2.158798930342465
1001
DBPROPERTIES
1002
{
1000
PbThick
1002
}
  0
ELLIPSE
  5
18E
330
1F
100
AcDbEntity
  8
THICK
100
AcDbEllipse
 10
168.0089283341811
 20
-101.8471648731214
 30
0.0
 11
1.109400392450457
 21
3.843075691322092
 31
0.0
210
0.0
220
0.0
230
1.0
 40
0.4330127018922194
 41
-0.9827937232473319
 42
0.5011626497675995
1001
DBPROPERTIES
1002
{
1000
PbThick
1002
}
  0
ELLIPSE
  5
18F
330
1F
100
AcDbEntity
  8
HIDDEN
100
AcDbEllipse
 10
156.3392360181858
 20
8.215914873121474
 30
0.0
 11
0.9217557166961414
 21
3.193055466969566
 31
0.0
210
0.0
220
0.0
230
1.0
 40
0.4330127018922196
 41
0.9829127533620355
 42
2.158798930342463
1001
DBPROPERTIES
1002
{
1000
PbHidd
1002
}
  0
ELLIPSE
  5
190
330
1F
100
AcDbEntity
  8
HIDDEN
100
AcDbEllipse
 10
156.3392360181858
 20
8.215914873121474
 30
0.0
 11
0.9217557166961414
 21
3.193055466969566
 31
0.0
210
0.0
220
0.0
230
1.0
 40
0.4330127018922196
 41
0.0000066434401452
 42
0.9829127533620355
1001
DBPROPERTIES
1002
{
1000
PbHidd
1002
}
  0
ELLIPSE
  5
191
330
1F
100
AcDbEntity
  8
HIDDEN
100
AcDbEllipse
 10
156.3392360181858
 20
8.215914873121474
 30
0.0
 11
0.9217557166961414
 21
3.193055466969566
 31
0.0
210
0.0
220
0.0
230
1.0
 40
0.4330127018922196
 41
-0.9827937232473313
 42
0.0000066434401452
1001
DBPROPERTIES
1002
{
1000
PbHidd
1002
}
  0
LINE
  5
192
330
1F
100
AcDbEntity
  8
HIDDEN
100
AcDbLine
 10
154.6775172681858
 20
8.695610765455447
 30
0.0
 11
154.6775172681858
 21
6.776825768203113
 31
0.0
1001
DBPROPERTIES
1002
{
1000
PbHidd
1002
}
  0
ELLIPSE
  5
193
330
1F
100
AcDbEntity
  8
HIDDEN
100
AcDbEllipse
 10
157.4204146082229
 20
7.903805498121474
 30
0.0
 11
0.9217557166961414
 21
3.193055466969566
 31
0.0
210
0.0
220
0.0
230
1.0
 40
0.4330127018922196
 41
0.5011626497676087
 42
2.158798930342462
1001
DBPROPERTIES
1002
{
1000
PbHidd
1002
}
  0
ELLIPSE
  5
194
330
1F
100
AcDbEntity
  8
HIDDEN
100
AcDbEllipse
 10
157.4204146082229
 20
7.903805498121474
 30
0.0
 11
0.9217557166961414
 21
3.193055466969566
 31
0.0
210
0.0
220
0.0
230
1.0
 40
0.4330127018922196
 41
0.0000066432652114
 42
0.5011626497676087
1001
DBPROPERTIES
1002
{
1000
PbHidd
1002
}
  0
ELLIPSE
  5
195
330
1F
100
AcDbEntity
  8
HIDDEN
100
AcDbEllipse
 10
157.4204146082229
 20
7.903805498121474
 30
0.0
 11
0.9217557166961414
 21
3.193055466969566
 31
0.0
210
0.0
220
0.0
230
1.0
 40
0.4330127018922196
 41
-0.9827937232473309
 42
0.0000066432652114
1001
DBPROPERTIES
1002
{
1000
PbHidd
1002
}
  0
ELLIPSE
  5
196
330
1F
100
AcDbEntity
  8
HIDDEN
100
AcDbEllipse
 10
158.0063349204708
 20
7.734664873121477
 30
0.0
 11
1.109400392450457
 21
3.843075691322092
 31
0.0
210
0.0
220
0.0
230
1.0
 40
0.4330127018922196
 41
0.5011626497675996
 42
2.158798930342464
1001
DBPROPERTIES
1002
{
1000
PbHidd
1002
}
  0
ELLIPSE
  5
197
330
1F
100
AcDbEntity
  8
HIDDEN
100
AcDbEllipse
 10
158.0063349204708
 20
7.734664873121477
 30
0.0
 11
1.109400392450457
 21
3.843075691322092
 31
0.0
210
0.0
220
0.0
230
1.0
 40
0.4330127018922196
 41
-0.9827937232473295
 42
0.5011626497675997
1001
DBPROPERTIES
1002
{
1000
PbHidd
1002
}
  0
ELLIPSE
  5
198
330
1F
100
AcDbEntity
  8
HIDDEN
100
AcDbEllipse
 10
158.0063349204708
 20
7.734664873121477
 30
0.0
 11
0.9217557166961414
 21
3.193055466969566
 31
0.0
210
0.0
220
0.0
230
1.0
 40
0.4330127018922196
 41
0.000006643508966
 42
2.158798930342462
1001
DBPROPERTIES
1002
{
1000
PbHidd
1002
}
  0
ELLIPSE
  5
199
330
1F
100
AcDbEntity
  8
HIDDEN
100
AcDbEllipse
 10
158.0063349204708
 20
7.734664873121477
 30
0.0
 11
0.9217557166961414
 21
3.193055466969566
 31
0.0
210
0.0
220
0.0
230
1.0
 40
0.4330127018922196
 41
-0.9827937232473309
 42
0.000006643508966
1001
DBPROPERTIES
1002
{
1000
PbHidd
1002
}
  0
ELLIPSE
  5
19A
330
1F
100
AcDbEntity
  8
HIDDEN
100
AcDbEllipse
 10
167.4230080219332
 20
5.01630549812147
 30
0.0
 11
0.9217557166961414
 21
3.193055466969566
 31
0.0
210
0.0
220
0.0
230
1.0
 40
0.4330127018922196
 41
0.5011626497676086
 42
2.158798930342462
1001
DBPROPERTIES
1002
{
1000
PbHidd
1002
}
  0
ELLIPSE
  5
19B
330
1F
100
AcDbEntity
  8
HIDDEN
100
AcDbEllipse
 10
167.4230080219332
 20
5.01630549812147
 30
0.0
 11
0.9217557166961414
 21
3.193055466969566
 31
0.0
210
0.0
220
0.0
230
1.0
 40
0.4330127018922196
 41
0.322961624843926
 42
0.5011626497676086
1001
DBPROPERTIES
1002
{
1000
PbHidd
1002
}
  0
ELLIPSE
  5
19C
330
1F
100
AcDbEntity
  8
THICK
100
AcDbEllipse
 10
167.4230080219332
 20
5.01630549812147
 30
0.0
 11
0.9217557166961414
 21
3.193055466969566
 31
0.0
210
0.0
220
0.0
230
1.0
 40
0.4330127018922196
 41
0.0000066430665604
 42
0.322961624843926
1001
DBPROPERTIES
1002
{
1000
PbThick
1002
}
  0
ELLIPSE
  5
19D
330
1F
100
AcDbEntity
  8
THICK
100
AcDbEllipse
 10
167.4230080219332
 20
5.01630549812147
 30
0.0
 11
0.9217557166961414
 21
3.193055466969566
 31
0.0
210
0.0
220
0.0
230
1.0
 40
0.4330127018922196
 41
-0.9827937232473309
 42
0.0000066430665604
1001
DBPROPERTIES
1002
{
1000
PbThick
1002
}
  0
ELLIPSE
  5
19E
330
1F
100
AcDbEntity
  8
THICK
100
AcDbEllipse
 10
168.0089283341811
 20
4.847164873121473
 30
0.0
 11
1.109400392450457
 21
3.843075691322092
 31
0.0
210
0.0
220
0.0
230
1.0
 40
0.4330127018922194
 41
0.5011626497675998
 42
2.158798930342464
1001
DBPROPERTIES
1002
{
1000
PbThick
1002
}
  0
ELLIPSE
  5
19F
330
1F
100
AcDbEntity
  8
THICK
100
AcDbEllipse
 10
168.0089283341811
 20
4.847164873121473
 30
0.0
 11
1.109400392450457
 21
3.843075691322092
 31
0.0
210
0.0
220
0.0
230
1.0
 40
0.4330127018922194
 41
-0.9827937232473294
 42
0.5011626497675998
1001
DBPROPERTIES
1002
{
1000
PbThick
1002
}
  0
ELLIPSE
  5
1A0
330
1F
100
AcDbEntity
  8
HIDDEN
100
AcDbEllipse
 10
-53.34716487312141
 20
-146.3085935216493
 30
0.0
 11
3.3234375
 21
2.895022975374333E-16
 31
0.0
210
0.0
220
0.0
230
1.0
 40
0.4999999999999999
 41
-2.094395102393193
 42
0.000031477933681
1001
DBPROPERTIES
1002
{
1000
PbHidd
1002
}
  0
ELLIPSE
  5
1A1
330
1F
100
AcDbEntity
  8
HIDDEN
100
AcDbEllipse
 10
-53.34716487312141
 20
-146.3085935216493
 30
0.0
 11
3.3234375
 21
2.895022975374333E-16
 31
0.0
210
0.0
220
0.0
230
1.0
 40
0.4999999999999999
 41
0.0000314779336809
 42
1.0471975511966
1001
DBPROPERTIES
1002
{
1000
PbHidd
1002
}
  0
ELLIPSE
  5
1A2
330
1F
100
AcDbEntity
  8
HIDDEN
100
AcDbEllipse
 10
-53.34716487312141
 20
-147.3897721116865
 30
0.0
 11
3.3234375
 21
2.895022975374333E-16
 31
0.0
210
0.0
220
0.0
230
1.0
 40
0.4999999999999999
 41
-2.094395102393193
 42
0.000031477933681
1001
DBPROPERTIES
1002
{
1000
PbHidd
1002
}
  0
ELLIPSE
  5
1A3
330
1F
100
AcDbEntity
  8
HIDDEN
100
AcDbEllipse
 10
-53.34716487312141
 20
-147.3897721116865
 30
0.0
 11
3.3234375
 21
2.895022975374333E-16
 31
0.0
210
0.0
220
0.0
230
1.0
 40
0.4999999999999999
 41
0.0000314779336809
 42
0.6155761690122173
1001
DBPROPERTIES
1002
{
1000
PbHidd
1002
}
  0
ELLIPSE
  5
1A4
330
1F
100
AcDbEntity
  8
HIDDEN
100
AcDbEllipse
 10
-53.34716487312141
 20
-147.3897721116865
 30
0.0
 11
3.3234375
 21
2.895022975374333E-16
 31
0.0
210
0.0
220
0.0
230
1.0
 40
0.4999999999999999
 41
0.6155761690122173
 42
1.0471975511966
1001
DBPROPERTIES
1002
{
1000
PbHidd
1002
}
  0
ELLIPSE
  5
1A5
330
1F
100
AcDbEntity
  8
HIDDEN
100
AcDbEllipse
 10
-53.34716487312141
 20
-147.9756924239344
 30
0.0
 11
4.0
 21
3.484371799228158E-16
 31
0.0
210
0.0
220
0.0
230
1.0
 40
0.4999999999999999
 41
-2.094395102393198
 42
0.6155761690122099
1001
DBPROPERTIES
1002
{
1000
PbHidd
1002
}
  0
ELLIPSE
  5
1A6
330
1F
100
AcDbEntity
  8
HIDDEN
100
AcDbEllipse
 10
-53.34716487312141
 20
-147.9756924239344
 30
0.0
 11
4.0
 21
3.484371799228158E-16
 31
0.0
210
0.0
220
0.0
230
1.0
 40
0.4999999999999999
 41
0.61557616901221
 42
1.047197551196595
1001
DBPROPERTIES
1002
{
1000
PbHidd
1002
}
  0
ELLIPSE
  5
1A7
330
1F
100
AcDbEntity
  8
HIDDEN
100
AcDbEllipse
 10
-53.34716487312141
 20
-147.9756924239344
 30
0.0
 11
3.3234375
 21
2.895022975374333E-16
 31
0.0
210
0.0
220
0.0
230
1.0
 40
0.4999999999999999
 41
-2.094395102393193
 42
0.000031477933681
1001
DBPROPERTIES
1002
{
1000
PbHidd
1002
}
  0
ELLIPSE
  5
1A8
330
1F
100
AcDbEntity
  8
HIDDEN
100
AcDbEllipse
 10
-53.34716487312141
 20
-147.9756924239344
 30
0.0
 11
3.3234375
 21
2.895022975374333E-16
 31
0.0
210
0.0
220
0.0
230
1.0
 40
0.4999999999999999
 41
0.0000314779336809
 42
1.0471975511966
1001
DBPROPERTIES
1002
{
1000
PbHidd
1002
}
  0
ELLIPSE
  5
1A9
330
1F
100
AcDbEntity
  8
HIDDEN
100
AcDbEllipse
 10
-53.34716487312141
 20
-157.3923655253967
 30
0.0
 11
3.3234375
 21
2.895022975374333E-16
 31
0.0
210
0.0
220
0.0
230
1.0
 40
0.4999999999999999
 41
-2.094395102393193
 42
0.000031477933681
1001
DBPROPERTIES
1002
{
1000
PbHidd
1002
}
  0
ELLIPSE
  5
1AA
330
1F
100
AcDbEntity
  8
HIDDEN
100
AcDbEllipse
 10
-53.34716487312141
 20
-157.3923655253967
 30
0.0
 11
3.3234375
 21
2.895022975374333E-16
 31
0.0
210
0.0
220
0.0
230
1.0
 40
0.4999999999999999
 41
0.0000314779336809
 42
0.6155761690122173
1001
DBPROPERTIES
1002
{
1000
PbHidd
1002
}
  0
ELLIPSE
  5
1AB
330
1F
100
AcDbEntity
  8
HIDDEN
100
AcDbEllipse
 10
-53.34716487312141
 20
-157.3923655253967
 30
0.0
 11
3.3234375
 21
2.895022975374333E-16
 31
0.0
210
0.0
220
0.0
230
1.0
 40
0.4999999999999999
 41
0.6155761690122173
 42
1.0471975511966
1001
DBPROPERTIES
1002
{
1000
PbHidd
1002
}
  0
ELLIPSE
  5
1AC
330
1F
100
AcDbEntity
  8
HIDDEN
100
AcDbEllipse
 10
-53.34716487312141
 20
-157.9782858376446
 30
0.0
 11
4.0
 21
0.0
 31
0.0
210
0.0
220
0.0
230
1.0
 40
0.4999999999999999
 41
-2.094395102393198
 42
0.6155761690122108
1001
DBPROPERTIES
1002
{
1000
PbHidd
1002
}
  0
ELLIPSE
  5
1AD
330
1F
100
AcDbEntity
  8
HIDDEN
100
AcDbEllipse
 10
-53.34716487312141
 20
-157.9782858376446
 30
0.0
 11
4.0
 21
0.0
 31
0.0
210
0.0
220
0.0
230
1.0
 40
0.4999999999999999
 41
0.615576169012211
 42
1.047197551196595
1001
DBPROPERTIES
1002
{
1000
PbHidd
1002
}
  0
ELLIPSE
  5
1AE
330
1F
100
AcDbEntity
  8
HIDDEN
100
AcDbEllipse
 10
53.34716487312143
 20
-177.1085935216493
 30
0.0
 11
3.3234375
 21
2.895022975374333E-16
 31
0.0
210
0.0
220
0.0
230
1.0
 40
0.4999999999999999
 41
-2.094395102393193
 42
0.000031477933681
1001
DBPROPERTIES
1002
{
1000
PbHidd
1002
}
  0
ELLIPSE
  5
1AF
330
1F
100
AcDbEntity
  8
HIDDEN
100
AcDbEllipse
 10
53.34716487312143
 20
-177.1085935216493
 30
0.0
 11
3.3234375
 21
2.895022975374333E-16
 31
0.0
210
0.0
220
0.0
230
1.0
 40
0.4999999999999999
 41
0.0000314779336809
 42
1.0471975511966
1001
DBPROPERTIES
1002
{
1000
PbHidd
1002
}
  0
ELLIPSE
  5
1B0
330
1F
100
AcDbEntity
  8
HIDDEN
100
AcDbEllipse
 10
53.34716487312143
 20
-178.1897721116865
 30
0.0
 11
3.3234375
 21
2.895022975374333E-16
 31
0.0
210
0.0
220
0.0
230
1.0
 40
0.4999999999999999
 41
-2.094395102393193
 42
0.000031477933681
1001
DBPROPERTIES
1002
{
1000
PbHidd
1002
}
  0
ELLIPSE
  5
1B1
330
1F
100
AcDbEntity
  8
HIDDEN
100
AcDbEllipse
 10
53.34716487312143
 20
-178.1897721116865
 30
0.0
 11
3.3234375
 21
2.895022975374333E-16
 31
0.0
210
0.0
220
0.0
230
1.0
 40
0.4999999999999999
 41
0.0000314779336809
 42
0.6155761690122173
1001
DBPROPERTIES
1002
{
1000
PbHidd
1002
}
  0
ELLIPSE
  5
1B2
330
1F
100
AcDbEntity
  8
HIDDEN
100
AcDbEllipse
 10
53.34716487312143
 20
-178.1897721116865
 30
0.0
 11
3.3234375
 21
2.895022975374333E-16
 31
0.0
210
0.0
220
0.0
230
1.0
 40
0.4999999999999999
 41
0.6155761690122173
 42
1.0471975511966
1001
DBPROPERTIES
1002
{
1000
PbHidd
1002
}
  0
ELLIPSE
  5
1B3
330
1F
100
AcDbEntity
  8
HIDDEN
100
AcDbEllipse
 10
53.34716487312143
 20
-178.7756924239343
 30
0.0
 11
4.0
 21
3.484371799228158E-16
 31
0.0
210
0.0
220
0.0
230
1.0
 40
0.4999999999999999
 41
-2.094395102393198
 42
0.6155761690122108
1001
DBPROPERTIES
1002
{
1000
PbHidd
1002
}
  0
ELLIPSE
  5
1B4
330
1F
100
AcDbEntity
  8
HIDDEN
100
AcDbEllipse
 10
53.34716487312143
 20
-178.7756924239343
 30
0.0
 11
4.0
 21
3.484371799228158E-16
 31
0.0
210
0.0
220
0.0
230
1.0
 40
0.4999999999999999
 41
0.615576169012211
 42
1.047197551196595
1001
DBPROPERTIES
1002
{
1000
PbHidd
1002
}
  0
ELLIPSE
  5
1B5
330
1F
100
AcDbEntity
  8
HIDDEN
100
AcDbEllipse
 10
53.34716487312143
 20
-178.7756924239343
 30
0.0
 11
3.3234375
 21
2.895022975374333E-16
 31
0.0
210
0.0
220
0.0
230
1.0
 40
0.4999999999999999
 41
-2.094395102393193
 42
0.000031477933681
1001
DBPROPERTIES
1002
{
1000
PbHidd
1002
}
  0
ELLIPSE
  5
1B6
330
1F
100
AcDbEntity
  8
HIDDEN
100
AcDbEllipse
 10
53.34716487312143
 20
-178.7756924239343
 30
0.0
 11
3.3234375
 21
2.895022975374333E-16
 31
0.0
210
0.0
220
0.0
230
1.0
 40
0.4999999999999999
 41
0.0000314779336809
 42
1.0471975511966
1001
DBPROPERTIES
1002
{
1000
PbHidd
1002
}
  0
ELLIPSE
  5
1B7
330
1F
100
AcDbEntity
  8
HIDDEN
100
AcDbEllipse
 10
53.34716487312143
 20
-188.1923655253967
 30
0.0
 11
3.3234375
 21
2.895022975374333E-16
 31
0.0
210
0.0
220
0.0
230
1.0
 40
0.4999999999999999
 41
-2.094395102393193
 42
0.000031477933681
1001
DBPROPERTIES
1002
{
1000
PbHidd
1002
}
  0
ELLIPSE
  5
1B8
330
1F
100
AcDbEntity
  8
HIDDEN
100
AcDbEllipse
 10
53.34716487312143
 20
-188.1923655253967
 30
0.0
 11
3.3234375
 21
2.895022975374333E-16
 31
0.0
210
0.0
220
0.0
230
1.0
 40
0.4999999999999999
 41
0.0000314779336809
 42
0.6155761690122173
1001
DBPROPERTIES
1002
{
1000
PbHidd
1002
}
  0
ELLIPSE
  5
1B9
330
1F
100
AcDbEntity
  8
HIDDEN
100
AcDbEllipse
 10
53.34716487312143
 20
-188.1923655253967
 30
0.0
 11
3.3234375
 21
2.895022975374333E-16
 31
0.0
210
0.0
220
0.0
230
1.0
 40
0.4999999999999999
 41
0.6155761690122173
 42
1.0471975511966
1001
DBPROPERTIES
1002
{
1000
PbHidd
1002
}
  0
ELLIPSE
  5
1BA
330
1F
100
AcDbEntity
  8
HIDDEN
100
AcDbEllipse
 10
53.34716487312143
 20
-188.7782858376446
 30
0.0
 11
4.0
 21
0.0
 31
0.0
210
0.0
220
0.0
230
1.0
 40
0.4999999999999999
 41
-2.094395102393198
 42
0.6155761690122121
1001
DBPROPERTIES
1002
{
1000
PbHidd
1002
}
  0
ELLIPSE
  5
1BB
330
1F
100
AcDbEntity
  8
HIDDEN
100
AcDbEllipse
 10
53.34716487312143
 20
-188.7782858376446
 30
0.0
 11
4.0
 21
0.0
 31
0.0
210
0.0
220
0.0
230
1.0
 40
0.4999999999999999
 41
0.6155761690122121
 42
1.047197551196595
1001
DBPROPERTIES
1002
{
1000
PbHidd
1002
}
  0
ELLIPSE
  5
1BC
330
1F
100
AcDbEntity
  8
HIDDEN
100
AcDbEllipse
 10
76.82999999999997
 20
66.53673177275839
 30
0.0
 11
-36.54604116727283
 21
42.19973341148023
 31
0.0
210
0.0
220
0.0
230
1.0
 40
0.7499999999999999
 41
0.7137243789447659
 42
2.284520705739662
1001
DBPROPERTIES
1002
{
1000
PbHidd
1002
}
  0
ELLIPSE
  5
1BD
330
1F
100
AcDbEntity
  8
HIDDEN
100
AcDbEllipse
 10
79.71877680389542
 20
69.03848587079506
 30
0.0
 11
-33.49154246143282
 21
38.67270211136805
 31
0.0
210
0.0
220
0.0
230
1.0
 40
0.7499999999999999
 41
0.7137243789447663
 42
2.284520705739662
1001
DBPROPERTIES
1002
{
1000
PbHidd
1002
}
  0
ELLIPSE
  5
1BE
330
1F
100
AcDbEntity
  8
HIDDEN
100
AcDbEllipse
 10
79.71877680389542
 20
69.03848587079506
 30
0.0
 11
-33.49154246143282
 21
38.67270211136805
 31
0.0
210
0.0
220
0.0
230
1.0
 40
0.7499999999999999
 41
2.284520705739662
 42
3.855317032534558
1001
DBPROPERTIES
1002
{
1000
PbHidd
1002
}
  0
ELLIPSE
  5
1BF
330
1F
100
AcDbEntity
  8
HIDDEN
100
AcDbEllipse
 10
76.82999999999997
 20
66.53673177275839
 30
0.0
 11
-36.54604116727283
 21
42.19973341148023
 31
0.0
210
0.0
220
0.0
230
1.0
 40
0.7499999999999999
 41
2.284520705739662
 42
3.855317032534559
1001
DBPROPERTIES
1002
{
1000
PbHidd
1002
}
  0
ELLIPSE
  5
1C0
330
1F
100
AcDbEntity
  8
HIDDEN
100
AcDbEllipse
 10
82.74
 20
71.65494190912443
 30
0.0
 11
-15.12249979335427
 21
17.4619586530263
 31
0.0
210
0.0
220
0.0
230
1.0
 40
0.75
 41
2.284520705739661
 42
3.1415783479752
1001
DBPROPERTIES
1002
{
1000
PbHidd
1002
}
  0
ELLIPSE
  5
1C1
330
1F
100
AcDbEntity
  8
HIDDEN
100
AcDbEllipse
 10
82.74
 20
71.65494190912443
 30
0.0
 11
-15.12249979335427
 21
17.4619586530263
 31
0.0
210
0.0
220
0.0
230
1.0
 40
0.75
 41
3.1415783479752
 42
5.426113359329456
1001
DBPROPERTIES
1002
{
1000
PbHidd
1002
}
  0
ELLIPSE
  5
1C2
330
1F
100
AcDbEntity
  8
HIDDEN
100
AcDbEllipse
 10
79.71877680389542
 20
69.03848587079506
 30
0.0
 11
-33.49154246143282
 21
38.67270211136805
 31
0.0
210
0.0
220
0.0
230
1.0
 40
0.7499999999999999
 41
-2.427868274645028
 42
-0.857071947850131
1001
DBPROPERTIES
1002
{
1000
PbHidd
1002
}
  0
ELLIPSE
  5
1C3
330
1F
100
AcDbEntity
  8
HIDDEN
100
AcDbEllipse
 10
83.725
 20
72.5079769318521
 30
0.0
 11
-15.12249979335427
 21
17.4619586530263
 31
0.0
210
0.0
220
0.0
230
1.0
 40
0.75
 41
2.284520705739661
 42
3.1415783479752
1001
DBPROPERTIES
1002
{
1000
PbHidd
1002
}
  0
ELLIPSE
  5
1C4
330
1F
100
AcDbEntity
  8
HIDDEN
100
AcDbEllipse
 10
83.725
 20
72.5079769318521
 30
0.0
 11
-15.12249979335427
 21
17.4619586530263
 31
0.0
210
0.0
220
0.0
230
1.0
 40
0.75
 41
3.1415783479752
 42
5.426113359329456
1001
DBPROPERTIES
1002
{
1000
PbHidd
1002
}
  0
ELLIPSE
  5
1C5
330
1F
100
AcDbEntity
  8
HIDDEN
100
AcDbEllipse
 10
27.57999999999999
 20
23.88498063637482
 30
0.0
 11
-36.54604116727283
 21
42.19973341148023
 31
0.0
210
0.0
220
0.0
230
1.0
 40
0.7499999999999999
 41
-1.283688631232827
 42
-0.857071947850131
1001
DBPROPERTIES
1002
{
1000
PbHidd
1002
}
  0
ELLIPSE
  5
1C6
330
1F
100
AcDbEntity
  8
HIDDEN
100
AcDbEllipse
 10
14.77499999999998
 20
12.79552534091508
 30
0.0
 11
-36.54604116727283
 21
42.19973341148023
 31
0.0
210
0.0
220
0.0
230
1.0
 40
0.7499999999999999
 41
2.284520705739662
 42
3.1415783479752
1001
DBPROPERTIES
1002
{
1000
PbHidd
1002
}
  0
ELLIPSE
  5
1C7
330
1F
100
AcDbEntity
  8
HIDDEN
100
AcDbEllipse
 10
14.77499999999998
 20
12.79552534091508
 30
0.0
 11
-36.54604116727283
 21
42.19973341148023
 31
0.0
210
0.0
220
0.0
230
1.0
 40
0.7499999999999999
 41
3.1415783479752
 42
5.426113359329455
1001
DBPROPERTIES
1002
{
1000
PbHidd
1002
}
  0
ELLIPSE
  5
1C8
330
1F
100
AcDbEntity
  8
HIDDEN
100
AcDbEllipse
 10
76.82999999999997
 20
66.53673177275839
 30
0.0
 11
-36.54604116727283
 21
42.19973341148023
 31
0.0
210
0.0
220
0.0
230
1.0
 40
0.7499999999999999
 41
-2.427868274645027
 42
-0.8570719478501312
1001
DBPROPERTIES
1002
{
1000
PbHidd
1002
}
  0
ELLIPSE
  5
1C9
330
1F
100
AcDbEntity
  8
HIDDEN
100
AcDbEllipse
 10
57.12999999999999
 20
49.47603131820497
 30
0.0
 11
36.54604116727283
 21
-42.19973341148023
 31
0.0
210
0.0
220
0.0
230
1.0
 40
0.7499999999999999
 41
1.857904022356967
 42
2.284520705739662
1001
DBPROPERTIES
1002
{
1000
PbHidd
1002
}
  0
LINE
  5
1CA
330
1F
100
AcDbEntity
  8
HIDDEN
100
AcDbLine
 10
77.13518682742053
 20
87.71370527412361
 30
0.0
 11
47.58518682742053
 21
62.12265459229346
 31
0.0
1001
DBPROPERTIES
1002
{
1000
PbHidd
1002
}
  0
ELLIPSE
  5
1CB
330
1F
100
AcDbEntity
  8
THICK
100
AcDbEllipse
 10
-14.775
 20
-12.79552534091508
 30
0.0
 11
48.50983699946111
 21
-56.01433489996749
 31
0.0
210
0.0
220
0.0
230
1.0
 40
0.75
 41
-0.0000143056145928
 42
0.7137243789447658
1001
DBPROPERTIES
1002
{
1000
PbThick
1002
}
  0
ELLIPSE
  5
1CC
330
1F
100
AcDbEntity
  8
HIDDEN
100
AcDbEllipse
 10
-14.775
 20
-12.79552534091508
 30
0.0
 11
48.50983699946111
 21
-56.01433489996749
 31
0.0
210
0.0
220
0.0
230
1.0
 40
0.75
 41
-2.427868274645027
 42
-0.0000143056145929
1001
DBPROPERTIES
1002
{
1000
PbHidd
1002
}
  0
ELLIPSE
  5
1CD
330
1F
100
AcDbEntity
  8
THICK
100
AcDbEllipse
 10
-15.76
 20
-13.64856036364275
 30
0.0
 11
-48.50983699946111
 21
56.01433489996749
 31
0.0
210
0.0
220
0.0
230
1.0
 40
0.75
 41
0.7137243789447658
 42
3.1415783479752
1001
DBPROPERTIES
1002
{
1000
PbThick
1002
}
  0
ELLIPSE
  5
1CE
330
1F
100
AcDbEntity
  8
THICK
100
AcDbEllipse
 10
-15.76
 20
-13.64856036364275
 30
0.0
 11
-48.50983699946111
 21
56.01433489996749
 31
0.0
210
0.0
220
0.0
230
1.0
 40
0.75
 41
3.1415783479752
 42
3.855317032534558
1001
DBPROPERTIES
1002
{
1000
PbThick
1002
}
  0
ELLIPSE
  5
1CF
330
1F
100
AcDbEntity
  8
HIDDEN
100
AcDbEllipse
 10
28.32101315985932
 20
-61.96514580928593
 30
0.0
 11
1.119457776910641
 21
-1.292638497691557
 31
0.0
210
0.0
220
0.0
230
1.0
 40
0.75
 41
-3.141513643169028
 42
-1.642470111247584
1001
DBPROPERTIES
1002
{
1000
PbHidd
1002
}
  0
ELLIPSE
  5
1D0
330
1F
100
AcDbEntity
  8
HIDDEN
100
AcDbEllipse
 10
28.32101315985932
 20
-61.96514580928593
 30
0.0
 11
1.119457776910641
 21
-1.292638497691557
 31
0.0
210
0.0
220
0.0
230
1.0
 40
0.75
 41
1.499122542342216
 42
3.141671664010558
1001
DBPROPERTIES
1002
{
1000
PbHidd
1002
}
  0
ELLIPSE
  5
1D1
330
1F
100
AcDbEntity
  8
THICK
100
AcDbEllipse
 10
24.38101315985932
 20
-65.37728590019661
 30
0.0
 11
1.119457776910641
 21
-1.292638497691557
 31
0.0
210
0.0
220
0.0
230
1.0
 40
0.75
 41
-3.141513643169028
 42
-1.642470111247584
1001
DBPROPERTIES
1002
{
1000
PbThick
1002
}
  0
ELLIPSE
  5
1D2
330
1F
100
AcDbEntity
  8
THICK
100
AcDbEllipse
 10
24.38101315985932
 20
-65.37728590019661
 30
0.0
 11
1.119457776910641
 21
-1.292638497691557
 31
0.0
210
0.0
220
0.0
230
1.0
 40
0.75
 41
1.499122542342216
 42
3.141671664010558
1001
DBPROPERTIES
1002
{
1000
PbThick
1002
}
  0
ELLIPSE
  5
1D3
330
1F
100
AcDbEntity
  8
HIDDEN
100
AcDbEllipse
 10
-51.96101315985932
 20
-38.78972105589684
 30
0.0
 11
1.119457776910641
 21
-1.292638497691557
 31
0.0
210
0.0
220
0.0
230
1.0
 40
0.75
 41
0.0000790104207691
 42
3.069918869137109
1001
DBPROPERTIES
1002
{
1000
PbHidd
1002
}
  0
ELLIPSE
  5
1D4
330
1F
100
AcDbEntity
  8
HIDDEN
100
AcDbEllipse
 10
-51.96101315985932
 20
-38.78972105589684
 30
0.0
 11
1.119457776910641
 21
-1.292638497691557
 31
0.0
210
0.0
220
0.0
230
1.0
 40
0.75
 41
-0.0716737844526841
 42
0.0000790104207691
1001
DBPROPERTIES
1002
{
1000
PbHidd
1002
}
  0
ELLIPSE
  5
1D5
330
1F
100
AcDbEntity
  8
THICK
100
AcDbEllipse
 10
-55.90101315985932
 20
-42.20186114680753
 30
0.0
 11
1.119457776910641
 21
-1.292638497691557
 31
0.0
210
0.0
220
0.0
230
1.0
 40
0.75
 41
0.0000790104207691
 42
3.069918869137109
1001
DBPROPERTIES
1002
{
1000
PbThick
1002
}
  0
ELLIPSE
  5
1D6
330
1F
100
AcDbEntity
  8
THICK
100
AcDbEllipse
 10
-55.90101315985932
 20
-42.20186114680753
 30
0.0
 11
1.119457776910641
 21
-1.292638497691557
 31
0.0
210
0.0
220
0.0
230
1.0
 40
0.75
 41
-0.0716737844526807
 42
0.0000790104207691
1001
DBPROPERTIES
1002
{
1000
PbThick
1002
}
  0
ELLIPSE
  5
1D7
330
1F
100
AcDbEntity
  8
HIDDEN
100
AcDbEllipse
 10
-51.96101315985933
 20
41.49230526382179
 30
0.0
 11
1.119457776910641
 21
-1.292638497691557
 31
0.0
210
0.0
220
0.0
230
1.0
 40
0.75
 41
0.0000790104207727
 42
1.499122542342216
1001
DBPROPERTIES
1002
{
1000
PbHidd
1002
}
  0
ELLIPSE
  5
1D8
330
1F
100
AcDbEntity
  8
HIDDEN
100
AcDbEllipse
 10
-51.96101315985933
 20
41.49230526382179
 30
0.0
 11
1.119457776910641
 21
-1.292638497691557
 31
0.0
210
0.0
220
0.0
230
1.0
 40
0.75
 41
-1.642470111247584
 42
0.0000790104207726
1001
DBPROPERTIES
1002
{
1000
PbHidd
1002
}
  0
ELLIPSE
  5
1D9
330
1F
100
AcDbEntity
  8
THICK
100
AcDbEllipse
 10
-55.90101315985932
 20
38.08016517291111
 30
0.0
 11
1.119457776910641
 21
-1.292638497691557
 31
0.0
210
0.0
220
0.0
230
1.0
 40
0.75
 41
0.0000790104207727
 42
1.499122542342216
1001
DBPROPERTIES
1002
{
1000
PbThick
1002
}
  0
ELLIPSE
  5
1DA
330
1F
100
AcDbEntity
  8
THICK
100
AcDbEllipse
 10
-55.90101315985932
 20
38.08016517291111
 30
0.0
 11
1.119457776910641
 21
-1.292638497691557
 31
0.0
210
0.0
220
0.0
230
1.0
 40
0.75
 41
-1.642470111247584
 42
0.0000790104207726
1001
DBPROPERTIES
1002
{
1000
PbThick
1002
}
  0
ELLIPSE
  5
1DB
330
1F
100
AcDbEntity
  8
HIDDEN
100
AcDbEllipse
 10
28.32101315985931
 20
18.31688051043272
 30
0.0
 11
1.119457776910641
 21
-1.292638497691557
 31
0.0
210
0.0
220
0.0
230
1.0
 40
0.75
 41
-3.141513643169028
 42
-0.0716737844526807
1001
DBPROPERTIES
1002
{
1000
PbHidd
1002
}
  0
ELLIPSE
  5
1DC
330
1F
100
AcDbEntity
  8
HIDDEN
100
AcDbEllipse
 10
28.32101315985931
 20
18.31688051043272
 30
0.0
 11
1.119457776910641
 21
-1.292638497691557
 31
0.0
210
0.0
220
0.0
230
1.0
 40
0.75
 41
3.069918869137105
 42
3.141671664010558
1001
DBPROPERTIES
1002
{
1000
PbHidd
1002
}
  0
ELLIPSE
  5
1DD
330
1F
100
AcDbEntity
  8
THICK
100
AcDbEllipse
 10
24.38101315985931
 20
14.90474041952204
 30
0.0
 11
1.119457776910641
 21
-1.292638497691557
 31
0.0
210
0.0
220
0.0
230
1.0
 40
0.75
 41
-3.141513643169027
 42
-0.0716737844526807
1001
DBPROPERTIES
1002
{
1000
PbThick
1002
}
  0
ELLIPSE
  5
1DE
330
1F
100
AcDbEntity
  8
THICK
100
AcDbEllipse
 10
24.38101315985931
 20
14.90474041952204
 30
0.0
 11
1.119457776910641
 21
-1.292638497691557
 31
0.0
210
0.0
220
0.0
230
1.0
 40
0.75
 41
3.069918869137106
 42
3.14167166401056
1001
DBPROPERTIES
1002
{
1000
PbThick
1002
}
  0
ELLIPSE
  5
1DF
330
1F
100
AcDbEntity
  8
THICK
100
AcDbEllipse
 10
-15.76
 20
-13.64856036364275
 30
0.0
 11
37.3152592303547
 21
-43.08794992305192
 31
0.0
210
0.0
220
0.0
230
1.0
 40
0.75
 41
-0.0000143056145928
 42
0.7137243789447659
1001
DBPROPERTIES
1002
{
1000
PbThick
1002
}
  0
ELLIPSE
  5
1E0
330
1F
100
AcDbEntity
  8
THICK
100
AcDbEllipse
 10
-15.76
 20
-13.64856036364275
 30
0.0
 11
37.3152592303547
 21
-43.08794992305192
 31
0.0
210
0.0
220
0.0
230
1.0
 40
0.75
 41
-2.427868274645027
 42
-0.0000143056145929
1001
DBPROPERTIES
1002
{
1000
PbThick
1002
}
  0
ELLIPSE
  5
1E1
330
1F
100
AcDbEntity
  8
HIDDEN
100
AcDbEllipse
 10
-11.82
 20
-10.23642027273206
 30
0.0
 11
37.3152592303547
 21
-43.08794992305192
 31
0.0
210
0.0
220
0.0
230
1.0
 40
0.75
 41
-0.0000143056145928
 42
0.7137243789447659
1001
DBPROPERTIES
1002
{
1000
PbHidd
1002
}
  0
ELLIPSE
  5
1E2
330
1F
100
AcDbEntity
  8
HIDDEN
100
AcDbEllipse
 10
-11.82
 20
-10.23642027273206
 30
0.0
 11
37.3152592303547
 21
-43.08794992305192
 31
0.0
210
0.0
220
0.0
230
1.0
 40
0.75
 41
-0.0609984057648569
 42
-0.0000143056145928
1001
DBPROPERTIES
1002
{
1000
PbHidd
1002
}
  0
ELLIPSE
  5
1E3
330
1F
100
AcDbEntity
  8
THICK
100
AcDbEllipse
 10
-11.82
 20
-10.23642027273206
 30
0.0
 11
37.3152592303547
 21
-43.08794992305192
 31
0.0
210
0.0
220
0.0
230
1.0
 40
0.75
 41
-2.427868274645027
 42
-0.0609984057648569
1001
DBPROPERTIES
1002
{
1000
PbThick
1002
}
  0
ELLIPSE
  5
1E4
330
1F
100
AcDbEntity
  8
THICK
100
AcDbEllipse
 10
-155.7893098867827
 20
174.8763105676658
 30
0.0
 11
-20.0
 21
-1.224606353822377E-15
 31
0.0
210
0.0
220
0.0
230
1.0
 40
0.4999999999999999
 41
-3.141561175656116
 42
-2.094395102393195
1001
DBPROPERTIES
1002
{
1000
PbThick
1002
}
  0
ELLIPSE
  5
1E5
330
1F
100
AcDbEntity
  8
THICK
100
AcDbEllipse
 10
-155.7893098867827
 20
174.8763105676658
 30
0.0
 11
-20.0
 21
-1.224606353822377E-15
 31
0.0
210
0.0
220
0.0
230
1.0
 40
0.4999999999999999
 41
1.047197551196597
 42
3.14162413152347
1001
DBPROPERTIES
1002
{
1000
PbThick
1002
}
  0
ELLIPSE
  5
1E6
330
1F
100
AcDbEntity
  8
HIDDEN
100
AcDbEllipse
 10
-155.7893098867827
 20
44.97249999999998
 30
0.0
 11
-20.0
 21
-1.224606353822377E-15
 31
0.0
210
0.0
220
0.0
230
1.0
 40
0.4999999999999999
 41
-2.646522848366936
 42
-2.094395102393195
1001
DBPROPERTIES
1002
{
1000
PbHidd
1002
}
  0
LINE
  5
1E7
330
1F
100
AcDbEntity
  8
HIDDEN
100
AcDbLine
 10
-138.1905932721447
 20
49.72342955876412
 30
0.0
 11
-138.1882212699344
 21
50.77144821518272
 31
0.0
1001
DBPROPERTIES
1002
{
1000
PbHidd
1002
}
  0
LINE
  5
1E8
330
1F
100
AcDbEntity
  8
HIDDEN
100
AcDbLine
 10
-138.1882212699344
 20
50.77144821518272
 30
0.0
 11
-138.1810030930424
 21
51.82798063398103
 31
0.0
1001
DBPROPERTIES
1002
{
1000
PbHidd
1002
}
  0
LINE
  5
1E9
330
1F
100
AcDbEntity
  8
HIDDEN
100
AcDbLine
 10
-138.1810030930424
 20
51.82798063398103
 30
0.0
 11
-138.1688860253303
 21
52.89179070150283
 31
0.0
1001
DBPROPERTIES
1002
{
1000
PbHidd
1002
}
  0
LINE
  5
1EA
330
1F
100
AcDbEntity
  8
HIDDEN
100
AcDbLine
 10
-138.1688860253303
 20
52.89179070150283
 30
0.0
 11
-138.1517796145113
 21
53.9616283822815
 31
0.0
1001
DBPROPERTIES
1002
{
1000
PbHidd
1002
}
  0
LINE
  5
1EB
330
1F
100
AcDbEntity
  8
HIDDEN
100
AcDbLine
 10
-138.1517796145113
 20
53.9616283822815
 30
0.0
 11
-138.129577332777
 21
55.03624333625449
 31
0.0
1001
DBPROPERTIES
1002
{
1000
PbHidd
1002
}
  0
LINE
  5
1EC
330
1F
100
AcDbEntity
  8
HIDDEN
100
AcDbLine
 10
-138.129577332777
 20
55.03624333625449
 30
0.0
 11
-138.1022009886653
 21
56.11439016855866
 31
0.0
1001
DBPROPERTIES
1002
{
1000
PbHidd
1002
}
  0
LINE
  5
1ED
330
1F
100
AcDbEntity
  8
HIDDEN
100
AcDbLine
 10
-138.1022009886653
 20
56.11439016855866
 30
0.0
 11
-138.0695836978646
 21
57.19482998322323
 31
0.0
1001
DBPROPERTIES
1002
{
1000
PbHidd
1002
}
  0
LINE
  5
1EE
330
1F
100
AcDbEntity
  8
HIDDEN
100
AcDbLine
 10
-138.0695836978646
 20
57.19482998322323
 30
0.0
 11
-138.0316217935893
 21
58.27630954951398
 31
0.0
1001
DBPROPERTIES
1002
{
1000
PbHidd
1002
}
  0
LINE
  5
1EF
330
1F
100
AcDbEntity
  8
HIDDEN
100
AcDbLine
 10
-138.0316217935893
 20
58.27630954951398
 30
0.0
 11
-137.9884193632814
 21
59.35763161829641
 31
0.0
1001
DBPROPERTIES
1002
{
1000
PbHidd
1002
}
  0
LINE
  5
1F0
330
1F
100
AcDbEntity
  8
HIDDEN
100
AcDbLine
 10
-137.9884193632814
 20
59.35763161829641
 30
0.0
 11
-137.9400919384746
 21
60.43759150728033
 31
0.0
1001
DBPROPERTIES
1002
{
1000
PbHidd
1002
}
  0
LINE
  5
1F1
330
1F
100
AcDbEntity
  8
HIDDEN
100
AcDbLine
 10
-137.9400919384746
 20
60.43759150728033
 30
0.0
 11
-137.8868230305461
 21
61.51500195584954
 31
0.0
1001
DBPROPERTIES
1002
{
1000
PbHidd
1002
}
  0
LINE
  5
1F2
330
1F
100
AcDbEntity
  8
HIDDEN
100
AcDbLine
 10
-137.8868230305461
 20
61.51500195584954
 30
0.0
 11
-137.8287423392029
 21
62.58866127050494
 31
0.0
1001
DBPROPERTIES
1002
{
1000
PbHidd
1002
}
  0
LINE
  5
1F3
330
1F
100
AcDbEntity
  8
HIDDEN
100
AcDbLine
 10
-137.8287423392029
 20
62.58866127050494
 30
0.0
 11
-137.765992778651
 21
63.6573715724447
 31
0.0
1001
DBPROPERTIES
1002
{
1000
PbHidd
1002
}
  0
LINE
  5
1F4
330
1F
100
AcDbEntity
  8
HIDDEN
100
AcDbLine
 10
-137.765992778651
 20
63.6573715724447
 30
0.0
 11
-137.6987436920944
 21
64.71994178635534
 31
0.0
1001
DBPROPERTIES
1002
{
1000
PbHidd
1002
}
  0
LINE
  5
1F5
330
1F
100
AcDbEntity
  8
HIDDEN
100
AcDbLine
 10
-137.6987436920944
 20
64.71994178635534
 30
0.0
 11
-137.6271550229352
 21
65.77518445538176
 31
0.0
1001
DBPROPERTIES
1002
{
1000
PbHidd
1002
}
  0
LINE
  5
1F6
330
1F
100
AcDbEntity
  8
HIDDEN
100
AcDbLine
 10
-137.6271550229352
 20
65.77518445538176
 30
0.0
 11
-137.5515076893564
 21
66.8219550288398
 31
0.0
1001
DBPROPERTIES
1002
{
1000
PbHidd
1002
}
  0
LINE
  5
1F7
330
1F
100
AcDbEntity
  8
HIDDEN
100
AcDbLine
 10
-137.5515076893564
 20
66.8219550288398
 30
0.0
 11
-137.4722082157519
 21
67.8591242924784
 31
0.0
1001
DBPROPERTIES
1002
{
1000
PbHidd
1002
}
  0
LINE
  5
1F8
330
1F
100
AcDbEntity
  8
HIDDEN
100
AcDbLine
 10
-137.4722082157519
 20
67.8591242924784
 30
0.0
 11
-137.3896352670059
 21
68.88555498969889
 31
0.0
1001
DBPROPERTIES
1002
{
1000
PbHidd
1002
}
  0
LINE
  5
1F9
330
1F
100
AcDbEntity
  8
HIDDEN
100
AcDbLine
 10
-137.3896352670059
 20
68.88555498969889
 30
0.0
 11
-137.3042057209883
 21
69.90012254685367
 31
0.0
1001
DBPROPERTIES
1002
{
1000
PbHidd
1002
}
  0
LINE
  5
1FA
330
1F
100
AcDbEntity
  8
HIDDEN
100
AcDbLine
 10
-137.3042057209883
 20
69.90012254685367
 30
0.0
 11
-137.2162982425835
 21
70.90168640371932
 31
0.0
1001
DBPROPERTIES
1002
{
1000
PbHidd
1002
}
  0
LINE
  5
1FB
330
1F
100
AcDbEntity
  8
HIDDEN
100
AcDbLine
 10
-137.2162982425835
 20
70.90168640371932
 30
0.0
 11
-137.1263174488367
 21
71.88911569423246
 31
0.0
1001
DBPROPERTIES
1002
{
1000
PbHidd
1002
}
  0
LINE
  5
1FC
330
1F
100
AcDbEntity
  8
HIDDEN
100
AcDbLine
 10
-137.1263174488367
 20
71.88911569423246
 30
0.0
 11
-137.0346561728056
 21
72.86127615058547
 31
0.0
1001
DBPROPERTIES
1002
{
1000
PbHidd
1002
}
  0
LINE
  5
1FD
330
1F
100
AcDbEntity
  8
HIDDEN
100
AcDbLine
 10
-137.0346561728056
 20
72.86127615058547
 30
0.0
 11
-136.9418234539569
 21
73.81706650026743
 31
0.0
1001
DBPROPERTIES
1002
{
1000
PbHidd
1002
}
  0
LINE
  5
1FE
330
1F
100
AcDbEntity
  8
HIDDEN
100
AcDbLine
 10
-136.9418234539569
 20
73.81706650026743
 30
0.0
 11
-136.8484206963089
 21
74.75544737278061
 31
0.0
1001
DBPROPERTIES
1002
{
1000
PbHidd
1002
}
  0
LINE
  5
1FF
330
1F
100
AcDbEntity
  8
HIDDEN
100
AcDbLine
 10
-136.8484206963089
 20
74.75544737278061
 30
0.0
 11
-136.7550322746832
 21
75.67538053836708
 31
0.0
1001
DBPROPERTIES
1002
{
1000
PbHidd
1002
}
  0
LINE
  5
200
330
1F
100
AcDbEntity
  8
HIDDEN
100
AcDbLine
 10
-136.7550322746832
 20
75.67538053836708
 30
0.0
 11
-136.6622548247264
 21
76.57583240787238
 31
0.0
1001
DBPROPERTIES
1002
{
1000
PbHidd
1002
}
  0
LINE
  5
201
330
1F
100
AcDbEntity
  8
HIDDEN
100
AcDbLine
 10
-136.6622548247264
 20
76.57583240787238
 30
0.0
 11
-136.5706864125966
 21
77.45576815328276
 31
0.0
1001
DBPROPERTIES
1002
{
1000
PbHidd
1002
}
  0
LINE
  5
202
330
1F
100
AcDbEntity
  8
HIDDEN
100
AcDbLine
 10
-136.5706864125966
 20
77.45576815328276
 30
0.0
 11
-136.4809246276144
 21
78.31415170772522
 31
0.0
1001
DBPROPERTIES
1002
{
1000
PbHidd
1002
}
  0
LINE
  5
203
330
1F
100
AcDbEntity
  8
HIDDEN
100
AcDbLine
 10
-136.4809246276144
 20
78.31415170772522
 30
0.0
 11
-136.39348103529
 21
79.15077175355384
 31
0.0
1001
DBPROPERTIES
1002
{
1000
PbHidd
1002
}
  0
LINE
  5
204
330
1F
100
AcDbEntity
  8
HIDDEN
100
AcDbLine
 10
-136.39348103529
 20
79.15077175355384
 30
0.0
 11
-136.3064117018616
 21
79.98991258588791
 31
0.0
1001
DBPROPERTIES
1002
{
1000
PbHidd
1002
}
  0
LINE
  5
205
330
1F
100
AcDbEntity
  8
HIDDEN
100
AcDbLine
 10
-136.3064117018616
 20
79.98991258588791
 30
0.0
 11
-136.2200074741217
 21
80.83712015786755
 31
0.0
1001
DBPROPERTIES
1002
{
1000
PbHidd
1002
}
  0
LINE
  5
206
330
1F
100
AcDbEntity
  8
HIDDEN
100
AcDbLine
 10
-136.2200074741217
 20
80.83712015786755
 30
0.0
 11
-136.1360207258159
 21
81.6840433182922
 31
0.0
1001
DBPROPERTIES
1002
{
1000
PbHidd
1002
}
  0
LINE
  5
207
330
1F
100
AcDbEntity
  8
HIDDEN
100
AcDbLine
 10
-136.1360207258159
 20
81.6840433182922
 30
0.0
 11
-136.0564283353144
 21
82.52264349671965
 31
0.0
1001
DBPROPERTIES
1002
{
1000
PbHidd
1002
}
  0
LINE
  5
208
330
1F
100
AcDbEntity
  8
HIDDEN
100
AcDbLine
 10
-136.0564283353144
 20
82.52264349671965
 30
0.0
 11
-135.9833054656229
 21
83.34515881749763
 31
0.0
1001
DBPROPERTIES
1002
{
1000
PbHidd
1002
}
  0
LINE
  5
209
330
1F
100
AcDbEntity
  8
HIDDEN
100
AcDbLine
 10
-135.9833054656229
 20
83.34515881749763
 30
0.0
 11
-135.9187773427327
 21
84.14398336217263
 31
0.0
1001
DBPROPERTIES
1002
{
1000
PbHidd
1002
}
  0
LINE
  5
20A
330
1F
100
AcDbEntity
  8
HIDDEN
100
AcDbLine
 10
-135.9187773427327
 20
84.14398336217263
 30
0.0
 11
-135.8650184241401
 21
84.91212503209277
 31
0.0
1001
DBPROPERTIES
1002
{
1000
PbHidd
1002
}
  0
LINE
  5
20B
330
1F
100
AcDbEntity
  8
HIDDEN
100
AcDbLine
 10
-135.8650184241401
 20
84.91212503209277
 30
0.0
 11
-135.8241938286363
 21
85.64277018151078
 31
0.0
1001
DBPROPERTIES
1002
{
1000
PbHidd
1002
}
  0
LINE
  5
20C
330
1F
100
AcDbEntity
  8
HIDDEN
100
AcDbLine
 10
-135.8241938286363
 20
85.64277018151078
 30
0.0
 11
-135.7983751390847
 21
86.32957205508146
 31
0.0
1001
DBPROPERTIES
1002
{
1000
PbHidd
1002
}
  0
LINE
  5
20D
330
1F
100
AcDbEntity
  8
HIDDEN
100
AcDbLine
 10
-135.7983751390847
 20
86.32957205508146
 30
0.0
 11
-135.7893144476211
 21
86.9670640353125
 31
0.0
1001
DBPROPERTIES
1002
{
1000
PbHidd
1002
}
  0
LINE
  5
20E
330
1F
100
AcDbEntity
  8
HIDDEN
100
AcDbLine
 10
-135.7893144476211
 20
86.9670640353125
 30
0.0
 11
-135.7987187547212
 21
87.55001976576733
 31
0.0
1001
DBPROPERTIES
1002
{
1000
PbHidd
1002
}
  0
LINE
  5
20F
330
1F
100
AcDbEntity
  8
HIDDEN
100
AcDbLine
 10
-135.7987187547212
 20
87.55001976576733
 30
0.0
 11
-135.831416311226
 21
88.12227195641863
 31
0.0
1001
DBPROPERTIES
1002
{
1000
PbHidd
1002
}
  0
LINE
  5
210
330
1F
100
AcDbEntity
  8
HIDDEN
100
AcDbLine
 10
-135.831416311226
 20
88.12227195641863
 30
0.0
 11
-135.893643418201
 21
88.65595267034027
 31
0.0
1001
DBPROPERTIES
1002
{
1000
PbHidd
1002
}
  0
LINE
  5
211
330
1F
100
AcDbEntity
  8
HIDDEN
100
AcDbLine
 10
-135.893643418201
 20
88.65595267034027
 30
0.0
 11
-135.9896176237471
 21
89.12388970959668
 31
0.0
1001
DBPROPERTIES
1002
{
1000
PbHidd
1002
}
  0
LINE
  5
212
330
1F
100
AcDbEntity
  8
HIDDEN
100
AcDbLine
 10
-135.9896176237471
 20
89.12388970959668
 30
0.0
 11
-136.1197448928893
 21
89.50608366924938
 31
0.0
1001
DBPROPERTIES
1002
{
1000
PbHidd
1002
}
  0
LINE
  5
213
330
1F
100
AcDbEntity
  8
HIDDEN
100
AcDbLine
 10
-136.1197448928893
 20
89.50608366924938
 30
0.0
 11
-136.2941258624498
 21
89.81151498110857
 31
0.0
1001
DBPROPERTIES
1002
{
1000
PbHidd
1002
}
  0
LINE
  5
214
330
1F
100
AcDbEntity
  8
HIDDEN
100
AcDbLine
 10
-136.2941258624498
 20
89.81151498110857
 30
0.0
 11
-136.5286691114912
 21
90.03141289430395
 31
0.0
1001
DBPROPERTIES
1002
{
1000
PbHidd
1002
}
  0
LINE
  5
215
330
1F
100
AcDbEntity
  8
HIDDEN
100
AcDbLine
 10
-136.5286691114912
 20
90.03141289430395
 30
0.0
 11
-136.8314217788145
 21
90.13688047566592
 31
0.0
1001
DBPROPERTIES
1002
{
1000
PbHidd
1002
}
  0
LINE
  5
216
330
1F
100
AcDbEntity
  8
HIDDEN
100
AcDbLine
 10
-136.8314217788145
 20
90.13688047566592
 30
0.0
 11
-137.2082797562448
 21
90.10397795088775
 31
0.0
1001
DBPROPERTIES
1002
{
1000
PbHidd
1002
}
  0
LINE
  5
217
330
1F
100
AcDbEntity
  8
HIDDEN
100
AcDbLine
 10
-137.2082797562448
 20
90.10397795088775
 30
0.0
 11
-137.6609824621509
 21
89.91631215927782
 31
0.0
1001
DBPROPERTIES
1002
{
1000
PbHidd
1002
}
  0
LINE
  5
218
330
1F
100
AcDbEntity
  8
HIDDEN
100
AcDbLine
 10
-137.6609824621509
 20
89.91631215927782
 30
0.0
 11
-138.1859639091605
 21
89.56576053133303
 31
0.0
1001
DBPROPERTIES
1002
{
1000
PbHidd
1002
}
  0
LINE
  5
219
330
1F
100
AcDbEntity
  8
HIDDEN
100
AcDbLine
 10
-138.1859639091605
 20
89.56576053133303
 30
0.0
 11
-138.7740128067009
 21
89.05585416336375
 31
0.0
1001
DBPROPERTIES
1002
{
1000
PbHidd
1002
}
  0
LINE
  5
21A
330
1F
100
AcDbEntity
  8
HIDDEN
100
AcDbLine
 10
-138.7740128067009
 20
89.05585416336375
 30
0.0
 11
-139.4174724307653
 21
88.39321044779449
 31
0.0
1001
DBPROPERTIES
1002
{
1000
PbHidd
1002
}
  0
LINE
  5
21B
330
1F
100
AcDbEntity
  8
HIDDEN
100
AcDbLine
 10
-139.4174724307653
 20
88.39321044779449
 30
0.0
 11
-140.0998502486581
 21
87.59669798943393
 31
0.0
1001
DBPROPERTIES
1002
{
1000
PbHidd
1002
}
  0
LINE
  5
21C
330
1F
100
AcDbEntity
  8
HIDDEN
100
AcDbLine
 10
-140.0998502486581
 20
87.59669798943393
 30
0.0
 11
-140.8010387360067
 21
86.69495790227981
 31
0.0
1001
DBPROPERTIES
1002
{
1000
PbHidd
1002
}
  0
LINE
  5
21D
330
1F
100
AcDbEntity
  8
HIDDEN
100
AcDbLine
 10
-140.8010387360067
 20
86.69495790227981
 30
0.0
 11
-141.5017473922187
 21
85.71966766500177
 31
0.0
1001
DBPROPERTIES
1002
{
1000
PbHidd
1002
}
  0
LINE
  5
21E
330
1F
100
AcDbEntity
  8
HIDDEN
100
AcDbLine
 10
-141.5017473922187
 20
85.71966766500177
 30
0.0
 11
-142.1830371957265
 21
84.70607846677666
 31
0.0
1001
DBPROPERTIES
1002
{
1000
PbHidd
1002
}
  0
LINE
  5
21F
330
1F
100
AcDbEntity
  8
HIDDEN
100
AcDbLine
 10
-142.1830371957265
 20
84.70607846677666
 30
0.0
 11
-142.8267237058964
 21
83.69191060814325
 31
0.0
1001
DBPROPERTIES
1002
{
1000
PbHidd
1002
}
  0
LINE
  5
220
330
1F
100
AcDbEntity
  8
HIDDEN
100
AcDbLine
 10
-142.8267237058964
 20
83.69191060814325
 30
0.0
 11
-143.4521297418672
 21
82.65465771730223
 31
0.0
1001
DBPROPERTIES
1002
{
1000
PbHidd
1002
}
  0
LINE
  5
221
330
1F
100
AcDbEntity
  8
HIDDEN
100
AcDbLine
 10
-143.4521297418672
 20
82.65465771730223
 30
0.0
 11
-144.0824678239225
 21
81.5571344947214
 31
0.0
1001
DBPROPERTIES
1002
{
1000
PbHidd
1002
}
  0
LINE
  5
222
330
1F
100
AcDbEntity
  8
HIDDEN
100
AcDbLine
 10
-144.0824678239225
 20
81.5571344947214
 30
0.0
 11
-144.6952892711896
 21
80.43852822101863
 31
0.0
1001
DBPROPERTIES
1002
{
1000
PbHidd
1002
}
  0
LINE
  5
223
330
1F
100
AcDbEntity
  8
HIDDEN
100
AcDbLine
 10
-144.6952892711896
 20
80.43852822101863
 30
0.0
 11
-145.2714667913048
 21
79.33897286579602
 31
0.0
1001
DBPROPERTIES
1002
{
1000
PbHidd
1002
}
  0
LINE
  5
224
330
1F
100
AcDbEntity
  8
HIDDEN
100
AcDbLine
 10
-145.2714667913048
 20
79.33897286579602
 30
0.0
 11
-145.797777866153
 21
78.2921117683855
 31
0.0
1001
DBPROPERTIES
1002
{
1000
PbHidd
1002
}
  0
LINE
  5
225
330
1F
100
AcDbEntity
  8
HIDDEN
100
AcDbLine
 10
-145.797777866153
 20
78.2921117683855
 30
0.0
 11
-146.3073583951025
 21
77.23710028491821
 31
0.0
1001
DBPROPERTIES
1002
{
1000
PbHidd
1002
}
  0
LINE
  5
226
330
1F
100
AcDbEntity
  8
HIDDEN
100
AcDbLine
 10
-146.3073583951025
 20
77.23710028491821
 30
0.0
 11
-146.8096333447831
 21
76.15531775308563
 31
0.0
1001
DBPROPERTIES
1002
{
1000
PbHidd
1002
}
  0
LINE
  5
227
330
1F
100
AcDbEntity
  8
HIDDEN
100
AcDbLine
 10
-146.8096333447831
 20
76.15531775308563
 30
0.0
 11
-147.3010314794688
 21
75.05347143628265
 31
0.0
1001
DBPROPERTIES
1002
{
1000
PbHidd
1002
}
  0
LINE
  5
228
330
1F
100
AcDbEntity
  8
HIDDEN
100
AcDbLine
 10
-147.3010314794688
 20
75.05347143628265
 30
0.0
 11
-147.778632299381
 21
73.93830723547403
 31
0.0
1001
DBPROPERTIES
1002
{
1000
PbHidd
1002
}
  0
LINE
  5
229
330
1F
100
AcDbEntity
  8
HIDDEN
100
AcDbLine
 10
-147.778632299381
 20
73.93830723547403
 30
0.0
 11
-148.239889683007
 21
72.8165943322858
 31
0.0
1001
DBPROPERTIES
1002
{
1000
PbHidd
1002
}
  0
LINE
  5
22A
330
1F
100
AcDbEntity
  8
HIDDEN
100
AcDbLine
 10
-148.239889683007
 20
72.8165943322858
 30
0.0
 11
-148.6824141803892
 21
71.69507555699019
 31
0.0
1001
DBPROPERTIES
1002
{
1000
PbHidd
1002
}
  0
LINE
  5
22B
330
1F
100
AcDbEntity
  8
HIDDEN
100
AcDbLine
 10
-148.6824141803892
 20
71.69507555699019
 30
0.0
 11
-149.1044569880922
 21
70.58055038781977
 31
0.0
1001
DBPROPERTIES
1002
{
1000
PbHidd
1002
}
  0
LINE
  5
22C
330
1F
100
AcDbEntity
  8
HIDDEN
100
AcDbLine
 10
-149.1044569880922
 20
70.58055038781977
 30
0.0
 11
-149.504441162096
 21
69.47990260260676
 31
0.0
1001
DBPROPERTIES
1002
{
1000
PbHidd
1002
}
  0
LINE
  5
22D
330
1F
100
AcDbEntity
  8
HIDDEN
100
AcDbLine
 10
-149.504441162096
 20
69.47990260260676
 30
0.0
 11
-149.8809992879311
 21
68.40005444098958
 31
0.0
1001
DBPROPERTIES
1002
{
1000
PbHidd
1002
}
  0
LINE
  5
22E
330
1F
100
AcDbEntity
  8
HIDDEN
100
AcDbLine
 10
-149.8809992879311
 20
68.40005444098958
 30
0.0
 11
-150.2332447202613
 21
67.3480559166185
 31
0.0
1001
DBPROPERTIES
1002
{
1000
PbHidd
1002
}
  0
LINE
  5
22F
330
1F
100
AcDbEntity
  8
HIDDEN
100
AcDbLine
 10
-150.2332447202613
 20
67.3480559166185
 30
0.0
 11
-150.5627564551236
 21
66.32334312755071
 31
0.0
1001
DBPROPERTIES
1002
{
1000
PbHidd
1002
}
  0
LINE
  5
230
330
1F
100
AcDbEntity
  8
HIDDEN
100
AcDbLine
 10
-150.5627564551236
 20
66.32334312755071
 30
0.0
 11
-150.8809912369933
 21
65.292365360422
 31
0.0
1001
DBPROPERTIES
1002
{
1000
PbHidd
1002
}
  0
LINE
  5
231
330
1F
100
AcDbEntity
  8
HIDDEN
100
AcDbLine
 10
-150.8809912369933
 20
65.292365360422
 30
0.0
 11
-151.1893084281838
 21
64.25085141240686
 31
0.0
1001
DBPROPERTIES
1002
{
1000
PbHidd
1002
}
  0
LINE
  5
232
330
1F
100
AcDbEntity
  8
HIDDEN
100
AcDbLine
 10
-151.1893084281838
 20
64.25085141240686
 30
0.0
 11
-151.4874229706672
 21
63.19951131367414
 31
0.0
1001
DBPROPERTIES
1002
{
1000
PbHidd
1002
}
  0
LINE
  5
233
330
1F
100
AcDbEntity
  8
HIDDEN
100
AcDbLine
 10
-151.4874229706672
 20
63.19951131367414
 30
0.0
 11
-151.775075281739
 21
62.13907511237994
 31
0.0
1001
DBPROPERTIES
1002
{
1000
PbHidd
1002
}
  0
LINE
  5
234
330
1F
100
AcDbEntity
  8
HIDDEN
100
AcDbLine
 10
-151.775075281739
 20
62.13907511237994
 30
0.0
 11
-152.0519666120352
 21
61.07025604419844
 31
0.0
1001
DBPROPERTIES
1002
{
1000
PbHidd
1002
}
  0
LINE
  5
235
330
1F
100
AcDbEntity
  8
HIDDEN
100
AcDbLine
 10
-152.0519666120352
 20
61.07025604419844
 30
0.0
 11
-152.3178373788515
 21
59.99378085366101
 31
0.0
1001
DBPROPERTIES
1002
{
1000
PbHidd
1002
}
  0
LINE
  5
236
330
1F
100
AcDbEntity
  8
HIDDEN
100
AcDbLine
 10
-152.3178373788515
 20
59.99378085366101
 30
0.0
 11
-152.5723893096609
 21
58.91036401530108
 31
0.0
1001
DBPROPERTIES
1002
{
1000
PbHidd
1002
}
  0
LINE
  5
237
330
1F
100
AcDbEntity
  8
HIDDEN
100
AcDbLine
 10
-152.5723893096609
 20
58.91036401530108
 30
0.0
 11
-152.8154153398591
 21
57.82073917525781
 31
0.0
1001
DBPROPERTIES
1002
{
1000
PbHidd
1002
}
  0
LINE
  5
238
330
1F
100
AcDbEntity
  8
HIDDEN
100
AcDbLine
 10
-152.8154153398591
 20
57.82073917525781
 30
0.0
 11
-153.0468263816583
 21
56.72569991503752
 31
0.0
1001
DBPROPERTIES
1002
{
1000
PbHidd
1002
}
  0
LINE
  5
239
330
1F
100
AcDbEntity
  8
HIDDEN
100
AcDbLine
 10
-153.0468263816583
 20
56.72569991503752
 30
0.0
 11
-153.2665129802143
 21
55.62604054393325
 31
0.0
1001
DBPROPERTIES
1002
{
1000
PbHidd
1002
}
  0
LINE
  5
23A
330
1F
100
AcDbEntity
  8
HIDDEN
100
AcDbLine
 10
-153.2665129802143
 20
55.62604054393325
 30
0.0
 11
-153.4744058010168
 21
54.52256805418914
 31
0.0
1001
DBPROPERTIES
1002
{
1000
PbHidd
1002
}
  0
LINE
  5
23B
330
1F
100
AcDbEntity
  8
HIDDEN
100
AcDbLine
 10
-153.4744058010168
 20
54.52256805418914
 30
0.0
 11
-153.6704364632299
 21
53.41608861214311
 31
0.0
1001
DBPROPERTIES
1002
{
1000
PbHidd
1002
}
  0
LINE
  5
23C
330
1F
100
AcDbEntity
  8
HIDDEN
100
AcDbLine
 10
-153.6704364632299
 20
53.41608861214311
 30
0.0
 11
-153.8545087265084
 21
52.30740199359786
 31
0.0
1001
DBPROPERTIES
1002
{
1000
PbHidd
1002
}
  0
LINE
  5
23D
330
1F
100
AcDbEntity
  8
HIDDEN
100
AcDbLine
 10
-153.8545087265084
 20
52.30740199359786
 30
0.0
 11
-154.0265409955175
 21
51.19730889838171
 31
0.0
1001
DBPROPERTIES
1002
{
1000
PbHidd
1002
}
  0
LINE
  5
23E
330
1F
100
AcDbEntity
  8
HIDDEN
100
AcDbLine
 10
-154.0265409955175
 20
51.19730889838171
 30
0.0
 11
-154.1864771502458
 21
50.08661022256182
 31
0.0
1001
DBPROPERTIES
1002
{
1000
PbHidd
1002
}
  0
LINE
  5
23F
330
1F
100
AcDbEntity
  8
HIDDEN
100
AcDbLine
 10
-154.1864771502458
 20
50.08661022256182
 30
0.0
 11
-154.3343714181039
 21
48.97615027944878
 31
0.0
1001
DBPROPERTIES
1002
{
1000
PbHidd
1002
}
  0
LINE
  5
240
330
1F
100
AcDbEntity
  8
HIDDEN
100
AcDbLine
 10
-154.3343714181039
 20
48.97615027944878
 30
0.0
 11
-154.4703175330578
 21
47.86682167738965
 31
0.0
1001
DBPROPERTIES
1002
{
1000
PbHidd
1002
}
  0
LINE
  5
241
330
1F
100
AcDbEntity
  8
HIDDEN
100
AcDbLine
 10
-154.4703175330578
 20
47.86682167738965
 30
0.0
 11
-154.5944243509211
 21
46.75952662077206
 31
0.0
1001
DBPROPERTIES
1002
{
1000
PbHidd
1002
}
  0
LINE
  5
242
330
1F
100
AcDbEntity
  8
HIDDEN
100
AcDbLine
 10
-154.5944243509211
 20
46.75952662077206
 30
0.0
 11
-154.7067836983109
 21
45.65516184747401
 31
0.0
1001
DBPROPERTIES
1002
{
1000
PbHidd
1002
}
  0
LINE
  5
243
330
1F
100
AcDbEntity
  8
HIDDEN
100
AcDbLine
 10
-154.7067836983109
 20
45.65516184747401
 30
0.0
 11
-154.8075025236923
 21
44.55462873597688
 31
0.0
1001
DBPROPERTIES
1002
{
1000
PbHidd
1002
}
  0
LINE
  5
244
330
1F
100
AcDbEntity
  8
HIDDEN
100
AcDbLine
 10
-154.8075025236923
 20
44.55462873597688
 30
0.0
 11
-154.8966887292045
 21
43.45882783885597
 31
0.0
1001
DBPROPERTIES
1002
{
1000
PbHidd
1002
}
  0
LINE
  5
245
330
1F
100
AcDbEntity
  8
HIDDEN
100
AcDbLine
 10
-154.8966887292045
 20
43.45882783885597
 30
0.0
 11
-154.9744492633124
 21
42.36865970868649
 31
0.0
1001
DBPROPERTIES
1002
{
1000
PbHidd
1002
}
  0
LINE
  5
246
330
1F
100
AcDbEntity
  8
HIDDEN
100
AcDbLine
 10
-154.9744492633124
 20
42.36865970868649
 30
0.0
 11
-155.0409409345122
 21
41.28506255441922
 31
0.0
1001
DBPROPERTIES
1002
{
1000
PbHidd
1002
}
  0
LINE
  5
247
330
1F
100
AcDbEntity
  8
HIDDEN
100
AcDbLine
 10
-155.0409409345122
 20
41.28506255441922
 30
0.0
 11
-155.0964337597451
 21
40.2090175892952
 31
0.0
1001
DBPROPERTIES
1002
{
1000
PbHidd
1002
}
  0
LINE
  5
248
330
1F
100
AcDbEntity
  8
HIDDEN
100
AcDbLine
 10
-155.0964337597451
 20
40.2090175892952
 30
0.0
 11
-155.1412260922987
 21
39.14151324299694
 31
0.0
1001
DBPROPERTIES
1002
{
1000
PbHidd
1002
}
  0
LINE
  5
249
330
1F
100
AcDbEntity
  8
HIDDEN
100
AcDbLine
 10
-155.1412260922987
 20
39.14151324299694
 30
0.0
 11
-155.1755860417653
 21
38.08353382591371
 31
0.0
1001
DBPROPERTIES
1002
{
1000
PbHidd
1002
}
  0
LINE
  5
24A
330
1F
100
AcDbEntity
  8
HIDDEN
100
AcDbLine
 10
-155.1755860417653
 20
38.08353382591371
 30
0.0
 11
-155.1997836250862
 21
37.03606075776314
 31
0.0
1001
DBPROPERTIES
1002
{
1000
PbHidd
1002
}
  0
LINE
  5
24B
330
1F
100
AcDbEntity
  8
HIDDEN
100
AcDbLine
 10
-155.1997836250862
 20
37.03606075776314
 30
0.0
 11
-155.2141039810498
 21
36.00007896324527
 31
0.0
1001
DBPROPERTIES
1002
{
1000
PbHidd
1002
}
  0
LINE
  5
24C
330
1F
100
AcDbEntity
  8
HIDDEN
100
AcDbLine
 10
-155.2141039810498
 20
36.00007896324527
 30
0.0
 11
-155.218802958424
 21
34.97656738947799
 31
0.0
1001
DBPROPERTIES
1002
{
1000
PbHidd
1002
}
  0
ELLIPSE
  5
24D
330
1F
100
AcDbEntity
  8
HIDDEN
100
AcDbEllipse
 10
-155.7893098867827
 20
44.97249999999998
 30
0.0
 11
-20.0
 21
-1.224606353822377E-15
 31
0.0
210
0.0
220
0.0
230
1.0
 40
0.4999999999999999
 41
1.047197551196598
 42
1.599325297170339
1001
DBPROPERTIES
1002
{
1000
PbHidd
1002
}
  0
ELLIPSE
  5
24E
330
1F
100
AcDbEntity
  8
HIDDEN
100
AcDbEllipse
 10
-19.1552351700542
 20
-8.118920272732064
 30
0.0
 11
-124.5085816319502
 21
143.7701262432499
 31
0.0
210
0.0
220
0.0
230
1.0
 40
0.75
 41
1.161738264597627
 42
2.284520705739662
1001
DBPROPERTIES
1002
{
1000
PbHidd
1002
}
  0
ELLIPSE
  5
24F
330
1F
100
AcDbEntity
  8
HIDDEN
100
AcDbEllipse
 10
4.484764829945806
 20
12.35392027273206
 30
0.0
 11
124.5085816319502
 21
-143.7701262432499
 31
0.0
210
0.0
220
0.0
230
1.0
 40
0.75
 41
-1.979854388992171
 42
-0.8570719478501307
1001
DBPROPERTIES
1002
{
1000
PbHidd
1002
}
  0
LINE
  5
250
330
1F
100
AcDbEntity
  8
HIDDEN
100
AcDbLine
 10
-164.8589175769631
 20
55.8879930000544
 30
0.0
 11
-164.844742863497
 21
54.26115657985225
 31
0.0
1001
DBPROPERTIES
1002
{
1000
PbHidd
1002
}
  0
LINE
  5
251
330
1F
100
AcDbEntity
  8
HIDDEN
100
AcDbLine
 10
-164.844742863497
 20
54.26115657985225
 30
0.0
 11
-164.8021661389859
 21
52.63432334843709
 31
0.0
1001
DBPROPERTIES
1002
{
1000
PbHidd
1002
}
  0
LINE
  5
252
330
1F
100
AcDbEntity
  8
HIDDEN
100
AcDbLine
 10
-164.8021661389859
 20
52.63432334843709
 30
0.0
 11
-164.7310278097552
 21
51.0079336938264
 31
0.0
1001
DBPROPERTIES
1002
{
1000
PbHidd
1002
}
  0
LINE
  5
253
330
1F
100
AcDbEntity
  8
HIDDEN
100
AcDbLine
 10
-164.7310278097552
 20
51.0079336938264
 30
0.0
 11
-164.6312723646563
 21
49.38242694094184
 31
0.0
1001
DBPROPERTIES
1002
{
1000
PbHidd
1002
}
  0
LINE
  5
254
330
1F
100
AcDbEntity
  8
HIDDEN
100
AcDbLine
 10
-164.6312723646563
 20
49.38242694094184
 30
0.0
 11
-164.5029983818714
 21
47.75803286148601
 31
0.0
1001
DBPROPERTIES
1002
{
1000
PbHidd
1002
}
  0
LINE
  5
255
330
1F
100
AcDbEntity
  8
HIDDEN
100
AcDbLine
 10
-164.5029983818714
 20
47.75803286148601
 30
0.0
 11
-164.3464919686115
 21
46.13490149650163
 31
0.0
1001
DBPROPERTIES
1002
{
1000
PbHidd
1002
}
  0
LINE
  5
256
330
1F
100
AcDbEntity
  8
HIDDEN
100
AcDbLine
 10
-164.3464919686115
 20
46.13490149650163
 30
0.0
 11
-164.1620175714611
 21
44.51316823743434
 31
0.0
1001
DBPROPERTIES
1002
{
1000
PbHidd
1002
}
  0
LINE
  5
257
330
1F
100
AcDbEntity
  8
HIDDEN
100
AcDbLine
 10
-164.1620175714611
 20
44.51316823743434
 30
0.0
 11
-163.9499881363151
 21
42.89282950677642
 31
0.0
1001
DBPROPERTIES
1002
{
1000
PbHidd
1002
}
  0
LINE
  5
258
330
1F
100
AcDbEntity
  8
HIDDEN
100
AcDbLine
 10
-163.9499881363151
 20
42.89282950677642
 30
0.0
 11
-163.7109428339741
 21
41.27378436820982
 31
0.0
1001
DBPROPERTIES
1002
{
1000
PbHidd
1002
}
  0
LINE
  5
259
330
1F
100
AcDbEntity
  8
HIDDEN
100
AcDbLine
 10
-163.7109428339741
 20
41.27378436820982
 30
0.0
 11
-163.4454236962613
 21
39.65593188541647
 31
0.0
1001
DBPROPERTIES
1002
{
1000
PbHidd
1002
}
  0
LINE
  5
25A
330
1F
100
AcDbEntity
  8
HIDDEN
100
AcDbLine
 10
-163.4454236962613
 20
39.65593188541647
 30
0.0
 11
-163.1540454372025
 21
38.03912795824246
 31
0.0
1001
DBPROPERTIES
1002
{
1000
PbHidd
1002
}
  0
LINE
  5
25B
330
1F
100
AcDbEntity
  8
HIDDEN
100
AcDbLine
 10
-163.1540454372025
 20
38.03912795824246
 30
0.0
 11
-162.8374976342572
 21
36.42314878658702
 31
0.0
1001
DBPROPERTIES
1002
{
1000
PbHidd
1002
}
  0
LINE
  5
25C
330
1F
100
AcDbEntity
  8
HIDDEN
100
AcDbLine
 10
-162.8374976342572
 20
36.42314878658702
 30
0.0
 11
-162.4965133230789
 21
34.80777540719171
 31
0.0
1001
DBPROPERTIES
1002
{
1000
PbHidd
1002
}
  0
LINE
  5
25D
330
1F
100
AcDbEntity
  8
HIDDEN
100
AcDbLine
 10
-162.4965133230789
 20
34.80777540719171
 30
0.0
 11
-162.1317831717429
 21
33.19272982498121
 31
0.0
1001
DBPROPERTIES
1002
{
1000
PbHidd
1002
}
  0
LINE
  5
25E
330
1F
100
AcDbEntity
  8
HIDDEN
100
AcDbLine
 10
-162.1317831717429
 20
33.19272982498121
 30
0.0
 11
-161.744054181122
 21
31.57767817761795
 31
0.0
1001
DBPROPERTIES
1002
{
1000
PbHidd
1002
}
  0
LINE
  5
25F
330
1F
100
AcDbEntity
  8
HIDDEN
100
AcDbLine
 10
-161.744054181122
 20
31.57767817761795
 30
0.0
 11
-161.3341157196671
 21
29.96236545632965
 31
0.0
1001
DBPROPERTIES
1002
{
1000
PbHidd
1002
}
  0
LINE
  5
260
330
1F
100
AcDbEntity
  8
HIDDEN
100
AcDbLine
 10
-161.3341157196671
 20
29.96236545632965
 30
0.0
 11
-160.9027269121342
 21
28.34652571932475
 31
0.0
1001
DBPROPERTIES
1002
{
1000
PbHidd
1002
}
  0
LINE
  5
261
330
1F
100
AcDbEntity
  8
HIDDEN
100
AcDbLine
 10
-160.9027269121342
 20
28.34652571932475
 30
0.0
 11
-160.4506761732999
 21
26.72990643554952
 31
0.0
1001
DBPROPERTIES
1002
{
1000
PbHidd
1002
}
  0
LINE
  5
262
330
1F
100
AcDbEntity
  8
HIDDEN
100
AcDbLine
 10
-160.4506761732999
 20
26.72990643554952
 30
0.0
 11
-159.9787103670955
 21
25.11223702260897
 31
0.0
1001
DBPROPERTIES
1002
{
1000
PbHidd
1002
}
  0
LINE
  5
263
330
1F
100
AcDbEntity
  8
HIDDEN
100
AcDbLine
 10
-159.9787103670955
 20
25.11223702260897
 30
0.0
 11
-159.4876179082976
 21
23.49326164582463
 31
0.0
1001
DBPROPERTIES
1002
{
1000
PbHidd
1002
}
  0
LINE
  5
264
330
1F
100
AcDbEntity
  8
HIDDEN
100
AcDbLine
 10
-159.4876179082976
 20
23.49326164582463
 30
0.0
 11
-158.9781700455454
 21
21.87273603320462
 31
0.0
1001
DBPROPERTIES
1002
{
1000
PbHidd
1002
}
  0
LINE
  5
265
330
1F
100
AcDbEntity
  8
HIDDEN
100
AcDbLine
 10
-158.9781700455454
 20
21.87273603320462
 30
0.0
 11
-158.4511425170505
 21
20.25056917552308
 31
0.0
1001
DBPROPERTIES
1002
{
1000
PbHidd
1002
}
  0
LINE
  5
266
330
1F
100
AcDbEntity
  8
HIDDEN
100
AcDbLine
 10
-158.4511425170505
 20
20.25056917552308
 30
0.0
 11
-157.9073038522865
 21
18.62638717446783
 31
0.0
1001
DBPROPERTIES
1002
{
1000
PbHidd
1002
}
  0
LINE
  5
267
330
1F
100
AcDbEntity
  8
HIDDEN
100
AcDbLine
 10
-157.9073038522865
 20
18.62638717446783
 30
0.0
 11
-157.3474011743195
 21
17.00023722102883
 31
0.0
1001
DBPROPERTIES
1002
{
1000
PbHidd
1002
}
  0
LINE
  5
268
330
1F
100
AcDbEntity
  8
HIDDEN
100
AcDbLine
 10
-157.3474011743195
 20
17.00023722102883
 30
0.0
 11
-156.7722094095445
 21
15.3718937242228
 31
0.0
1001
DBPROPERTIES
1002
{
1000
PbHidd
1002
}
  0
LINE
  5
269
330
1F
100
AcDbEntity
  8
HIDDEN
100
AcDbLine
 10
-156.7722094095445
 20
15.3718937242228
 30
0.0
 11
-156.182499121893
 21
13.74119920985137
 31
0.0
1001
DBPROPERTIES
1002
{
1000
PbHidd
1002
}
  0
LINE
  5
26A
330
1F
100
AcDbEntity
  8
HIDDEN
100
AcDbLine
 10
-156.182499121893
 20
13.74119920985137
 30
0.0
 11
-155.5790171703804
 21
12.10799817036216
 31
0.0
1001
DBPROPERTIES
1002
{
1000
PbHidd
1002
}
  0
LINE
  5
26B
330
1F
100
AcDbEntity
  8
HIDDEN
100
AcDbLine
 10
-155.5790171703804
 20
12.10799817036216
 30
0.0
 11
-154.9625230807548
 21
10.47218390431182
 31
0.0
1001
DBPROPERTIES
1002
{
1000
PbHidd
1002
}
  0
LINE
  5
26C
330
1F
100
AcDbEntity
  8
HIDDEN
100
AcDbLine
 10
-154.9625230807548
 20
10.47218390431182
 30
0.0
 11
-154.3337706567189
 21
8.83364805844461
 31
0.0
1001
DBPROPERTIES
1002
{
1000
PbHidd
1002
}
  0
LINE
  5
26D
330
1F
100
AcDbEntity
  8
HIDDEN
100
AcDbLine
 10
-154.3337706567189
 20
8.83364805844461
 30
0.0
 11
-153.6935259627995
 21
7.192296830982459
 31
0.0
1001
DBPROPERTIES
1002
{
1000
PbHidd
1002
}
  0
LINE
  5
26E
330
1F
100
AcDbEntity
  8
HIDDEN
100
AcDbLine
 10
-153.6935259627995
 20
7.192296830982459
 30
0.0
 11
-153.0425560171982
 21
5.548025683366893
 31
0.0
1001
DBPROPERTIES
1002
{
1000
PbHidd
1002
}
  0
LINE
  5
26F
330
1F
100
AcDbEntity
  8
HIDDEN
100
AcDbLine
 10
-153.0425560171982
 20
5.548025683366893
 30
0.0
 11
-152.3816278381162
 21
3.900730077039444
 31
0.0
1001
DBPROPERTIES
1002
{
1000
PbHidd
1002
}
  0
LINE
  5
270
330
1F
100
AcDbEntity
  8
HIDDEN
100
AcDbLine
 10
-152.3816278381162
 20
3.900730077039444
 30
0.0
 11
-151.7114933219073
 21
2.250313221430963
 31
0.0
1001
DBPROPERTIES
1002
{
1000
PbHidd
1002
}
  0
LINE
  5
271
330
1F
100
AcDbEntity
  8
HIDDEN
100
AcDbLine
 10
-151.7114933219073
 20
2.250313221430963
 30
0.0
 11
-151.0329239812617
 21
0.5967005068445008
 31
0.0
1001
DBPROPERTIES
1002
{
1000
PbHidd
1002
}
  0
LINE
  5
272
330
1F
100
AcDbEntity
  8
HIDDEN
100
AcDbLine
 10
-151.0329239812617
 20
0.5967005068445008
 30
0.0
 11
-150.3467527699339
 21
-1.060201279781406
 31
0.0
1001
DBPROPERTIES
1002
{
1000
PbHidd
1002
}
  0
LINE
  5
273
330
1F
100
AcDbEntity
  8
HIDDEN
100
AcDbLine
 10
-150.3467527699339
 20
-1.060201279781406
 30
0.0
 11
-149.6537892106452
 21
-2.720510836005175
 31
0.0
1001
DBPROPERTIES
1002
{
1000
PbHidd
1002
}
  0
LINE
  5
274
330
1F
100
AcDbEntity
  8
HIDDEN
100
AcDbLine
 10
-149.6537892106452
 20
-2.720510836005175
 30
0.0
 11
-148.9548824696136
 21
-4.384318897169717
 31
0.0
1001
DBPROPERTIES
1002
{
1000
PbHidd
1002
}
  0
LINE
  5
275
330
1F
100
AcDbEntity
  8
HIDDEN
100
AcDbLine
 10
-148.9548824696136
 20
-4.384318897169717
 30
0.0
 11
-148.2508826667316
 21
-6.051750060771527
 31
0.0
1001
DBPROPERTIES
1002
{
1000
PbHidd
1002
}
  0
LINE
  5
276
330
1F
100
AcDbEntity
  8
HIDDEN
100
AcDbLine
 10
-148.2508826667316
 20
-6.051750060771527
 30
0.0
 11
-147.5426096781963
 21
-7.722900213829494
 31
0.0
1001
DBPROPERTIES
1002
{
1000
PbHidd
1002
}
  0
LINE
  5
277
330
1F
100
AcDbEntity
  8
HIDDEN
100
AcDbLine
 10
-147.5426096781963
 20
-7.722900213829494
 30
0.0
 11
-146.8309192090047
 21
-9.397857102895447
 31
0.0
1001
DBPROPERTIES
1002
{
1000
PbHidd
1002
}
  0
LINE
  5
278
330
1F
100
AcDbEntity
  8
HIDDEN
100
AcDbLine
 10
-146.8309192090047
 20
-9.397857102895447
 30
0.0
 11
-146.1167143739863
 21
-11.0767058005638
 31
0.0
1001
DBPROPERTIES
1002
{
1000
PbHidd
1002
}
  0
LINE
  5
279
330
1F
100
AcDbEntity
  8
HIDDEN
100
AcDbLine
 10
-146.1167143739863
 20
-11.0767058005638
 30
0.0
 11
-145.4010003311228
 21
-12.75968582388554
 31
0.0
1001
DBPROPERTIES
1002
{
1000
PbHidd
1002
}
  0
LINE
  5
27A
330
1F
100
AcDbEntity
  8
HIDDEN
100
AcDbLine
 10
-145.4010003311228
 20
-12.75968582388554
 30
0.0
 11
-144.6848078506607
 21
-14.44707664824221
 31
0.0
1001
DBPROPERTIES
1002
{
1000
PbHidd
1002
}
  0
LINE
  5
27B
330
1F
100
AcDbEntity
  8
HIDDEN
100
AcDbLine
 10
-144.6848078506607
 20
-14.44707664824221
 30
0.0
 11
-143.9691535346735
 21
-16.13915413055695
 31
0.0
1001
DBPROPERTIES
1002
{
1000
PbHidd
1002
}
  0
LINE
  5
27C
330
1F
100
AcDbEntity
  8
HIDDEN
100
AcDbLine
 10
-168.5918143675859
 20
52.65520588756025
 30
0.0
 11
-164.8589143344242
 21
55.88799214606606
 31
0.0
1001
DBPROPERTIES
1002
{
1000
PbHidd
1002
}
  0
LINE
  5
27D
330
1F
100
AcDbEntity
  8
HIDDEN
100
AcDbLine
 10
-168.585960577835
 20
51.79161390601005
 30
0.0
 11
-168.587726915747
 21
51.93530474114906
 31
0.0
1001
DBPROPERTIES
1002
{
1000
PbHidd
1002
}
  0
LINE
  5
27E
330
1F
100
AcDbEntity
  8
HIDDEN
100
AcDbLine
 10
-168.587726915747
 20
51.93530474114906
 30
0.0
 11
-168.5892130507318
 21
52.07905545405575
 31
0.0
1001
DBPROPERTIES
1002
{
1000
PbHidd
1002
}
  0
LINE
  5
27F
330
1F
100
AcDbEntity
  8
HIDDEN
100
AcDbLine
 10
-168.5892130507318
 20
52.07905545405575
 30
0.0
 11
-168.5903568570174
 21
52.22293637068481
 31
0.0
1001
DBPROPERTIES
1002
{
1000
PbHidd
1002
}
  0
LINE
  5
280
330
1F
100
AcDbEntity
  8
HIDDEN
100
AcDbLine
 10
-168.5903568570174
 20
52.22293637068481
 30
0.0
 11
-168.5911646704282
 21
52.36692607421345
 31
0.0
1001
DBPROPERTIES
1002
{
1000
PbHidd
1002
}
  0
LINE
  5
281
330
1F
100
AcDbEntity
  8
HIDDEN
100
AcDbLine
 10
-168.5911646704282
 20
52.36692607421345
 30
0.0
 11
-168.5916510344976
 21
52.51101162114315
 31
0.0
1001
DBPROPERTIES
1002
{
1000
PbHidd
1002
}
  0
LINE
  5
282
330
1F
100
AcDbEntity
  8
HIDDEN
100
AcDbLine
 10
-168.5916510344976
 20
52.51101162114315
 30
0.0
 11
-168.5918174812142
 21
52.65520685318845
 31
0.0
1001
DBPROPERTIES
1002
{
1000
PbHidd
1002
}
  0
LINE
  5
283
330
1F
100
AcDbEntity
  8
HIDDEN
100
AcDbLine
 10
-175.4986931001143
 20
45.80501907238048
 30
0.0
 11
-168.5859668250816
 21
51.79161563596694
 31
0.0
1001
DBPROPERTIES
1002
{
1000
PbHidd
1002
}
  0
LINE
  5
284
330
1F
100
AcDbEntity
  8
HIDDEN
100
AcDbLine
 10
-175.4974022933785
 20
46.67479497786617
 30
0.0
 11
-175.4974354030126
 21
46.53042692495168
 31
0.0
1001
DBPROPERTIES
1002
{
1000
PbHidd
1002
}
  0
LINE
  5
285
330
1F
100
AcDbEntity
  8
HIDDEN
100
AcDbLine
 10
-175.4974354030126
 20
46.53042692495168
 30
0.0
 11
-175.4975477079953
 21
46.38582286379523
 31
0.0
1001
DBPROPERTIES
1002
{
1000
PbHidd
1002
}
  0
LINE
  5
286
330
1F
100
AcDbEntity
  8
HIDDEN
100
AcDbLine
 10
-175.4975477079953
 20
46.38582286379523
 30
0.0
 11
-175.4977264706648
 21
46.24097881193742
 31
0.0
1001
DBPROPERTIES
1002
{
1000
PbHidd
1002
}
  0
LINE
  5
287
330
1F
100
AcDbEntity
  8
HIDDEN
100
AcDbLine
 10
-175.4977264706648
 20
46.24097881193742
 30
0.0
 11
-175.4979716910211
 21
46.09589496294997
 31
0.0
1001
DBPROPERTIES
1002
{
1000
PbHidd
1002
}
  0
LINE
  5
288
330
1F
100
AcDbEntity
  8
HIDDEN
100
AcDbLine
 10
-175.4979716910211
 20
46.09589496294997
 30
0.0
 11
-175.498296106726
 21
45.95057575095981
 31
0.0
1001
DBPROPERTIES
1002
{
1000
PbHidd
1002
}
  0
LINE
  5
289
330
1F
100
AcDbEntity
  8
HIDDEN
100
AcDbLine
 10
-175.498296106726
 20
45.95057575095981
 30
0.0
 11
-175.4986869801178
 21
45.80501723222181
 31
0.0
1001
DBPROPERTIES
1002
{
1000
PbHidd
1002
}
  0
LINE
  5
28A
330
1F
100
AcDbEntity
  8
HIDDEN
100
AcDbLine
 10
-179.2302990972089
 20
43.44200785393389
 30
0.0
 11
-175.4973990640472
 21
46.67479411243971
 31
0.0
1001
DBPROPERTIES
1002
{
1000
PbHidd
1002
}
  0
LINE
  5
28B
330
1F
100
AcDbEntity
  8
HIDDEN
100
AcDbLine
 10
-167.6093090530269
 20
-36.61211205578669
 30
0.0
 11
-168.3109865921158
 21
-34.90794763269416
 31
0.0
1001
DBPROPERTIES
1002
{
1000
PbHidd
1002
}
  0
LINE
  5
28C
330
1F
100
AcDbEntity
  8
HIDDEN
100
AcDbLine
 10
-168.3109865921158
 20
-34.90794763269416
 30
0.0
 11
-168.9856465560983
 21
-33.18458859398316
 31
0.0
1001
DBPROPERTIES
1002
{
1000
PbHidd
1002
}
  0
LINE
  5
28D
330
1F
100
AcDbEntity
  8
HIDDEN
100
AcDbLine
 10
-168.9856465560983
 20
-33.18458859398316
 30
0.0
 11
-169.6338538088007
 21
-31.44314597545392
 31
0.0
1001
DBPROPERTIES
1002
{
1000
PbHidd
1002
}
  0
LINE
  5
28E
330
1F
100
AcDbEntity
  8
HIDDEN
100
AcDbLine
 10
-169.6338538088007
 20
-31.44314597545392
 30
0.0
 11
-170.2560576825154
 21
-29.68462210812397
 31
0.0
1001
DBPROPERTIES
1002
{
1000
PbHidd
1002
}
  0
LINE
  5
28F
330
1F
100
AcDbEntity
  8
HIDDEN
100
AcDbLine
 10
-170.2560576825154
 20
-29.68462210812397
 30
0.0
 11
-170.8527083262676
 21
-27.91003780778052
 31
0.0
1001
DBPROPERTIES
1002
{
1000
PbHidd
1002
}
  0
LINE
  5
290
330
1F
100
AcDbEntity
  8
HIDDEN
100
AcDbLine
 10
-170.8527083262676
 20
-27.91003780778052
 30
0.0
 11
-171.4241538459308
 21
-26.12039159074382
 31
0.0
1001
DBPROPERTIES
1002
{
1000
PbHidd
1002
}
  0
LINE
  5
291
330
1F
100
AcDbEntity
  8
HIDDEN
100
AcDbLine
 10
-171.4241538459308
 20
-26.12039159074382
 30
0.0
 11
-171.9707477955413
 21
-24.31664295950454
 31
0.0
1001
DBPROPERTIES
1002
{
1000
PbHidd
1002
}
  0
LINE
  5
292
330
1F
100
AcDbEntity
  8
HIDDEN
100
AcDbLine
 10
-171.9707477955413
 20
-24.31664295950454
 30
0.0
 11
-172.4928871873297
 21
-22.49974988333578
 31
0.0
1001
DBPROPERTIES
1002
{
1000
PbHidd
1002
}
  0
LINE
  5
293
330
1F
100
AcDbEntity
  8
HIDDEN
100
AcDbLine
 10
-172.4928871873297
 20
-22.49974988333578
 30
0.0
 11
-172.9909464192259
 21
-20.67064822828252
 31
0.0
1001
DBPROPERTIES
1002
{
1000
PbHidd
1002
}
  0
LINE
  5
294
330
1F
100
AcDbEntity
  8
HIDDEN
100
AcDbLine
 10
-172.9909464192259
 20
-20.67064822828252
 30
0.0
 11
-173.4652989354853
 21
-18.83030607073094
 31
0.0
1001
DBPROPERTIES
1002
{
1000
PbHidd
1002
}
  0
LINE
  5
295
330
1F
100
AcDbEntity
  8
HIDDEN
100
AcDbLine
 10
-173.4652989354853
 20
-18.83030607073094
 30
0.0
 11
-173.9163578238605
 21
-16.97966352485174
 31
0.0
1001
DBPROPERTIES
1002
{
1000
PbHidd
1002
}
  0
LINE
  5
296
330
1F
100
AcDbEntity
  8
HIDDEN
100
AcDbLine
 10
-173.9163578238605
 20
-16.97966352485174
 30
0.0
 11
-174.3444803161435
 21
-15.11965810850224
 31
0.0
1001
DBPROPERTIES
1002
{
1000
PbHidd
1002
}
  0
LINE
  5
297
330
1F
100
AcDbEntity
  8
HIDDEN
100
AcDbLine
 10
-174.3444803161435
 20
-15.11965810850224
 30
0.0
 11
-174.7500679190536
 21
-13.25123107659299
 31
0.0
1001
DBPROPERTIES
1002
{
1000
PbHidd
1002
}
  0
LINE
  5
298
330
1F
100
AcDbEntity
  8
HIDDEN
100
AcDbLine
 10
-174.7500679190536
 20
-13.25123107659299
 30
0.0
 11
-175.1335818099675
 21
-11.37533619122209
 31
0.0
1001
DBPROPERTIES
1002
{
1000
PbHidd
1002
}
  0
LINE
  5
299
330
1F
100
AcDbEntity
  8
HIDDEN
100
AcDbLine
 10
-175.1335818099675
 20
-11.37533619122209
 30
0.0
 11
-175.4954718591114
 21
-9.492922770123059
 31
0.0
1001
DBPROPERTIES
1002
{
1000
PbHidd
1002
}
  0
LINE
  5
29A
330
1F
100
AcDbEntity
  8
HIDDEN
100
AcDbLine
 10
-175.4954718591114
 20
-9.492922770123059
 30
0.0
 11
-175.8361879367119
 21
-7.604940131029409
 31
0.0
1001
DBPROPERTIES
1002
{
1000
PbHidd
1002
}
  0
LINE
  5
29B
330
1F
100
AcDbEntity
  8
HIDDEN
100
AcDbLine
 10
-175.8361879367119
 20
-7.604940131029409
 30
0.0
 11
-176.1561789593208
 21
-5.71234667664269
 31
0.0
1001
DBPROPERTIES
1002
{
1000
PbHidd
1002
}
  0
LINE
  5
29C
330
1F
100
AcDbEntity
  8
HIDDEN
100
AcDbLine
 10
-176.1561789593208
 20
-5.71234667664269
 30
0.0
 11
-176.4559080116635
 21
-3.816087909999162
 31
0.0
1001
DBPROPERTIES
1002
{
1000
PbHidd
1002
}
  0
LINE
  5
29D
330
1F
100
AcDbEntity
  8
HIDDEN
100
AcDbLine
 10
-176.4559080116635
 20
-3.816087909999162
 30
0.0
 11
-176.7358439005113
 21
-1.917120896821659
 31
0.0
1001
DBPROPERTIES
1002
{
1000
PbHidd
1002
}
  0
LINE
  5
29E
330
1F
100
AcDbEntity
  8
HIDDEN
100
AcDbLine
 10
-176.7358439005113
 20
-1.917120896821659
 30
0.0
 11
-176.9965749108918
 21
-0.0164463982167486
 31
0.0
1001
DBPROPERTIES
1002
{
1000
PbHidd
1002
}
  0
LINE
  5
29F
330
1F
100
AcDbEntity
  8
HIDDEN
100
AcDbLine
 10
-176.9965749108918
 20
-0.0164463982167486
 30
0.0
 11
-177.2386866037513
 21
1.884918621418965
 31
0.0
1001
DBPROPERTIES
1002
{
1000
PbHidd
1002
}
  0
LINE
  5
2A0
330
1F
100
AcDbEntity
  8
HIDDEN
100
AcDbLine
 10
-177.2386866037513
 20
1.884918621418965
 30
0.0
 11
-177.462874618491
 21
3.785926205731569
 31
0.0
1001
DBPROPERTIES
1002
{
1000
PbHidd
1002
}
  0
LINE
  5
2A1
330
1F
100
AcDbEntity
  8
HIDDEN
100
AcDbLine
 10
-177.462874618491
 20
3.785926205731569
 30
0.0
 11
-177.6694103562143
 21
5.685647095925574
 31
0.0
1001
DBPROPERTIES
1002
{
1000
PbHidd
1002
}
  0
LINE
  5
2A2
330
1F
100
AcDbEntity
  8
HIDDEN
100
AcDbLine
 10
-177.6694103562143
 20
5.685647095925574
 30
0.0
 11
-177.8592209203826
 21
7.582986729116346
 31
0.0
1001
DBPROPERTIES
1002
{
1000
PbHidd
1002
}
  0
LINE
  5
2A3
330
1F
100
AcDbEntity
  8
HIDDEN
100
AcDbLine
 10
-177.8592209203826
 20
7.582986729116346
 30
0.0
 11
-178.0327913302302
 21
9.476944266553247
 31
0.0
1001
DBPROPERTIES
1002
{
1000
PbHidd
1002
}
  0
LINE
  5
2A4
330
1F
100
AcDbEntity
  8
HIDDEN
100
AcDbLine
 10
-178.0327913302302
 20
9.476944266553247
 30
0.0
 11
-178.1908399764005
 21
11.36647391476726
 31
0.0
1001
DBPROPERTIES
1002
{
1000
PbHidd
1002
}
  0
LINE
  5
2A5
330
1F
100
AcDbEntity
  8
HIDDEN
100
AcDbLine
 10
-178.1908399764005
 20
11.36647391476726
 30
0.0
 11
-178.3341024156742
 21
13.25051171035332
 31
0.0
1001
DBPROPERTIES
1002
{
1000
PbHidd
1002
}
  0
LINE
  5
2A6
330
1F
100
AcDbEntity
  8
HIDDEN
100
AcDbLine
 10
-178.3341024156742
 20
13.25051171035332
 30
0.0
 11
-178.4633519409806
 21
15.12801174124762
 31
0.0
1001
DBPROPERTIES
1002
{
1000
PbHidd
1002
}
  0
LINE
  5
2A7
330
1F
100
AcDbEntity
  8
HIDDEN
100
AcDbLine
 10
-178.4633519409806
 20
15.12801174124762
 30
0.0
 11
-178.5793241091005
 21
16.99790674042034
 31
0.0
1001
DBPROPERTIES
1002
{
1000
PbHidd
1002
}
  0
LINE
  5
2A8
330
1F
100
AcDbEntity
  8
HIDDEN
100
AcDbLine
 10
-178.5793241091005
 20
16.99790674042034
 30
0.0
 11
-178.6827780447898
 21
18.85914780701662
 31
0.0
1001
DBPROPERTIES
1002
{
1000
PbHidd
1002
}
  0
LINE
  5
2A9
330
1F
100
AcDbEntity
  8
HIDDEN
100
AcDbLine
 10
-178.6827780447898
 20
18.85914780701662
 30
0.0
 11
-178.7744502585037
 21
20.71066849991281
 31
0.0
1001
DBPROPERTIES
1002
{
1000
PbHidd
1002
}
  0
LINE
  5
2AA
330
1F
100
AcDbEntity
  8
HIDDEN
100
AcDbLine
 10
-178.7744502585037
 20
20.71066849991281
 30
0.0
 11
-178.8551406091107
 21
22.55146306161453
 31
0.0
1001
DBPROPERTIES
1002
{
1000
PbHidd
1002
}
  0
LINE
  5
2AB
330
1F
100
AcDbEntity
  8
HIDDEN
100
AcDbLine
 10
-178.8551406091107
 20
22.55146306161453
 30
0.0
 11
-178.9256661876298
 21
24.38050207770631
 31
0.0
1001
DBPROPERTIES
1002
{
1000
PbHidd
1002
}
  0
LINE
  5
2AC
330
1F
100
AcDbEntity
  8
HIDDEN
100
AcDbLine
 10
-178.9256661876298
 20
24.38050207770631
 30
0.0
 11
-178.9868036248502
 21
26.19670205739293
 31
0.0
1001
DBPROPERTIES
1002
{
1000
PbHidd
1002
}
  0
LINE
  5
2AD
330
1F
100
AcDbEntity
  8
HIDDEN
100
AcDbLine
 10
-178.9868036248502
 20
26.19670205739293
 30
0.0
 11
-179.0393310480854
 21
27.99901077571943
 31
0.0
1001
DBPROPERTIES
1002
{
1000
PbHidd
1002
}
  0
LINE
  5
2AE
330
1F
100
AcDbEntity
  8
HIDDEN
100
AcDbLine
 10
-179.0393310480854
 20
27.99901077571943
 30
0.0
 11
-179.0839746093986
 21
29.78641276055606
 31
0.0
1001
DBPROPERTIES
1002
{
1000
PbHidd
1002
}
  0
LINE
  5
2AF
330
1F
100
AcDbEntity
  8
HIDDEN
100
AcDbLine
 10
-179.0839746093986
 20
29.78641276055606
 30
0.0
 11
-179.1214349146007
 21
31.55793279246189
 31
0.0
1001
DBPROPERTIES
1002
{
1000
PbHidd
1002
}
  0
LINE
  5
2B0
330
1F
100
AcDbEntity
  8
HIDDEN
100
AcDbLine
 10
-179.1214349146007
 20
31.55793279246189
 30
0.0
 11
-179.1524097084797
 21
33.31260060743313
 31
0.0
1001
DBPROPERTIES
1002
{
1000
PbHidd
1002
}
  0
LINE
  5
2B1
330
1F
100
AcDbEntity
  8
HIDDEN
100
AcDbLine
 10
-179.1524097084797
 20
33.31260060743313
 30
0.0
 11
-179.1774969399158
 21
35.04954432242142
 31
0.0
1001
DBPROPERTIES
1002
{
1000
PbHidd
1002
}
  0
LINE
  5
2B2
330
1F
100
AcDbEntity
  8
HIDDEN
100
AcDbLine
 10
-179.1774969399158
 20
35.04954432242142
 30
0.0
 11
-179.1971989164751
 21
36.76796451740844
 31
0.0
1001
DBPROPERTIES
1002
{
1000
PbHidd
1002
}
  0
LINE
  5
2B3
330
1F
100
AcDbEntity
  8
HIDDEN
100
AcDbLine
 10
-179.1971989164751
 20
36.76796451740844
 30
0.0
 11
-179.2119867483538
 21
38.46705538184065
 31
0.0
1001
DBPROPERTIES
1002
{
1000
PbHidd
1002
}
  0
LINE
  5
2B4
330
1F
100
AcDbEntity
  8
HIDDEN
100
AcDbLine
 10
-179.2119867483538
 20
38.46705538184065
 30
0.0
 11
-179.2223025907071
 21
40.14611885520856
 31
0.0
1001
DBPROPERTIES
1002
{
1000
PbHidd
1002
}
  0
LINE
  5
2B5
330
1F
100
AcDbEntity
  8
HIDDEN
100
AcDbLine
 10
-179.2223025907071
 20
40.14611885520856
 30
0.0
 11
-179.2283287933676
 21
41.80460576706789
 31
0.0
1001
DBPROPERTIES
1002
{
1000
PbHidd
1002
}
  0
LINE
  5
2B6
330
1F
100
AcDbEntity
  8
HIDDEN
100
AcDbLine
 10
-179.2283287933676
 20
41.80460576706789
 30
0.0
 11
-179.2303021976296
 21
43.44200883100023
 31
0.0
1001
DBPROPERTIES
1002
{
1000
PbHidd
1002
}
  0
ELLIPSE
  5
2B7
330
1F
100
AcDbEntity
  8
HIDDEN
100
AcDbEllipse
 10
17.15471648731214
 20
8.696420272732064
 30
0.0
 11
114.9309984294925
 21
-132.7108857629999
 31
0.0
210
0.0
220
0.0
230
1.0
 40
0.75
 41
-3.141592263053132
 42
-2.427868274645027
1001
DBPROPERTIES
1002
{
1000
PbHidd
1002
}
  0
ELLIPSE
  5
2B8
330
1F
100
AcDbEntity
  8
HIDDEN
100
AcDbEllipse
 10
17.15471648731214
 20
8.696420272732064
 30
0.0
 11
114.9309984294925
 21
-132.7108857629999
 31
0.0
210
0.0
220
0.0
230
1.0
 40
0.75
 41
2.284520705739662
 42
3.141593044126454
1001
DBPROPERTIES
1002
{
1000
PbHidd
1002
}
  0
ELLIPSE
  5
2B9
330
1F
100
AcDbEntity
  8
HIDDEN
100
AcDbEllipse
 10
-6.48528351268786
 20
-11.77642027273206
 30
0.0
 11
-114.9309984294925
 21
132.7108857629999
 31
0.0
210
0.0
220
0.0
230
1.0
 40
0.75
 41
-0.8570719478501309
 42
0.0000003905366617
1001
DBPROPERTIES
1002
{
1000
PbHidd
1002
}
  0
ELLIPSE
  5
2BA
330
1F
100
AcDbEntity
  8
HIDDEN
100
AcDbEllipse
 10
-6.48528351268786
 20
-11.77642027273206
 30
0.0
 11
-114.9309984294925
 21
132.7108857629999
 31
0.0
210
0.0
220
0.0
230
1.0
 40
0.75
 41
0.0000003905366617
 42
0.713724378944766
1001
DBPROPERTIES
1002
{
1000
PbHidd
1002
}
  0
LINE
  5
2BB
330
1F
100
AcDbEntity
  8
HIDDEN
100
AcDbLine
 10
-155.2188078754253
 20
34.97656923474559
 30
0.0
 11
-158.5247034010839
 21
32.11357972726792
 31
0.0
1001
DBPROPERTIES
1002
{
1000
PbHidd
1002
}
  0
LINE
  5
2BC
330
1F
100
AcDbEntity
  8
HIDDEN
100
AcDbLine
 10
-134.8847034010839
 20
52.58642027273204
 30
0.0
 11
-138.1905989267425
 21
49.72343076525437
 31
0.0
1001
DBPROPERTIES
1002
{
1000
PbHidd
1002
}
  0
ELLIPSE
  5
2BD
330
1F
100
AcDbEntity
  8
THICK
100
AcDbEllipse
 10
3.506599999999999
 20
3.036804680910511
 30
0.0
 11
-9.328814807588673
 21
10.77198748076298
 31
0.0
210
0.0
220
0.0
230
1.0
 40
0.7500000000000001
 41
-2.467878948999016
 42
-2.427868274645027
1001
DBPROPERTIES
1002
{
1000
PbThick
1002
}
  0
ELLIPSE
  5
2BE
330
1F
100
AcDbEntity
  8
THICK
100
AcDbEllipse
 10
2.955000000000001
 20
2.559105068183016
 30
0.0
 11
-9.328814807588675
 21
10.77198748076298
 31
0.0
210
0.0
220
0.0
230
1.0
 40
0.75
 41
0.7137243789447659
 42
3.141551888811564
1001
DBPROPERTIES
1002
{
1000
PbThick
1002
}
  0
ELLIPSE
  5
2BF
330
1F
100
AcDbEntity
  8
THICK
100
AcDbEllipse
 10
2.955000000000001
 20
2.559105068183016
 30
0.0
 11
-9.328814807588675
 21
10.77198748076298
 31
0.0
210
0.0
220
0.0
230
1.0
 40
0.75
 41
3.141551888811564
 42
3.855317032534558
1001
DBPROPERTIES
1002
{
1000
PbThick
1002
}
  0
ELLIPSE
  5
2C0
330
1F
100
AcDbEntity
  8
HIDDEN
100
AcDbEllipse
 10
3.506599999999999
 20
3.036804680910511
 30
0.0
 11
-9.328814807588675
 21
10.77198748076298
 31
0.0
210
0.0
220
0.0
230
1.0
 40
0.75
 41
0.7137243789447658
 42
0.753735053298755
1001
DBPROPERTIES
1002
{
1000
PbHidd
1002
}
  0
LINE
  5
2C1
330
1F
100
AcDbEntity
  8
HIDDEN
100
AcDbLine
 10
-8.824385362086844
 20
6.102819059840463
 30
0.0
 11
-4.450985362086845
 21
9.890294560751327
 31
0.0
1001
DBPROPERTIES
1002
{
1000
PbHidd
1002
}
  0
ELLIPSE
  5
2C2
330
1F
100
AcDbEntity
  8
HIDDEN
100
AcDbEllipse
 10
7.879999999999999
 20
6.824280181821374
 30
0.0
 11
9.328814807588675
 21
-10.77198748076298
 31
0.0
210
0.0
220
0.0
230
1.0
 40
0.75
 41
-2.387857600291036
 42
-1.682480785601568
1001
DBPROPERTIES
1002
{
1000
PbHidd
1002
}
  0
LINE
  5
2C3
330
1F
100
AcDbEntity
  8
HIDDEN
100
AcDbLine
 10
-1.188375656590265
 20
1.071823665146838
 30
0.0
 11
-5.561775656590264
 21
-2.715651835764024
 31
0.0
1001
DBPROPERTIES
1002
{
1000
PbHidd
1002
}
  0
ELLIPSE
  5
2C4
330
1F
100
AcDbEntity
  8
HIDDEN
100
AcDbEllipse
 10
3.506599999999999
 20
3.036804680910511
 30
0.0
 11
-9.328814807588675
 21
10.77198748076298
 31
0.0
210
0.0
220
0.0
230
1.0
 40
0.7499999999999999
 41
1.459111867988225
 42
1.539133216696203
1001
DBPROPERTIES
1002
{
1000
PbHidd
1002
}
  0
LINE
  5
2C5
330
1F
100
AcDbEntity
  8
HIDDEN
100
AcDbLine
 10
-4.863671079897054
 20
-3.6152818450954
 30
0.0
 11
-0.490271079897056
 21
0.1721936558154624
 31
0.0
1001
DBPROPERTIES
1002
{
1000
PbHidd
1002
}
  0
ELLIPSE
  5
2C6
330
1F
100
AcDbEntity
  8
HIDDEN
100
AcDbEllipse
 10
7.879999999999999
 20
6.824280181821374
 30
0.0
 11
9.328814807588675
 21
-10.77198748076298
 31
0.0
210
0.0
220
0.0
230
1.0
 40
0.75
 41
-1.60245943689359
 42
-0.8970826222041189
1001
DBPROPERTIES
1002
{
1000
PbHidd
1002
}
  0
LINE
  5
2C7
330
1F
100
AcDbEntity
  8
HIDDEN
100
AcDbLine
 10
7.38636551984287
 20
-5.364205180265468
 30
0.0
 11
3.01296551984287
 21
-9.15168068117633
 31
0.0
1001
DBPROPERTIES
1002
{
1000
PbHidd
1002
}
  0
ELLIPSE
  5
2C8
330
1F
100
AcDbEntity
  8
HIDDEN
100
AcDbEllipse
 10
3.506599999999999
 20
3.036804680910511
 30
0.0
 11
-9.328814807588673
 21
10.77198748076298
 31
0.0
210
0.0
220
0.0
230
1.0
 40
0.75
 41
2.244510031385674
 42
2.324531380093652
1001
DBPROPERTIES
1002
{
1000
PbHidd
1002
}
  0
LINE
  5
2C9
330
1F
100
AcDbEntity
  8
HIDDEN
100
AcDbLine
 10
4.000234480157131
 20
-9.43668068117633
 30
0.0
 11
8.37363448015713
 21
-5.649205180265469
 31
0.0
1001
DBPROPERTIES
1002
{
1000
PbHidd
1002
}
  0
ELLIPSE
  5
2CA
330
1F
100
AcDbEntity
  8
HIDDEN
100
AcDbEllipse
 10
7.879999999999999
 20
6.824280181821374
 30
0.0
 11
9.328814807588675
 21
-10.77198748076298
 31
0.0
210
0.0
220
0.0
230
1.0
 40
0.75
 41
-0.8170612734961417
 42
-0.1116844588066718
1001
DBPROPERTIES
1002
{
1000
PbHidd
1002
}
  0
LINE
  5
2CB
330
1F
100
AcDbEntity
  8
HIDDEN
100
AcDbLine
 10
16.25027107989706
 20
-4.660384605353251
 30
0.0
 11
11.87687107989706
 21
-8.447860106264113
 31
0.0
1001
DBPROPERTIES
1002
{
1000
PbHidd
1002
}
  0
ELLIPSE
  5
2CC
330
1F
100
AcDbEntity
  8
HIDDEN
100
AcDbEllipse
 10
3.506599999999999
 20
3.036804680910511
 30
0.0
 11
-9.328814807588676
 21
10.77198748076298
 31
0.0
210
0.0
220
0.0
230
1.0
 40
0.75
 41
3.029908194783121
 42
3.1099295434911
1001
DBPROPERTIES
1002
{
1000
PbHidd
1002
}
  0
LINE
  5
2CD
330
1F
100
AcDbEntity
  8
HIDDEN
100
AcDbLine
 10
12.57497565659027
 20
-7.951280962209071
 30
0.0
 11
16.94837565659027
 21
-4.163805461298208
 31
0.0
1001
DBPROPERTIES
1002
{
1000
PbHidd
1002
}
  0
ELLIPSE
  5
2CE
330
1F
100
AcDbEntity
  8
HIDDEN
100
AcDbEllipse
 10
7.879999999999999
 20
6.824280181821374
 30
0.0
 11
9.328814807588675
 21
-10.77198748076298
 31
0.0
210
0.0
220
0.0
230
1.0
 40
0.75
 41
0.1170743027207925
 42
0.6737137045907771
1001
DBPROPERTIES
1002
{
1000
PbHidd
1002
}
  0
ELLIPSE
  5
2CF
330
1F
100
AcDbEntity
  8
THICK
100
AcDbEllipse
 10
7.879999999999999
 20
6.824280181821374
 30
0.0
 11
9.328814807588675
 21
-10.77198748076298
 31
0.0
210
0.0
220
0.0
230
1.0
 40
0.75
 41
-0.0000407647782292
 42
0.1170743027207925
1001
DBPROPERTIES
1002
{
1000
PbThick
1002
}
  0
ELLIPSE
  5
2D0
330
1F
100
AcDbEntity
  8
HIDDEN
100
AcDbEllipse
 10
7.879999999999999
 20
6.824280181821374
 30
0.0
 11
9.328814807588675
 21
-10.77198748076298
 31
0.0
210
0.0
220
0.0
230
1.0
 40
0.75
 41
-0.031663110098693
 42
-0.0000407647782292
1001
DBPROPERTIES
1002
{
1000
PbHidd
1002
}
  0
LINE
  5
2D1
330
1F
100
AcDbEntity
  8
HIDDEN
100
AcDbLine
 10
20.21098536208684
 20
2.770996842577159
 30
0.0
 11
15.83758536208684
 21
-1.016478658333703
 31
0.0
1001
DBPROPERTIES
1002
{
1000
PbHidd
1002
}
  0
ELLIPSE
  5
2D2
330
1F
100
AcDbEntity
  8
HIDDEN
100
AcDbEllipse
 10
11.82
 20
10.23642027273206
 30
0.0
 11
9.328814807588675
 21
-10.77198748076298
 31
0.0
210
0.0
220
0.0
230
1.0
 40
0.75
 41
-0.0000407647782289
 42
0.7137243789447659
1001
DBPROPERTIES
1002
{
1000
PbHidd
1002
}
  0
ELLIPSE
  5
2D3
330
1F
100
AcDbEntity
  8
HIDDEN
100
AcDbEllipse
 10
11.82
 20
10.23642027273206
 30
0.0
 11
9.328814807588675
 21
-10.77198748076298
 31
0.0
210
0.0
220
0.0
230
1.0
 40
0.75
 41
-2.427868274645027
 42
-0.000040764778229
1001
DBPROPERTIES
1002
{
1000
PbHidd
1002
}
  0
ELLIPSE
  5
2D4
330
1F
100
AcDbEntity
  8
HIDDEN
100
AcDbEllipse
 10
9.850000000000001
 20
8.530350227276719
 30
0.0
 11
-9.328814807588675
 21
10.77198748076298
 31
0.0
210
0.0
220
0.0
230
1.0
 40
0.75
 41
0.7137243789447663
 42
3.141551888811564
1001
DBPROPERTIES
1002
{
1000
PbHidd
1002
}
  0
ELLIPSE
  5
2D5
330
1F
100
AcDbEntity
  8
HIDDEN
100
AcDbEllipse
 10
9.850000000000001
 20
8.530350227276719
 30
0.0
 11
-9.328814807588675
 21
10.77198748076298
 31
0.0
210
0.0
220
0.0
230
1.0
 40
0.75
 41
3.141551888811564
 42
3.855317032534559
1001
DBPROPERTIES
1002
{
1000
PbHidd
1002
}
  0
ELLIPSE
  5
2D6
330
1F
100
AcDbEntity
  8
HIDDEN
100
AcDbEllipse
 10
9.850000000000001
 20
8.530350227276719
 30
0.0
 11
-9.328814807588675
 21
10.77198748076298
 31
0.0
210
0.0
220
0.0
230
1.0
 40
0.75
 41
-2.427868274645027
 42
-0.000040764778229
1001
DBPROPERTIES
1002
{
1000
PbHidd
1002
}
  0
ELLIPSE
  5
2D7
330
1F
100
AcDbEntity
  8
HIDDEN
100
AcDbEllipse
 10
9.850000000000001
 20
8.530350227276719
 30
0.0
 11
-9.328814807588675
 21
10.77198748076298
 31
0.0
210
0.0
220
0.0
230
1.0
 40
0.75
 41
-0.0000407647782291
 42
0.7137243789447659
1001
DBPROPERTIES
1002
{
1000
PbHidd
1002
}
  0
ELLIPSE
  5
2D8
330
1F
100
AcDbEntity
  8
HIDDEN
100
AcDbEllipse
 10
11.82
 20
10.23642027273206
 30
0.0
 11
9.328814807588675
 21
-10.77198748076298
 31
0.0
210
0.0
220
0.0
230
1.0
 40
0.75
 41
3.141551888811564
 42
3.855317032534559
1001
DBPROPERTIES
1002
{
1000
PbHidd
1002
}
  0
ELLIPSE
  5
2D9
330
1F
100
AcDbEntity
  8
HIDDEN
100
AcDbEllipse
 10
11.82
 20
10.23642027273206
 30
0.0
 11
9.328814807588675
 21
-10.77198748076298
 31
0.0
210
0.0
220
0.0
230
1.0
 40
0.75
 41
0.7137243789447659
 42
3.141551888811564
1001
DBPROPERTIES
1002
{
1000
PbHidd
1002
}
  0
LINE
  5
2DA
330
1F
100
AcDbEntity
  8
THICK
100
AcDbLine
 10
-4.863671079897057
 20
14.52146946808512
 30
0.0
 11
-5.219707208665068
 21
14.98028437424585
 31
0.0
1001
DBPROPERTIES
1002
{
1000
PbThick
1002
}
  0
LINE
  5
2DB
330
1F
100
AcDbEntity
  8
THICK
100
AcDbLine
 10
-0.4902710798970649
 20
18.30894496899599
 30
0.0
 11
-4.863671079897063
 21
14.52146946808513
 31
0.0
1001
DBPROPERTIES
1002
{
1000
PbThick
1002
}
  0
LINE
  5
2DC
330
1F
100
AcDbEntity
  8
HIDDEN
100
AcDbLine
 10
-62.49910273141902
 20
98.21818444358811
 30
0.0
 11
-13.43336232314293
 21
34.9883848189588
 31
0.0
1001
DBPROPERTIES
1002
{
1000
PbHidd
1002
}
  0
LINE
  5
2DD
330
1F
100
AcDbEntity
  8
THICK
100
AcDbLine
 10
-13.43336232314293
 20
34.9883848189588
 30
0.0
 11
-0.490271079897072
 21
18.30894496899601
 31
0.0
1001
DBPROPERTIES
1002
{
1000
PbThick
1002
}
  0
LINE
  5
2DE
330
1F
100
AcDbEntity
  8
HIDDEN
100
AcDbLine
 10
-60.52910273141905
 20
99.9242544890435
 30
0.0
 11
-62.49910273141905
 21
98.21818444358816
 31
0.0
1001
DBPROPERTIES
1002
{
1000
PbHidd
1002
}
  0
LINE
  5
2DF
330
1F
100
AcDbEntity
  8
HIDDEN
100
AcDbLine
 10
-90.02396384115202
 20
137.9335485994839
 30
0.0
 11
-60.529102731419
 21
99.92425448904342
 31
0.0
1001
DBPROPERTIES
1002
{
1000
PbHidd
1002
}
  0
LINE
  5
2E0
330
1F
100
AcDbEntity
  8
HIDDEN
100
AcDbLine
 10
-101.8045638411521
 20
127.731249727661
 30
0.0
 11
-90.0239638411521
 21
137.933548599484
 31
0.0
1001
DBPROPERTIES
1002
{
1000
PbHidd
1002
}
  0
LINE
  5
2E1
330
1F
100
AcDbEntity
  8
HIDDEN
100
AcDbLine
 10
-44.85067196962048
 20
34.81028917562391
 30
0.0
 11
-101.8045638411521
 21
127.7312497276611
 31
0.0
1001
DBPROPERTIES
1002
{
1000
PbHidd
1002
}
  0
LINE
  5
2E2
330
1F
100
AcDbEntity
  8
THICK
100
AcDbLine
 10
-5.219707208665072
 20
14.98028437424586
 30
0.0
 11
-44.65840797015303
 21
34.71408672242681
 31
0.0
1001
DBPROPERTIES
1002
{
1000
PbThick
1002
}
  0
LINE
  5
2E3
330
1F
100
AcDbEntity
  8
HIDDEN
100
AcDbLine
 10
-44.65840797015303
 20
34.71408672242681
 30
0.0
 11
-44.85067196962044
 21
34.81028917562389
 31
0.0
1001
DBPROPERTIES
1002
{
1000
PbHidd
1002
}
  0
LINE
  5
2E4
330
1F
100
AcDbEntity
  8
THICK
100
AcDbLine
 10
-5.561775656590261
 20
14.02489032403008
 30
0.0
 11
-5.917811785358274
 21
14.48370523019082
 31
0.0
1001
DBPROPERTIES
1002
{
1000
PbThick
1002
}
  0
ELLIPSE
  5
2E5
330
1F
100
AcDbEntity
  8
THICK
100
AcDbEllipse
 10
3.506599999999999
 20
3.036804680910511
 30
0.0
 11
-9.328814807588675
 21
10.77198748076298
 31
0.0
210
0.0
220
0.0
230
1.0
 40
0.75
 41
-0.1116844588066716
 42
-0.0316631100986933
1001
DBPROPERTIES
1002
{
1000
PbThick
1002
}
  0
LINE
  5
2E6
330
1F
100
AcDbEntity
  8
THICK
100
AcDbLine
 10
-5.917811785358278
 20
14.48370523019082
 30
0.0
 11
-5.219707208665074
 21
14.98028437424586
 31
0.0
1001
DBPROPERTIES
1002
{
1000
PbThick
1002
}
  0
LINE
  5
2E7
330
1F
100
AcDbEntity
  8
HIDDEN
100
AcDbLine
 10
-45.54877654631369
 20
34.31371003156886
 30
0.0
 11
-44.85067196962049
 21
34.8102891756239
 31
0.0
1001
DBPROPERTIES
1002
{
1000
PbHidd
1002
}
  0
LINE
  5
2E8
330
1F
100
AcDbEntity
  8
THICK
100
AcDbLine
 10
-5.917811785358278
 20
14.48370523019082
 30
0.0
 11
-45.54790704124466
 21
34.31327496041181
 31
0.0
1001
DBPROPERTIES
1002
{
1000
PbThick
1002
}
  0
LINE
  5
2E9
330
1F
100
AcDbEntity
  8
HIDDEN
100
AcDbLine
 10
-45.54790704124466
 20
34.31327496041181
 30
0.0
 11
-45.54877654631364
 21
34.31371003156884
 31
0.0
1001
DBPROPERTIES
1002
{
1000
PbHidd
1002
}
  0
LINE
  5
2EA
330
1F
100
AcDbEntity
  8
HIDDEN
100
AcDbLine
 10
-102.5026684178453
 20
127.234670583606
 30
0.0
 11
-101.8045638411521
 21
127.731249727661
 31
0.0
1001
DBPROPERTIES
1002
{
1000
PbHidd
1002
}
  0
LINE
  5
2EB
330
1F
100
AcDbEntity
  8
HIDDEN
100
AcDbLine
 10
-45.54877654631369
 20
34.31371003156886
 30
0.0
 11
-102.5026684178453
 21
127.234670583606
 31
0.0
1001
DBPROPERTIES
1002
{
1000
PbHidd
1002
}
  0
LINE
  5
2EC
330
1F
100
AcDbEntity
  8
HIDDEN
100
AcDbLine
 10
-90.72206841784529
 20
137.436969455429
 30
0.0
 11
-90.02396384115208
 21
137.933548599484
 31
0.0
1001
DBPROPERTIES
1002
{
1000
PbHidd
1002
}
  0
LINE
  5
2ED
330
1F
100
AcDbEntity
  8
HIDDEN
100
AcDbLine
 10
-102.5026684178453
 20
127.234670583606
 30
0.0
 11
-90.72206841784529
 21
137.436969455429
 31
0.0
1001
DBPROPERTIES
1002
{
1000
PbHidd
1002
}
  0
LINE
  5
2EE
330
1F
100
AcDbEntity
  8
HIDDEN
100
AcDbLine
 10
-1.188375656590283
 20
17.81236582494096
 30
0.0
 11
-63.19720730811223
 21
97.72160529953307
 31
0.0
1001
DBPROPERTIES
1002
{
1000
PbHidd
1002
}
  0
LINE
  5
2EF
330
1F
100
AcDbEntity
  8
HIDDEN
100
AcDbLine
 10
-5.561775656590273
 20
14.02489032403009
 30
0.0
 11
-1.188375656590274
 21
17.81236582494095
 31
0.0
1001
DBPROPERTIES
1002
{
1000
PbHidd
1002
}
  0
LINE
  5
2F0
330
1F
100
AcDbEntity
  8
HIDDEN
100
AcDbLine
 10
-61.2272073081122
 20
99.42767534498839
 30
0.0
 11
-90.72206841784522
 21
137.4369694554289
 31
0.0
1001
DBPROPERTIES
1002
{
1000
PbHidd
1002
}
  0
LINE
  5
2F1
330
1F
100
AcDbEntity
  8
HIDDEN
100
AcDbLine
 10
-63.19720730811226
 20
97.72160529953311
 30
0.0
 11
-61.22720730811226
 21
99.42767534498846
 31
0.0
1001
DBPROPERTIES
1002
{
1000
PbHidd
1002
}
  0
ELLIPSE
  5
2F2
330
1F
100
AcDbEntity
  8
THICK
100
AcDbEllipse
 10
2.955000000000001
 20
2.559105068183016
 30
0.0
 11
-9.328814807588675
 21
10.77198748076298
 31
0.0
210
0.0
220
0.0
230
1.0
 40
0.75
 41
-2.427868274645027
 42
-0.000040764778229
1001
DBPROPERTIES
1002
{
1000
PbThick
1002
}
  0
ELLIPSE
  5
2F3
330
1F
100
AcDbEntity
  8
THICK
100
AcDbEllipse
 10
2.955000000000001
 20
2.559105068183016
 30
0.0
 11
-9.328814807588675
 21
10.77198748076298
 31
0.0
210
0.0
220
0.0
230
1.0
 40
0.75
 41
-0.0000407647782292
 42
0.7137243789447659
1001
DBPROPERTIES
1002
{
1000
PbThick
1002
}
  0
ELLIPSE
  5
2F4
330
1F
100
AcDbEntity
  8
THICK
100
AcDbEllipse
 10
3.506599999999999
 20
3.036804680910511
 30
0.0
 11
-9.328814807588673
 21
10.77198748076298
 31
0.0
210
0.0
220
0.0
230
1.0
 40
0.7500000000000001
 41
-2.427868274645027
 42
-2.387857600291039
1001
DBPROPERTIES
1002
{
1000
PbThick
1002
}
  0
LINE
  5
2F5
330
1F
100
AcDbEntity
  8
THICK
100
AcDbLine
 10
15.83758536208684
 20
-0.029209698019443
 30
0.0
 11
20.21098536208684
 21
3.75826580289142
 31
0.0
1001
DBPROPERTIES
1002
{
1000
PbThick
1002
}
  0
ELLIPSE
  5
2F6
330
1F
100
AcDbEntity
  8
HIDDEN
100
AcDbEllipse
 10
7.879999999999999
 20
6.824280181821374
 30
0.0
 11
9.328814807588675
 21
-10.77198748076298
 31
0.0
210
0.0
220
0.0
230
1.0
 40
0.75
 41
1.362081974325001
 42
1.459111867988225
1001
DBPROPERTIES
1002
{
1000
PbHidd
1002
}
  0
ELLIPSE
  5
2F7
330
1F
100
AcDbEntity
  8
THICK
100
AcDbEllipse
 10
7.879999999999999
 20
6.824280181821374
 30
0.0
 11
9.328814807588675
 21
-10.77198748076298
 31
0.0
210
0.0
220
0.0
230
1.0
 40
0.75
 41
0.7537350532987553
 42
1.362081974325001
1001
DBPROPERTIES
1002
{
1000
PbThick
1002
}
  0
LINE
  5
2F8
330
1F
100
AcDbEntity
  8
HIDDEN
100
AcDbLine
 10
16.94837565659027
 20
12.57673669849592
 30
0.0
 11
12.57497565659027
 21
8.789261197585052
 31
0.0
1001
DBPROPERTIES
1002
{
1000
PbHidd
1002
}
  0
ELLIPSE
  5
2F9
330
1F
100
AcDbEntity
  8
THICK
100
AcDbEllipse
 10
3.506599999999999
 20
3.036804680910511
 30
0.0
 11
-9.328814807588673
 21
10.77198748076298
 31
0.0
210
0.0
220
0.0
230
1.0
 40
0.7500000000000001
 41
-1.682480785601568
 42
-1.60245943689359
1001
DBPROPERTIES
1002
{
1000
PbThick
1002
}
  0
LINE
  5
2FA
330
1F
100
AcDbEntity
  8
THICK
100
AcDbLine
 10
11.87687107989706
 20
9.68889120691643
 30
0.0
 11
16.25027107989706
 21
13.47636670782729
 31
0.0
1001
DBPROPERTIES
1002
{
1000
PbThick
1002
}
  0
ELLIPSE
  5
2FB
330
1F
100
AcDbEntity
  8
THICK
100
AcDbEllipse
 10
7.879999999999999
 20
6.824280181821374
 30
0.0
 11
9.328814807588675
 21
-10.77198748076298
 31
0.0
210
0.0
220
0.0
230
1.0
 40
0.75
 41
1.539133216696203
 42
2.244510031385673
1001
DBPROPERTIES
1002
{
1000
PbThick
1002
}
  0
LINE
  5
2FC
330
1F
100
AcDbEntity
  8
THICK
100
AcDbLine
 10
8.373634480157127
 20
19.01276554390822
 30
0.0
 11
4.000234480157129
 21
15.22529004299735
 31
0.0
1001
DBPROPERTIES
1002
{
1000
PbThick
1002
}
  0
ELLIPSE
  5
2FD
330
1F
100
AcDbEntity
  8
THICK
100
AcDbEllipse
 10
3.506599999999999
 20
3.036804680910511
 30
0.0
 11
-9.328814807588675
 21
10.77198748076298
 31
0.0
210
0.0
220
0.0
230
1.0
 40
0.75
 41
-0.8970826222041203
 42
-0.8170612734961423
1001
DBPROPERTIES
1002
{
1000
PbThick
1002
}
  0
LINE
  5
2FE
330
1F
100
AcDbEntity
  8
HIDDEN
100
AcDbLine
 10
3.012965519842869
 20
15.51029004299735
 30
0.0
 11
7.386365519842868
 21
19.29776554390822
 31
0.0
1001
DBPROPERTIES
1002
{
1000
PbHidd
1002
}
  0
ELLIPSE
  5
2FF
330
1F
100
AcDbEntity
  8
THICK
100
AcDbEllipse
 10
7.879999999999999
 20
6.824280181821374
 30
0.0
 11
9.328814807588675
 21
-10.77198748076298
 31
0.0
210
0.0
220
0.0
230
1.0
 40
0.75
 41
2.868478273183445
 42
3.029908194783122
1001
DBPROPERTIES
1002
{
1000
PbThick
1002
}
  0
ELLIPSE
  5
300
330
1F
100
AcDbEntity
  8
HIDDEN
100
AcDbEllipse
 10
7.879999999999999
 20
6.824280181821374
 30
0.0
 11
9.328814807588675
 21
-10.77198748076298
 31
0.0
210
0.0
220
0.0
230
1.0
 40
0.75
 41
2.324531380093651
 42
2.868478273183445
1001
DBPROPERTIES
1002
{
1000
PbHidd
1002
}
  0
ELLIPSE
  5
301
330
1F
100
AcDbEntity
  8
HIDDEN
100
AcDbEllipse
 10
7.879999999999999
 20
6.824280181821374
 30
0.0
 11
9.328814807588675
 21
-10.77198748076298
 31
0.0
210
0.0
220
0.0
230
1.0
 40
0.75
 41
3.141551888811564
 42
3.81530635818057
1001
DBPROPERTIES
1002
{
1000
PbHidd
1002
}
  0
ELLIPSE
  5
302
330
1F
100
AcDbEntity
  8
HIDDEN
100
AcDbEllipse
 10
7.879999999999999
 20
6.824280181821374
 30
0.0
 11
9.328814807588675
 21
-10.77198748076298
 31
0.0
210
0.0
220
0.0
230
1.0
 40
0.75
 41
3.1099295434911
 42
3.141551888811564
1001
DBPROPERTIES
1002
{
1000
PbHidd
1002
}
  0
LINE
  5
303
330
1F
100
AcDbEntity
  8
HIDDEN
100
AcDbLine
 10
-4.450985362086845
 20
10.87756352106559
 30
0.0
 11
-8.824385362086844
 21
7.090088020154724
 31
0.0
1001
DBPROPERTIES
1002
{
1000
PbHidd
1002
}
  0
ELLIPSE
  5
304
330
1F
100
AcDbEntity
  8
HIDDEN
100
AcDbEllipse
 10
3.506599999999999
 20
3.036804680910511
 30
0.0
 11
-9.328814807588675
 21
10.77198748076298
 31
0.0
210
0.0
220
0.0
230
1.0
 40
0.75
 41
0.6737137045907767
 42
0.7137243789447658
1001
DBPROPERTIES
1002
{
1000
PbHidd
1002
}
  0
ELLIPSE
  5
305
330
1F
100
AcDbEntity
  8
HIDDEN
100
AcDbEllipse
 10
7.879999999999999
 20
6.824280181821374
 30
0.0
 11
-75.61249896677137
 21
87.30979326513152
 31
0.0
210
0.0
220
0.0
230
1.0
 40
0.7500000000000001
 41
-0.0667386994852571
 42
0.0000010974819203
1001
DBPROPERTIES
1002
{
1000
PbHidd
1002
}
  0
ELLIPSE
  5
306
330
1F
100
AcDbEntity
  8
HIDDEN
100
AcDbEllipse
 10
7.879999999999999
 20
6.824280181821374
 30
0.0
 11
-75.61249896677137
 21
87.30979326513152
 31
0.0
210
0.0
220
0.0
230
1.0
 40
0.7500000000000001
 41
0.0000010974819203
 42
0.7087892939773413
1001
DBPROPERTIES
1002
{
1000
PbHidd
1002
}
  0
LINE
  5
307
330
1F
100
AcDbEntity
  8
HIDDEN
100
AcDbLine
 10
-92.14471607057929
 20
36.1925630364609
 30
0.0
 11
-55.36991379656693
 21
25.57659204031276
 31
0.0
1001
DBPROPERTIES
1002
{
1000
PbHidd
1002
}
  0
LINE
  5
308
330
1F
100
AcDbEntity
  8
THICK
100
AcDbLine
 10
-55.36991379656693
 20
25.57659204031276
 30
0.0
 11
-7.726661103399313
 21
11.82316965657793
 31
0.0
1001
DBPROPERTIES
1002
{
1000
PbThick
1002
}
  0
LINE
  5
309
330
1F
100
AcDbEntity
  8
HIDDEN
100
AcDbLine
 10
-7.726661103399313
 20
11.82316965657793
 30
0.0
 11
-4.450985362086844
 21
10.87756352106559
 31
0.0
1001
DBPROPERTIES
1002
{
1000
PbHidd
1002
}
  0
ELLIPSE
  5
30A
330
1F
100
AcDbEntity
  8
HIDDEN
100
AcDbEllipse
 10
9.85
 20
8.530350227276717
 30
0.0
 11
75.61249896677137
 21
-87.30979326513152
 31
0.0
210
0.0
220
0.0
230
1.0
 40
0.7500000000000001
 41
-3.141591556107872
 42
-2.432803359612452
1001
DBPROPERTIES
1002
{
1000
PbHidd
1002
}
  0
ELLIPSE
  5
30B
330
1F
100
AcDbEntity
  8
HIDDEN
100
AcDbEllipse
 10
9.85
 20
8.530350227276717
 30
0.0
 11
75.61249896677137
 21
-87.30979326513152
 31
0.0
210
0.0
220
0.0
230
1.0
 40
0.7500000000000001
 41
3.074853954104537
 42
3.141593751071714
1001
DBPROPERTIES
1002
{
1000
PbHidd
1002
}
  0
LINE
  5
30C
330
1F
100
AcDbEntity
  8
HIDDEN
100
AcDbLine
 10
-90.17471607057927
 20
37.89863308191624
 30
0.0
 11
-92.14471607057928
 21
36.19256303646089
 31
0.0
1001
DBPROPERTIES
1002
{
1000
PbHidd
1002
}
  0
LINE
  5
30D
330
1F
100
AcDbEntity
  8
HIDDEN
100
AcDbLine
 10
-8.824385362086844
 20
7.090088020154725
 30
0.0
 11
-9.327896484085382
 21
7.235439161067639
 31
0.0
1001
DBPROPERTIES
1002
{
1000
PbHidd
1002
}
  0
LINE
  5
30E
330
1F
100
AcDbEntity
  8
HIDDEN
100
AcDbLine
 10
-131.8867486722745
 20
49.93985970743382
 30
0.0
 11
-90.17471607057927
 21
37.89863308191624
 31
0.0
1001
DBPROPERTIES
1002
{
1000
PbHidd
1002
}
  0
LINE
  5
30F
330
1F
100
AcDbEntity
  8
HIDDEN
100
AcDbLine
 10
-143.6673486722745
 20
39.73756083561086
 30
0.0
 11
-131.8867486722745
 21
49.93985970743382
 31
0.0
1001
DBPROPERTIES
1002
{
1000
PbHidd
1002
}
  0
LINE
  5
310
330
1F
100
AcDbEntity
  8
THICK
100
AcDbLine
 10
-59.36877905539873
 20
4.938763626516298
 30
0.0
 11
-61.15516565447155
 21
5.676191382179354
 31
0.0
1001
DBPROPERTIES
1002
{
1000
PbThick
1002
}
  0
LINE
  5
311
330
1F
100
AcDbEntity
  8
HIDDEN
100
AcDbLine
 10
-61.15516565447155
 20
5.676191382179354
 30
0.0
 11
-143.6673486722745
 21
39.73756083561086
 31
0.0
1001
DBPROPERTIES
1002
{
1000
PbHidd
1002
}
  0
LINE
  5
312
330
1F
100
AcDbEntity
  8
HIDDEN
100
AcDbLine
 10
-9.327896484085379
 20
7.235439161067639
 30
0.0
 11
-9.334161975888092
 21
7.235151600157522
 31
0.0
1001
DBPROPERTIES
1002
{
1000
PbHidd
1002
}
  0
LINE
  5
313
330
1F
100
AcDbEntity
  8
THICK
100
AcDbLine
 10
-9.334161975888092
 20
7.235151600157522
 30
0.0
 11
-59.36877905539868
 21
4.9387636265163
 31
0.0
1001
DBPROPERTIES
1002
{
1000
PbThick
1002
}
  0
LINE
  5
314
330
1F
100
AcDbEntity
  8
HIDDEN
100
AcDbLine
 10
-9.327896484085379
 20
6.248170200753378
 30
0.0
 11
-9.327896484085379
 21
7.235439161067639
 31
0.0
1001
DBPROPERTIES
1002
{
1000
PbHidd
1002
}
  0
LINE
  5
315
330
1F
100
AcDbEntity
  8
HIDDEN
100
AcDbLine
 10
-8.824385362086844
 20
6.102819059840465
 30
0.0
 11
-9.327896484085382
 21
6.248170200753378
 31
0.0
1001
DBPROPERTIES
1002
{
1000
PbHidd
1002
}
  0
LINE
  5
316
330
1F
100
AcDbEntity
  8
THICK
100
AcDbLine
 10
-59.36877905539873
 20
3.951494666202038
 30
0.0
 11
-59.36877905539873
 21
4.938763626516298
 31
0.0
1001
DBPROPERTIES
1002
{
1000
PbThick
1002
}
  0
LINE
  5
317
330
1F
100
AcDbEntity
  8
HIDDEN
100
AcDbLine
 10
-9.327896484085379
 20
6.248170200753378
 30
0.0
 11
-9.385237989693318
 21
6.245538455942395
 31
0.0
1001
DBPROPERTIES
1002
{
1000
PbHidd
1002
}
  0
LINE
  5
318
330
1F
100
AcDbEntity
  8
THICK
100
AcDbLine
 10
-9.385237989693318
 20
6.245538455942395
 30
0.0
 11
-59.36877905539868
 21
3.951494666202041
 31
0.0
1001
DBPROPERTIES
1002
{
1000
PbThick
1002
}
  0
LINE
  5
319
330
1F
100
AcDbEntity
  8
HIDDEN
100
AcDbLine
 10
-143.6673486722745
 20
38.7502918752966
 30
0.0
 11
-143.6673486722745
 21
39.73756083561086
 31
0.0
1001
DBPROPERTIES
1002
{
1000
PbHidd
1002
}
  0
LINE
  5
31A
330
1F
100
AcDbEntity
  8
THICK
100
AcDbLine
 10
-59.36877905539873
 20
3.951494666202038
 30
0.0
 11
-61.17867541856327
 21
4.698627349443102
 31
0.0
1001
DBPROPERTIES
1002
{
1000
PbThick
1002
}
  0
LINE
  5
31B
330
1F
100
AcDbEntity
  8
HIDDEN
100
AcDbLine
 10
-61.17867541856327
 20
4.698627349443102
 30
0.0
 11
-143.6673486722745
 21
38.7502918752966
 31
0.0
1001
DBPROPERTIES
1002
{
1000
PbHidd
1002
}
  0
LINE
  5
31C
330
1F
100
AcDbEntity
  8
HIDDEN
100
AcDbLine
 10
-131.8867486722745
 20
48.95259074711956
 30
0.0
 11
-131.8867486722745
 21
49.93985970743382
 31
0.0
1001
DBPROPERTIES
1002
{
1000
PbHidd
1002
}
  0
LINE
  5
31D
330
1F
100
AcDbEntity
  8
HIDDEN
100
AcDbLine
 10
-143.6673486722745
 20
38.7502918752966
 30
0.0
 11
-131.8867486722745
 21
48.95259074711956
 31
0.0
1001
DBPROPERTIES
1002
{
1000
PbHidd
1002
}
  0
LINE
  5
31E
330
1F
100
AcDbEntity
  8
HIDDEN
100
AcDbLine
 10
-4.450985362086844
 20
9.890294560751327
 30
0.0
 11
-92.14471607057929
 21
35.20529407614664
 31
0.0
1001
DBPROPERTIES
1002
{
1000
PbHidd
1002
}
  0
LINE
  5
31F
330
1F
100
AcDbEntity
  8
HIDDEN
100
AcDbLine
 10
-90.17471607057927
 20
36.91136412160198
 30
0.0
 11
-131.8867486722745
 21
48.95259074711956
 31
0.0
1001
DBPROPERTIES
1002
{
1000
PbHidd
1002
}
  0
LINE
  5
320
330
1F
100
AcDbEntity
  8
HIDDEN
100
AcDbLine
 10
-92.14471607057928
 20
35.20529407614663
 30
0.0
 11
-90.17471607057927
 21
36.91136412160198
 31
0.0
1001
DBPROPERTIES
1002
{
1000
PbHidd
1002
}
  0
ELLIPSE
  5
321
330
1F
100
AcDbEntity
  8
HIDDEN
100
AcDbEllipse
 10
7.879999999999999
 20
6.824280181821374
 30
0.0
 11
-75.61249896677137
 21
87.30979326513152
 31
0.0
210
0.0
220
0.0
230
1.0
 40
0.7500000000000001
 41
0.7186594639121916
 42
1.494187457374789
1001
DBPROPERTIES
1002
{
1000
PbHidd
1002
}
  0
LINE
  5
322
330
1F
100
AcDbEntity
  8
HIDDEN
100
AcDbLine
 10
-63.19720730811223
 20
-43.03660016330495
 30
0.0
 11
-48.54780094029827
 21
-32.6161131504538
 31
0.0
1001
DBPROPERTIES
1002
{
1000
PbHidd
1002
}
  0
LINE
  5
323
330
1F
100
AcDbEntity
  8
THICK
100
AcDbLine
 10
-48.54780094029827
 20
-32.6161131504538
 30
0.0
 11
-6.470721783791141
 21
-2.685640482807941
 31
0.0
1001
DBPROPERTIES
1002
{
1000
PbThick
1002
}
  0
LINE
  5
324
330
1F
100
AcDbEntity
  8
HIDDEN
100
AcDbLine
 10
-6.470721783791141
 20
-2.685640482807941
 30
0.0
 11
-1.188375656590261
 21
1.071823665146843
 31
0.0
1001
DBPROPERTIES
1002
{
1000
PbHidd
1002
}
  0
ELLIPSE
  5
325
330
1F
100
AcDbEntity
  8
HIDDEN
100
AcDbEllipse
 10
9.85
 20
8.530350227276717
 30
0.0
 11
75.61249896677137
 21
-87.30979326513152
 31
0.0
210
0.0
220
0.0
230
1.0
 40
0.7500000000000001
 41
-2.422933189677602
 42
-1.647405196215004
1001
DBPROPERTIES
1002
{
1000
PbHidd
1002
}
  0
LINE
  5
326
330
1F
100
AcDbEntity
  8
HIDDEN
100
AcDbLine
 10
-61.22720730811223
 20
-41.33053011784961
 30
0.0
 11
-63.19720730811223
 21
-43.03660016330495
 31
0.0
1001
DBPROPERTIES
1002
{
1000
PbHidd
1002
}
  0
LINE
  5
327
330
1F
100
AcDbEntity
  8
HIDDEN
100
AcDbLine
 10
-5.561775656590265
 20
-2.715651835764032
 30
0.0
 11
-5.917811785358277
 21
-2.968909187139323
 31
0.0
1001
DBPROPERTIES
1002
{
1000
PbHidd
1002
}
  0
LINE
  5
328
330
1F
100
AcDbEntity
  8
HIDDEN
100
AcDbLine
 10
-90.72206841784526
 20
-62.31095822687517
 30
0.0
 11
-61.22720730811223
 21
-41.33053011784961
 31
0.0
1001
DBPROPERTIES
1002
{
1000
PbHidd
1002
}
  0
LINE
  5
329
330
1F
100
AcDbEntity
  8
HIDDEN
100
AcDbLine
 10
-102.5026684178453
 20
-72.51325709869813
 30
0.0
 11
-90.72206841784526
 21
-62.31095822687517
 31
0.0
1001
DBPROPERTIES
1002
{
1000
PbHidd
1002
}
  0
LINE
  5
32A
330
1F
100
AcDbEntity
  8
THICK
100
AcDbLine
 10
-45.54877654631368
 20
-33.40243390767208
 30
0.0
 11
-47.15536993578251
 21
-34.50569810842454
 31
0.0
1001
DBPROPERTIES
1002
{
1000
PbThick
1002
}
  0
LINE
  5
32B
330
1F
100
AcDbEntity
  8
HIDDEN
100
AcDbLine
 10
-47.15536993578251
 20
-34.50569810842454
 30
0.0
 11
-102.5026684178453
 21
-72.51325709869816
 31
0.0
1001
DBPROPERTIES
1002
{
1000
PbHidd
1002
}
  0
LINE
  5
32C
330
1F
100
AcDbEntity
  8
HIDDEN
100
AcDbLine
 10
-5.917811785358277
 20
-2.968909187139321
 30
0.0
 11
-6.148005539102609
 21
-3.145680238193629
 31
0.0
1001
DBPROPERTIES
1002
{
1000
PbHidd
1002
}
  0
LINE
  5
32D
330
1F
100
AcDbEntity
  8
THICK
100
AcDbLine
 10
-6.148005539102609
 20
-3.145680238193629
 30
0.0
 11
-45.54877654631364
 21
-33.40243390767206
 31
0.0
1001
DBPROPERTIES
1002
{
1000
PbThick
1002
}
  0
LINE
  5
32E
330
1F
100
AcDbEntity
  8
HIDDEN
100
AcDbLine
 10
-4.863671079897059
 20
-3.615281845095403
 30
0.0
 11
-5.219707208665072
 21
-3.868539196470692
 31
0.0
1001
DBPROPERTIES
1002
{
1000
PbHidd
1002
}
  0
LINE
  5
32F
330
1F
100
AcDbEntity
  8
HIDDEN
100
AcDbLine
 10
-5.219707208665069
 20
-3.868539196470693
 30
0.0
 11
-5.917811785358275
 21
-2.968909187139322
 31
0.0
1001
DBPROPERTIES
1002
{
1000
PbHidd
1002
}
  0
LINE
  5
330
330
1F
100
AcDbEntity
  8
THICK
100
AcDbLine
 10
-44.85067196962046
 20
-34.30206391700347
 30
0.0
 11
-45.54877654631367
 21
-33.40243390767209
 31
0.0
1001
DBPROPERTIES
1002
{
1000
PbThick
1002
}
  0
LINE
  5
331
330
1F
100
AcDbEntity
  8
HIDDEN
100
AcDbLine
 10
-5.219707208665069
 20
-3.868539196470693
 30
0.0
 11
-5.452712989469677
 21
-4.047469667452573
 31
0.0
1001
DBPROPERTIES
1002
{
1000
PbHidd
1002
}
  0
LINE
  5
332
330
1F
100
AcDbEntity
  8
THICK
100
AcDbLine
 10
-5.452712989469677
 20
-4.047469667452573
 30
0.0
 11
-44.85067196962043
 21
-34.30206391700342
 31
0.0
1001
DBPROPERTIES
1002
{
1000
PbThick
1002
}
  0
LINE
  5
333
330
1F
100
AcDbEntity
  8
HIDDEN
100
AcDbLine
 10
-101.8045638411521
 20
-73.4128871080295
 30
0.0
 11
-102.5026684178453
 21
-72.51325709869812
 31
0.0
1001
DBPROPERTIES
1002
{
1000
PbHidd
1002
}
  0
LINE
  5
334
330
1F
100
AcDbEntity
  8
THICK
100
AcDbLine
 10
-44.85067196962046
 20
-34.30206391700347
 30
0.0
 11
-46.45896193246332
 21
-35.4064931721373
 31
0.0
1001
DBPROPERTIES
1002
{
1000
PbThick
1002
}
  0
LINE
  5
335
330
1F
100
AcDbEntity
  8
HIDDEN
100
AcDbLine
 10
-46.45896193246332
 20
-35.4064931721373
 30
0.0
 11
-101.8045638411521
 21
-73.41288710802952
 31
0.0
1001
DBPROPERTIES
1002
{
1000
PbHidd
1002
}
  0
LINE
  5
336
330
1F
100
AcDbEntity
  8
HIDDEN
100
AcDbLine
 10
-90.02396384115207
 20
-63.21058823620653
 30
0.0
 11
-90.72206841784528
 21
-62.31095822687516
 31
0.0
1001
DBPROPERTIES
1002
{
1000
PbHidd
1002
}
  0
LINE
  5
337
330
1F
100
AcDbEntity
  8
HIDDEN
100
AcDbLine
 10
-101.8045638411521
 20
-73.4128871080295
 30
0.0
 11
-90.02396384115207
 21
-63.21058823620653
 31
0.0
1001
DBPROPERTIES
1002
{
1000
PbHidd
1002
}
  0
LINE
  5
338
330
1F
100
AcDbEntity
  8
HIDDEN
100
AcDbLine
 10
-0.4902710798970498
 20
0.1721936558154642
 30
0.0
 11
-62.49910273141902
 21
-43.93623017263633
 31
0.0
1001
DBPROPERTIES
1002
{
1000
PbHidd
1002
}
  0
LINE
  5
339
330
1F
100
AcDbEntity
  8
HIDDEN
100
AcDbLine
 10
-60.52910273141902
 20
-42.23016012718097
 30
0.0
 11
-90.02396384115207
 21
-63.21058823620653
 31
0.0
1001
DBPROPERTIES
1002
{
1000
PbHidd
1002
}
  0
LINE
  5
33A
330
1F
100
AcDbEntity
  8
HIDDEN
100
AcDbLine
 10
-62.49910273141902
 20
-43.93623017263633
 30
0.0
 11
-60.52910273141902
 21
-42.23016012718099
 31
0.0
1001
DBPROPERTIES
1002
{
1000
PbHidd
1002
}
  0
ELLIPSE
  5
33B
330
1F
100
AcDbEntity
  8
HIDDEN
100
AcDbEllipse
 10
7.879999999999999
 20
6.824280181821374
 30
0.0
 11
-75.61249896677137
 21
87.30979326513152
 31
0.0
210
0.0
220
0.0
230
1.0
 40
0.7500000000000001
 41
1.50405762730964
 42
2.279585620772237
1001
DBPROPERTIES
1002
{
1000
PbHidd
1002
}
  0
LINE
  5
33C
330
1F
100
AcDbEntity
  8
HIDDEN
100
AcDbLine
 10
7.386365519842881
 20
-93.05793588875791
 30
0.0
 11
7.386365519842871
 21
-5.364205180265468
 31
0.0
1001
DBPROPERTIES
1002
{
1000
PbHidd
1002
}
  0
ELLIPSE
  5
33D
330
1F
100
AcDbEntity
  8
HIDDEN
100
AcDbEllipse
 10
9.85
 20
8.530350227276717
 30
0.0
 11
75.61249896677137
 21
-87.30979326513152
 31
0.0
210
0.0
220
0.0
230
1.0
 40
0.7500000000000001
 41
-1.637535026280153
 42
-0.8620070328175562
1001
DBPROPERTIES
1002
{
1000
PbHidd
1002
}
  0
LINE
  5
33E
330
1F
100
AcDbEntity
  8
HIDDEN
100
AcDbLine
 10
9.356365519842887
 20
-91.35186584330255
 30
0.0
 11
7.386365519842881
 21
-93.0579358887579
 31
0.0
1001
DBPROPERTIES
1002
{
1000
PbHidd
1002
}
  0
LINE
  5
33F
330
1F
100
AcDbEntity
  8
HIDDEN
100
AcDbLine
 10
3.012965519842871
 20
-9.15168068117633
 30
0.0
 11
3.012965519842871
 21
-9.65519180317487
 31
0.0
1001
DBPROPERTIES
1002
{
1000
PbHidd
1002
}
  0
LINE
  5
340
330
1F
100
AcDbEntity
  8
HIDDEN
100
AcDbLine
 10
9.356365519842893
 20
-133.0638984449978
 30
0.0
 11
9.356365519842887
 21
-91.35186584330255
 31
0.0
1001
DBPROPERTIES
1002
{
1000
PbHidd
1002
}
  0
LINE
  5
341
330
1F
100
AcDbEntity
  8
HIDDEN
100
AcDbLine
 10
-2.424234480157109
 20
-143.2661973168208
 30
0.0
 11
9.35636551984289
 21
-133.0638984449978
 31
0.0
1001
DBPROPERTIES
1002
{
1000
PbHidd
1002
}
  0
LINE
  5
342
330
1F
100
AcDbEntity
  8
THICK
100
AcDbLine
 10
-11.48623448015712
 20
-57.75354990903956
 30
0.0
 11
-11.27419804011465
 21
-59.75441035209335
 31
0.0
1001
DBPROPERTIES
1002
{
1000
PbThick
1002
}
  0
LINE
  5
343
330
1F
100
AcDbEntity
  8
HIDDEN
100
AcDbLine
 10
-11.27419804011465
 20
-59.75441035209335
 30
0.0
 11
-2.424234480157113
 21
-143.2661973168208
 31
0.0
1001
DBPROPERTIES
1002
{
1000
PbHidd
1002
}
  0
LINE
  5
344
330
1F
100
AcDbEntity
  8
HIDDEN
100
AcDbLine
 10
3.012965519842872
 20
-9.655191803174867
 30
0.0
 11
2.973230240187638
 21
-9.787006090190296
 31
0.0
1001
DBPROPERTIES
1002
{
1000
PbHidd
1002
}
  0
LINE
  5
345
330
1F
100
AcDbEntity
  8
THICK
100
AcDbLine
 10
2.973230240187638
 20
-9.787006090190296
 30
0.0
 11
-11.48623448015711
 21
-57.75354990903951
 31
0.0
1001
DBPROPERTIES
1002
{
1000
PbThick
1002
}
  0
LINE
  5
346
330
1F
100
AcDbEntity
  8
HIDDEN
100
AcDbLine
 10
4.000234480157131
 20
-9.43668068117633
 30
0.0
 11
4.000234480157131
 21
-9.94019180317487
 31
0.0
1001
DBPROPERTIES
1002
{
1000
PbHidd
1002
}
  0
LINE
  5
347
330
1F
100
AcDbEntity
  8
HIDDEN
100
AcDbLine
 10
4.000234480157132
 20
-9.940191803174868
 30
0.0
 11
3.012965519842872
 21
-9.655191803174867
 31
0.0
1001
DBPROPERTIES
1002
{
1000
PbHidd
1002
}
  0
LINE
  5
348
330
1F
100
AcDbEntity
  8
THICK
100
AcDbLine
 10
-10.49896551984286
 20
-58.03854990903955
 30
0.0
 11
-11.48623448015712
 21
-57.75354990903956
 31
0.0
1001
DBPROPERTIES
1002
{
1000
PbThick
1002
}
  0
LINE
  5
349
330
1F
100
AcDbEntity
  8
HIDDEN
100
AcDbLine
 10
4.000234480157132
 20
-9.940191803174868
 30
0.0
 11
3.97213865780861
 21
-10.03339438846219
 31
0.0
1001
DBPROPERTIES
1002
{
1000
PbHidd
1002
}
  0
LINE
  5
34A
330
1F
100
AcDbEntity
  8
THICK
100
AcDbLine
 10
3.97213865780861
 20
-10.03339438846219
 30
0.0
 11
-10.49896551984285
 21
-58.0385499090395
 31
0.0
1001
DBPROPERTIES
1002
{
1000
PbThick
1002
}
  0
LINE
  5
34B
330
1F
100
AcDbEntity
  8
HIDDEN
100
AcDbLine
 10
-1.436965519842849
 20
-143.5511973168207
 30
0.0
 11
-2.424234480157109
 21
-143.2661973168208
 31
0.0
1001
DBPROPERTIES
1002
{
1000
PbHidd
1002
}
  0
LINE
  5
34C
330
1F
100
AcDbEntity
  8
THICK
100
AcDbLine
 10
-10.49896551984286
 20
-58.03854990903955
 30
0.0
 11
-10.28919452131653
 21
-60.01803274211845
 31
0.0
1001
DBPROPERTIES
1002
{
1000
PbThick
1002
}
  0
LINE
  5
34D
330
1F
100
AcDbEntity
  8
HIDDEN
100
AcDbLine
 10
-10.28919452131653
 20
-60.01803274211845
 30
0.0
 11
-1.436965519842852
 21
-143.5511973168207
 31
0.0
1001
DBPROPERTIES
1002
{
1000
PbHidd
1002
}
  0
LINE
  5
34E
330
1F
100
AcDbEntity
  8
HIDDEN
100
AcDbLine
 10
10.34363448015715
 20
-133.3488984449978
 30
0.0
 11
9.35636551984289
 21
-133.0638984449978
 31
0.0
1001
DBPROPERTIES
1002
{
1000
PbHidd
1002
}
  0
LINE
  5
34F
330
1F
100
AcDbEntity
  8
HIDDEN
100
AcDbLine
 10
-1.436965519842849
 20
-143.5511973168207
 30
0.0
 11
10.34363448015715
 21
-133.3488984449978
 31
0.0
1001
DBPROPERTIES
1002
{
1000
PbHidd
1002
}
  0
LINE
  5
350
330
1F
100
AcDbEntity
  8
HIDDEN
100
AcDbLine
 10
8.373634480157131
 20
-5.649205180265469
 30
0.0
 11
8.373634480157131
 21
-10.09273975352922
 31
0.0
1001
DBPROPERTIES
1002
{
1000
PbHidd
1002
}
  0
LINE
  5
351
330
1F
100
AcDbEntity
  8
THICK
100
AcDbLine
 10
8.373634480157131
 20
-10.09273975352922
 30
0.0
 11
8.373634480157138
 21
-61.10987847924267
 31
0.0
1001
DBPROPERTIES
1002
{
1000
PbThick
1002
}
  0
LINE
  5
352
330
1F
100
AcDbEntity
  8
HIDDEN
100
AcDbLine
 10
8.373634480157138
 20
-61.10987847924267
 30
0.0
 11
8.373634480157142
 21
-93.3429358887579
 31
0.0
1001
DBPROPERTIES
1002
{
1000
PbHidd
1002
}
  0
LINE
  5
353
330
1F
100
AcDbEntity
  8
HIDDEN
100
AcDbLine
 10
10.34363448015715
 20
-91.63686584330254
 30
0.0
 11
10.34363448015715
 21
-133.3488984449978
 31
0.0
1001
DBPROPERTIES
1002
{
1000
PbHidd
1002
}
  0
LINE
  5
354
330
1F
100
AcDbEntity
  8
HIDDEN
100
AcDbLine
 10
8.373634480157142
 20
-93.34293588875789
 30
0.0
 11
10.34363448015715
 21
-91.63686584330254
 31
0.0
1001
DBPROPERTIES
1002
{
1000
PbHidd
1002
}
  0
ELLIPSE
  5
355
330
1F
100
AcDbEntity
  8
HIDDEN
100
AcDbEllipse
 10
7.879999999999999
 20
6.824280181821374
 30
0.0
 11
-75.61249896677137
 21
87.30979326513152
 31
0.0
210
0.0
220
0.0
230
1.0
 40
0.7500000000000001
 41
2.289455790707088
 42
3.064983784169685
1001
DBPROPERTIES
1002
{
1000
PbHidd
1002
}
  0
LINE
  5
356
330
1F
100
AcDbEntity
  8
HIDDEN
100
AcDbLine
 10
78.259102731419
 20
-84.56962407994538
 30
0.0
 11
16.25027107989707
 21
-4.660384605353265
 31
0.0
1001
DBPROPERTIES
1002
{
1000
PbHidd
1002
}
  0
ELLIPSE
  5
357
330
1F
100
AcDbEntity
  8
HIDDEN
100
AcDbEllipse
 10
9.85
 20
8.530350227276717
 30
0.0
 11
75.61249896677137
 21
-87.30979326513152
 31
0.0
210
0.0
220
0.0
230
1.0
 40
0.7500000000000001
 41
-0.8521368628827054
 42
-0.0766088694201076
1001
DBPROPERTIES
1002
{
1000
PbHidd
1002
}
  0
LINE
  5
358
330
1F
100
AcDbEntity
  8
HIDDEN
100
AcDbLine
 10
80.22910273141902
 20
-82.86355403449006
 30
0.0
 11
78.25910273141902
 21
-84.5696240799454
 31
0.0
1001
DBPROPERTIES
1002
{
1000
PbHidd
1002
}
  0
LINE
  5
359
330
1F
100
AcDbEntity
  8
HIDDEN
100
AcDbLine
 10
11.87687107989705
 20
-8.447860106264098
 30
0.0
 11
11.92307532242087
 21
-8.50740236471733
 31
0.0
1001
DBPROPERTIES
1002
{
1000
PbHidd
1002
}
  0
LINE
  5
35A
330
1F
100
AcDbEntity
  8
THICK
100
AcDbLine
 10
11.92307532242087
 20
-8.50740236471733
 30
0.0
 11
12.23290720866506
 21
-8.90667501242483
 31
0.0
1001
DBPROPERTIES
1002
{
1000
PbThick
1002
}
  0
LINE
  5
35B
330
1F
100
AcDbEntity
  8
HIDDEN
100
AcDbLine
 10
109.723963841152
 20
-120.8728481449305
 30
0.0
 11
80.22910273141898
 21
-82.86355403448997
 31
0.0
1001
DBPROPERTIES
1002
{
1000
PbHidd
1002
}
  0
LINE
  5
35C
330
1F
100
AcDbEntity
  8
HIDDEN
100
AcDbLine
 10
97.94336384115208
 20
-131.0751470167535
 30
0.0
 11
109.7239638411521
 21
-120.8728481449306
 31
0.0
1001
DBPROPERTIES
1002
{
1000
PbHidd
1002
}
  0
LINE
  5
35D
330
1F
100
AcDbEntity
  8
THICK
100
AcDbLine
 10
22.86547196962047
 20
-53.85003088290554
 30
0.0
 11
23.69530981604159
 21
-54.70360205365433
 31
0.0
1001
DBPROPERTIES
1002
{
1000
PbThick
1002
}
  0
LINE
  5
35E
330
1F
100
AcDbEntity
  8
HIDDEN
100
AcDbLine
 10
23.69530981604159
 20
-54.70360205365433
 30
0.0
 11
97.94336384115206
 21
-131.0751470167536
 31
0.0
1001
DBPROPERTIES
1002
{
1000
PbHidd
1002
}
  0
LINE
  5
35F
330
1F
100
AcDbEntity
  8
THICK
100
AcDbLine
 10
12.23290720866507
 20
-8.90667501242484
 30
0.0
 11
22.86547196962047
 21
-53.85003088290551
 31
0.0
1001
DBPROPERTIES
1002
{
1000
PbThick
1002
}
  0
LINE
  5
360
330
1F
100
AcDbEntity
  8
HIDDEN
100
AcDbLine
 10
12.57497565659026
 20
-7.951280962209059
 30
0.0
 11
12.57936083342425
 21
-7.956932030555829
 31
0.0
1001
DBPROPERTIES
1002
{
1000
PbHidd
1002
}
  0
LINE
  5
361
330
1F
100
AcDbEntity
  8
THICK
100
AcDbLine
 10
12.57936083342425
 20
-7.956932030555829
 30
0.0
 11
12.93101178535827
 21
-8.41009586836979
 31
0.0
1001
DBPROPERTIES
1002
{
1000
PbThick
1002
}
  0
LINE
  5
362
330
1F
100
AcDbEntity
  8
THICK
100
AcDbLine
 10
12.93101178535828
 20
-8.410095868369798
 30
0.0
 11
12.23290720866507
 21
-8.906675012424838
 31
0.0
1001
DBPROPERTIES
1002
{
1000
PbThick
1002
}
  0
LINE
  5
363
330
1F
100
AcDbEntity
  8
THICK
100
AcDbLine
 10
23.56357654631368
 20
-53.3534517388505
 30
0.0
 11
22.86547196962047
 21
-53.85003088290554
 31
0.0
1001
DBPROPERTIES
1002
{
1000
PbThick
1002
}
  0
LINE
  5
364
330
1F
100
AcDbEntity
  8
THICK
100
AcDbLine
 10
12.93101178535828
 20
-8.410095868369798
 30
0.0
 11
23.56357654631368
 21
-53.35345173885046
 31
0.0
1001
DBPROPERTIES
1002
{
1000
PbThick
1002
}
  0
LINE
  5
365
330
1F
100
AcDbEntity
  8
HIDDEN
100
AcDbLine
 10
98.64146841784527
 20
-130.5785678726985
 30
0.0
 11
97.94336384115206
 21
-131.0751470167536
 31
0.0
1001
DBPROPERTIES
1002
{
1000
PbHidd
1002
}
  0
LINE
  5
366
330
1F
100
AcDbEntity
  8
THICK
100
AcDbLine
 10
23.56357654631368
 20
-53.3534517388505
 30
0.0
 11
24.27435040574684
 21
-54.08455369804713
 31
0.0
1001
DBPROPERTIES
1002
{
1000
PbThick
1002
}
  0
LINE
  5
367
330
1F
100
AcDbEntity
  8
HIDDEN
100
AcDbLine
 10
24.27435040574684
 20
-54.08455369804713
 30
0.0
 11
98.64146841784529
 21
-130.5785678726985
 31
0.0
1001
DBPROPERTIES
1002
{
1000
PbHidd
1002
}
  0
LINE
  5
368
330
1F
100
AcDbEntity
  8
HIDDEN
100
AcDbLine
 10
110.4220684178453
 20
-120.3762690008756
 30
0.0
 11
109.7239638411521
 21
-120.8728481449306
 31
0.0
1001
DBPROPERTIES
1002
{
1000
PbHidd
1002
}
  0
LINE
  5
369
330
1F
100
AcDbEntity
  8
HIDDEN
100
AcDbLine
 10
98.64146841784527
 20
-130.5785678726985
 30
0.0
 11
110.4220684178453
 21
-120.3762690008756
 31
0.0
1001
DBPROPERTIES
1002
{
1000
PbHidd
1002
}
  0
LINE
  5
36A
330
1F
100
AcDbEntity
  8
HIDDEN
100
AcDbLine
 10
16.94837565659028
 20
-4.163805461298223
 30
0.0
 11
16.95276083342427
 21
-4.169456529644986
 31
0.0
1001
DBPROPERTIES
1002
{
1000
PbHidd
1002
}
  0
LINE
  5
36B
330
1F
100
AcDbEntity
  8
THICK
100
AcDbLine
 10
16.95276083342427
 20
-4.169456529644986
 30
0.0
 11
33.54858776868861
 21
-25.55608603915897
 31
0.0
1001
DBPROPERTIES
1002
{
1000
PbThick
1002
}
  0
LINE
  5
36C
330
1F
100
AcDbEntity
  8
HIDDEN
100
AcDbLine
 10
33.54858776868861
 20
-25.55608603915897
 30
0.0
 11
78.95720730811222
 21
-84.07304493589035
 31
0.0
1001
DBPROPERTIES
1002
{
1000
PbHidd
1002
}
  0
LINE
  5
36D
330
1F
100
AcDbEntity
  8
HIDDEN
100
AcDbLine
 10
80.92720730811217
 20
-82.36697489043493
 30
0.0
 11
110.4220684178452
 21
-120.3762690008755
 31
0.0
1001
DBPROPERTIES
1002
{
1000
PbHidd
1002
}
  0
LINE
  5
36E
330
1F
100
AcDbEntity
  8
HIDDEN
100
AcDbLine
 10
78.95720730811223
 20
-84.07304493589035
 30
0.0
 11
80.92720730811223
 21
-82.36697489043502
 31
0.0
1001
DBPROPERTIES
1002
{
1000
PbHidd
1002
}
  0
ELLIPSE
  5
36F
330
1F
100
AcDbEntity
  8
HIDDEN
100
AcDbEllipse
 10
7.879999999999999
 20
6.824280181821374
 30
0.0
 11
-75.61249896677137
 21
87.30979326513152
 31
0.0
210
0.0
220
0.0
230
1.0
 40
0.7500000000000001
 41
3.074853954104536
 42
3.141593751071712
1001
DBPROPERTIES
1002
{
1000
PbHidd
1002
}
  0
ELLIPSE
  5
370
330
1F
100
AcDbEntity
  8
HIDDEN
100
AcDbEllipse
 10
7.879999999999999
 20
6.824280181821374
 30
0.0
 11
-75.61249896677137
 21
87.30979326513152
 31
0.0
210
0.0
220
0.0
230
1.0
 40
0.7500000000000001
 41
-3.141591556107874
 42
-2.432803359612452
1001
DBPROPERTIES
1002
{
1000
PbHidd
1002
}
  0
LINE
  5
371
330
1F
100
AcDbEntity
  8
HIDDEN
100
AcDbLine
 10
107.9047160705793
 20
-22.54400267281816
 30
0.0
 11
20.21098536208684
 21
2.770996842577159
 31
0.0
1001
DBPROPERTIES
1002
{
1000
PbHidd
1002
}
  0
ELLIPSE
  5
372
330
1F
100
AcDbEntity
  8
HIDDEN
100
AcDbEllipse
 10
9.85
 20
8.530350227276717
 30
0.0
 11
75.61249896677137
 21
-87.30979326513152
 31
0.0
210
0.0
220
0.0
230
1.0
 40
0.7500000000000001
 41
0.0000010974819203
 42
0.7087892939773408
1001
DBPROPERTIES
1002
{
1000
PbHidd
1002
}
  0
ELLIPSE
  5
373
330
1F
100
AcDbEntity
  8
HIDDEN
100
AcDbEllipse
 10
9.85
 20
8.530350227276717
 30
0.0
 11
75.61249896677137
 21
-87.30979326513152
 31
0.0
210
0.0
220
0.0
230
1.0
 40
0.7500000000000001
 41
-0.0667386994852572
 42
0.0000010974819203
1001
DBPROPERTIES
1002
{
1000
PbHidd
1002
}
  0
LINE
  5
374
330
1F
100
AcDbEntity
  8
HIDDEN
100
AcDbLine
 10
109.8747160705793
 20
-20.8379326273628
 30
0.0
 11
107.9047160705793
 21
-22.54400267281815
 31
0.0
1001
DBPROPERTIES
1002
{
1000
PbHidd
1002
}
  0
LINE
  5
375
330
1F
100
AcDbEntity
  8
THICK
100
AcDbLine
 10
15.83758536208684
 20
-1.016478658333703
 30
0.0
 11
16.34109648408538
 21
-1.161829799246617
 31
0.0
1001
DBPROPERTIES
1002
{
1000
PbThick
1002
}
  0
LINE
  5
376
330
1F
100
AcDbEntity
  8
HIDDEN
100
AcDbLine
 10
151.5867486722745
 20
-32.87915925288038
 30
0.0
 11
109.8747160705793
 21
-20.8379326273628
 31
0.0
1001
DBPROPERTIES
1002
{
1000
PbHidd
1002
}
  0
LINE
  5
377
330
1F
100
AcDbEntity
  8
HIDDEN
100
AcDbLine
 10
139.8061486722745
 20
-43.08145812470335
 30
0.0
 11
151.5867486722745
 21
-32.87915925288038
 31
0.0
1001
DBPROPERTIES
1002
{
1000
PbHidd
1002
}
  0
LINE
  5
378
330
1F
100
AcDbEntity
  8
HIDDEN
100
AcDbLine
 10
37.38357905539873
 20
-23.97850533379794
 30
0.0
 11
139.8061486722745
 21
-43.08145812470335
 31
0.0
1001
DBPROPERTIES
1002
{
1000
PbHidd
1002
}
  0
LINE
  5
379
330
1F
100
AcDbEntity
  8
THICK
100
AcDbLine
 10
16.34109648408538
 20
-1.161829799246616
 30
0.0
 11
32.84450821911817
 21
-19.05672359303757
 31
0.0
1001
DBPROPERTIES
1002
{
1000
PbThick
1002
}
  0
LINE
  5
37A
330
1F
100
AcDbEntity
  8
HIDDEN
100
AcDbLine
 10
32.84450821911817
 20
-19.05672359303757
 30
0.0
 11
37.38357905539872
 21
-23.97850533379792
 31
0.0
1001
DBPROPERTIES
1002
{
1000
PbHidd
1002
}
  0
LINE
  5
37B
330
1F
100
AcDbEntity
  8
THICK
100
AcDbLine
 10
16.34109648408538
 20
-0.1745608389323556
 30
0.0
 11
16.34109648408538
 21
-1.161829799246616
 31
0.0
1001
DBPROPERTIES
1002
{
1000
PbThick
1002
}
  0
LINE
  5
37C
330
1F
100
AcDbEntity
  8
THICK
100
AcDbLine
 10
15.83758536208684
 20
-0.029209698019443
 30
0.0
 11
16.34109648408538
 21
-0.174560838932357
 31
0.0
1001
DBPROPERTIES
1002
{
1000
PbThick
1002
}
  0
LINE
  5
37D
330
1F
100
AcDbEntity
  8
HIDDEN
100
AcDbLine
 10
37.38357905539873
 20
-22.99123637348368
 30
0.0
 11
37.38357905539873
 21
-23.97850533379794
 31
0.0
1001
DBPROPERTIES
1002
{
1000
PbHidd
1002
}
  0
LINE
  5
37E
330
1F
100
AcDbEntity
  8
THICK
100
AcDbLine
 10
16.34109648408538
 20
-0.1745608389323556
 30
0.0
 11
32.62379362861524
 21
-17.83013053300363
 31
0.0
1001
DBPROPERTIES
1002
{
1000
PbThick
1002
}
  0
LINE
  5
37F
330
1F
100
AcDbEntity
  8
HIDDEN
100
AcDbLine
 10
32.62379362861524
 20
-17.83013053300363
 30
0.0
 11
37.38357905539872
 21
-22.99123637348365
 31
0.0
1001
DBPROPERTIES
1002
{
1000
PbHidd
1002
}
  0
LINE
  5
380
330
1F
100
AcDbEntity
  8
HIDDEN
100
AcDbLine
 10
139.8061486722745
 20
-42.09418916438909
 30
0.0
 11
139.8061486722745
 21
-43.08145812470335
 31
0.0
1001
DBPROPERTIES
1002
{
1000
PbHidd
1002
}
  0
LINE
  5
381
330
1F
100
AcDbEntity
  8
HIDDEN
100
AcDbLine
 10
37.38357905539873
 20
-22.99123637348368
 30
0.0
 11
139.8061486722745
 21
-42.09418916438909
 31
0.0
1001
DBPROPERTIES
1002
{
1000
PbHidd
1002
}
  0
LINE
  5
382
330
1F
100
AcDbEntity
  8
HIDDEN
100
AcDbLine
 10
151.5867486722745
 20
-31.89189029256613
 30
0.0
 11
151.5867486722745
 21
-32.87915925288038
 31
0.0
1001
DBPROPERTIES
1002
{
1000
PbHidd
1002
}
  0
LINE
  5
383
330
1F
100
AcDbEntity
  8
HIDDEN
100
AcDbLine
 10
139.8061486722745
 20
-42.09418916438909
 30
0.0
 11
151.5867486722745
 21
-31.89189029256613
 31
0.0
1001
DBPROPERTIES
1002
{
1000
PbHidd
1002
}
  0
LINE
  5
384
330
1F
100
AcDbEntity
  8
THICK
100
AcDbLine
 10
20.21098536208684
 20
3.75826580289142
 30
0.0
 11
25.03735194660817
 21
2.36501377950082
 31
0.0
1001
DBPROPERTIES
1002
{
1000
PbThick
1002
}
  0
LINE
  5
385
330
1F
100
AcDbEntity
  8
HIDDEN
100
AcDbLine
 10
25.03735194660817
 20
2.36501377950082
 30
0.0
 11
107.9047160705793
 21
-21.5567337125039
 31
0.0
1001
DBPROPERTIES
1002
{
1000
PbHidd
1002
}
  0
LINE
  5
386
330
1F
100
AcDbEntity
  8
HIDDEN
100
AcDbLine
 10
109.8747160705793
 20
-19.85066366704854
 30
0.0
 11
151.5867486722745
 21
-31.89189029256612
 31
0.0
1001
DBPROPERTIES
1002
{
1000
PbHidd
1002
}
  0
LINE
  5
387
330
1F
100
AcDbEntity
  8
HIDDEN
100
AcDbLine
 10
107.9047160705793
 20
-21.55673371250389
 30
0.0
 11
109.8747160705793
 21
-19.85066366704854
 31
0.0
1001
DBPROPERTIES
1002
{
1000
PbHidd
1002
}
  0
ELLIPSE
  5
388
330
1F
100
AcDbEntity
  8
HIDDEN
100
AcDbEllipse
 10
7.879999999999999
 20
6.824280181821374
 30
0.0
 11
-75.61249896677137
 21
87.30979326513152
 31
0.0
210
0.0
220
0.0
230
1.0
 40
0.7500000000000001
 41
-2.422933189677602
 42
-1.647405196215005
1001
DBPROPERTIES
1002
{
1000
PbHidd
1002
}
  0
LINE
  5
389
330
1F
100
AcDbEntity
  8
HIDDEN
100
AcDbLine
 10
78.95720730811222
 20
56.68516052694768
 30
0.0
 11
16.94837565659028
 21
12.57673669849592
 31
0.0
1001
DBPROPERTIES
1002
{
1000
PbHidd
1002
}
  0
ELLIPSE
  5
38A
330
1F
100
AcDbEntity
  8
HIDDEN
100
AcDbEllipse
 10
9.85
 20
8.530350227276717
 30
0.0
 11
75.61249896677137
 21
-87.30979326513152
 31
0.0
210
0.0
220
0.0
230
1.0
 40
0.7500000000000001
 41
0.7186594639121915
 42
1.494187457374789
1001
DBPROPERTIES
1002
{
1000
PbHidd
1002
}
  0
LINE
  5
38B
330
1F
100
AcDbEntity
  8
HIDDEN
100
AcDbLine
 10
80.92720730811223
 20
58.39123057240304
 30
0.0
 11
78.95720730811223
 21
56.68516052694769
 31
0.0
1001
DBPROPERTIES
1002
{
1000
PbHidd
1002
}
  0
LINE
  5
38C
330
1F
100
AcDbEntity
  8
THICK
100
AcDbLine
 10
12.57497565659026
 20
8.789261197585049
 30
0.0
 11
12.93101178535827
 21
9.042518548960338
 31
0.0
1001
DBPROPERTIES
1002
{
1000
PbThick
1002
}
  0
LINE
  5
38D
330
1F
100
AcDbEntity
  8
HIDDEN
100
AcDbLine
 10
110.4220684178452
 20
79.37165868142856
 30
0.0
 11
80.92720730811217
 21
58.391230572403
 31
0.0
1001
DBPROPERTIES
1002
{
1000
PbHidd
1002
}
  0
LINE
  5
38E
330
1F
100
AcDbEntity
  8
HIDDEN
100
AcDbLine
 10
98.64146841784527
 20
69.16935980960564
 30
0.0
 11
110.4220684178453
 21
79.37165868142858
 31
0.0
1001
DBPROPERTIES
1002
{
1000
PbHidd
1002
}
  0
LINE
  5
38F
330
1F
100
AcDbEntity
  8
HIDDEN
100
AcDbLine
 10
23.56357654631368
 20
14.36269220039043
 30
0.0
 11
98.64146841784529
 21
69.16935980960562
 31
0.0
1001
DBPROPERTIES
1002
{
1000
PbHidd
1002
}
  0
LINE
  5
390
330
1F
100
AcDbEntity
  8
THICK
100
AcDbLine
 10
12.93101178535828
 20
9.042518548960341
 30
0.0
 11
18.59746689504806
 21
11.87781989434093
 31
0.0
1001
DBPROPERTIES
1002
{
1000
PbThick
1002
}
  0
LINE
  5
391
330
1F
100
AcDbEntity
  8
HIDDEN
100
AcDbLine
 10
18.59746689504806
 20
11.87781989434093
 30
0.0
 11
23.56357654631368
 21
14.36269220039044
 31
0.0
1001
DBPROPERTIES
1002
{
1000
PbHidd
1002
}
  0
LINE
  5
392
330
1F
100
AcDbEntity
  8
THICK
100
AcDbLine
 10
11.87687107989705
 20
9.68889120691642
 30
0.0
 11
12.23290720866506
 21
9.94214855829171
 31
0.0
1001
DBPROPERTIES
1002
{
1000
PbThick
1002
}
  0
LINE
  5
393
330
1F
100
AcDbEntity
  8
THICK
100
AcDbLine
 10
12.23290720866507
 20
9.942148558291715
 30
0.0
 11
12.93101178535827
 21
9.042518548960343
 31
0.0
1001
DBPROPERTIES
1002
{
1000
PbThick
1002
}
  0
LINE
  5
394
330
1F
100
AcDbEntity
  8
HIDDEN
100
AcDbLine
 10
22.86547196962047
 20
15.26232220972181
 30
0.0
 11
23.56357654631367
 21
14.36269220039044
 31
0.0
1001
DBPROPERTIES
1002
{
1000
PbHidd
1002
}
  0
LINE
  5
395
330
1F
100
AcDbEntity
  8
THICK
100
AcDbLine
 10
12.23290720866507
 20
9.942148558291715
 30
0.0
 11
17.87931391230086
 21
12.76741836339584
 31
0.0
1001
DBPROPERTIES
1002
{
1000
PbThick
1002
}
  0
LINE
  5
396
330
1F
100
AcDbEntity
  8
HIDDEN
100
AcDbLine
 10
17.87931391230086
 20
12.76741836339584
 30
0.0
 11
22.86547196962047
 21
15.26232220972182
 31
0.0
1001
DBPROPERTIES
1002
{
1000
PbHidd
1002
}
  0
LINE
  5
397
330
1F
100
AcDbEntity
  8
HIDDEN
100
AcDbLine
 10
97.94336384115208
 20
70.068989818937
 30
0.0
 11
98.64146841784529
 21
69.16935980960562
 31
0.0
1001
DBPROPERTIES
1002
{
1000
PbHidd
1002
}
  0
LINE
  5
398
330
1F
100
AcDbEntity
  8
HIDDEN
100
AcDbLine
 10
22.86547196962047
 20
15.26232220972181
 30
0.0
 11
97.94336384115206
 21
70.06898981893701
 31
0.0
1001
DBPROPERTIES
1002
{
1000
PbHidd
1002
}
  0
LINE
  5
399
330
1F
100
AcDbEntity
  8
HIDDEN
100
AcDbLine
 10
109.7239638411521
 20
80.27128869075995
 30
0.0
 11
110.4220684178453
 21
79.37165868142857
 31
0.0
1001
DBPROPERTIES
1002
{
1000
PbHidd
1002
}
  0
LINE
  5
39A
330
1F
100
AcDbEntity
  8
HIDDEN
100
AcDbLine
 10
97.94336384115208
 20
70.068989818937
 30
0.0
 11
109.7239638411521
 21
80.27128869075995
 31
0.0
1001
DBPROPERTIES
1002
{
1000
PbHidd
1002
}
  0
LINE
  5
39B
330
1F
100
AcDbEntity
  8
THICK
100
AcDbLine
 10
16.25027107989707
 20
13.4763667078273
 30
0.0
 11
16.89962321944375
 21
13.93826703109091
 31
0.0
1001
DBPROPERTIES
1002
{
1000
PbThick
1002
}
  0
LINE
  5
39C
330
1F
100
AcDbEntity
  8
HIDDEN
100
AcDbLine
 10
16.89962321944375
 20
13.93826703109091
 30
0.0
 11
78.259102731419
 21
57.58479053627906
 31
0.0
1001
DBPROPERTIES
1002
{
1000
PbHidd
1002
}
  0
LINE
  5
39D
330
1F
100
AcDbEntity
  8
HIDDEN
100
AcDbLine
 10
80.22910273141898
 20
59.29086058173436
 30
0.0
 11
109.723963841152
 21
80.27128869075992
 31
0.0
1001
DBPROPERTIES
1002
{
1000
PbHidd
1002
}
  0
LINE
  5
39E
330
1F
100
AcDbEntity
  8
HIDDEN
100
AcDbLine
 10
78.25910273141902
 20
57.58479053627907
 30
0.0
 11
80.22910273141902
 21
59.29086058173441
 31
0.0
1001
DBPROPERTIES
1002
{
1000
PbHidd
1002
}
  0
ELLIPSE
  5
39F
330
1F
100
AcDbEntity
  8
HIDDEN
100
AcDbEllipse
 10
7.879999999999999
 20
6.824280181821374
 30
0.0
 11
-75.61249896677137
 21
87.30979326513152
 31
0.0
210
0.0
220
0.0
230
1.0
 40
0.7500000000000001
 41
-1.637535026280154
 42
-0.862007032817556
1001
DBPROPERTIES
1002
{
1000
PbHidd
1002
}
  0
LINE
  5
3A0
330
1F
100
AcDbEntity
  8
HIDDEN
100
AcDbLine
 10
8.37363448015713
 20
106.7064962524007
 30
0.0
 11
8.37363448015713
 21
22.44644865279178
 31
0.0
1001
DBPROPERTIES
1002
{
1000
PbHidd
1002
}
  0
LINE
  5
3A1
330
1F
100
AcDbEntity
  8
THICK
100
AcDbLine
 10
8.37363448015713
 20
22.44644865279178
 30
0.0
 11
8.37363448015713
 21
19.01276554390822
 31
0.0
1001
DBPROPERTIES
1002
{
1000
PbThick
1002
}
  0
ELLIPSE
  5
3A2
330
1F
100
AcDbEntity
  8
HIDDEN
100
AcDbEllipse
 10
9.85
 20
8.530350227276717
 30
0.0
 11
75.61249896677137
 21
-87.30979326513152
 31
0.0
210
0.0
220
0.0
230
1.0
 40
0.7500000000000001
 41
1.504057627309639
 42
2.279585620772237
1001
DBPROPERTIES
1002
{
1000
PbHidd
1002
}
  0
LINE
  5
3A3
330
1F
100
AcDbEntity
  8
HIDDEN
100
AcDbLine
 10
10.34363448015714
 20
108.412566297856
 30
0.0
 11
8.37363448015713
 21
106.7064962524007
 31
0.0
1001
DBPROPERTIES
1002
{
1000
PbHidd
1002
}
  0
LINE
  5
3A4
330
1F
100
AcDbEntity
  8
THICK
100
AcDbLine
 10
4.00023448015713
 20
15.22529004299735
 30
0.0
 11
4.00023448015713
 21
15.72880116499589
 31
0.0
1001
DBPROPERTIES
1002
{
1000
PbThick
1002
}
  0
LINE
  5
3A5
330
1F
100
AcDbEntity
  8
HIDDEN
100
AcDbLine
 10
10.34363448015714
 20
150.1245988995512
 30
0.0
 11
10.34363448015714
 21
108.412566297856
 31
0.0
1001
DBPROPERTIES
1002
{
1000
PbHidd
1002
}
  0
LINE
  5
3A6
330
1F
100
AcDbEntity
  8
HIDDEN
100
AcDbLine
 10
-1.436965519842866
 20
139.9223000277283
 30
0.0
 11
10.34363448015714
 21
150.1245988995512
 31
0.0
1001
DBPROPERTIES
1002
{
1000
PbHidd
1002
}
  0
LINE
  5
3A7
330
1F
100
AcDbEntity
  8
HIDDEN
100
AcDbLine
 10
-10.49896551984287
 20
38.71380820175792
 30
0.0
 11
-1.43696551984287
 21
139.9223000277283
 31
0.0
1001
DBPROPERTIES
1002
{
1000
PbHidd
1002
}
  0
LINE
  5
3A8
330
1F
100
AcDbEntity
  8
THICK
100
AcDbLine
 10
4.00023448015713
 20
15.72880116499589
 30
0.0
 11
-6.310650733780508
 21
32.07423878897529
 31
0.0
1001
DBPROPERTIES
1002
{
1000
PbThick
1002
}
  0
LINE
  5
3A9
330
1F
100
AcDbEntity
  8
HIDDEN
100
AcDbLine
 10
-6.310650733780508
 20
32.07423878897529
 30
0.0
 11
-10.49896551984286
 21
38.7138082017579
 31
0.0
1001
DBPROPERTIES
1002
{
1000
PbHidd
1002
}
  0
LINE
  5
3AA
330
1F
100
AcDbEntity
  8
THICK
100
AcDbLine
 10
3.01296551984287
 20
15.51029004299735
 30
0.0
 11
3.01296551984287
 21
16.01380116499589
 31
0.0
1001
DBPROPERTIES
1002
{
1000
PbThick
1002
}
  0
LINE
  5
3AB
330
1F
100
AcDbEntity
  8
THICK
100
AcDbLine
 10
3.01296551984287
 20
16.01380116499589
 30
0.0
 11
4.00023448015713
 21
15.72880116499589
 31
0.0
1001
DBPROPERTIES
1002
{
1000
PbThick
1002
}
  0
LINE
  5
3AC
330
1F
100
AcDbEntity
  8
HIDDEN
100
AcDbLine
 10
-11.48623448015713
 20
38.99880820175792
 30
0.0
 11
-10.49896551984287
 21
38.71380820175792
 31
0.0
1001
DBPROPERTIES
1002
{
1000
PbHidd
1002
}
  0
LINE
  5
3AD
330
1F
100
AcDbEntity
  8
THICK
100
AcDbLine
 10
3.01296551984287
 20
16.01380116499589
 30
0.0
 11
-7.45992878245631
 21
32.61606537499448
 31
0.0
1001
DBPROPERTIES
1002
{
1000
PbThick
1002
}
  0
LINE
  5
3AE
330
1F
100
AcDbEntity
  8
HIDDEN
100
AcDbLine
 10
-7.45992878245631
 20
32.61606537499448
 30
0.0
 11
-11.48623448015711
 21
38.9988082017579
 31
0.0
1001
DBPROPERTIES
1002
{
1000
PbHidd
1002
}
  0
LINE
  5
3AF
330
1F
100
AcDbEntity
  8
HIDDEN
100
AcDbLine
 10
-2.424234480157126
 20
140.2073000277283
 30
0.0
 11
-1.436965519842866
 21
139.9223000277283
 31
0.0
1001
DBPROPERTIES
1002
{
1000
PbHidd
1002
}
  0
LINE
  5
3B0
330
1F
100
AcDbEntity
  8
HIDDEN
100
AcDbLine
 10
-11.48623448015713
 20
38.99880820175792
 30
0.0
 11
-2.42423448015713
 21
140.2073000277283
 31
0.0
1001
DBPROPERTIES
1002
{
1000
PbHidd
1002
}
  0
LINE
  5
3B1
330
1F
100
AcDbEntity
  8
HIDDEN
100
AcDbLine
 10
9.356365519842875
 20
150.4095988995512
 30
0.0
 11
10.34363448015714
 21
150.1245988995512
 31
0.0
1001
DBPROPERTIES
1002
{
1000
PbHidd
1002
}
  0
LINE
  5
3B2
330
1F
100
AcDbEntity
  8
HIDDEN
100
AcDbLine
 10
-2.424234480157126
 20
140.2073000277283
 30
0.0
 11
9.356365519842875
 21
150.4095988995512
 31
0.0
1001
DBPROPERTIES
1002
{
1000
PbHidd
1002
}
  0
LINE
  5
3B3
330
1F
100
AcDbEntity
  8
HIDDEN
100
AcDbLine
 10
7.386365519842869
 20
19.29776554390822
 30
0.0
 11
7.386365519842869
 21
106.9914962524007
 31
0.0
1001
DBPROPERTIES
1002
{
1000
PbHidd
1002
}
  0
LINE
  5
3B4
330
1F
100
AcDbEntity
  8
HIDDEN
100
AcDbLine
 10
9.356365519842875
 20
108.697566297856
 30
0.0
 11
9.356365519842877
 21
150.4095988995512
 31
0.0
1001
DBPROPERTIES
1002
{
1000
PbHidd
1002
}
  0
LINE
  5
3B5
330
1F
100
AcDbEntity
  8
HIDDEN
100
AcDbLine
 10
7.386365519842869
 20
106.9914962524007
 30
0.0
 11
9.356365519842875
 21
108.697566297856
 31
0.0
1001
DBPROPERTIES
1002
{
1000
PbHidd
1002
}
  0
ELLIPSE
  5
3B6
330
1F
100
AcDbEntity
  8
HIDDEN
100
AcDbEllipse
 10
9.85
 20
8.530350227276717
 30
0.0
 11
75.61249896677137
 21
-87.30979326513152
 31
0.0
210
0.0
220
0.0
230
1.0
 40
0.7500000000000001
 41
2.289455790707088
 42
3.064983784169686
1001
DBPROPERTIES
1002
{
1000
PbHidd
1002
}
  0
ELLIPSE
  5
3B7
330
1F
100
AcDbEntity
  8
HIDDEN
100
AcDbEllipse
 10
7.879999999999999
 20
6.824280181821374
 30
0.0
 11
-75.61249896677137
 21
87.30979326513152
 31
0.0
210
0.0
220
0.0
230
1.0
 40
0.7500000000000001
 41
-0.8521368628827058
 42
-0.0766088694201074
1001
DBPROPERTIES
1002
{
1000
PbHidd
1002
}
  0
ELLIPSE
  5
3B8
330
1F
100
AcDbEntity
  8
HIDDEN
100
AcDbEllipse
 10
-6.48528351268786
 20
-11.77642027273206
 30
0.0
 11
-114.9309984294925
 21
132.7108857629999
 31
0.0
210
0.0
220
0.0
230
1.0
 40
0.75
 41
-2.427868274645027
 42
-0.8570719478501307
1001
DBPROPERTIES
1002
{
1000
PbHidd
1002
}
  0
ELLIPSE
  5
3B9
330
1F
100
AcDbEntity
  8
HIDDEN
100
AcDbEllipse
 10
17.15471648731214
 20
8.696420272732064
 30
0.0
 11
114.9309984294925
 21
-132.7108857629999
 31
0.0
210
0.0
220
0.0
230
1.0
 40
0.75
 41
0.713724378944766
 42
2.284520705739662
1001
DBPROPERTIES
1002
{
1000
PbHidd
1002
}
  0
LINE
  5
3BA
330
1F
100
AcDbEntity
  8
HIDDEN
100
AcDbLine
 10
145.5541363757082
 20
-55.66642027273204
 30
0.0
 11
169.1941363757082
 21
-35.19357972726792
 31
0.0
1001
DBPROPERTIES
1002
{
1000
PbHidd
1002
}
  0
ELLIPSE
  5
3BB
330
1F
100
AcDbEntity
  8
HIDDEN
100
AcDbEllipse
 10
-155.7893098867827
 20
44.97249999999998
 30
0.0
 11
-20.0
 21
-1.224606353822377E-15
 31
0.0
210
0.0
220
0.0
230
1.0
 40
0.4999999999999999
 41
0.0000480199718125
 42
1.047197551196598
1001
DBPROPERTIES
1002
{
1000
PbHidd
1002
}
  0
ELLIPSE
  5
3BC
330
1F
100
AcDbEntity
  8
HIDDEN
100
AcDbEllipse
 10
-155.7893098867827
 20
44.97249999999998
 30
0.0
 11
-20.0
 21
-1.224606353822377E-15
 31
0.0
210
0.0
220
0.0
230
1.0
 40
0.4999999999999999
 41
-0.1710624736703651
 42
0.0000480199718125
1001
DBPROPERTIES
1002
{
1000
PbHidd
1002
}
  0
LINE
  5
3BD
330
1F
100
AcDbEntity
  8
HIDDEN
100
AcDbLine
 10
-158.5247034010839
 20
32.11357972726792
 30
0.0
 11
-167.6093098867827
 21
34.73607972726792
 31
0.0
1001
DBPROPERTIES
1002
{
1000
PbHidd
1002
}
  0
ELLIPSE
  5
3BE
330
1F
100
AcDbEntity
  8
HIDDEN
100
AcDbEllipse
 10
-155.7893098867827
 20
44.97249999999998
 30
0.0
 11
23.64
 21
1.447484710218050E-15
 31
0.0
210
0.0
220
0.0
230
1.0
 40
0.4999999999999999
 41
-3.011744817596867
 42
-2.094395102393195
1001
DBPROPERTIES
1002
{
1000
PbHidd
1002
}
  0
ELLIPSE
  5
3BF
330
1F
100
AcDbEntity
  8
HIDDEN
100
AcDbEllipse
 10
-155.7893098867827
 20
44.97249999999998
 30
0.0
 11
-20.0
 21
-1.224606353822377E-15
 31
0.0
210
0.0
220
0.0
230
1.0
 40
0.4999999999999999
 41
-2.094395102393195
 42
-0.8761350775262333
1001
DBPROPERTIES
1002
{
1000
PbHidd
1002
}
  0
ELLIPSE
  5
3C0
330
1F
100
AcDbEntity
  8
HIDDEN
100
AcDbEllipse
 10
-155.7893098867827
 20
44.97249999999998
 30
0.0
 11
23.64
 21
1.447484710218050E-15
 31
0.0
210
0.0
220
0.0
230
1.0
 40
0.4999999999999999
 41
1.047197551196598
 42
1.964547266400269
1001
DBPROPERTIES
1002
{
1000
PbHidd
1002
}
  0
LINE
  5
3C1
330
1F
100
AcDbEntity
  8
HIDDEN
100
AcDbLine
 10
-143.9693098867827
 20
55.20892027273204
 30
0.0
 11
-134.8847034010839
 21
52.58642027273204
 31
0.0
1001
DBPROPERTIES
1002
{
1000
PbHidd
1002
}
  0
LINE
  5
3C2
330
1F
100
AcDbEntity
  8
HIDDEN
100
AcDbLine
 10
-167.6093098867827
 20
-36.61211418820548
 30
0.0
 11
-167.6093098867827
 21
34.73607972726792
 31
0.0
1001
DBPROPERTIES
1002
{
1000
PbHidd
1002
}
  0
ELLIPSE
  5
3C3
330
1F
100
AcDbEntity
  8
HIDDEN
100
AcDbEllipse
 10
-19.1552351700542
 20
-8.118920272732064
 30
0.0
 11
-124.5085816319502
 21
143.7701262432499
 31
0.0
210
0.0
220
0.0
230
1.0
 40
0.75
 41
2.284520705739662
 42
3.141593044126454
1001
DBPROPERTIES
1002
{
1000
PbHidd
1002
}
  0
ELLIPSE
  5
3C4
330
1F
100
AcDbEntity
  8
HIDDEN
100
AcDbEllipse
 10
-19.1552351700542
 20
-8.118920272732064
 30
0.0
 11
-124.5085816319502
 21
143.7701262432499
 31
0.0
210
0.0
220
0.0
230
1.0
 40
0.75
 41
-3.141592263053132
 42
-2.427868274645027
1001
DBPROPERTIES
1002
{
1000
PbHidd
1002
}
  0
ELLIPSE
  5
3C5
330
1F
100
AcDbEntity
  8
THICK
100
AcDbEllipse
 10
-11.82
 20
-10.23642027273206
 30
0.0
 11
37.3152592303547
 21
-43.08794992305192
 31
0.0
210
0.0
220
0.0
230
1.0
 40
0.75
 41
-3.08059424756776
 42
-2.427868274645027
1001
DBPROPERTIES
1002
{
1000
PbThick
1002
}
  0
ELLIPSE
  5
3C6
330
1F
100
AcDbEntity
  8
HIDDEN
100
AcDbEllipse
 10
-11.82
 20
-10.23642027273206
 30
0.0
 11
37.3152592303547
 21
-43.08794992305192
 31
0.0
210
0.0
220
0.0
230
1.0
 40
0.75
 41
3.1415783479752
 42
3.202591059611826
1001
DBPROPERTIES
1002
{
1000
PbHidd
1002
}
  0
ELLIPSE
  5
3C7
330
1F
100
AcDbEntity
  8
HIDDEN
100
AcDbEllipse
 10
-11.82
 20
-10.23642027273206
 30
0.0
 11
37.3152592303547
 21
-43.08794992305192
 31
0.0
210
0.0
220
0.0
230
1.0
 40
0.75
 41
0.7137243789447659
 42
3.1415783479752
1001
DBPROPERTIES
1002
{
1000
PbHidd
1002
}
  0
ELLIPSE
  5
3C8
330
1F
100
AcDbEntity
  8
HIDDEN
100
AcDbEllipse
 10
28.32101315985931
 20
18.31688051043272
 30
0.0
 11
1.119457776910641
 21
-1.292638497691557
 31
0.0
210
0.0
220
0.0
230
1.0
 40
0.75
 41
0.0000790104207769
 42
3.069918869137105
1001
DBPROPERTIES
1002
{
1000
PbHidd
1002
}
  0
ELLIPSE
  5
3C9
330
1F
100
AcDbEntity
  8
HIDDEN
100
AcDbEllipse
 10
28.32101315985931
 20
18.31688051043272
 30
0.0
 11
1.119457776910641
 21
-1.292638497691557
 31
0.0
210
0.0
220
0.0
230
1.0
 40
0.75
 41
-0.0716737844526807
 42
0.0000790104207769
1001
DBPROPERTIES
1002
{
1000
PbHidd
1002
}
  0
ELLIPSE
  5
3CA
330
1F
100
AcDbEntity
  8
HIDDEN
100
AcDbEllipse
 10
-51.96101315985933
 20
41.49230526382179
 30
0.0
 11
1.119457776910641
 21
-1.292638497691557
 31
0.0
210
0.0
220
0.0
230
1.0
 40
0.75
 41
-3.141513643169028
 42
-1.642470111247584
1001
DBPROPERTIES
1002
{
1000
PbHidd
1002
}
  0
ELLIPSE
  5
3CB
330
1F
100
AcDbEntity
  8
HIDDEN
100
AcDbEllipse
 10
-51.96101315985933
 20
41.49230526382179
 30
0.0
 11
1.119457776910641
 21
-1.292638497691557
 31
0.0
210
0.0
220
0.0
230
1.0
 40
0.75
 41
1.499122542342216
 42
3.141671664010558
1001
DBPROPERTIES
1002
{
1000
PbHidd
1002
}
  0
ELLIPSE
  5
3CC
330
1F
100
AcDbEntity
  8
HIDDEN
100
AcDbEllipse
 10
-51.96101315985932
 20
-38.78972105589684
 30
0.0
 11
1.119457776910641
 21
-1.292638497691557
 31
0.0
210
0.0
220
0.0
230
1.0
 40
0.75
 41
-3.141513643169024
 42
-0.0716737844526842
1001
DBPROPERTIES
1002
{
1000
PbHidd
1002
}
  0
ELLIPSE
  5
3CD
330
1F
100
AcDbEntity
  8
HIDDEN
100
AcDbEllipse
 10
-51.96101315985932
 20
-38.78972105589684
 30
0.0
 11
1.119457776910641
 21
-1.292638497691557
 31
0.0
210
0.0
220
0.0
230
1.0
 40
0.75
 41
3.069918869137109
 42
3.141671664010562
1001
DBPROPERTIES
1002
{
1000
PbHidd
1002
}
  0
ELLIPSE
  5
3CE
330
1F
100
AcDbEntity
  8
HIDDEN
100
AcDbEllipse
 10
28.32101315985932
 20
-61.96514580928593
 30
0.0
 11
1.119457776910641
 21
-1.292638497691557
 31
0.0
210
0.0
220
0.0
230
1.0
 40
0.75
 41
0.0000790104207727
 42
1.499122542342216
1001
DBPROPERTIES
1002
{
1000
PbHidd
1002
}
  0
ELLIPSE
  5
3CF
330
1F
100
AcDbEntity
  8
HIDDEN
100
AcDbEllipse
 10
28.32101315985932
 20
-61.96514580928593
 30
0.0
 11
1.119457776910641
 21
-1.292638497691557
 31
0.0
210
0.0
220
0.0
230
1.0
 40
0.75
 41
-1.642470111247584
 42
0.0000790104207726
1001
DBPROPERTIES
1002
{
1000
PbHidd
1002
}
  0
LINE
  5
3D0
330
1F
100
AcDbEntity
  8
HIDDEN
100
AcDbLine
 10
-143.9693098867827
 20
-16.13927364274135
 30
0.0
 11
-143.9693098867827
 21
55.20892027273204
 31
0.0
1001
DBPROPERTIES
1002
{
1000
PbHidd
1002
}
  0
ELLIPSE
  5
3D1
330
1F
100
AcDbEntity
  8
HIDDEN
100
AcDbEllipse
 10
4.484764829945806
 20
12.35392027273206
 30
0.0
 11
124.5085816319502
 21
-143.7701262432499
 31
0.0
210
0.0
220
0.0
230
1.0
 40
0.75
 41
0.0000003905366619
 42
0.7137243789447659
1001
DBPROPERTIES
1002
{
1000
PbHidd
1002
}
  0
ELLIPSE
  5
3D2
330
1F
100
AcDbEntity
  8
HIDDEN
100
AcDbEllipse
 10
4.484764829945806
 20
12.35392027273206
 30
0.0
 11
124.5085816319502
 21
-143.7701262432499
 31
0.0
210
0.0
220
0.0
230
1.0
 40
0.75
 41
-0.8570719478501307
 42
0.0000003905366619
1001
DBPROPERTIES
1002
{
1000
PbHidd
1002
}
  0
ELLIPSE
  5
3D3
330
1F
100
AcDbEntity
  8
THICK
100
AcDbEllipse
 10
-155.7893098867827
 20
174.8763105676658
 30
0.0
 11
-20.0
 21
-1.224606353822377E-15
 31
0.0
210
0.0
220
0.0
230
1.0
 40
0.4999999999999999
 41
0.000031477933677
 42
1.047197551196597
1001
DBPROPERTIES
1002
{
1000
PbThick
1002
}
  0
ELLIPSE
  5
3D4
330
1F
100
AcDbEntity
  8
THICK
100
AcDbEllipse
 10
-155.7893098867827
 20
174.8763105676658
 30
0.0
 11
-20.0
 21
-1.224606353822377E-15
 31
0.0
210
0.0
220
0.0
230
1.0
 40
0.4999999999999999
 41
-2.094395102393195
 42
0.000031477933677
1001
DBPROPERTIES
1002
{
1000
PbThick
1002
}
  0
ELLIPSE
  5
3D5
330
1F
100
AcDbEntity
  8
HIDDEN
100
AcDbEllipse
 10
-155.7893098867827
 20
44.10647459621554
 30
0.0
 11
-20.0
 21
-1.224606353822377E-15
 31
0.0
210
0.0
220
0.0
230
1.0
 40
0.4999999999999999
 41
-0.8765155825157349
 42
-0.1706819686808619
1001
DBPROPERTIES
1002
{
1000
PbHidd
1002
}
  0
ELLIPSE
  5
3D6
330
1F
100
AcDbEntity
  8
THICK
100
AcDbEllipse
 10
-15.76
 20
-13.64856036364275
 30
0.0
 11
37.3152592303547
 21
-43.08794992305192
 31
0.0
210
0.0
220
0.0
230
1.0
 40
0.75
 41
3.1415783479752
 42
3.855317032534559
1001
DBPROPERTIES
1002
{
1000
PbThick
1002
}
  0
ELLIPSE
  5
3D7
330
1F
100
AcDbEntity
  8
THICK
100
AcDbEllipse
 10
-15.76
 20
-13.64856036364275
 30
0.0
 11
37.3152592303547
 21
-43.08794992305192
 31
0.0
210
0.0
220
0.0
230
1.0
 40
0.75
 41
0.7137243789447659
 42
3.1415783479752
1001
DBPROPERTIES
1002
{
1000
PbThick
1002
}
  0
ELLIPSE
  5
3D8
330
1F
100
AcDbEntity
  8
THICK
100
AcDbEllipse
 10
24.38101315985931
 20
14.90474041952204
 30
0.0
 11
1.119457776910641
 21
-1.292638497691557
 31
0.0
210
0.0
220
0.0
230
1.0
 40
0.75
 41
0.0000790104207769
 42
3.069918869137106
1001
DBPROPERTIES
1002
{
1000
PbThick
1002
}
  0
ELLIPSE
  5
3D9
330
1F
100
AcDbEntity
  8
THICK
100
AcDbEllipse
 10
24.38101315985931
 20
14.90474041952204
 30
0.0
 11
1.119457776910641
 21
-1.292638497691557
 31
0.0
210
0.0
220
0.0
230
1.0
 40
0.75
 41
-0.0716737844526807
 42
0.0000790104207769
1001
DBPROPERTIES
1002
{
1000
PbThick
1002
}
  0
ELLIPSE
  5
3DA
330
1F
100
AcDbEntity
  8
THICK
100
AcDbEllipse
 10
-55.90101315985932
 20
38.08016517291111
 30
0.0
 11
1.119457776910641
 21
-1.292638497691557
 31
0.0
210
0.0
220
0.0
230
1.0
 40
0.75
 41
-3.141513643169028
 42
-1.642470111247584
1001
DBPROPERTIES
1002
{
1000
PbThick
1002
}
  0
ELLIPSE
  5
3DB
330
1F
100
AcDbEntity
  8
THICK
100
AcDbEllipse
 10
-55.90101315985932
 20
38.08016517291111
 30
0.0
 11
1.119457776910641
 21
-1.292638497691557
 31
0.0
210
0.0
220
0.0
230
1.0
 40
0.75
 41
1.499122542342216
 42
3.141671664010558
1001
DBPROPERTIES
1002
{
1000
PbThick
1002
}
  0
ELLIPSE
  5
3DC
330
1F
100
AcDbEntity
  8
THICK
100
AcDbEllipse
 10
-55.90101315985932
 20
-42.20186114680753
 30
0.0
 11
1.119457776910641
 21
-1.292638497691557
 31
0.0
210
0.0
220
0.0
230
1.0
 40
0.75
 41
-3.141513643169024
 42
-0.0716737844526807
1001
DBPROPERTIES
1002
{
1000
PbThick
1002
}
  0
ELLIPSE
  5
3DD
330
1F
100
AcDbEntity
  8
THICK
100
AcDbEllipse
 10
-55.90101315985932
 20
-42.20186114680753
 30
0.0
 11
1.119457776910641
 21
-1.292638497691557
 31
0.0
210
0.0
220
0.0
230
1.0
 40
0.75
 41
3.069918869137109
 42
3.141671664010562
1001
DBPROPERTIES
1002
{
1000
PbThick
1002
}
  0
ELLIPSE
  5
3DE
330
1F
100
AcDbEntity
  8
THICK
100
AcDbEllipse
 10
24.38101315985932
 20
-65.37728590019661
 30
0.0
 11
1.119457776910641
 21
-1.292638497691557
 31
0.0
210
0.0
220
0.0
230
1.0
 40
0.75
 41
0.0000790104207727
 42
1.499122542342216
1001
DBPROPERTIES
1002
{
1000
PbThick
1002
}
  0
ELLIPSE
  5
3DF
330
1F
100
AcDbEntity
  8
THICK
100
AcDbEllipse
 10
24.38101315985932
 20
-65.37728590019661
 30
0.0
 11
1.119457776910641
 21
-1.292638497691557
 31
0.0
210
0.0
220
0.0
230
1.0
 40
0.75
 41
-1.642470111247584
 42
0.0000790104207726
1001
DBPROPERTIES
1002
{
1000
PbThick
1002
}
  0
ELLIPSE
  5
3E0
330
1F
100
AcDbEntity
  8
THICK
100
AcDbEllipse
 10
-15.76
 20
-13.64856036364275
 30
0.0
 11
-48.50983699946111
 21
56.01433489996749
 31
0.0
210
0.0
220
0.0
230
1.0
 40
0.75
 41
-2.427868274645027
 42
-0.0000143056145929
1001
DBPROPERTIES
1002
{
1000
PbThick
1002
}
  0
ELLIPSE
  5
3E1
330
1F
100
AcDbEntity
  8
THICK
100
AcDbEllipse
 10
-15.76
 20
-13.64856036364275
 30
0.0
 11
-48.50983699946111
 21
56.01433489996749
 31
0.0
210
0.0
220
0.0
230
1.0
 40
0.75
 41
-0.000014305614593
 42
0.7137243789447658
1001
DBPROPERTIES
1002
{
1000
PbThick
1002
}
  0
ELLIPSE
  5
3E2
330
1F
100
AcDbEntity
  8
HIDDEN
100
AcDbEllipse
 10
-14.775
 20
-12.79552534091508
 30
0.0
 11
48.50983699946111
 21
-56.01433489996749
 31
0.0
210
0.0
220
0.0
230
1.0
 40
0.75
 41
3.1415783479752
 42
3.855317032534558
1001
DBPROPERTIES
1002
{
1000
PbHidd
1002
}
  0
ELLIPSE
  5
3E3
330
1F
100
AcDbEntity
  8
THICK
100
AcDbEllipse
 10
-14.775
 20
-12.79552534091508
 30
0.0
 11
48.50983699946111
 21
-56.01433489996749
 31
0.0
210
0.0
220
0.0
230
1.0
 40
0.75
 41
0.7137243789447658
 42
3.1415783479752
1001
DBPROPERTIES
1002
{
1000
PbThick
1002
}
  0
ELLIPSE
  5
3E4
330
1F
100
AcDbEntity
  8
HIDDEN
100
AcDbEllipse
 10
14.77499999999998
 20
12.79552534091508
 30
0.0
 11
-36.54604116727283
 21
42.19973341148023
 31
0.0
210
0.0
220
0.0
230
1.0
 40
0.7499999999999999
 41
-0.857071947850131
 42
-0.0000143056145931
1001
DBPROPERTIES
1002
{
1000
PbHidd
1002
}
  0
ELLIPSE
  5
3E5
330
1F
100
AcDbEntity
  8
HIDDEN
100
AcDbEllipse
 10
14.77499999999998
 20
12.79552534091508
 30
0.0
 11
-36.54604116727283
 21
42.19973341148023
 31
0.0
210
0.0
220
0.0
230
1.0
 40
0.7499999999999999
 41
-0.0000143056145931
 42
2.284520705739662
1001
DBPROPERTIES
1002
{
1000
PbHidd
1002
}
  0
ELLIPSE
  5
3E6
330
1F
100
AcDbEntity
  8
HIDDEN
100
AcDbEllipse
 10
27.57999999999999
 20
23.88498063637482
 30
0.0
 11
-36.54604116727283
 21
42.19973341148023
 31
0.0
210
0.0
220
0.0
230
1.0
 40
0.7499999999999999
 41
-0.857071947850131
 42
-0.4304552644674353
1001
DBPROPERTIES
1002
{
1000
PbHidd
1002
}
  0
LINE
  5
3E7
330
1F
100
AcDbEntity
  8
HIDDEN
100
AcDbLine
 10
7.574813172579464
 20
73.67265459229347
 30
0.0
 11
37.12481317257947
 21
99.26370527412361
 31
0.0
1001
DBPROPERTIES
1002
{
1000
PbHidd
1002
}
  0
ELLIPSE
  5
3E8
330
1F
100
AcDbEntity
  8
HIDDEN
100
AcDbEllipse
 10
57.12999999999999
 20
49.47603131820497
 30
0.0
 11
36.54604116727283
 21
-42.19973341148023
 31
0.0
210
0.0
220
0.0
230
1.0
 40
0.7499999999999999
 41
2.284520705739662
 42
2.711137389122358
1001
DBPROPERTIES
1002
{
1000
PbHidd
1002
}
  0
ELLIPSE
  5
3E9
330
1F
100
AcDbEntity
  8
HIDDEN
100
AcDbEllipse
 10
76.82999999999997
 20
66.53673177275839
 30
0.0
 11
-36.54604116727283
 21
42.19973341148023
 31
0.0
210
0.0
220
0.0
230
1.0
 40
0.7499999999999999
 41
-0.857071947850131
 42
-0.0000598594899085
1001
DBPROPERTIES
1002
{
1000
PbHidd
1002
}
  0
ELLIPSE
  5
3EA
330
1F
100
AcDbEntity
  8
HIDDEN
100
AcDbEllipse
 10
76.82999999999997
 20
66.53673177275839
 30
0.0
 11
-36.54604116727283
 21
42.19973341148023
 31
0.0
210
0.0
220
0.0
230
1.0
 40
0.7499999999999999
 41
-0.0000143056145931
 42
0.7137243789447659
1001
DBPROPERTIES
1002
{
1000
PbHidd
1002
}
  0
LINE
  5
3EB
330
1F
100
AcDbEntity
  8
HIDDEN
100
AcDbLine
 10
73.49808792513548
 20
95.82337614587104
 30
0.0
 11
73.49808792513548
 21
105.8259695595813
 31
0.0
1001
DBPROPERTIES
1002
{
1000
PbHidd
1002
}
  0
LINE
  5
3EC
330
1F
100
AcDbEntity
  8
HIDDEN
100
AcDbLine
 10
36.8219120748645
 20
106.410876145871
 30
0.0
 11
73.49808792513548
 21
95.82337614587104
 31
0.0
1001
DBPROPERTIES
1002
{
1000
PbHidd
1002
}
  0
LINE
  5
3ED
330
1F
100
AcDbEntity
  8
HIDDEN
100
AcDbLine
 10
36.8219120748645
 20
116.4134695595813
 30
0.0
 11
36.8219120748645
 21
106.410876145871
 31
0.0
1001
DBPROPERTIES
1002
{
1000
PbHidd
1002
}
  0
LINE
  5
3EE
330
1F
100
AcDbEntity
  8
HIDDEN
100
AcDbLine
 10
73.49808792513548
 20
105.8259695595813
 30
0.0
 11
36.8219120748645
 21
116.4134695595813
 31
0.0
1001
DBPROPERTIES
1002
{
1000
PbHidd
1002
}
  0
LINE
  5
3EF
330
1F
100
AcDbEntity
  8
HIDDEN
100
AcDbLine
 10
11.2119120748645
 20
84.23196555495157
 30
0.0
 11
36.8219120748645
 21
106.410876145871
 31
0.0
1001
DBPROPERTIES
1002
{
1000
PbHidd
1002
}
  0
LINE
  5
3F0
330
1F
100
AcDbEntity
  8
HIDDEN
100
AcDbLine
 10
11.2119120748645
 20
84.23196555495157
 30
0.0
 11
11.2119120748645
 21
94.23455896866184
 31
0.0
1001
DBPROPERTIES
1002
{
1000
PbHidd
1002
}
  0
LINE
  5
3F1
330
1F
100
AcDbEntity
  8
HIDDEN
100
AcDbLine
 10
11.2119120748645
 20
94.23455896866184
 30
0.0
 11
36.8219120748645
 21
116.4134695595813
 31
0.0
1001
DBPROPERTIES
1002
{
1000
PbHidd
1002
}
  0
LINE
  5
3F2
330
1F
100
AcDbEntity
  8
HIDDEN
100
AcDbLine
 10
47.88808792513548
 20
83.64705896866184
 30
0.0
 11
47.88808792513548
 21
73.64446555495158
 31
0.0
1001
DBPROPERTIES
1002
{
1000
PbHidd
1002
}
  0
LINE
  5
3F3
330
1F
100
AcDbEntity
  8
HIDDEN
100
AcDbLine
 10
73.49808792513548
 20
95.82337614587104
 30
0.0
 11
47.88808792513548
 21
73.64446555495158
 31
0.0
1001
DBPROPERTIES
1002
{
1000
PbHidd
1002
}
  0
LINE
  5
3F4
330
1F
100
AcDbEntity
  8
HIDDEN
100
AcDbLine
 10
73.49808792513548
 20
105.8259695595813
 30
0.0
 11
47.88808792513548
 21
83.64705896866184
 31
0.0
1001
DBPROPERTIES
1002
{
1000
PbHidd
1002
}
  0
LINE
  5
3F5
330
1F
100
AcDbEntity
  8
HIDDEN
100
AcDbLine
 10
47.88808792513548
 20
73.64446555495158
 30
0.0
 11
11.2119120748645
 21
84.23196555495157
 31
0.0
1001
DBPROPERTIES
1002
{
1000
PbHidd
1002
}
  0
LINE
  5
3F6
330
1F
100
AcDbEntity
  8
HIDDEN
100
AcDbLine
 10
47.88808792513548
 20
83.64705896866184
 30
0.0
 11
11.2119120748645
 21
94.23455896866184
 31
0.0
1001
DBPROPERTIES
1002
{
1000
PbHidd
1002
}
  0
LINE
  5
3F7
330
1F
100
AcDbEntity
  8
HIDDEN
100
AcDbLine
 10
37.12481317257947
 20
108.5981961913264
 30
0.0
 11
37.12481317257947
 21
99.2637052741236
 31
0.0
1001
DBPROPERTIES
1002
{
1000
PbHidd
1002
}
  0
LINE
  5
3F8
330
1F
100
AcDbEntity
  8
HIDDEN
100
AcDbLine
 10
77.13518682742053
 20
97.04819619132638
 30
0.0
 11
37.12481317257947
 21
108.5981961913264
 31
0.0
1001
DBPROPERTIES
1002
{
1000
PbHidd
1002
}
  0
LINE
  5
3F9
330
1F
100
AcDbEntity
  8
HIDDEN
100
AcDbLine
 10
77.13518682742053
 20
87.71370527412361
 30
0.0
 11
77.13518682742053
 21
97.04819619132638
 31
0.0
1001
DBPROPERTIES
1002
{
1000
PbHidd
1002
}
  0
LINE
  5
3FA
330
1F
100
AcDbEntity
  8
HIDDEN
100
AcDbLine
 10
7.574813172579471
 20
73.67265459229347
 30
0.0
 11
7.574813172579471
 21
83.00714550949624
 31
0.0
1001
DBPROPERTIES
1002
{
1000
PbHidd
1002
}
  0
LINE
  5
3FB
330
1F
100
AcDbEntity
  8
HIDDEN
100
AcDbLine
 10
7.574813172579468
 20
83.00714550949624
 30
0.0
 11
37.12481317257947
 21
108.5981961913264
 31
0.0
1001
DBPROPERTIES
1002
{
1000
PbHidd
1002
}
  0
LINE
  5
3FC
330
1F
100
AcDbEntity
  8
HIDDEN
100
AcDbLine
 10
47.58518682742053
 20
71.45714550949624
 30
0.0
 11
47.58518682742053
 21
62.12265459229346
 31
0.0
1001
DBPROPERTIES
1002
{
1000
PbHidd
1002
}
  0
LINE
  5
3FD
330
1F
100
AcDbEntity
  8
HIDDEN
100
AcDbLine
 10
77.13518682742053
 20
97.04819619132638
 30
0.0
 11
47.58518682742053
 21
71.45714550949624
 31
0.0
1001
DBPROPERTIES
1002
{
1000
PbHidd
1002
}
  0
LINE
  5
3FE
330
1F
100
AcDbEntity
  8
HIDDEN
100
AcDbLine
 10
47.58518682742053
 20
71.45714550949624
 30
0.0
 11
7.574813172579471
 21
83.00714550949624
 31
0.0
1001
DBPROPERTIES
1002
{
1000
PbHidd
1002
}
  0
ELLIPSE
  5
3FF
330
1F
100
AcDbEntity
  8
HIDDEN
100
AcDbEllipse
 10
83.725
 20
72.5079769318521
 30
0.0
 11
-15.12249979335427
 21
17.4619586530263
 31
0.0
210
0.0
220
0.0
230
1.0
 40
0.75
 41
-0.8570719478501309
 42
-0.000014305614593
1001
DBPROPERTIES
1002
{
1000
PbHidd
1002
}
  0
ELLIPSE
  5
400
330
1F
100
AcDbEntity
  8
HIDDEN
100
AcDbEllipse
 10
83.725
 20
72.5079769318521
 30
0.0
 11
-15.12249979335427
 21
17.4619586530263
 31
0.0
210
0.0
220
0.0
230
1.0
 40
0.75
 41
-0.000014305614593
 42
2.284520705739661
1001
DBPROPERTIES
1002
{
1000
PbHidd
1002
}
  0
ELLIPSE
  5
401
330
1F
100
AcDbEntity
  8
HIDDEN
100
AcDbEllipse
 10
82.74
 20
71.65494190912443
 30
0.0
 11
-15.12249979335427
 21
17.4619586530263
 31
0.0
210
0.0
220
0.0
230
1.0
 40
0.75
 41
-0.8570719478501309
 42
-0.000014305614593
1001
DBPROPERTIES
1002
{
1000
PbHidd
1002
}
  0
ELLIPSE
  5
402
330
1F
100
AcDbEntity
  8
HIDDEN
100
AcDbEllipse
 10
82.74
 20
71.65494190912443
 30
0.0
 11
-15.12249979335427
 21
17.4619586530263
 31
0.0
210
0.0
220
0.0
230
1.0
 40
0.75
 41
-0.000014305614593
 42
2.284520705739661
1001
DBPROPERTIES
1002
{
1000
PbHidd
1002
}
  0
ELLIPSE
  5
403
330
1F
100
AcDbEntity
  8
HIDDEN
100
AcDbEllipse
 10
79.71877680389542
 20
69.03848587079506
 30
0.0
 11
-33.49154246143282
 21
38.67270211136805
 31
0.0
210
0.0
220
0.0
230
1.0
 40
0.7499999999999999
 41
-0.857071947850131
 42
0.7137243789447663
1001
DBPROPERTIES
1002
{
1000
PbHidd
1002
}
  0
ELLIPSE
  5
404
330
1F
100
AcDbEntity
  8
HIDDEN
100
AcDbEllipse
 10
53.34716487312143
 20
-188.7782858376446
 30
0.0
 11
4.0
 21
0.0
 31
0.0
210
0.0
220
0.0
230
1.0
 40
0.4999999999999999
 41
1.047197551196595
 42
2.526009283304746
1001
DBPROPERTIES
1002
{
1000
PbHidd
1002
}
  0
ELLIPSE
  5
405
330
1F
100
AcDbEntity
  8
HIDDEN
100
AcDbEllipse
 10
53.34716487312143
 20
-188.7782858376446
 30
0.0
 11
4.0
 21
0.0
 31
0.0
210
0.0
220
0.0
230
1.0
 40
0.4999999999999999
 41
2.526009283304746
 42
4.188790204786388
1001
DBPROPERTIES
1002
{
1000
PbHidd
1002
}
  0
ELLIPSE
  5
406
330
1F
100
AcDbEntity
  8
HIDDEN
100
AcDbEllipse
 10
53.34716487312143
 20
-188.1923655253967
 30
0.0
 11
3.3234375
 21
2.895022975374333E-16
 31
0.0
210
0.0
220
0.0
230
1.0
 40
0.4999999999999999
 41
1.0471975511966
 42
2.526009283304745
1001
DBPROPERTIES
1002
{
1000
PbHidd
1002
}
  0
ELLIPSE
  5
407
330
1F
100
AcDbEntity
  8
HIDDEN
100
AcDbEllipse
 10
53.34716487312143
 20
-188.1923655253967
 30
0.0
 11
3.3234375
 21
2.895022975374333E-16
 31
0.0
210
0.0
220
0.0
230
1.0
 40
0.4999999999999999
 41
2.526009283304745
 42
3.141624131523457
1001
DBPROPERTIES
1002
{
1000
PbHidd
1002
}
  0
ELLIPSE
  5
408
330
1F
100
AcDbEntity
  8
HIDDEN
100
AcDbEllipse
 10
53.34716487312143
 20
-188.1923655253967
 30
0.0
 11
3.3234375
 21
2.895022975374333E-16
 31
0.0
210
0.0
220
0.0
230
1.0
 40
0.4999999999999999
 41
-3.141561175656129
 42
-2.094395102393193
1001
DBPROPERTIES
1002
{
1000
PbHidd
1002
}
  0
ELLIPSE
  5
409
330
1F
100
AcDbEntity
  8
HIDDEN
100
AcDbEllipse
 10
53.34716487312143
 20
-178.7756924239343
 30
0.0
 11
3.3234375
 21
2.895022975374333E-16
 31
0.0
210
0.0
220
0.0
230
1.0
 40
0.4999999999999999
 41
1.0471975511966
 42
3.141624131523457
1001
DBPROPERTIES
1002
{
1000
PbHidd
1002
}
  0
ELLIPSE
  5
40A
330
1F
100
AcDbEntity
  8
HIDDEN
100
AcDbEllipse
 10
53.34716487312143
 20
-178.7756924239343
 30
0.0
 11
3.3234375
 21
2.895022975374333E-16
 31
0.0
210
0.0
220
0.0
230
1.0
 40
0.4999999999999999
 41
-3.141561175656129
 42
-2.094395102393193
1001
DBPROPERTIES
1002
{
1000
PbHidd
1002
}
  0
ELLIPSE
  5
40B
330
1F
100
AcDbEntity
  8
HIDDEN
100
AcDbEllipse
 10
53.34716487312143
 20
-178.7756924239343
 30
0.0
 11
4.0
 21
3.484371799228158E-16
 31
0.0
210
0.0
220
0.0
230
1.0
 40
0.4999999999999999
 41
1.047197551196595
 42
2.526009283304746
1001
DBPROPERTIES
1002
{
1000
PbHidd
1002
}
  0
ELLIPSE
  5
40C
330
1F
100
AcDbEntity
  8
HIDDEN
100
AcDbEllipse
 10
53.34716487312143
 20
-178.7756924239343
 30
0.0
 11
4.0
 21
3.484371799228158E-16
 31
0.0
210
0.0
220
0.0
230
1.0
 40
0.4999999999999999
 41
2.526009283304746
 42
4.188790204786388
1001
DBPROPERTIES
1002
{
1000
PbHidd
1002
}
  0
ELLIPSE
  5
40D
330
1F
100
AcDbEntity
  8
HIDDEN
100
AcDbEllipse
 10
53.34716487312143
 20
-178.1897721116865
 30
0.0
 11
3.3234375
 21
2.895022975374333E-16
 31
0.0
210
0.0
220
0.0
230
1.0
 40
0.4999999999999999
 41
1.0471975511966
 42
2.526009283304745
1001
DBPROPERTIES
1002
{
1000
PbHidd
1002
}
  0
ELLIPSE
  5
40E
330
1F
100
AcDbEntity
  8
HIDDEN
100
AcDbEllipse
 10
53.34716487312143
 20
-178.1897721116865
 30
0.0
 11
3.3234375
 21
2.895022975374333E-16
 31
0.0
210
0.0
220
0.0
230
1.0
 40
0.4999999999999999
 41
2.526009283304745
 42
3.141624131523457
1001
DBPROPERTIES
1002
{
1000
PbHidd
1002
}
  0
ELLIPSE
  5
40F
330
1F
100
AcDbEntity
  8
HIDDEN
100
AcDbEllipse
 10
53.34716487312143
 20
-178.1897721116865
 30
0.0
 11
3.3234375
 21
2.895022975374333E-16
 31
0.0
210
0.0
220
0.0
230
1.0
 40
0.4999999999999999
 41
-3.141561175656129
 42
-2.094395102393193
1001
DBPROPERTIES
1002
{
1000
PbHidd
1002
}
  0
ELLIPSE
  5
410
330
1F
100
AcDbEntity
  8
HIDDEN
100
AcDbEllipse
 10
53.34716487312143
 20
-177.1085935216493
 30
0.0
 11
3.3234375
 21
2.895022975374333E-16
 31
0.0
210
0.0
220
0.0
230
1.0
 40
0.4999999999999999
 41
1.0471975511966
 42
3.141624131523457
1001
DBPROPERTIES
1002
{
1000
PbHidd
1002
}
  0
ELLIPSE
  5
411
330
1F
100
AcDbEntity
  8
HIDDEN
100
AcDbEllipse
 10
53.34716487312143
 20
-177.1085935216493
 30
0.0
 11
3.3234375
 21
2.895022975374333E-16
 31
0.0
210
0.0
220
0.0
230
1.0
 40
0.4999999999999999
 41
-3.141561175656129
 42
-2.094395102393193
1001
DBPROPERTIES
1002
{
1000
PbHidd
1002
}
  0
ELLIPSE
  5
412
330
1F
100
AcDbEntity
  8
HIDDEN
100
AcDbEllipse
 10
-53.34716487312141
 20
-157.9782858376446
 30
0.0
 11
4.0
 21
0.0
 31
0.0
210
0.0
220
0.0
230
1.0
 40
0.4999999999999999
 41
1.047197551196595
 42
2.526009283304746
1001
DBPROPERTIES
1002
{
1000
PbHidd
1002
}
  0
ELLIPSE
  5
413
330
1F
100
AcDbEntity
  8
HIDDEN
100
AcDbEllipse
 10
-53.34716487312141
 20
-157.9782858376446
 30
0.0
 11
4.0
 21
0.0
 31
0.0
210
0.0
220
0.0
230
1.0
 40
0.4999999999999999
 41
2.526009283304746
 42
4.188790204786388
1001
DBPROPERTIES
1002
{
1000
PbHidd
1002
}
  0
ELLIPSE
  5
414
330
1F
100
AcDbEntity
  8
HIDDEN
100
AcDbEllipse
 10
-53.34716487312141
 20
-157.3923655253967
 30
0.0
 11
3.3234375
 21
2.895022975374333E-16
 31
0.0
210
0.0
220
0.0
230
1.0
 40
0.4999999999999999
 41
1.0471975511966
 42
2.526009283304743
1001
DBPROPERTIES
1002
{
1000
PbHidd
1002
}
  0
ELLIPSE
  5
415
330
1F
100
AcDbEntity
  8
HIDDEN
100
AcDbEllipse
 10
-53.34716487312141
 20
-157.3923655253967
 30
0.0
 11
3.3234375
 21
2.895022975374333E-16
 31
0.0
210
0.0
220
0.0
230
1.0
 40
0.4999999999999999
 41
2.526009283304743
 42
3.141624131523457
1001
DBPROPERTIES
1002
{
1000
PbHidd
1002
}
  0
ELLIPSE
  5
416
330
1F
100
AcDbEntity
  8
HIDDEN
100
AcDbEllipse
 10
-53.34716487312141
 20
-157.3923655253967
 30
0.0
 11
3.3234375
 21
2.895022975374333E-16
 31
0.0
210
0.0
220
0.0
230
1.0
 40
0.4999999999999999
 41
-3.141561175656129
 42
-2.094395102393193
1001
DBPROPERTIES
1002
{
1000
PbHidd
1002
}
  0
ELLIPSE
  5
417
330
1F
100
AcDbEntity
  8
HIDDEN
100
AcDbEllipse
 10
-53.34716487312141
 20
-147.9756924239344
 30
0.0
 11
3.3234375
 21
2.895022975374333E-16
 31
0.0
210
0.0
220
0.0
230
1.0
 40
0.4999999999999999
 41
1.0471975511966
 42
3.141624131523457
1001
DBPROPERTIES
1002
{
1000
PbHidd
1002
}
  0
ELLIPSE
  5
418
330
1F
100
AcDbEntity
  8
HIDDEN
100
AcDbEllipse
 10
-53.34716487312141
 20
-147.9756924239344
 30
0.0
 11
3.3234375
 21
2.895022975374333E-16
 31
0.0
210
0.0
220
0.0
230
1.0
 40
0.4999999999999999
 41
-3.141561175656129
 42
-2.094395102393193
1001
DBPROPERTIES
1002
{
1000
PbHidd
1002
}
  0
ELLIPSE
  5
419
330
1F
100
AcDbEntity
  8
HIDDEN
100
AcDbEllipse
 10
-53.34716487312141
 20
-147.9756924239344
 30
0.0
 11
4.0
 21
3.484371799228158E-16
 31
0.0
210
0.0
220
0.0
230
1.0
 40
0.4999999999999999
 41
1.047197551196595
 42
2.526009283304746
1001
DBPROPERTIES
1002
{
1000
PbHidd
1002
}
  0
ELLIPSE
  5
41A
330
1F
100
AcDbEntity
  8
HIDDEN
100
AcDbEllipse
 10
-53.34716487312141
 20
-147.9756924239344
 30
0.0
 11
4.0
 21
3.484371799228158E-16
 31
0.0
210
0.0
220
0.0
230
1.0
 40
0.4999999999999999
 41
2.526009283304746
 42
4.188790204786388
1001
DBPROPERTIES
1002
{
1000
PbHidd
1002
}
  0
ELLIPSE
  5
41B
330
1F
100
AcDbEntity
  8
HIDDEN
100
AcDbEllipse
 10
-53.34716487312141
 20
-147.3897721116865
 30
0.0
 11
3.3234375
 21
2.895022975374333E-16
 31
0.0
210
0.0
220
0.0
230
1.0
 40
0.4999999999999999
 41
1.0471975511966
 42
2.526009283304745
1001
DBPROPERTIES
1002
{
1000
PbHidd
1002
}
  0
ELLIPSE
  5
41C
330
1F
100
AcDbEntity
  8
HIDDEN
100
AcDbEllipse
 10
-53.34716487312141
 20
-147.3897721116865
 30
0.0
 11
3.3234375
 21
2.895022975374333E-16
 31
0.0
210
0.0
220
0.0
230
1.0
 40
0.4999999999999999
 41
2.526009283304745
 42
3.141624131523457
1001
DBPROPERTIES
1002
{
1000
PbHidd
1002
}
  0
ELLIPSE
  5
41D
330
1F
100
AcDbEntity
  8
HIDDEN
100
AcDbEllipse
 10
-53.34716487312141
 20
-147.3897721116865
 30
0.0
 11
3.3234375
 21
2.895022975374333E-16
 31
0.0
210
0.0
220
0.0
230
1.0
 40
0.4999999999999999
 41
-3.141561175656129
 42
-2.094395102393193
1001
DBPROPERTIES
1002
{
1000
PbHidd
1002
}
  0
ELLIPSE
  5
41E
330
1F
100
AcDbEntity
  8
HIDDEN
100
AcDbEllipse
 10
-53.34716487312141
 20
-146.3085935216493
 30
0.0
 11
3.3234375
 21
2.895022975374333E-16
 31
0.0
210
0.0
220
0.0
230
1.0
 40
0.4999999999999999
 41
1.0471975511966
 42
3.141624131523457
1001
DBPROPERTIES
1002
{
1000
PbHidd
1002
}
  0
ELLIPSE
  5
41F
330
1F
100
AcDbEntity
  8
HIDDEN
100
AcDbEllipse
 10
-53.34716487312141
 20
-146.3085935216493
 30
0.0
 11
3.3234375
 21
2.895022975374333E-16
 31
0.0
210
0.0
220
0.0
230
1.0
 40
0.4999999999999999
 41
-3.141561175656129
 42
-2.094395102393193
1001
DBPROPERTIES
1002
{
1000
PbHidd
1002
}
  0
ELLIPSE
  5
420
330
1F
100
AcDbEntity
  8
THICK
100
AcDbEllipse
 10
168.0089283341811
 20
4.847164873121473
 30
0.0
 11
1.109400392450457
 21
3.843075691322092
 31
0.0
210
0.0
220
0.0
230
1.0
 40
0.4330127018922194
 41
2.64043064196171
 42
5.300391583932257
1001
DBPROPERTIES
1002
{
1000
PbThick
1002
}
  0
ELLIPSE
  5
421
330
1F
100
AcDbEntity
  8
THICK
100
AcDbEllipse
 10
168.0089283341811
 20
4.847164873121473
 30
0.0
 11
1.109400392450457
 21
3.843075691322092
 31
0.0
210
0.0
220
0.0
230
1.0
 40
0.4330127018922194
 41
2.158798930342464
 42
2.64043064196171
1001
DBPROPERTIES
1002
{
1000
PbThick
1002
}
  0
ELLIPSE
  5
422
330
1F
100
AcDbEntity
  8
THICK
100
AcDbEllipse
 10
167.4230080219332
 20
5.01630549812147
 30
0.0
 11
0.9217557166961414
 21
3.193055466969566
 31
0.0
210
0.0
220
0.0
230
1.0
 40
0.4330127018922196
 41
-3.141586010080845
 42
-0.9827937232473309
1001
DBPROPERTIES
1002
{
1000
PbThick
1002
}
  0
ELLIPSE
  5
423
330
1F
100
AcDbEntity
  8
THICK
100
AcDbEllipse
 10
167.4230080219332
 20
5.01630549812147
 30
0.0
 11
0.9217557166961414
 21
3.193055466969566
 31
0.0
210
0.0
220
0.0
230
1.0
 40
0.4330127018922196
 41
2.818630960560323
 42
3.141599297098741
1001
DBPROPERTIES
1002
{
1000
PbThick
1002
}
  0
ELLIPSE
  5
424
330
1F
100
AcDbEntity
  8
HIDDEN
100
AcDbEllipse
 10
167.4230080219332
 20
5.01630549812147
 30
0.0
 11
0.9217557166961414
 21
3.193055466969566
 31
0.0
210
0.0
220
0.0
230
1.0
 40
0.4330127018922196
 41
2.640430641961714
 42
2.818630960560323
1001
DBPROPERTIES
1002
{
1000
PbHidd
1002
}
  0
ELLIPSE
  5
425
330
1F
100
AcDbEntity
  8
HIDDEN
100
AcDbEllipse
 10
167.4230080219332
 20
5.01630549812147
 30
0.0
 11
0.9217557166961414
 21
3.193055466969566
 31
0.0
210
0.0
220
0.0
230
1.0
 40
0.4330127018922196
 41
2.158798930342462
 42
2.640430641961714
1001
DBPROPERTIES
1002
{
1000
PbHidd
1002
}
  0
ELLIPSE
  5
426
330
1F
100
AcDbEntity
  8
HIDDEN
100
AcDbEllipse
 10
158.0063349204708
 20
7.734664873121477
 30
0.0
 11
0.9217557166961414
 21
3.193055466969566
 31
0.0
210
0.0
220
0.0
230
1.0
 40
0.4330127018922196
 41
-3.141586010080845
 42
-0.9827937232473309
1001
DBPROPERTIES
1002
{
1000
PbHidd
1002
}
  0
ELLIPSE
  5
427
330
1F
100
AcDbEntity
  8
HIDDEN
100
AcDbEllipse
 10
158.0063349204708
 20
7.734664873121477
 30
0.0
 11
0.9217557166961414
 21
3.193055466969566
 31
0.0
210
0.0
220
0.0
230
1.0
 40
0.4330127018922196
 41
2.158798930342462
 42
3.14159929709874
1001
DBPROPERTIES
1002
{
1000
PbHidd
1002
}
  0
ELLIPSE
  5
428
330
1F
100
AcDbEntity
  8
HIDDEN
100
AcDbEllipse
 10
158.0063349204708
 20
7.734664873121477
 30
0.0
 11
1.109400392450457
 21
3.843075691322092
 31
0.0
210
0.0
220
0.0
230
1.0
 40
0.4330127018922196
 41
2.640430641961709
 42
5.300391583932257
1001
DBPROPERTIES
1002
{
1000
PbHidd
1002
}
  0
ELLIPSE
  5
429
330
1F
100
AcDbEntity
  8
HIDDEN
100
AcDbEllipse
 10
158.0063349204708
 20
7.734664873121477
 30
0.0
 11
1.109400392450457
 21
3.843075691322092
 31
0.0
210
0.0
220
0.0
230
1.0
 40
0.4330127018922196
 41
2.158798930342464
 42
2.640430641961709
1001
DBPROPERTIES
1002
{
1000
PbHidd
1002
}
  0
ELLIPSE
  5
42A
330
1F
100
AcDbEntity
  8
HIDDEN
100
AcDbEllipse
 10
157.4204146082229
 20
7.903805498121474
 30
0.0
 11
0.9217557166961414
 21
3.193055466969566
 31
0.0
210
0.0
220
0.0
230
1.0
 40
0.4330127018922196
 41
-3.141586010080845
 42
-0.9827937232473309
1001
DBPROPERTIES
1002
{
1000
PbHidd
1002
}
  0
ELLIPSE
  5
42B
330
1F
100
AcDbEntity
  8
HIDDEN
100
AcDbEllipse
 10
157.4204146082229
 20
7.903805498121474
 30
0.0
 11
0.9217557166961414
 21
3.193055466969566
 31
0.0
210
0.0
220
0.0
230
1.0
 40
0.4330127018922196
 41
2.640430641961714
 42
3.141599297098741
1001
DBPROPERTIES
1002
{
1000
PbHidd
1002
}
  0
ELLIPSE
  5
42C
330
1F
100
AcDbEntity
  8
HIDDEN
100
AcDbEllipse
 10
157.4204146082229
 20
7.903805498121474
 30
0.0
 11
0.9217557166961414
 21
3.193055466969566
 31
0.0
210
0.0
220
0.0
230
1.0
 40
0.4330127018922196
 41
2.158798930342462
 42
2.640430641961714
1001
DBPROPERTIES
1002
{
1000
PbHidd
1002
}
  0
ELLIPSE
  5
42D
330
1F
100
AcDbEntity
  8
HIDDEN
100
AcDbEllipse
 10
156.3392360181858
 20
8.215914873121474
 30
0.0
 11
0.9217557166961414
 21
3.193055466969566
 31
0.0
210
0.0
220
0.0
230
1.0
 40
0.4330127018922196
 41
-3.141586010080845
 42
-0.9827937232473314
1001
DBPROPERTIES
1002
{
1000
PbHidd
1002
}
  0
ELLIPSE
  5
42E
330
1F
100
AcDbEntity
  8
HIDDEN
100
AcDbEllipse
 10
156.3392360181858
 20
8.215914873121474
 30
0.0
 11
0.9217557166961414
 21
3.193055466969566
 31
0.0
210
0.0
220
0.0
230
1.0
 40
0.4330127018922196
 41
2.158798930342463
 42
3.141599297098741
1001
DBPROPERTIES
1002
{
1000
PbHidd
1002
}
  0
ELLIPSE
  5
42F
330
1F
100
AcDbEntity
  8
THICK
100
AcDbEllipse
 10
168.0089283341811
 20
-101.8471648731214
 30
0.0
 11
1.109400392450457
 21
3.843075691322092
 31
0.0
210
0.0
220
0.0
230
1.0
 40
0.4330127018922194
 41
2.640430641961712
 42
5.300391583932254
1001
DBPROPERTIES
1002
{
1000
PbThick
1002
}
  0
ELLIPSE
  5
430
330
1F
100
AcDbEntity
  8
THICK
100
AcDbEllipse
 10
168.0089283341811
 20
-101.8471648731214
 30
0.0
 11
1.109400392450457
 21
3.843075691322092
 31
0.0
210
0.0
220
0.0
230
1.0
 40
0.4330127018922194
 41
2.158798930342465
 42
2.640430641961712
1001
DBPROPERTIES
1002
{
1000
PbThick
1002
}
  0
ELLIPSE
  5
431
330
1F
100
AcDbEntity
  8
THICK
100
AcDbEllipse
 10
167.4230080219332
 20
-101.6780242481214
 30
0.0
 11
0.9217557166961414
 21
3.193055466969566
 31
0.0
210
0.0
220
0.0
230
1.0
 40
0.4330127018922196
 41
-3.141586010080843
 42
-0.9827937232473336
1001
DBPROPERTIES
1002
{
1000
PbThick
1002
}
  0
ELLIPSE
  5
432
330
1F
100
AcDbEntity
  8
THICK
100
AcDbEllipse
 10
167.4230080219332
 20
-101.6780242481214
 30
0.0
 11
0.9217557166961414
 21
3.193055466969566
 31
0.0
210
0.0
220
0.0
230
1.0
 40
0.4330127018922196
 41
2.8186309605603
 42
3.141599297098743
1001
DBPROPERTIES
1002
{
1000
PbThick
1002
}
  0
ELLIPSE
  5
433
330
1F
100
AcDbEntity
  8
HIDDEN
100
AcDbEllipse
 10
167.4230080219332
 20
-101.6780242481214
 30
0.0
 11
0.9217557166961414
 21
3.193055466969566
 31
0.0
210
0.0
220
0.0
230
1.0
 40
0.4330127018922196
 41
2.640430641961715
 42
2.8186309605603
1001
DBPROPERTIES
1002
{
1000
PbHidd
1002
}
  0
ELLIPSE
  5
434
330
1F
100
AcDbEntity
  8
HIDDEN
100
AcDbEllipse
 10
167.4230080219332
 20
-101.6780242481214
 30
0.0
 11
0.9217557166961414
 21
3.193055466969566
 31
0.0
210
0.0
220
0.0
230
1.0
 40
0.4330127018922196
 41
2.158798930342464
 42
2.640430641961715
1001
DBPROPERTIES
1002
{
1000
PbHidd
1002
}
  0
ELLIPSE
  5
435
330
1F
100
AcDbEntity
  8
HIDDEN
100
AcDbEllipse
 10
158.0063349204708
 20
-98.95966487312135
 30
0.0
 11
0.9217557166961414
 21
3.193055466969566
 31
0.0
210
0.0
220
0.0
230
1.0
 40
0.4330127018922196
 41
-3.141586010080845
 42
-0.9827937232473336
1001
DBPROPERTIES
1002
{
1000
PbHidd
1002
}
  0
ELLIPSE
  5
436
330
1F
100
AcDbEntity
  8
HIDDEN
100
AcDbEllipse
 10
158.0063349204708
 20
-98.95966487312135
 30
0.0
 11
0.9217557166961414
 21
3.193055466969566
 31
0.0
210
0.0
220
0.0
230
1.0
 40
0.4330127018922196
 41
2.158798930342464
 42
3.14159929709874
1001
DBPROPERTIES
1002
{
1000
PbHidd
1002
}
  0
ELLIPSE
  5
437
330
1F
100
AcDbEntity
  8
HIDDEN
100
AcDbEllipse
 10
158.0063349204708
 20
-98.95966487312135
 30
0.0
 11
1.109400392450457
 21
3.843075691322092
 31
0.0
210
0.0
220
0.0
230
1.0
 40
0.4330127018922196
 41
2.640430641961716
 42
5.300391583932255
1001
DBPROPERTIES
1002
{
1000
PbHidd
1002
}
  0
ELLIPSE
  5
438
330
1F
100
AcDbEntity
  8
HIDDEN
100
AcDbEllipse
 10
158.0063349204708
 20
-98.95966487312135
 30
0.0
 11
1.109400392450457
 21
3.843075691322092
 31
0.0
210
0.0
220
0.0
230
1.0
 40
0.4330127018922196
 41
2.158798930342466
 42
2.640430641961716
1001
DBPROPERTIES
1002
{
1000
PbHidd
1002
}
  0
ELLIPSE
  5
439
330
1F
100
AcDbEntity
  8
HIDDEN
100
AcDbEllipse
 10
157.4204146082229
 20
-98.79052424812136
 30
0.0
 11
0.9217557166961414
 21
3.193055466969566
 31
0.0
210
0.0
220
0.0
230
1.0
 40
0.4330127018922196
 41
-3.141586010080843
 42
-0.9827937232473336
1001
DBPROPERTIES
1002
{
1000
PbHidd
1002
}
  0
ELLIPSE
  5
43A
330
1F
100
AcDbEntity
  8
HIDDEN
100
AcDbEllipse
 10
157.4204146082229
 20
-98.79052424812136
 30
0.0
 11
0.9217557166961414
 21
3.193055466969566
 31
0.0
210
0.0
220
0.0
230
1.0
 40
0.4330127018922196
 41
2.64043064196172
 42
3.141599297098743
1001
DBPROPERTIES
1002
{
1000
PbHidd
1002
}
  0
ELLIPSE
  5
43B
330
1F
100
AcDbEntity
  8
HIDDEN
100
AcDbEllipse
 10
157.4204146082229
 20
-98.79052424812136
 30
0.0
 11
0.9217557166961414
 21
3.193055466969566
 31
0.0
210
0.0
220
0.0
230
1.0
 40
0.4330127018922196
 41
2.158798930342464
 42
2.64043064196172
1001
DBPROPERTIES
1002
{
1000
PbHidd
1002
}
  0
ELLIPSE
  5
43C
330
1F
100
AcDbEntity
  8
HIDDEN
100
AcDbEllipse
 10
156.3392360181858
 20
-98.47841487312135
 30
0.0
 11
0.9217557166961414
 21
3.193055466969566
 31
0.0
210
0.0
220
0.0
230
1.0
 40
0.4330127018922196
 41
-3.14158601008084
 42
-0.9827937232473336
1001
DBPROPERTIES
1002
{
1000
PbHidd
1002
}
  0
ELLIPSE
  5
43D
330
1F
100
AcDbEntity
  8
HIDDEN
100
AcDbEllipse
 10
156.3392360181858
 20
-98.47841487312135
 30
0.0
 11
0.9217557166961414
 21
3.193055466969566
 31
0.0
210
0.0
220
0.0
230
1.0
 40
0.4330127018922196
 41
2.158798930342464
 42
3.141599297098746
1001
DBPROPERTIES
1002
{
1000
PbHidd
1002
}
  0
ELLIPSE
  5
43E
330
1F
100
AcDbEntity
  8
HIDDEN
100
AcDbEllipse
 10
-187.9275126212232
 20
0.9028351268785557
 30
0.0
 11
-1.109400392450458
 21
-3.843075691322092
 31
0.0
210
0.0
220
0.0
230
1.0
 40
0.4330127018922194
 41
2.158798930342464
 42
2.64043064196171
1001
DBPROPERTIES
1002
{
1000
PbHidd
1002
}
  0
ELLIPSE
  5
43F
330
1F
100
AcDbEntity
  8
HIDDEN
100
AcDbEllipse
 10
-187.9275126212232
 20
0.9028351268785557
 30
0.0
 11
-1.109400392450458
 21
-3.843075691322092
 31
0.0
210
0.0
220
0.0
230
1.0
 40
0.4330127018922194
 41
2.64043064196171
 42
5.300391583932257
1001
DBPROPERTIES
1002
{
1000
PbHidd
1002
}
  0
ELLIPSE
  5
440
330
1F
100
AcDbEntity
  8
HIDDEN
100
AcDbEllipse
 10
-187.3415923089753
 20
0.7336945018785586
 30
0.0
 11
-0.9217557166961414
 21
-3.193055466969566
 31
0.0
210
0.0
220
0.0
230
1.0
 40
0.4330127018922194
 41
2.158798930342462
 42
2.640430641961712
1001
DBPROPERTIES
1002
{
1000
PbHidd
1002
}
  0
ELLIPSE
  5
441
330
1F
100
AcDbEntity
  8
HIDDEN
100
AcDbEllipse
 10
-187.3415923089753
 20
0.7336945018785586
 30
0.0
 11
-0.9217557166961414
 21
-3.193055466969566
 31
0.0
210
0.0
220
0.0
230
1.0
 40
0.4330127018922194
 41
2.640430641961712
 42
3.14159929709874
1001
DBPROPERTIES
1002
{
1000
PbHidd
1002
}
  0
ELLIPSE
  5
442
330
1F
100
AcDbEntity
  8
HIDDEN
100
AcDbEllipse
 10
-187.3415923089753
 20
0.7336945018785586
 30
0.0
 11
-0.9217557166961414
 21
-3.193055466969566
 31
0.0
210
0.0
220
0.0
230
1.0
 40
0.4330127018922194
 41
-3.141586010080846
 42
-0.9827937232473309
1001
DBPROPERTIES
1002
{
1000
PbHidd
1002
}
  0
ELLIPSE
  5
443
330
1F
100
AcDbEntity
  8
HIDDEN
100
AcDbEllipse
 10
-177.9249192075129
 20
-1.984664873121447
 30
0.0
 11
-0.9217557166961414
 21
-3.193055466969566
 31
0.0
210
0.0
220
0.0
230
1.0
 40
0.4330127018922194
 41
2.158798930342462
 42
3.14159929709874
1001
DBPROPERTIES
1002
{
1000
PbHidd
1002
}
  0
ELLIPSE
  5
444
330
1F
100
AcDbEntity
  8
HIDDEN
100
AcDbEllipse
 10
-177.9249192075129
 20
-1.984664873121447
 30
0.0
 11
-0.9217557166961414
 21
-3.193055466969566
 31
0.0
210
0.0
220
0.0
230
1.0
 40
0.4330127018922194
 41
-3.141586010080846
 42
-0.9827937232473309
1001
DBPROPERTIES
1002
{
1000
PbHidd
1002
}
  0
ELLIPSE
  5
445
330
1F
100
AcDbEntity
  8
HIDDEN
100
AcDbEllipse
 10
-177.9249192075129
 20
-1.984664873121447
 30
0.0
 11
-1.109400392450457
 21
-3.843075691322092
 31
0.0
210
0.0
220
0.0
230
1.0
 40
0.4330127018922194
 41
2.158798930342464
 42
2.64043064196171
1001
DBPROPERTIES
1002
{
1000
PbHidd
1002
}
  0
ELLIPSE
  5
446
330
1F
100
AcDbEntity
  8
HIDDEN
100
AcDbEllipse
 10
-177.9249192075129
 20
-1.984664873121447
 30
0.0
 11
-1.109400392450457
 21
-3.843075691322092
 31
0.0
210
0.0
220
0.0
230
1.0
 40
0.4330127018922194
 41
2.64043064196171
 42
5.300391583932257
1001
DBPROPERTIES
1002
{
1000
PbHidd
1002
}
  0
ELLIPSE
  5
447
330
1F
100
AcDbEntity
  8
HIDDEN
100
AcDbEllipse
 10
-177.338998895265
 20
-2.153805498121444
 30
0.0
 11
-0.9217557166961414
 21
-3.193055466969566
 31
0.0
210
0.0
220
0.0
230
1.0
 40
0.4330127018922194
 41
2.158798930342462
 42
2.640430641961712
1001
DBPROPERTIES
1002
{
1000
PbHidd
1002
}
  0
ELLIPSE
  5
448
330
1F
100
AcDbEntity
  8
HIDDEN
100
AcDbEllipse
 10
-177.338998895265
 20
-2.153805498121444
 30
0.0
 11
-0.9217557166961414
 21
-3.193055466969566
 31
0.0
210
0.0
220
0.0
230
1.0
 40
0.4330127018922194
 41
2.640430641961712
 42
3.14159929709874
1001
DBPROPERTIES
1002
{
1000
PbHidd
1002
}
  0
ELLIPSE
  5
449
330
1F
100
AcDbEntity
  8
HIDDEN
100
AcDbEllipse
 10
-177.338998895265
 20
-2.153805498121444
 30
0.0
 11
-0.9217557166961414
 21
-3.193055466969566
 31
0.0
210
0.0
220
0.0
230
1.0
 40
0.4330127018922194
 41
-3.141586010080846
 42
-0.9827937232473309
1001
DBPROPERTIES
1002
{
1000
PbHidd
1002
}
  0
ELLIPSE
  5
44A
330
1F
100
AcDbEntity
  8
HIDDEN
100
AcDbEllipse
 10
-176.2578203052279
 20
-2.465914873121443
 30
0.0
 11
-0.9217557166961414
 21
-3.193055466969566
 31
0.0
210
0.0
220
0.0
230
1.0
 40
0.4330127018922194
 41
2.158798930342462
 42
3.14159929709874
1001
DBPROPERTIES
1002
{
1000
PbHidd
1002
}
  0
ELLIPSE
  5
44B
330
1F
100
AcDbEntity
  8
HIDDEN
100
AcDbEllipse
 10
-176.2578203052279
 20
-2.465914873121443
 30
0.0
 11
-0.9217557166961414
 21
-3.193055466969566
 31
0.0
210
0.0
220
0.0
230
1.0
 40
0.4330127018922194
 41
-3.141586010080846
 42
-0.9827937232473309
1001
DBPROPERTIES
1002
{
1000
PbHidd
1002
}
  0
ELLIPSE
  5
44C
330
1F
100
AcDbEntity
  8
HIDDEN
100
AcDbEllipse
 10
-187.9275126212232
 20
107.5971648731214
 30
0.0
 11
-1.109400392450458
 21
-3.843075691322092
 31
0.0
210
0.0
220
0.0
230
1.0
 40
0.4330127018922194
 41
2.158798930342465
 42
2.640430641961712
1001
DBPROPERTIES
1002
{
1000
PbHidd
1002
}
  0
ELLIPSE
  5
44D
330
1F
100
AcDbEntity
  8
HIDDEN
100
AcDbEllipse
 10
-187.9275126212232
 20
107.5971648731214
 30
0.0
 11
-1.109400392450458
 21
-3.843075691322092
 31
0.0
210
0.0
220
0.0
230
1.0
 40
0.4330127018922194
 41
2.640430641961712
 42
5.300391583932254
1001
DBPROPERTIES
1002
{
1000
PbHidd
1002
}
  0
ELLIPSE
  5
44E
330
1F
100
AcDbEntity
  8
HIDDEN
100
AcDbEllipse
 10
-187.3415923089753
 20
107.4280242481214
 30
0.0
 11
-0.9217557166961414
 21
-3.193055466969566
 31
0.0
210
0.0
220
0.0
230
1.0
 40
0.4330127018922194
 41
2.158798930342464
 42
2.640430641961716
1001
DBPROPERTIES
1002
{
1000
PbHidd
1002
}
  0
ELLIPSE
  5
44F
330
1F
100
AcDbEntity
  8
HIDDEN
100
AcDbEllipse
 10
-187.3415923089753
 20
107.4280242481214
 30
0.0
 11
-0.9217557166961414
 21
-3.193055466969566
 31
0.0
210
0.0
220
0.0
230
1.0
 40
0.4330127018922194
 41
2.640430641961716
 42
3.141599297098743
1001
DBPROPERTIES
1002
{
1000
PbHidd
1002
}
  0
ELLIPSE
  5
450
330
1F
100
AcDbEntity
  8
HIDDEN
100
AcDbEllipse
 10
-187.3415923089753
 20
107.4280242481214
 30
0.0
 11
-0.9217557166961414
 21
-3.193055466969566
 31
0.0
210
0.0
220
0.0
230
1.0
 40
0.4330127018922194
 41
-3.141586010080843
 42
-0.982793723247334
1001
DBPROPERTIES
1002
{
1000
PbHidd
1002
}
  0
ELLIPSE
  5
451
330
1F
100
AcDbEntity
  8
HIDDEN
100
AcDbEllipse
 10
-177.9249192075129
 20
104.7096648731214
 30
0.0
 11
-0.9217557166961414
 21
-3.193055466969566
 31
0.0
210
0.0
220
0.0
230
1.0
 40
0.4330127018922194
 41
2.158798930342464
 42
3.141599297098743
1001
DBPROPERTIES
1002
{
1000
PbHidd
1002
}
  0
ELLIPSE
  5
452
330
1F
100
AcDbEntity
  8
HIDDEN
100
AcDbEllipse
 10
-177.9249192075129
 20
104.7096648731214
 30
0.0
 11
-0.9217557166961414
 21
-3.193055466969566
 31
0.0
210
0.0
220
0.0
230
1.0
 40
0.4330127018922194
 41
-3.141586010080843
 42
-0.982793723247334
1001
DBPROPERTIES
1002
{
1000
PbHidd
1002
}
  0
ELLIPSE
  5
453
330
1F
100
AcDbEntity
  8
HIDDEN
100
AcDbEllipse
 10
-177.9249192075129
 20
104.7096648731214
 30
0.0
 11
-1.109400392450457
 21
-3.843075691322092
 31
0.0
210
0.0
220
0.0
230
1.0
 40
0.4330127018922194
 41
2.158798930342465
 42
2.640430641961712
1001
DBPROPERTIES
1002
{
1000
PbHidd
1002
}
  0
ELLIPSE
  5
454
330
1F
100
AcDbEntity
  8
HIDDEN
100
AcDbEllipse
 10
-177.9249192075129
 20
104.7096648731214
 30
0.0
 11
-1.109400392450457
 21
-3.843075691322092
 31
0.0
210
0.0
220
0.0
230
1.0
 40
0.4330127018922194
 41
2.640430641961712
 42
5.300391583932254
1001
DBPROPERTIES
1002
{
1000
PbHidd
1002
}
  0
ELLIPSE
  5
455
330
1F
100
AcDbEntity
  8
HIDDEN
100
AcDbEllipse
 10
-177.338998895265
 20
104.5405242481214
 30
0.0
 11
-0.9217557166961414
 21
-3.193055466969566
 31
0.0
210
0.0
220
0.0
230
1.0
 40
0.4330127018922194
 41
2.158798930342464
 42
2.640430641961716
1001
DBPROPERTIES
1002
{
1000
PbHidd
1002
}
  0
ELLIPSE
  5
456
330
1F
100
AcDbEntity
  8
HIDDEN
100
AcDbEllipse
 10
-177.338998895265
 20
104.5405242481214
 30
0.0
 11
-0.9217557166961414
 21
-3.193055466969566
 31
0.0
210
0.0
220
0.0
230
1.0
 40
0.4330127018922194
 41
2.640430641961716
 42
3.14159929709874
1001
DBPROPERTIES
1002
{
1000
PbHidd
1002
}
  0
ELLIPSE
  5
457
330
1F
100
AcDbEntity
  8
HIDDEN
100
AcDbEllipse
 10
-177.338998895265
 20
104.5405242481214
 30
0.0
 11
-0.9217557166961414
 21
-3.193055466969566
 31
0.0
210
0.0
220
0.0
230
1.0
 40
0.4330127018922194
 41
-3.141586010080845
 42
-0.982793723247334
1001
DBPROPERTIES
1002
{
1000
PbHidd
1002
}
  0
ELLIPSE
  5
458
330
1F
100
AcDbEntity
  8
HIDDEN
100
AcDbEllipse
 10
-176.2578203052279
 20
104.2284148731214
 30
0.0
 11
-0.9217557166961414
 21
-3.193055466969566
 31
0.0
210
0.0
220
0.0
230
1.0
 40
0.4330127018922194
 41
2.158798930342464
 42
3.141599297098743
1001
DBPROPERTIES
1002
{
1000
PbHidd
1002
}
  0
ELLIPSE
  5
459
330
1F
100
AcDbEntity
  8
HIDDEN
100
AcDbEllipse
 10
-176.2578203052279
 20
104.2284148731214
 30
0.0
 11
-0.9217557166961414
 21
-3.193055466969566
 31
0.0
210
0.0
220
0.0
230
1.0
 40
0.4330127018922194
 41
-3.141586010080843
 42
-0.982793723247334
1001
DBPROPERTIES
1002
{
1000
PbHidd
1002
}
  0
LINE
  5
45A
330
1F
100
AcDbEntity
  8
HIDDEN
100
AcDbLine
 10
75.62410993340413
 20
-178.1483854967296
 30
0.0
 11
78.35100522400207
 21
-163.4705806761996
 31
0.0
1001
DBPROPERTIES
1002
{
1000
PbHidd
1002
}
  0
LINE
  5
45B
330
1F
100
AcDbEntity
  8
HIDDEN
100
AcDbLine
 10
48.80100522400208
 20
-189.0616313580298
 30
0.0
 11
78.35100522400208
 21
-163.4705806761996
 31
0.0
1001
DBPROPERTIES
1002
{
1000
PbHidd
1002
}
  0
LINE
  5
45C
330
1F
100
AcDbEntity
  8
THICK
100
AcDbLine
 10
46.07410993340413
 20
-203.7394361785597
 30
0.0
 11
48.80100522400208
 21
-189.0616313580298
 31
0.0
1001
DBPROPERTIES
1002
{
1000
PbThick
1002
}
  0
LINE
  5
45D
330
1F
100
AcDbEntity
  8
THICK
100
AcDbLine
 10
46.07410993340413
 20
-203.7394361785597
 30
0.0
 11
68.64418311442884
 21
-184.1931794385185
 31
0.0
1001
DBPROPERTIES
1002
{
1000
PbThick
1002
}
  0
LINE
  5
45E
330
1F
100
AcDbEntity
  8
HIDDEN
100
AcDbLine
 10
68.64418311442884
 20
-184.1931794385185
 30
0.0
 11
75.62410993340414
 21
-178.1483854967296
 31
0.0
1001
DBPROPERTIES
1002
{
1000
PbHidd
1002
}
  0
LINE
  5
45F
330
1F
100
AcDbEntity
  8
THICK
100
AcDbLine
 10
31.07021981283873
 20
-199.4081861785597
 30
0.0
 11
29.63962810471241
 21
-190.8819211790735
 31
0.0
1001
DBPROPERTIES
1002
{
1000
PbThick
1002
}
  0
LINE
  5
460
330
1F
100
AcDbEntity
  8
HIDDEN
100
AcDbLine
 10
59.18962810471241
 20
-165.2908704972433
 30
0.0
 11
29.63962810471242
 21
-190.8819211790735
 31
0.0
1001
DBPROPERTIES
1002
{
1000
PbHidd
1002
}
  0
LINE
  5
461
330
1F
100
AcDbEntity
  8
HIDDEN
100
AcDbLine
 10
59.1896281047124
 20
-165.2908704972433
 30
0.0
 11
60.62021981283872
 21
-173.8171354967295
 31
0.0
1001
DBPROPERTIES
1002
{
1000
PbHidd
1002
}
  0
LINE
  5
462
330
1F
100
AcDbEntity
  8
HIDDEN
100
AcDbLine
 10
31.07021981283873
 20
-199.4081861785597
 30
0.0
 11
60.62021981283873
 21
-173.8171354967295
 31
0.0
1001
DBPROPERTIES
1002
{
1000
PbHidd
1002
}
  0
LINE
  5
463
330
1F
100
AcDbEntity
  8
HIDDEN
100
AcDbLine
 10
60.62021981283873
 20
-173.8171354967295
 30
0.0
 11
75.62410993340413
 21
-178.1483854967296
 31
0.0
1001
DBPROPERTIES
1002
{
1000
PbHidd
1002
}
  0
LINE
  5
464
330
1F
100
AcDbEntity
  8
THICK
100
AcDbLine
 10
46.07410993340413
 20
-203.7394361785597
 30
0.0
 11
31.07021981283873
 21
-199.4081861785597
 31
0.0
1001
DBPROPERTIES
1002
{
1000
PbThick
1002
}
  0
ELLIPSE
  5
465
330
1F
100
AcDbEntity
  8
THICK
100
AcDbEllipse
 10
-22.77707473096821
 20
-10.48552534091508
 30
0.0
 11
-131.061664875737
 21
151.3369749928946
 31
0.0
210
0.0
220
0.0
230
1.0
 40
0.7500000000000001
 41
2.710094424541713
 42
3.141591974095338
1001
DBPROPERTIES
1002
{
1000
PbThick
1002
}
  0
ELLIPSE
  5
466
330
1F
100
AcDbEntity
  8
THICK
100
AcDbEllipse
 10
-22.77707473096821
 20
-10.48552534091508
 30
0.0
 11
-131.061664875737
 21
151.3369749928946
 31
0.0
210
0.0
220
0.0
230
1.0
 40
0.7500000000000001
 41
3.141591974095338
 42
3.480755946082272
1001
DBPROPERTIES
1002
{
1000
PbThick
1002
}
  0
ELLIPSE
  5
467
330
1F
100
AcDbEntity
  8
HIDDEN
100
AcDbEllipse
 10
6.772925269031784
 20
15.10552534091507
 30
0.0
 11
131.061664875737
 21
-151.3369749928946
 31
0.0
210
0.0
220
0.0
230
1.0
 40
0.7500000000000001
 41
0.1320987483286833
 42
0.3391632924924806
1001
DBPROPERTIES
1002
{
1000
PbHidd
1002
}
  0
ELLIPSE
  5
468
330
1F
100
AcDbEntity
  8
THICK
100
AcDbEllipse
 10
6.772925269031784
 20
15.10552534091507
 30
0.0
 11
131.061664875737
 21
-151.3369749928946
 31
0.0
210
0.0
220
0.0
230
1.0
 40
0.7500000000000001
 41
-0.0000006794944551
 42
0.1320987483286833
1001
DBPROPERTIES
1002
{
1000
PbThick
1002
}
  0
ELLIPSE
  5
469
330
1F
100
AcDbEntity
  8
HIDDEN
100
AcDbEllipse
 10
6.772925269031784
 20
15.10552534091507
 30
0.0
 11
131.061664875737
 21
-151.3369749928946
 31
0.0
210
0.0
220
0.0
230
1.0
 40
0.7500000000000001
 41
-0.4314982290480801
 42
-0.0000006794944551
1001
DBPROPERTIES
1002
{
1000
PbHidd
1002
}
  0
LINE
  5
46A
330
1F
100
AcDbEntity
  8
HIDDEN
100
AcDbLine
 10
168.1305988101408
 20
-94.90731007217474
 30
0.0
 11
138.5805988101409
 21
-120.4983607540049
 31
0.0
1001
DBPROPERTIES
1002
{
1000
PbHidd
1002
}
  0
ELLIPSE
  5
46B
330
1F
100
AcDbEntity
  8
THICK
100
AcDbEllipse
 10
-22.77707473096821
 20
-10.48552534091508
 30
0.0
 11
-131.061664875737
 21
151.3369749928946
 31
0.0
210
0.0
220
0.0
230
1.0
 40
0.7500000000000001
 41
2.284520705739662
 42
2.591652240342176
1001
DBPROPERTIES
1002
{
1000
PbThick
1002
}
  0
ELLIPSE
  5
46C
330
1F
100
AcDbEntity
  8
HIDDEN
100
AcDbEllipse
 10
6.772925269031784
 20
15.10552534091507
 30
0.0
 11
131.061664875737
 21
-151.3369749928946
 31
0.0
210
0.0
220
0.0
230
1.0
 40
0.7500000000000001
 41
-0.8570719478501305
 42
-0.5499404132476173
1001
DBPROPERTIES
1002
{
1000
PbHidd
1002
}
  0
LINE
  5
46D
330
1F
100
AcDbEntity
  8
THICK
100
AcDbLine
 10
-60.6202198128387
 20
-172.9394361785597
 30
0.0
 11
-59.91080595822199
 21
-169.1209404222519
 31
0.0
1001
DBPROPERTIES
1002
{
1000
PbThick
1002
}
  0
LINE
  5
46E
330
1F
100
AcDbEntity
  8
THICK
100
AcDbLine
 10
153.2339283341811
 20
-122.1446352743191
 30
0.0
 11
138.5805988101409
 21
-120.4983607540049
 31
0.0
1001
DBPROPERTIES
1002
{
1000
PbThick
1002
}
  0
LINE
  5
46F
330
1F
100
AcDbEntity
  8
THICK
100
AcDbLine
 10
153.2339283341811
 20
-107.1407451537537
 30
0.0
 11
153.2339283341811
 21
-122.1446352743191
 31
0.0
1001
DBPROPERTIES
1002
{
1000
PbThick
1002
}
  0
LINE
  5
470
330
1F
100
AcDbEntity
  8
THICK
100
AcDbLine
 10
153.2339283341811
 20
-107.1407451537537
 30
0.0
 11
144.8293985335759
 21
-103.2326210183429
 31
0.0
1001
DBPROPERTIES
1002
{
1000
PbThick
1002
}
  0
ELLIPSE
  5
471
330
1F
100
AcDbEntity
  8
THICK
100
AcDbEllipse
 10
-22.77707473096821
 20
-10.48552534091508
 30
0.0
 11
-131.061664875737
 21
151.3369749928946
 31
0.0
210
0.0
220
0.0
230
1.0
 40
0.7500000000000001
 41
-2.686621631341841
 42
-2.427868274645027
1001
DBPROPERTIES
1002
{
1000
PbThick
1002
}
  0
ELLIPSE
  5
472
330
1F
100
AcDbEntity
  8
THICK
100
AcDbEllipse
 10
-9.440283512687856
 20
-14.33552534091507
 30
0.0
 11
-120.9799983468342
 21
139.6956692242104
 31
0.0
210
0.0
220
0.0
230
1.0
 40
0.75
 41
-2.427868274645027
 42
-2.147536424909137
1001
DBPROPERTIES
1002
{
1000
PbThick
1002
}
  0
LINE
  5
473
330
1F
100
AcDbEntity
  8
THICK
100
AcDbLine
 10
153.2339283341811
 20
-15.4503055280763
 30
0.0
 11
144.3537796046198
 21
-14.4526372120739
 31
0.0
1001
DBPROPERTIES
1002
{
1000
PbThick
1002
}
  0
LINE
  5
474
330
1F
100
AcDbEntity
  8
THICK
100
AcDbLine
 10
153.2339283341811
 20
-0.4464154075109015
 30
0.0
 11
153.2339283341811
 21
-15.4503055280763
 31
0.0
1001
DBPROPERTIES
1002
{
1000
PbThick
1002
}
  0
LINE
  5
475
330
1F
100
AcDbEntity
  8
THICK
100
AcDbLine
 10
153.2339283341811
 20
-0.4464154075109015
 30
0.0
 11
137.4037855026244
 21
6.91463449471598
 31
0.0
1001
DBPROPERTIES
1002
{
1000
PbThick
1002
}
  0
ELLIPSE
  5
476
330
1F
100
AcDbEntity
  8
THICK
100
AcDbEllipse
 10
-9.440283512687856
 20
-14.33552534091507
 30
0.0
 11
-120.9799983468342
 21
139.6956692242104
 31
0.0
210
0.0
220
0.0
230
1.0
 40
0.75
 41
-2.018914801589708
 42
-0.857071947850131
1001
DBPROPERTIES
1002
{
1000
PbThick
1002
}
  0
LINE
  5
477
330
1F
100
AcDbEntity
  8
THICK
100
AcDbLine
 10
-170.5643098867827
 20
98.69291684604946
 30
0.0
 11
-153.6000159813564
 21
96.78700974378938
 31
0.0
1001
DBPROPERTIES
1002
{
1000
PbThick
1002
}
  0
LINE
  5
478
330
1F
100
AcDbEntity
  8
THICK
100
AcDbLine
 10
-202.7025126212231
 20
102.303584592489
 30
0.0
 11
-170.5643098867827
 21
98.69291684604946
 31
0.0
1001
DBPROPERTIES
1002
{
1000
PbThick
1002
}
  0
LINE
  5
479
330
1F
100
AcDbEntity
  8
THICK
100
AcDbLine
 10
-202.7025126212231
 20
87.2996944719236
 30
0.0
 11
-202.7025126212231
 21
102.303584592489
 31
0.0
1001
DBPROPERTIES
1002
{
1000
PbThick
1002
}
  0
LINE
  5
47A
330
1F
100
AcDbEntity
  8
THICK
100
AcDbLine
 10
-202.7025126212231
 20
87.2996944719236
 30
0.0
 11
-170.5643098867826
 21
72.35536221836318
 31
0.0
1001
DBPROPERTIES
1002
{
1000
PbThick
1002
}
  0
LINE
  5
47B
330
1F
100
AcDbEntity
  8
THICK
100
AcDbLine
 10
-170.5643098867826
 20
72.35536221836318
 30
0.0
 11
-164.624193845018
 21
69.59319569379569
 31
0.0
1001
DBPROPERTIES
1002
{
1000
PbThick
1002
}
  0
ELLIPSE
  5
47C
330
1F
100
AcDbEntity
  8
THICK
100
AcDbEllipse
 10
-9.440283512687856
 20
-14.33552534091507
 30
0.0
 11
-120.9799983468342
 21
139.6956692242104
 31
0.0
210
0.0
220
0.0
230
1.0
 40
0.75
 41
0.4667149612642272
 42
0.713724378944766
1001
DBPROPERTIES
1002
{
1000
PbThick
1002
}
  0
LINE
  5
47D
330
1F
100
AcDbEntity
  8
THICK
100
AcDbLine
 10
-169.4817781320521
 20
31.8644746590849
 30
0.0
 11
-170.5643098867826
 21
32.17697465908491
 31
0.0
1001
DBPROPERTIES
1002
{
1000
PbThick
1002
}
  0
LINE
  5
47E
330
1F
100
AcDbEntity
  8
THICK
100
AcDbLine
 10
-202.7025126212231
 20
-4.390745153753819
 30
0.0
 11
-170.5643098867826
 21
-8.001412900193388
 31
0.0
1001
DBPROPERTIES
1002
{
1000
PbThick
1002
}
  0
LINE
  5
47F
330
1F
100
AcDbEntity
  8
THICK
100
AcDbLine
 10
-202.7025126212231
 20
-19.39463527431922
 30
0.0
 11
-202.7025126212231
 21
-4.390745153753819
 31
0.0
1001
DBPROPERTIES
1002
{
1000
PbThick
1002
}
  0
LINE
  5
480
330
1F
100
AcDbEntity
  8
THICK
100
AcDbLine
 10
-202.7025126212231
 20
-19.39463527431922
 30
0.0
 11
-170.5643098867826
 21
-34.33896752787965
 31
0.0
1001
DBPROPERTIES
1002
{
1000
PbThick
1002
}
  0
LINE
  5
481
330
1F
100
AcDbEntity
  8
THICK
100
AcDbLine
 10
-170.5643098867826
 20
-58.48152259848056
 30
0.0
 11
-170.5643098867826
 21
-34.33896752787965
 31
0.0
1001
DBPROPERTIES
1002
{
1000
PbThick
1002
}
  0
LINE
  5
482
330
1F
100
AcDbEntity
  8
THICK
100
AcDbLine
 10
-75.6241099334041
 20
-168.6081861785597
 30
0.0
 11
-77.16737096347177
 21
-159.4104168702428
 31
0.0
1001
DBPROPERTIES
1002
{
1000
PbThick
1002
}
  0
LINE
  5
483
330
1F
100
AcDbEntity
  8
THICK
100
AcDbLine
 10
-60.6202198128387
 20
-172.9394361785597
 30
0.0
 11
-75.6241099334041
 21
-168.6081861785597
 31
0.0
1001
DBPROPERTIES
1002
{
1000
PbThick
1002
}
  0
LINE
  5
484
330
1F
100
AcDbEntity
  8
HIDDEN
100
AcDbLine
 10
-47.61737096347178
 20
-133.8193661884126
 30
0.0
 11
-46.07410993340411
 21
-143.0171354967296
 31
0.0
1001
DBPROPERTIES
1002
{
1000
PbHidd
1002
}
  0
LINE
  5
485
330
1F
100
AcDbEntity
  8
HIDDEN
100
AcDbLine
 10
-75.6241099334041
 20
-168.6081861785597
 30
0.0
 11
-46.0741099334041
 21
-143.0171354967296
 31
0.0
1001
DBPROPERTIES
1002
{
1000
PbHidd
1002
}
  0
LINE
  5
486
330
1F
100
AcDbEntity
  8
HIDDEN
100
AcDbLine
 10
-31.07021981283871
 20
-147.3483854967295
 30
0.0
 11
-30.360805958222
 21
-143.5298897404217
 31
0.0
1001
DBPROPERTIES
1002
{
1000
PbHidd
1002
}
  0
LINE
  5
487
330
1F
100
AcDbEntity
  8
THICK
100
AcDbLine
 10
-60.6202198128387
 20
-172.9394361785597
 30
0.0
 11
-57.56643876979639
 21
-170.2947842176897
 31
0.0
1001
DBPROPERTIES
1002
{
1000
PbThick
1002
}
  0
LINE
  5
488
330
1F
100
AcDbEntity
  8
HIDDEN
100
AcDbLine
 10
-57.56643876979639
 20
-170.2947842176897
 30
0.0
 11
-31.0702198128387
 21
-147.3483854967295
 31
0.0
1001
DBPROPERTIES
1002
{
1000
PbHidd
1002
}
  0
LINE
  5
489
330
1F
100
AcDbEntity
  8
HIDDEN
100
AcDbLine
 10
-46.07410993340411
 20
-143.0171354967296
 30
0.0
 11
-31.07021981283871
 21
-147.3483854967295
 31
0.0
1001
DBPROPERTIES
1002
{
1000
PbHidd
1002
}
  0
LINE
  5
48A
330
1F
100
AcDbEntity
  8
HIDDEN
100
AcDbLine
 10
173.9037796046198
 20
11.13841346975625
 30
0.0
 11
144.3537796046198
 21
-14.4526372120739
 31
0.0
1001
DBPROPERTIES
1002
{
1000
PbHidd
1002
}
  0
LINE
  5
48B
330
1F
100
AcDbEntity
  8
HIDDEN
100
AcDbLine
 10
173.9037796046198
 20
11.13841346975625
 30
0.0
 11
182.7839283341811
 21
10.14074515375385
 31
0.0
1001
DBPROPERTIES
1002
{
1000
PbHidd
1002
}
  0
LINE
  5
48C
330
1F
100
AcDbEntity
  8
THICK
100
AcDbLine
 10
153.2339283341811
 20
-15.4503055280763
 30
0.0
 11
182.7839283341811
 21
10.14074515375386
 31
0.0
1001
DBPROPERTIES
1002
{
1000
PbThick
1002
}
  0
LINE
  5
48D
330
1F
100
AcDbEntity
  8
THICK
100
AcDbLine
 10
182.7839283341811
 20
25.14463527431925
 30
0.0
 11
166.9537855026244
 21
32.50568517654613
 31
0.0
1001
DBPROPERTIES
1002
{
1000
PbThick
1002
}
  0
LINE
  5
48E
330
1F
100
AcDbEntity
  8
THICK
100
AcDbLine
 10
137.4037855026244
 20
6.91463449471598
 30
0.0
 11
166.9537855026244
 21
32.50568517654613
 31
0.0
1001
DBPROPERTIES
1002
{
1000
PbThick
1002
}
  0
LINE
  5
48F
330
1F
100
AcDbEntity
  8
THICK
100
AcDbLine
 10
153.2339283341811
 20
-0.4464154075109015
 30
0.0
 11
182.7839283341811
 21
25.14463527431925
 31
0.0
1001
DBPROPERTIES
1002
{
1000
PbThick
1002
}
  0
LINE
  5
490
330
1F
100
AcDbEntity
  8
THICK
100
AcDbLine
 10
182.7839283341811
 20
10.14074515375385
 30
0.0
 11
182.7839283341811
 21
25.14463527431925
 31
0.0
1001
DBPROPERTIES
1002
{
1000
PbThick
1002
}
  0
ELLIPSE
  5
491
330
1F
100
AcDbEntity
  8
THICK
100
AcDbEllipse
 10
20.10971648731214
 20
11.25552534091508
 30
0.0
 11
120.9799983468342
 21
-139.6956692242104
 31
0.0
210
0.0
220
0.0
230
1.0
 40
0.75
 41
1.122677852000086
 42
2.284520705739662
1001
DBPROPERTIES
1002
{
1000
PbThick
1002
}
  0
LINE
  5
492
330
1F
100
AcDbEntity
  8
HIDDEN
100
AcDbLine
 10
168.1305988101409
 20
-94.90731007217475
 30
0.0
 11
182.7839283341811
 21
-96.55358459248899
 31
0.0
1001
DBPROPERTIES
1002
{
1000
PbHidd
1002
}
  0
LINE
  5
493
330
1F
100
AcDbEntity
  8
THICK
100
AcDbLine
 10
153.2339283341811
 20
-122.1446352743191
 30
0.0
 11
182.7839283341811
 21
-96.55358459248899
 31
0.0
1001
DBPROPERTIES
1002
{
1000
PbThick
1002
}
  0
LINE
  5
494
330
1F
100
AcDbEntity
  8
THICK
100
AcDbLine
 10
182.7839283341811
 20
-81.54969447192357
 30
0.0
 11
174.3793985335759
 21
-77.64157033651273
 31
0.0
1001
DBPROPERTIES
1002
{
1000
PbThick
1002
}
  0
LINE
  5
495
330
1F
100
AcDbEntity
  8
THICK
100
AcDbLine
 10
144.8293985335759
 20
-103.2326210183429
 30
0.0
 11
174.3793985335759
 21
-77.64157033651273
 31
0.0
1001
DBPROPERTIES
1002
{
1000
PbThick
1002
}
  0
LINE
  5
496
330
1F
100
AcDbEntity
  8
THICK
100
AcDbLine
 10
153.2339283341811
 20
-107.1407451537537
 30
0.0
 11
182.7839283341811
 21
-81.54969447192357
 31
0.0
1001
DBPROPERTIES
1002
{
1000
PbThick
1002
}
  0
LINE
  5
497
330
1F
100
AcDbEntity
  8
THICK
100
AcDbLine
 10
182.7839283341811
 20
-96.55358459248899
 30
0.0
 11
182.7839283341811
 21
-81.54969447192357
 31
0.0
1001
DBPROPERTIES
1002
{
1000
PbThick
1002
}
  0
ELLIPSE
  5
498
330
1F
100
AcDbEntity
  8
THICK
100
AcDbEllipse
 10
6.772925269031784
 20
15.10552534091507
 30
0.0
 11
131.061664875737
 21
-151.3369749928946
 31
0.0
210
0.0
220
0.0
230
1.0
 40
0.7500000000000001
 41
0.4549710222479529
 42
0.713724378944766
1001
DBPROPERTIES
1002
{
1000
PbThick
1002
}
  0
LINE
  5
499
330
1F
100
AcDbEntity
  8
THICK
100
AcDbLine
 10
150.6012111066764
 20
-60.53552534091504
 30
0.0
 11
180.1512111066764
 21
-34.9444746590849
 31
0.0
1001
DBPROPERTIES
1002
{
1000
PbThick
1002
}
  0
LINE
  5
49A
330
1F
100
AcDbEntity
  8
HIDDEN
100
AcDbLine
 10
-173.1525126212232
 20
6.196415407510932
 30
0.0
 11
-141.0143098867827
 21
-8.747916846049502
 31
0.0
1001
DBPROPERTIES
1002
{
1000
PbHidd
1002
}
  0
ELLIPSE
  5
49B
330
1F
100
AcDbEntity
  8
HIDDEN
100
AcDbEllipse
 10
-155.7893098867827
 20
-21.54344218696458
 30
0.0
 11
29.37322087151794
 21
-5.74461182012479
 31
0.0
210
0.0
220
0.0
230
1.0
 40
0.5618211002366332
 41
1.156635639141078
 42
1.70208835708205
1001
DBPROPERTIES
1002
{
1000
PbHidd
1002
}
  0
ELLIPSE
  5
49C
330
1F
100
AcDbEntity
  8
HIDDEN
100
AcDbEllipse
 10
-155.7893098867827
 20
-21.54344218696458
 30
0.0
 11
29.37322087151794
 21
-5.74461182012479
 31
0.0
210
0.0
220
0.0
230
1.0
 40
0.5618211002366332
 41
-2.530409732389685
 42
-1.984957014448714
1001
DBPROPERTIES
1002
{
1000
PbHidd
1002
}
  0
LINE
  5
49D
330
1F
100
AcDbEntity
  8
HIDDEN
100
AcDbLine
 10
-202.7025126212231
 20
-19.39463527431922
 30
0.0
 11
-173.1525126212232
 21
6.196415407510932
 31
0.0
1001
DBPROPERTIES
1002
{
1000
PbHidd
1002
}
  0
LINE
  5
49E
330
1F
100
AcDbEntity
  8
HIDDEN
100
AcDbLine
 10
-166.5585461358626
 20
15.02777293736023
 30
0.0
 11
-185.0049904710332
 21
-0.9473164663930485
 31
0.0
1001
DBPROPERTIES
1002
{
1000
PbHidd
1002
}
  0
LINE
  5
49F
330
1F
100
AcDbEntity
  8
HIDDEN
100
AcDbLine
 10
-141.0143098867827
 20
17.58963778163676
 30
0.0
 11
-173.1525126212232
 21
21.20030552807633
 31
0.0
1001
DBPROPERTIES
1002
{
1000
PbHidd
1002
}
  0
LINE
  5
4A0
330
1F
100
AcDbEntity
  8
THICK
100
AcDbLine
 10
-202.7025126212231
 20
-4.390745153753819
 30
0.0
 11
-185.3393129023544
 21
10.64622689376932
 31
0.0
1001
DBPROPERTIES
1002
{
1000
PbThick
1002
}
  0
LINE
  5
4A1
330
1F
100
AcDbEntity
  8
HIDDEN
100
AcDbLine
 10
-185.3393129023544
 20
10.64622689376932
 30
0.0
 11
-173.1525126212232
 21
21.20030552807633
 31
0.0
1001
DBPROPERTIES
1002
{
1000
PbHidd
1002
}
  0
LINE
  5
4A2
330
1F
100
AcDbEntity
  8
HIDDEN
100
AcDbLine
 10
-173.1525126212232
 20
21.20030552807633
 30
0.0
 11
-173.1525126212232
 21
6.196415407510932
 31
0.0
1001
DBPROPERTIES
1002
{
1000
PbHidd
1002
}
  0
LINE
  5
4A3
330
1F
100
AcDbEntity
  8
HIDDEN
100
AcDbLine
 10
-141.0143098867827
 20
-32.89047191665041
 30
0.0
 11
-141.0143098867827
 21
-8.747916846049488
 31
0.0
1001
DBPROPERTIES
1002
{
1000
PbHidd
1002
}
  0
LINE
  5
4A4
330
1F
100
AcDbEntity
  8
HIDDEN
100
AcDbLine
 10
-141.0143098867827
 20
57.76802534091506
 30
0.0
 11
-139.9317781320521
 21
57.45552534091505
 31
0.0
1001
DBPROPERTIES
1002
{
1000
PbHidd
1002
}
  0
ELLIPSE
  5
4A5
330
1F
100
AcDbEntity
  8
HIDDEN
100
AcDbEllipse
 10
20.10971648731214
 20
11.25552534091508
 30
0.0
 11
120.9799983468342
 21
-139.6956692242104
 31
0.0
210
0.0
220
0.0
230
1.0
 40
0.75
 41
-2.674877692325566
 42
-2.427868274645027
1001
DBPROPERTIES
1002
{
1000
PbHidd
1002
}
  0
LINE
  5
4A6
330
1F
100
AcDbEntity
  8
HIDDEN
100
AcDbLine
 10
-141.0143098867827
 20
97.94641290019334
 30
0.0
 11
-135.074193845018
 21
95.18424637562585
 31
0.0
1001
DBPROPERTIES
1002
{
1000
PbHidd
1002
}
  0
LINE
  5
4A7
330
1F
100
AcDbEntity
  8
HIDDEN
100
AcDbLine
 10
-173.1525126212232
 20
112.8907451537538
 30
0.0
 11
-141.0143098867827
 21
97.94641290019334
 31
0.0
1001
DBPROPERTIES
1002
{
1000
PbHidd
1002
}
  0
LINE
  5
4A8
330
1F
100
AcDbEntity
  8
HIDDEN
100
AcDbLine
 10
-173.1525126212232
 20
127.8946352743192
 30
0.0
 11
-173.1525126212232
 21
112.8907451537538
 31
0.0
1001
DBPROPERTIES
1002
{
1000
PbHidd
1002
}
  0
LINE
  5
4A9
330
1F
100
AcDbEntity
  8
HIDDEN
100
AcDbLine
 10
-141.0143098867827
 20
124.2839675278796
 30
0.0
 11
-173.1525126212232
 21
127.8946352743192
 31
0.0
1001
DBPROPERTIES
1002
{
1000
PbHidd
1002
}
  0
LINE
  5
4AA
330
1F
100
AcDbEntity
  8
HIDDEN
100
AcDbLine
 10
-124.0500159813564
 20
122.3780604256195
 30
0.0
 11
-141.0143098867827
 21
124.2839675278796
 31
0.0
1001
DBPROPERTIES
1002
{
1000
PbHidd
1002
}
  0
ELLIPSE
  5
4AB
330
1F
100
AcDbEntity
  8
HIDDEN
100
AcDbEllipse
 10
20.10971648731214
 20
11.25552534091508
 30
0.0
 11
120.9799983468342
 21
-139.6956692242104
 31
0.0
210
0.0
220
0.0
230
1.0
 40
0.75
 41
0.9510445227156423
 42
0.9940562286806566
1001
DBPROPERTIES
1002
{
1000
PbHidd
1002
}
  0
ELLIPSE
  5
4AC
330
1F
100
AcDbEntity
  8
THICK
100
AcDbEllipse
 10
20.10971648731214
 20
11.25552534091508
 30
0.0
 11
120.9799983468342
 21
-139.6956692242104
 31
0.0
210
0.0
220
0.0
230
1.0
 40
0.75
 41
0.7137243789447661
 42
0.9510445227156423
1001
DBPROPERTIES
1002
{
1000
PbThick
1002
}
  0
LINE
  5
4AD
330
1F
100
AcDbEntity
  8
HIDDEN
100
AcDbLine
 10
-181.5702894819606
 20
51.32699381426727
 30
0.0
 11
-181.1861058270642
 21
51.65970661912637
 31
0.0
1001
DBPROPERTIES
1002
{
1000
PbHidd
1002
}
  0
ELLIPSE
  5
4AE
330
1F
100
AcDbEntity
  8
HIDDEN
100
AcDbEllipse
 10
-155.7893098867827
 20
44.97249999999998
 30
0.0
 11
-29.55
 21
-1.809355887772562E-15
 31
0.0
210
0.0
220
0.0
230
1.0
 40
0.4999999999999999
 41
-2.136708912549737
 42
-2.094395102393196
1001
DBPROPERTIES
1002
{
1000
PbHidd
1002
}
  0
ELLIPSE
  5
4AF
330
1F
100
AcDbEntity
  8
HIDDEN
100
AcDbEllipse
 10
-155.7893098867827
 20
85.15088755927826
 30
0.0
 11
29.37322087151794
 21
-5.74461182012479
 31
0.0
210
0.0
220
0.0
230
1.0
 40
0.5618211002366332
 41
0.9223821512659851
 42
1.156635639141079
1001
DBPROPERTIES
1002
{
1000
PbHidd
1002
}
  0
LINE
  5
4B0
330
1F
100
AcDbEntity
  8
HIDDEN
100
AcDbLine
 10
-139.9450025866875
 20
57.44407201689806
 30
0.0
 11
-139.9310305184885
 21
59.57455097317844
 31
0.0
1001
DBPROPERTIES
1002
{
1000
PbHidd
1002
}
  0
LINE
  5
4B1
330
1F
100
AcDbEntity
  8
HIDDEN
100
AcDbLine
 10
-139.9310305184885
 20
59.57455097317844
 30
0.0
 11
-139.8889284990891
 21
61.70979956748938
 31
0.0
1001
DBPROPERTIES
1002
{
1000
PbHidd
1002
}
  0
LINE
  5
4B2
330
1F
100
AcDbEntity
  8
HIDDEN
100
AcDbLine
 10
-139.8889284990891
 20
61.70979956748938
 30
0.0
 11
-139.8184007770897
 21
63.84782382338787
 31
0.0
1001
DBPROPERTIES
1002
{
1000
PbHidd
1002
}
  0
LINE
  5
4B3
330
1F
100
AcDbEntity
  8
HIDDEN
100
AcDbLine
 10
-139.8184007770897
 20
63.84782382338787
 30
0.0
 11
-139.7191799374373
 21
65.98663739382546
 31
0.0
1001
DBPROPERTIES
1002
{
1000
PbHidd
1002
}
  0
LINE
  5
4B4
330
1F
100
AcDbEntity
  8
HIDDEN
100
AcDbLine
 10
-139.7191799374373
 20
65.98663739382546
 30
0.0
 11
-139.5909711824063
 21
68.1242465088357
 31
0.0
1001
DBPROPERTIES
1002
{
1000
PbHidd
1002
}
  0
LINE
  5
4B5
330
1F
100
AcDbEntity
  8
HIDDEN
100
AcDbLine
 10
-139.5909711824063
 20
68.1242465088357
 30
0.0
 11
-139.433654094814
 21
70.25863175440968
 31
0.0
1001
DBPROPERTIES
1002
{
1000
PbHidd
1002
}
  0
LINE
  5
4B6
330
1F
100
AcDbEntity
  8
HIDDEN
100
AcDbLine
 10
-139.433654094814
 20
70.25863175440968
 30
0.0
 11
-139.2475228220901
 21
72.3876770036134
 31
0.0
1001
DBPROPERTIES
1002
{
1000
PbHidd
1002
}
  0
LINE
  5
4B7
330
1F
100
AcDbEntity
  8
HIDDEN
100
AcDbLine
 10
-139.2475228220901
 20
72.3876770036134
 30
0.0
 11
-139.0329898993053
 21
74.50925267782439
 31
0.0
1001
DBPROPERTIES
1002
{
1000
PbHidd
1002
}
  0
LINE
  5
4B8
330
1F
100
AcDbEntity
  8
HIDDEN
100
AcDbLine
 10
-139.0329898993053
 20
74.50925267782439
 30
0.0
 11
-138.7904936107367
 21
76.62121598392115
 31
0.0
1001
DBPROPERTIES
1002
{
1000
PbHidd
1002
}
  0
LINE
  5
4B9
330
1F
100
AcDbEntity
  8
HIDDEN
100
AcDbLine
 10
-138.7904936107367
 20
76.62121598392115
 30
0.0
 11
-138.5202484059958
 21
78.72146330215723
 31
0.0
1001
DBPROPERTIES
1002
{
1000
PbHidd
1002
}
  0
LINE
  5
4BA
330
1F
100
AcDbEntity
  8
HIDDEN
100
AcDbLine
 10
-138.5202484059958
 20
78.72146330215723
 30
0.0
 11
-138.2230330212589
 21
80.80781769911734
 31
0.0
1001
DBPROPERTIES
1002
{
1000
PbHidd
1002
}
  0
LINE
  5
4BB
330
1F
100
AcDbEntity
  8
HIDDEN
100
AcDbLine
 10
-138.2230330212589
 20
80.80781769911734
 30
0.0
 11
-137.8998091563134
 21
82.87806090512609
 31
0.0
1001
DBPROPERTIES
1002
{
1000
PbHidd
1002
}
  0
LINE
  5
4BC
330
1F
100
AcDbEntity
  8
HIDDEN
100
AcDbLine
 10
-137.8998091563134
 20
82.87806090512609
 30
0.0
 11
-137.5516239308107
 21
84.92994149566597
 31
0.0
1001
DBPROPERTIES
1002
{
1000
PbHidd
1002
}
  0
LINE
  5
4BD
330
1F
100
AcDbEntity
  8
HIDDEN
100
AcDbLine
 10
-137.5516239308107
 20
84.92994149566597
 30
0.0
 11
-137.1795386325756
 21
86.96121268682293
 31
0.0
1001
DBPROPERTIES
1002
{
1000
PbHidd
1002
}
  0
LINE
  5
4BE
330
1F
100
AcDbEntity
  8
HIDDEN
100
AcDbLine
 10
-137.1795386325756
 20
86.96121268682293
 30
0.0
 11
-136.7846419321051
 21
88.96963284635885
 31
0.0
1001
DBPROPERTIES
1002
{
1000
PbHidd
1002
}
  0
LINE
  5
4BF
330
1F
100
AcDbEntity
  8
HIDDEN
100
AcDbLine
 10
-136.7846419321051
 20
88.96963284635885
 30
0.0
 11
-136.3682162278079
 21
90.95291055047498
 31
0.0
1001
DBPROPERTIES
1002
{
1000
PbHidd
1002
}
  0
LINE
  5
4C0
330
1F
100
AcDbEntity
  8
HIDDEN
100
AcDbLine
 10
-136.3682162278079
 20
90.95291055047498
 30
0.0
 11
-135.9319795955659
 21
92.90873588634545
 31
0.0
1001
DBPROPERTIES
1002
{
1000
PbHidd
1002
}
  0
LINE
  5
4C1
330
1F
100
AcDbEntity
  8
HIDDEN
100
AcDbLine
 10
-135.9319795955659
 20
92.90873588634545
 30
0.0
 11
-135.4775945291838
 21
94.83478399718899
 31
0.0
1001
DBPROPERTIES
1002
{
1000
PbHidd
1002
}
  0
LINE
  5
4C2
330
1F
100
AcDbEntity
  8
HIDDEN
100
AcDbLine
 10
-135.4777302636662
 20
94.8347735857244
 30
0.0
 11
-135.074193845018
 21
95.18424637562586
 31
0.0
1001
DBPROPERTIES
1002
{
1000
PbHidd
1002
}
  0
LINE
  5
4C3
330
1F
100
AcDbEntity
  8
HIDDEN
100
AcDbLine
 10
-202.7025126212231
 20
87.2996944719236
 30
0.0
 11
-173.1525126212232
 21
112.8907451537538
 31
0.0
1001
DBPROPERTIES
1002
{
1000
PbHidd
1002
}
  0
LINE
  5
4C4
330
1F
100
AcDbEntity
  8
THICK
100
AcDbLine
 10
-202.7025126212231
 20
102.303584592489
 30
0.0
 11
-185.3393098649868
 21
117.3405592704497
 31
0.0
1001
DBPROPERTIES
1002
{
1000
PbThick
1002
}
  0
LINE
  5
4C5
330
1F
100
AcDbEntity
  8
HIDDEN
100
AcDbLine
 10
-185.3393098649868
 20
117.3405592704497
 30
0.0
 11
-173.1525126212232
 21
127.8946352743192
 31
0.0
1001
DBPROPERTIES
1002
{
1000
PbHidd
1002
}
  0
ELLIPSE
  5
4C6
330
1F
100
AcDbEntity
  8
HIDDEN
100
AcDbEllipse
 10
-155.7893098867827
 20
111.4884421869645
 30
0.0
 11
29.48476176154314
 21
4.730619920075258
 31
0.0
210
0.0
220
0.0
230
1.0
 40
0.4148460546918957
 41
0.2560517039772596
 42
0.9807364855270364
1001
DBPROPERTIES
1002
{
1000
PbHidd
1002
}
  0
ELLIPSE
  5
4C7
330
1F
100
AcDbEntity
  8
THICK
100
AcDbEllipse
 10
-155.7893098867827
 20
111.4884421869645
 30
0.0
 11
29.48476176154314
 21
4.730619920075258
 31
0.0
210
0.0
220
0.0
230
1.0
 40
0.4148460546918957
 41
-2.160856168062756
 42
-1.508123108725312
1001
DBPROPERTIES
1002
{
1000
PbThick
1002
}
  0
ELLIPSE
  5
4C8
330
1F
100
AcDbEntity
  8
HIDDEN
100
AcDbEllipse
 10
-155.7893098867827
 20
111.4884421869645
 30
0.0
 11
29.48476176154314
 21
4.730619920075258
 31
0.0
210
0.0
220
0.0
230
1.0
 40
0.4148460546918957
 41
-1.508123108725312
 42
-1.43617138651298
1001
DBPROPERTIES
1002
{
1000
PbHidd
1002
}
  0
LINE
  5
4C9
330
1F
100
AcDbEntity
  8
HIDDEN
100
AcDbLine
 10
-164.624193845018
 20
69.5931956937957
 30
0.0
 11
-164.2206574263699
 21
69.94266848369716
 31
0.0
1001
DBPROPERTIES
1002
{
1000
PbHidd
1002
}
  0
ELLIPSE
  5
4CA
330
1F
100
AcDbEntity
  8
HIDDEN
100
AcDbEllipse
 10
-155.7893098867827
 20
168.3811200392825
 30
0.0
 11
-29.55
 21
-1.809355887772562E-15
 31
0.0
210
0.0
220
0.0
230
1.0
 40
0.4999999999999999
 41
-3.141580968529665
 42
-2.094395102393196
1001
DBPROPERTIES
1002
{
1000
PbHidd
1002
}
  0
ELLIPSE
  5
4CB
330
1F
100
AcDbEntity
  8
HIDDEN
100
AcDbEllipse
 10
-155.7893098867827
 20
168.3811200392825
 30
0.0
 11
-29.55
 21
-1.809355887772562E-15
 31
0.0
210
0.0
220
0.0
230
1.0
 40
0.4999999999999999
 41
1.047197551196598
 42
3.141604338649921
1001
DBPROPERTIES
1002
{
1000
PbHidd
1002
}
  0
LINE
  5
4CC
330
1F
100
AcDbEntity
  8
HIDDEN
100
AcDbLine
 10
-139.9317781320521
 20
57.45552534091505
 30
0.0
 11
-139.9450031710252
 21
57.44407212119828
 31
0.0
1001
DBPROPERTIES
1002
{
1000
PbHidd
1002
}
  0
LINE
  5
4CD
330
1F
100
AcDbEntity
  8
HIDDEN
100
AcDbLine
 10
-169.468553093079
 20
31.87592787880166
 30
0.0
 11
-169.4817781320521
 21
31.8644746590849
 31
0.0
1001
DBPROPERTIES
1002
{
1000
PbHidd
1002
}
  0
ELLIPSE
  5
4CE
330
1F
100
AcDbEntity
  8
THICK
100
AcDbEllipse
 10
-134.1193098867826
 20
193.6430810676746
 30
0.0
 11
-4.0
 21
-2.449212707644755E-16
 31
0.0
210
0.0
220
0.0
230
1.0
 40
0.4999999999999999
 41
-3.141561175656113
 42
-2.094395102393198
1001
DBPROPERTIES
1002
{
1000
PbThick
1002
}
  0
ELLIPSE
  5
4CF
330
1F
100
AcDbEntity
  8
THICK
100
AcDbEllipse
 10
-134.1193098867826
 20
193.6430810676746
 30
0.0
 11
-4.0
 21
-2.449212707644755E-16
 31
0.0
210
0.0
220
0.0
230
1.0
 40
0.4999999999999999
 41
1.047197551196595
 42
3.141624131523473
1001
DBPROPERTIES
1002
{
1000
PbThick
1002
}
  0
ELLIPSE
  5
4D0
330
1F
100
AcDbEntity
  8
HIDDEN
100
AcDbEllipse
 10
-134.1193098867826
 20
187.1478905392913
 30
0.0
 11
4.0
 21
2.449212707644755E-16
 31
0.0
210
0.0
220
0.0
230
1.0
 40
0.4999999999999999
 41
-2.094395102393198
 42
0.0000314779336796
1001
DBPROPERTIES
1002
{
1000
PbHidd
1002
}
  0
ELLIPSE
  5
4D1
330
1F
100
AcDbEntity
  8
HIDDEN
100
AcDbEllipse
 10
-134.1193098867826
 20
187.1478905392913
 30
0.0
 11
4.0
 21
2.449212707644755E-16
 31
0.0
210
0.0
220
0.0
230
1.0
 40
0.4999999999999999
 41
0.0000314779336798
 42
1.047197551196595
1001
DBPROPERTIES
1002
{
1000
PbHidd
1002
}
  0
ELLIPSE
  5
4D2
330
1F
100
AcDbEntity
  8
THICK
100
AcDbEllipse
 10
-177.4593098867826
 20
156.109540067657
 30
0.0
 11
-4.0
 21
-2.449212707644755E-16
 31
0.0
210
0.0
220
0.0
230
1.0
 40
0.4999999999999999
 41
-3.141561175656113
 42
-2.094395102393198
1001
DBPROPERTIES
1002
{
1000
PbThick
1002
}
  0
ELLIPSE
  5
4D3
330
1F
100
AcDbEntity
  8
THICK
100
AcDbEllipse
 10
-177.4593098867826
 20
156.109540067657
 30
0.0
 11
-4.0
 21
-2.449212707644755E-16
 31
0.0
210
0.0
220
0.0
230
1.0
 40
0.4999999999999999
 41
1.047197551196603
 42
3.141624131523473
1001
DBPROPERTIES
1002
{
1000
PbThick
1002
}
  0
ELLIPSE
  5
4D4
330
1F
100
AcDbEntity
  8
HIDDEN
100
AcDbEllipse
 10
-177.4593098867826
 20
149.6143495392737
 30
0.0
 11
4.0
 21
2.449212707644755E-16
 31
0.0
210
0.0
220
0.0
230
1.0
 40
0.4999999999999999
 41
-2.094395102393198
 42
0.0000314779336796
1001
DBPROPERTIES
1002
{
1000
PbHidd
1002
}
  0
ELLIPSE
  5
4D5
330
1F
100
AcDbEntity
  8
HIDDEN
100
AcDbEllipse
 10
-177.4593098867826
 20
149.6143495392737
 30
0.0
 11
4.0
 21
2.449212707644755E-16
 31
0.0
210
0.0
220
0.0
230
1.0
 40
0.4999999999999999
 41
0.0000314779336798
 42
1.047197551196603
1001
DBPROPERTIES
1002
{
1000
PbHidd
1002
}
  0
LINE
  5
4D6
330
1F
100
AcDbEntity
  8
THICK
100
AcDbLine
 10
-197.3335707049789
 20
167.8627347892781
 30
0.0
 11
-188.0497118351745
 21
147.7563294318699
 31
0.0
1001
DBPROPERTIES
1002
{
1000
PbThick
1002
}
  0
LINE
  5
4D7
330
1F
100
AcDbEntity
  8
HIDDEN
100
AcDbLine
 10
-175.6635707049789
 20
186.6295052892869
 30
0.0
 11
-197.3335707049789
 21
167.8627347892781
 31
0.0
1001
DBPROPERTIES
1002
{
1000
PbHidd
1002
}
  0
LINE
  5
4D8
330
1F
100
AcDbEntity
  8
HIDDEN
100
AcDbLine
 10
-136.1963256334706
 20
192.662679154791
 30
0.0
 11
-175.6635707049789
 21
186.6295052892869
 31
0.0
1001
DBPROPERTIES
1002
{
1000
PbHidd
1002
}
  0
ELLIPSE
  5
4D9
330
1F
100
AcDbEntity
  8
HIDDEN
100
AcDbEllipse
 10
-133.2726085862432
 20
187.8811553749758
 30
0.0
 11
10.0
 21
6.123031769111886E-16
 31
0.0
210
0.0
220
0.0
230
1.0
 40
0.4999999999999999
 41
0.2268928027592631
 42
1.047197551196597
1001
DBPROPERTIES
1002
{
1000
PbHidd
1002
}
  0
LINE
  5
4DA
330
1F
100
AcDbEntity
  8
HIDDEN
100
AcDbLine
 10
-114.2450490685865
 20
168.8995052892869
 30
0.0
 11
-123.5289079383908
 21
189.0059106466951
 31
0.0
1001
DBPROPERTIES
1002
{
1000
PbHidd
1002
}
  0
LINE
  5
4DB
330
1F
100
AcDbEntity
  8
THICK
100
AcDbLine
 10
-135.9150490685865
 20
150.1327347892781
 30
0.0
 11
-114.2450490685865
 21
168.8995052892869
 31
0.0
1001
DBPROPERTIES
1002
{
1000
PbThick
1002
}
  0
LINE
  5
4DC
330
1F
100
AcDbEntity
  8
THICK
100
AcDbLine
 10
-175.3822941400948
 20
144.099560923774
 30
0.0
 11
-135.9150490685865
 21
150.1327347892781
 31
0.0
1001
DBPROPERTIES
1002
{
1000
PbThick
1002
}
  0
ELLIPSE
  5
4DD
330
1F
100
AcDbEntity
  8
THICK
100
AcDbEllipse
 10
-178.3060111873222
 20
148.8810847035892
 30
0.0
 11
10.0
 21
6.123031769111886E-16
 31
0.0
210
0.0
220
0.0
230
1.0
 40
0.4999999999999999
 41
-2.094395102393194
 42
-1.274090353955861
1001
DBPROPERTIES
1002
{
1000
PbThick
1002
}
  0
LINE
  5
4DE
330
1F
100
AcDbEntity
  8
THICK
100
AcDbLine
 10
-197.3335707049789
 20
174.3579253176614
 30
0.0
 11
-197.3335707049789
 21
167.8627347892781
 31
0.0
1001
DBPROPERTIES
1002
{
1000
PbThick
1002
}
  0
LINE
  5
4DF
330
1F
100
AcDbEntity
  8
THICK
100
AcDbLine
 10
-197.3335707049789
 20
174.3579253176614
 30
0.0
 11
-188.0497118351745
 21
154.2515199602531
 31
0.0
1001
DBPROPERTIES
1002
{
1000
PbThick
1002
}
  0
ELLIPSE
  5
4E0
330
1F
100
AcDbEntity
  8
THICK
100
AcDbEllipse
 10
-178.3060111873222
 20
155.3762752319725
 30
0.0
 11
-10.0
 21
-6.123031769111886E-16
 31
0.0
210
0.0
220
0.0
230
1.0
 40
0.4999999999999999
 41
1.047197551196599
 42
1.867502299633934
1001
DBPROPERTIES
1002
{
1000
PbThick
1002
}
  0
LINE
  5
4E1
330
1F
100
AcDbEntity
  8
THICK
100
AcDbLine
 10
-175.3822941400948
 20
150.5947514521573
 30
0.0
 11
-175.3822941400948
 21
144.099560923774
 31
0.0
1001
DBPROPERTIES
1002
{
1000
PbThick
1002
}
  0
LINE
  5
4E2
330
1F
100
AcDbEntity
  8
THICK
100
AcDbLine
 10
-135.9150490685865
 20
156.6279253176614
 30
0.0
 11
-135.9150490685865
 21
150.1327347892781
 31
0.0
1001
DBPROPERTIES
1002
{
1000
PbThick
1002
}
  0
LINE
  5
4E3
330
1F
100
AcDbEntity
  8
THICK
100
AcDbLine
 10
-175.3822941400948
 20
150.5947514521573
 30
0.0
 11
-135.9150490685865
 21
156.6279253176614
 31
0.0
1001
DBPROPERTIES
1002
{
1000
PbThick
1002
}
  0
LINE
  5
4E4
330
1F
100
AcDbEntity
  8
THICK
100
AcDbLine
 10
-114.2450490685865
 20
175.3946958176702
 30
0.0
 11
-114.2450490685865
 21
168.8995052892869
 31
0.0
1001
DBPROPERTIES
1002
{
1000
PbThick
1002
}
  0
LINE
  5
4E5
330
1F
100
AcDbEntity
  8
THICK
100
AcDbLine
 10
-135.9150490685865
 20
156.6279253176614
 30
0.0
 11
-114.2450490685865
 21
175.3946958176702
 31
0.0
1001
DBPROPERTIES
1002
{
1000
PbThick
1002
}
  0
LINE
  5
4E6
330
1F
100
AcDbEntity
  8
HIDDEN
100
AcDbLine
 10
-123.5289079383908
 20
195.5011011750784
 30
0.0
 11
-123.5289079383908
 21
189.0059106466951
 31
0.0
1001
DBPROPERTIES
1002
{
1000
PbHidd
1002
}
  0
LINE
  5
4E7
330
1F
100
AcDbEntity
  8
THICK
100
AcDbLine
 10
-123.5289079383908
 20
195.5011011750784
 30
0.0
 11
-114.2450490685865
 21
175.3946958176702
 31
0.0
1001
DBPROPERTIES
1002
{
1000
PbThick
1002
}
  0
ELLIPSE
  5
4E8
330
1F
100
AcDbEntity
  8
THICK
100
AcDbEllipse
 10
-133.2726085862432
 20
194.3763459033591
 30
0.0
 11
-10.0
 21
-6.123031769111886E-16
 31
0.0
210
0.0
220
0.0
230
1.0
 40
0.4999999999999999
 41
-2.914699850830525
 42
-2.094395102393196
1001
DBPROPERTIES
1002
{
1000
PbThick
1002
}
  0
LINE
  5
4E9
330
1F
100
AcDbEntity
  8
HIDDEN
100
AcDbLine
 10
-175.6635707049789
 20
193.1246958176702
 30
0.0
 11
-175.6635707049789
 21
186.6295052892869
 31
0.0
1001
DBPROPERTIES
1002
{
1000
PbHidd
1002
}
  0
LINE
  5
4EA
330
1F
100
AcDbEntity
  8
THICK
100
AcDbLine
 10
-175.6635707049789
 20
193.1246958176702
 30
0.0
 11
-136.1963256334706
 21
199.1578696831743
 31
0.0
1001
DBPROPERTIES
1002
{
1000
PbThick
1002
}
  0
LINE
  5
4EB
330
1F
100
AcDbEntity
  8
THICK
100
AcDbLine
 10
-197.3335707049789
 20
174.3579253176614
 30
0.0
 11
-175.6635707049789
 21
193.1246958176702
 31
0.0
1001
DBPROPERTIES
1002
{
1000
PbThick
1002
}
  0
LINE
  5
4EC
330
1F
100
AcDbEntity
  8
HIDDEN
100
AcDbLine
 10
-181.4593070868059
 20
149.6142847728151
 30
0.0
 11
-181.4593070868059
 21
156.1094753011984
 31
0.0
1001
DBPROPERTIES
1002
{
1000
PbHidd
1002
}
  0
LINE
  5
4ED
330
1F
100
AcDbEntity
  8
HIDDEN
100
AcDbLine
 10
-138.119306934218
 20
187.1478259049776
 30
0.0
 11
-138.119306934218
 21
193.6430164333609
 31
0.0
1001
DBPROPERTIES
1002
{
1000
PbHidd
1002
}
  0
LINE
  5
4EE
330
1F
100
AcDbEntity
  8
THICK
100
AcDbLine
 10
-185.3393119264074
 20
107.5800741399189
 30
0.0
 11
-185.3393118456467
 21
145.3267656675825
 31
0.0
1001
DBPROPERTIES
1002
{
1000
PbThick
1002
}
  0
LINE
  5
4EF
330
1F
100
AcDbEntity
  8
HIDDEN
100
AcDbLine
 10
-185.3393118456467
 20
145.3267656675825
 30
0.0
 11
-185.3393122466392
 21
168.3809480510613
 31
0.0
1001
DBPROPERTIES
1002
{
1000
PbHidd
1002
}
  0
LINE
  5
4F0
330
1F
100
AcDbEntity
  8
THICK
100
AcDbLine
 10
-185.3393144840515
 20
10.66366211054539
 30
0.0
 11
-185.3393055196541
 21
79.22576592220938
 31
0.0
1001
DBPROPERTIES
1002
{
1000
PbThick
1002
}
  0
LINE
  5
4F1
330
1F
100
AcDbEntity
  8
HIDDEN
100
AcDbLine
 10
-185.3393055196541
 20
79.22576592220938
 30
0.0
 11
-185.3393119264074
 21
89.05802453187384
 31
0.0
1001
DBPROPERTIES
1002
{
1000
PbHidd
1002
}
  0
LINE
  5
4F2
330
1F
100
AcDbEntity
  8
THICK
100
AcDbLine
 10
-100.8702822409917
 20
150.951194234763
 30
0.0
 11
-130.4202814780523
 21
125.3601442136577
 31
0.0
1001
DBPROPERTIES
1002
{
1000
PbThick
1002
}
  0
LINE
  5
4F3
330
1F
100
AcDbEntity
  8
HIDDEN
100
AcDbLine
 10
-175.6186968522815
 20
102.1251298967349
 30
0.0
 11
-174.5961024086657
 21
103.7487166342918
 31
0.0
1001
DBPROPERTIES
1002
{
1000
PbHidd
1002
}
  0
LINE
  5
4F4
330
1F
100
AcDbEntity
  8
HIDDEN
100
AcDbLine
 10
-177.1795615714188
 20
101.0353552184281
 30
0.0
 11
-178.2607454472555
 21
101.347466119307
 31
0.0
1001
DBPROPERTIES
1002
{
1000
PbHidd
1002
}
  0
LINE
  5
4F5
330
1F
100
AcDbEntity
  8
HIDDEN
100
AcDbLine
 10
-178.0985176826882
 20
101.1082966976867
 30
0.0
 11
-177.483236700437
 21
101.5482923890414
 31
0.0
1001
DBPROPERTIES
1002
{
1000
PbHidd
1002
}
  0
LINE
  5
4F6
330
1F
100
AcDbEntity
  8
HIDDEN
100
AcDbLine
 10
-178.8466631166036
 20
101.5166059813675
 30
0.0
 11
-188.2633415038656
 21
104.2349668822464
 31
0.0
1001
DBPROPERTIES
1002
{
1000
PbHidd
1002
}
  0
LINE
  5
4F7
330
1F
100
AcDbEntity
  8
HIDDEN
100
AcDbLine
 10
-188.1011124840717
 20
103.995795705343
 30
0.0
 11
-187.4858315018205
 21
104.4357913966977
 31
0.0
1001
DBPROPERTIES
1002
{
1000
PbHidd
1002
}
  0
LINE
  5
4F8
330
1F
100
AcDbEntity
  8
HIDDEN
100
AcDbLine
 10
-175.618696202203
 20
-4.569198817369536
 30
0.0
 11
-174.5961017585872
 21
-2.945612079812679
 31
0.0
1001
DBPROPERTIES
1002
{
1000
PbHidd
1002
}
  0
LINE
  5
4F9
330
1F
100
AcDbEntity
  8
HIDDEN
100
AcDbLine
 10
-177.1795615714188
 20
-5.658975188539701
 30
0.0
 11
-178.2607454472555
 21
-5.346864287660795
 31
0.0
1001
DBPROPERTIES
1002
{
1000
PbHidd
1002
}
  0
LINE
  5
4FA
330
1F
100
AcDbEntity
  8
HIDDEN
100
AcDbLine
 10
-178.0985197563419
 20
-5.586034531453689
 30
0.0
 11
-177.4832353180012
 21
-5.146036368603025
 31
0.0
1001
DBPROPERTIES
1002
{
1000
PbHidd
1002
}
  0
LINE
  5
4FB
330
1F
100
AcDbEntity
  8
HIDDEN
100
AcDbLine
 10
-178.8466631166036
 20
-5.177724425600248
 30
0.0
 11
-188.2633415038656
 21
-2.459363524721341
 31
0.0
1001
DBPROPERTIES
1002
{
1000
PbHidd
1002
}
  0
LINE
  5
4FC
330
1F
100
AcDbEntity
  8
HIDDEN
100
AcDbLine
 10
-188.1011145577253
 20
-2.698535523797427
 30
0.0
 11
-187.4858301193847
 21
-2.258537360946749
 31
0.0
1001
DBPROPERTIES
1002
{
1000
PbHidd
1002
}
  0
LINE
  5
4FD
330
1F
100
AcDbEntity
  8
HIDDEN
100
AcDbLine
 10
155.7001125652395
 20
-96.3751298967349
 30
0.0
 11
154.6775181216236
 21
-97.99871663429177
 31
0.0
1001
DBPROPERTIES
1002
{
1000
PbHidd
1002
}
  0
LINE
  5
4FE
330
1F
100
AcDbEntity
  8
HIDDEN
100
AcDbLine
 10
157.2609772843767
 20
-95.28535521842807
 30
0.0
 11
158.3421611602134
 21
-95.59746611930697
 31
0.0
1001
DBPROPERTIES
1002
{
1000
PbHidd
1002
}
  0
LINE
  5
4FF
330
1F
100
AcDbEntity
  8
HIDDEN
100
AcDbLine
 10
158.1799333956461
 20
-95.3582966976867
 30
0.0
 11
157.5646524133949
 21
-95.79829238904144
 31
0.0
1001
DBPROPERTIES
1002
{
1000
PbHidd
1002
}
  0
LINE
  5
500
330
1F
100
AcDbEntity
  8
HIDDEN
100
AcDbLine
 10
158.9280788295615
 20
-95.76660598136752
 30
0.0
 11
168.3447572168235
 21
-98.48496688224643
 31
0.0
1001
DBPROPERTIES
1002
{
1000
PbHidd
1002
}
  0
LINE
  5
501
330
1F
100
AcDbEntity
  8
HIDDEN
100
AcDbLine
 10
168.1825281970296
 20
-98.24579570534296
 30
0.0
 11
167.5672472147784
 21
-98.68579139669768
 31
0.0
1001
DBPROPERTIES
1002
{
1000
PbHidd
1002
}
  0
LINE
  5
502
330
1F
100
AcDbEntity
  8
HIDDEN
100
AcDbLine
 10
155.7001119151609
 20
10.31919881736956
 30
0.0
 11
154.6775174715451
 21
8.695612079812697
 31
0.0
1001
DBPROPERTIES
1002
{
1000
PbHidd
1002
}
  0
LINE
  5
503
330
1F
100
AcDbEntity
  8
HIDDEN
100
AcDbLine
 10
157.2609772843767
 20
11.4089751885397
 30
0.0
 11
158.3421611602134
 21
11.09686428766079
 31
0.0
1001
DBPROPERTIES
1002
{
1000
PbHidd
1002
}
  0
LINE
  5
504
330
1F
100
AcDbEntity
  8
HIDDEN
100
AcDbLine
 10
158.1799354692997
 20
11.33603453145371
 30
0.0
 11
157.5646510309591
 21
10.89603636860303
 31
0.0
1001
DBPROPERTIES
1002
{
1000
PbHidd
1002
}
  0
LINE
  5
505
330
1F
100
AcDbEntity
  8
HIDDEN
100
AcDbLine
 10
158.9280788295615
 20
10.92772442560025
 30
0.0
 11
168.3447572168235
 21
8.209363524721342
 31
0.0
1001
DBPROPERTIES
1002
{
1000
PbHidd
1002
}
  0
LINE
  5
506
330
1F
100
AcDbEntity
  8
HIDDEN
100
AcDbLine
 10
168.1825302706832
 20
8.448535523797448
 30
0.0
 11
167.5672458323426
 21
8.008537360946763
 31
0.0
1001
DBPROPERTIES
1002
{
1000
PbHidd
1002
}
  0
LINE
  5
507
330
1F
100
AcDbEntity
  8
HIDDEN
100
AcDbLine
 10
-50.02372688089554
 20
-146.3085466559156
 30
0.0
 11
-50.02372688089554
 21
-147.3897173172534
 31
0.0
1001
DBPROPERTIES
1002
{
1000
PbHidd
1002
}
  0
LINE
  5
508
330
1F
100
AcDbEntity
  8
HIDDEN
100
AcDbLine
 10
-50.0811811094998
 20
-146.8209900752986
 30
0.0
 11
-50.63359075395701
 21
-146.4303774697101
 31
0.0
1001
DBPROPERTIES
1002
{
1000
PbHidd
1002
}
  0
LINE
  5
509
330
1F
100
AcDbEntity
  8
HIDDEN
100
AcDbLine
 10
-50.02372688089554
 20
-147.9756349866015
 30
0.0
 11
-50.02372688089554
 21
-157.3923133738635
 31
0.0
1001
DBPROPERTIES
1002
{
1000
PbHidd
1002
}
  0
LINE
  5
50A
330
1F
100
AcDbEntity
  8
HIDDEN
100
AcDbLine
 10
-50.0811798636249
 20
-156.8235843699755
 30
0.0
 11
-50.6335895080821
 21
-156.4329717643869
 31
0.0
1001
DBPROPERTIES
1002
{
1000
PbHidd
1002
}
  0
LINE
  5
50B
330
1F
100
AcDbEntity
  8
HIDDEN
100
AcDbLine
 10
56.6706002224475
 20
-177.1085458929762
 30
0.0
 11
56.6706002224475
 21
-178.1897165543139
 31
0.0
1001
DBPROPERTIES
1002
{
1000
PbHidd
1002
}
  0
LINE
  5
50C
330
1F
100
AcDbEntity
  8
HIDDEN
100
AcDbLine
 10
56.6131487670714
 20
-177.6209901674547
 30
0.0
 11
56.06073912261421
 21
-177.2303775618661
 31
0.0
1001
DBPROPERTIES
1002
{
1000
PbHidd
1002
}
  0
LINE
  5
50D
330
1F
100
AcDbEntity
  8
HIDDEN
100
AcDbLine
 10
56.6706002224475
 20
-178.7756342236621
 30
0.0
 11
56.6706002224475
 21
-188.192312610924
 31
0.0
1001
DBPROPERTIES
1002
{
1000
PbHidd
1002
}
  0
LINE
  5
50E
330
1F
100
AcDbEntity
  8
HIDDEN
100
AcDbLine
 10
56.61315001294631
 20
-187.6235844621315
 30
0.0
 11
56.06074036848911
 21
-187.232971856543
 31
0.0
1001
DBPROPERTIES
1002
{
1000
PbHidd
1002
}
  0
LINE
  5
50F
330
1F
100
AcDbEntity
  8
HIDDEN
100
AcDbLine
 10
113.3741469971505
 20
24.33535834570432
 30
0.0
 11
115.1137048903503
 21
25.95129041690981
 31
0.0
1001
DBPROPERTIES
1002
{
1000
PbHidd
1002
}
  0
LINE
  5
510
330
1F
100
AcDbEntity
  8
HIDDEN
100
AcDbLine
 10
115.1137048903503
 20
25.95129041690981
 30
0.0
 11
116.9727457084902
 21
27.9576897540572
 31
0.0
1001
DBPROPERTIES
1002
{
1000
PbHidd
1002
}
  0
LINE
  5
511
330
1F
100
AcDbEntity
  8
HIDDEN
100
AcDbLine
 10
116.9727457084902
 20
27.9576897540572
 30
0.0
 11
118.6821390523737
 21
30.1267691401285
 31
0.0
1001
DBPROPERTIES
1002
{
1000
PbHidd
1002
}
  0
LINE
  5
512
330
1F
100
AcDbEntity
  8
HIDDEN
100
AcDbLine
 10
118.6821390523737
 20
30.1267691401285
 30
0.0
 11
119.8224256090724
 21
31.7974377420598
 31
0.0
1001
DBPROPERTIES
1002
{
1000
PbHidd
1002
}
  0
LINE
  5
513
330
1F
100
AcDbEntity
  8
HIDDEN
100
AcDbLine
 10
119.8224256090724
 20
31.7974377420598
 30
0.0
 11
121.4524304015085
 21
34.61191461445698
 31
0.0
1001
DBPROPERTIES
1002
{
1000
PbHidd
1002
}
  0
LINE
  5
514
330
1F
100
AcDbEntity
  8
HIDDEN
100
AcDbLine
 10
121.4524304015085
 20
34.61191461445698
 30
0.0
 11
122.8601121726616
 21
37.64013011174929
 31
0.0
1001
DBPROPERTIES
1002
{
1000
PbHidd
1002
}
  0
LINE
  5
515
330
1F
100
AcDbEntity
  8
HIDDEN
100
AcDbLine
 10
122.8601121726616
 20
37.64013011174929
 30
0.0
 11
123.238132786535
 21
38.59378874740416
 31
0.0
1001
DBPROPERTIES
1002
{
1000
PbHidd
1002
}
  0
LINE
  5
516
330
1F
100
AcDbEntity
  8
HIDDEN
100
AcDbLine
 10
123.238132786535
 20
38.59378874740416
 30
0.0
 11
124.4219788748214
 21
42.21944240370966
 31
0.0
1001
DBPROPERTIES
1002
{
1000
PbHidd
1002
}
  0
LINE
  5
517
330
1F
100
AcDbEntity
  8
HIDDEN
100
AcDbLine
 10
124.4219788748214
 20
42.21944240370966
 30
0.0
 11
125.2892735640253
 21
46.09241647513499
 31
0.0
1001
DBPROPERTIES
1002
{
1000
PbHidd
1002
}
  0
LINE
  5
518
330
1F
100
AcDbEntity
  8
HIDDEN
100
AcDbLine
 10
125.2892735640253
 20
46.09241647513499
 30
0.0
 11
125.5542611792268
 21
47.80200465695312
 31
0.0
1001
DBPROPERTIES
1002
{
1000
PbHidd
1002
}
  0
LINE
  5
519
330
1F
100
AcDbEntity
  8
HIDDEN
100
AcDbLine
 10
125.5542611792268
 20
47.80200465695312
 30
0.0
 11
125.8626245807643
 21
50.87343310993889
 31
0.0
1001
DBPROPERTIES
1002
{
1000
PbHidd
1002
}
  0
LINE
  5
51A
330
1F
100
AcDbEntity
  8
HIDDEN
100
AcDbLine
 10
125.8626245807643
 20
50.87343310993889
 30
0.0
 11
125.9676580080859
 21
54.05798495053541
 31
0.0
1001
DBPROPERTIES
1002
{
1000
PbHidd
1002
}
  0
LINE
  5
51B
330
1F
100
AcDbEntity
  8
HIDDEN
100
AcDbLine
 10
97.8624976571238
 20
54.19298140606827
 30
0.0
 11
98.84749826747536
 21
55.04601695737591
 31
0.0
1001
DBPROPERTIES
1002
{
1000
PbHidd
1002
}
  0
LINE
  5
51C
330
1F
100
AcDbEntity
  8
HIDDEN
100
AcDbLine
 10
51.32104078580306
 20
-29.40420840092761
 30
0.0
 11
113.3760429983275
 21
24.33699994701807
 31
0.0
1001
DBPROPERTIES
1002
{
1000
PbHidd
1002
}
  0
LINE
  5
51D
330
1F
100
AcDbEntity
  8
THICK
100
AcDbLine
 10
32.74983677057928
 20
-69.6628954618277
 30
0.0
 11
33.73483738093084
 21
-68.80985991052007
 31
0.0
1001
DBPROPERTIES
1002
{
1000
PbThick
1002
}
  0
LINE
  5
51E
330
1F
100
AcDbEntity
  8
HIDDEN
100
AcDbLine
 10
27.20155568812446
 20
-60.67250704730438
 30
0.0
 11
23.26155515406685
 21
-64.08464760072253
 31
0.0
1001
DBPROPERTIES
1002
{
1000
PbHidd
1002
}
  0
LINE
  5
51F
330
1F
100
AcDbEntity
  8
HIDDEN
100
AcDbLine
 10
-50.84147689165922
 20
-40.08229189347575
 30
0.0
 11
-54.78147742571683
 21
-43.4944324468939
 31
0.0
1001
DBPROPERTIES
1002
{
1000
PbHidd
1002
}
  0
LINE
  5
520
330
1F
100
AcDbEntity
  8
HIDDEN
100
AcDbLine
 10
-50.84147689165922
 20
40.19973381107586
 30
0.0
 11
-54.78147742571683
 21
36.7875932576577
 31
0.0
1001
DBPROPERTIES
1002
{
1000
PbHidd
1002
}
  0
LINE
  5
521
330
1F
100
AcDbEntity
  8
HIDDEN
100
AcDbLine
 10
27.20155568812446
 20
19.60951927241427
 30
0.0
 11
23.26155515406684
 21
16.19737871899612
 31
0.0
1001
DBPROPERTIES
1002
{
1000
PbHidd
1002
}
  0
LINE
  5
522
330
1F
100
AcDbEntity
  8
HIDDEN
100
AcDbLine
 10
21.55525900147286
 20
-56.73651048491213
 30
0.0
 11
25.49525953553047
 21
-53.32436993149398
 31
0.0
1001
DBPROPERTIES
1002
{
1000
PbHidd
1002
}
  0
LINE
  5
523
330
1F
100
AcDbEntity
  8
HIDDEN
100
AcDbLine
 10
-135.7893116968547
 20
174.8766260357471
 30
0.0
 11
-135.7893074151523
 21
86.96935692319951
 31
0.0
1001
DBPROPERTIES
1002
{
1000
PbHidd
1002
}
  0
LINE
  5
524
330
1F
100
AcDbEntity
  8
HIDDEN
100
AcDbLine
 10
-97.7762822473561
 20
141.4073057714419
 30
0.0
 11
-121.4162816370045
 21
120.9344657545578
 31
0.0
1001
DBPROPERTIES
1002
{
1000
PbHidd
1002
}
  0
LINE
  5
525
330
1F
100
AcDbEntity
  8
THICK
100
AcDbLine
 10
12.28381473129473
 20
-8.212882478652453
 30
0.0
 11
17.20881492202959
 21
-3.947707199832859
 31
0.0
1001
DBPROPERTIES
1002
{
1000
PbThick
1002
}
  0
LINE
  5
526
330
1F
100
AcDbEntity
  8
HIDDEN
100
AcDbLine
 10
19.1788151890584
 20
-2.241636923123783
 30
0.0
 11
21.14881450241289
 21
-0.5355674723208939
 31
0.0
1001
DBPROPERTIES
1002
{
1000
PbHidd
1002
}
  0
LINE
  5
527
330
1F
100
AcDbEntity
  8
HIDDEN
100
AcDbLine
 10
0.5215147343547208
 20
19.30262349998559
 30
0.0
 11
2.491514047709213
 21
21.00869295078847
 31
0.0
1001
DBPROPERTIES
1002
{
1000
PbHidd
1002
}
  0
LINE
  5
528
330
1F
100
AcDbEntity
  8
THICK
100
AcDbLine
 10
-6.373485723408949
 20
13.33137794445691
 30
0.0
 11
-5.566161075505508
 21
14.03054159864262
 31
0.0
1001
DBPROPERTIES
1002
{
1000
PbThick
1002
}
  0
LINE
  5
529
330
1F
100
AcDbEntity
  8
HIDDEN
100
AcDbLine
 10
-5.566161075505508
 20
14.03054159864262
 30
0.0
 11
-1.448485532674088
 21
17.59655322327651
 31
0.0
1001
DBPROPERTIES
1002
{
1000
PbHidd
1002
}
  0
LINE
  5
52A
330
1F
100
AcDbEntity
  8
HIDDEN
100
AcDbLine
 10
-67.73257005966691
 20
94.13401174530783
 30
0.0
 11
-65.7625697926381
 21
95.84008202201692
 31
0.0
1001
DBPROPERTIES
1002
{
1000
PbHidd
1002
}
  0
LINE
  5
52B
330
1F
100
AcDbEntity
  8
HIDDEN
100
AcDbLine
 10
83.49249908121227
 20
-80.48551298420136
 30
0.0
 11
85.46249934824108
 21
-78.77944270749228
 31
0.0
1001
DBPROPERTIES
1002
{
1000
PbHidd
1002
}
  0
LINE
  5
52C
330
1F
100
AcDbEntity
  8
HIDDEN
100
AcDbLine
 10
128.9933848292471
 20
-131.4161657849986
 30
0.0
 11
105.3533854395987
 21
-151.8890058018827
 31
0.0
1001
DBPROPERTIES
1002
{
1000
PbHidd
1002
}
  0
LINE
  5
52D
330
1F
100
AcDbEntity
  8
HIDDEN
100
AcDbLine
 10
-175.7893098867827
 20
174.8763105676658
 30
0.0
 11
-175.7893098867827
 21
44.97249999999998
 31
0.0
1001
DBPROPERTIES
1002
{
1000
PbHidd
1002
}
  0
LINE
  5
52E
330
1F
100
AcDbEntity
  8
HIDDEN
100
AcDbLine
 10
-53.07479845614945
 20
29.43979042537609
 30
0.0
 11
-49.13479792209183
 21
32.85193097879424
 31
0.0
1001
DBPROPERTIES
1002
{
1000
PbHidd
1002
}
  0
LINE
  5
52F
330
1F
100
AcDbEntity
  8
HIDDEN
100
AcDbLine
 10
29.44054881289239
 20
17.02430923527021
 30
0.0
 11
25.50054827883477
 21
13.61216868185206
 31
0.0
1001
DBPROPERTIES
1002
{
1000
PbHidd
1002
}
  0
LINE
  5
530
330
1F
100
AcDbEntity
  8
HIDDEN
100
AcDbLine
 10
-53.08047063159419
 20
42.78494402580333
 30
0.0
 11
-57.0204711656518
 21
39.37280347238519
 31
0.0
1001
DBPROPERTIES
1002
{
1000
PbHidd
1002
}
  0
LINE
  5
531
330
1F
100
AcDbEntity
  8
HIDDEN
100
AcDbLine
 10
-53.08047063159418
 20
-37.4970822939153
 30
0.0
 11
-57.0204711656518
 21
-40.90922284733345
 31
0.0
1001
DBPROPERTIES
1002
{
1000
PbHidd
1002
}
  0
LINE
  5
532
330
1F
100
AcDbEntity
  8
HIDDEN
100
AcDbLine
 10
29.44054881289239
 20
-63.2577164692814
 30
0.0
 11
25.50054827883477
 21
-66.66985702269955
 31
0.0
1001
DBPROPERTIES
1002
{
1000
PbHidd
1002
}
  0
LINE
  5
533
330
1F
100
AcDbEntity
  8
THICK
100
AcDbLine
 10
-64.26923660287984
 20
42.36629567043974
 30
0.0
 11
-63.28423599252828
 21
43.21933122174737
 31
0.0
1001
DBPROPERTIES
1002
{
1000
PbThick
1002
}
  0
LINE
  5
534
330
1F
100
AcDbEntity
  8
HIDDEN
100
AcDbLine
 10
-21.77058923157685
 20
54.99565175215398
 30
0.0
 11
40.28441298094755
 21
108.7368601000997
 31
0.0
1001
DBPROPERTIES
1002
{
1000
PbHidd
1002
}
  0
LINE
  5
535
330
1F
100
AcDbEntity
  8
HIDDEN
100
AcDbLine
 10
67.61768535005707
 20
89.11706075301849
 30
0.0
 11
68.60268596040864
 21
89.97009630432613
 31
0.0
1001
DBPROPERTIES
1002
{
1000
PbHidd
1002
}
  0
LINE
  5
536
330
1F
100
AcDbEntity
  8
HIDDEN
100
AcDbLine
 10
125.9676580080859
 20
54.05798495053541
 30
0.0
 11
125.8042929135221
 21
58.10309868743472
 31
0.0
1001
DBPROPERTIES
1002
{
1000
PbHidd
1002
}
  0
LINE
  5
537
330
1F
100
AcDbEntity
  8
HIDDEN
100
AcDbLine
 10
125.8042929135221
 20
58.10309868743472
 30
0.0
 11
125.3045999563956
 21
62.27233685308318
 31
0.0
1001
DBPROPERTIES
1002
{
1000
PbHidd
1002
}
  0
LINE
  5
538
330
1F
100
AcDbEntity
  8
HIDDEN
100
AcDbLine
 10
125.3045999563956
 20
62.27233685308318
 30
0.0
 11
125.1438098699773
 21
63.22869206386151
 31
0.0
1001
DBPROPERTIES
1002
{
1000
PbHidd
1002
}
  0
LINE
  5
539
330
1F
100
AcDbEntity
  8
HIDDEN
100
AcDbLine
 10
125.1438098699773
 20
63.22869206386151
 30
0.0
 11
124.3779032368282
 21
66.86284922536869
 31
0.0
1001
DBPROPERTIES
1002
{
1000
PbHidd
1002
}
  0
LINE
  5
53A
330
1F
100
AcDbEntity
  8
HIDDEN
100
AcDbLine
 10
124.3779032368282
 20
66.86284922536869
 30
0.0
 11
123.3566616803784
 21
70.53221506281116
 31
0.0
1001
DBPROPERTIES
1002
{
1000
PbHidd
1002
}
  0
LINE
  5
53B
330
1F
100
AcDbEntity
  8
HIDDEN
100
AcDbLine
 10
123.3566616803784
 20
70.53221506281116
 30
0.0
 11
121.9322163228328
 21
74.59660159524253
 31
0.0
1001
DBPROPERTIES
1002
{
1000
PbHidd
1002
}
  0
LINE
  5
53C
330
1F
100
AcDbEntity
  8
HIDDEN
100
AcDbLine
 10
121.9322163228328
 20
74.59660159524253
 30
0.0
 11
120.2002957857918
 21
78.64140454134593
 31
0.0
1001
DBPROPERTIES
1002
{
1000
PbHidd
1002
}
  0
LINE
  5
53D
330
1F
100
AcDbEntity
  8
HIDDEN
100
AcDbLine
 10
120.2002957857918
 20
78.64140454134593
 30
0.0
 11
118.2044855754027
 21
82.56808703958008
 31
0.0
1001
DBPROPERTIES
1002
{
1000
PbHidd
1002
}
  0
LINE
  5
53E
330
1F
100
AcDbEntity
  8
HIDDEN
100
AcDbLine
 10
118.2044855754027
 20
82.56808703958008
 30
0.0
 11
115.9306236394998
 21
86.41018197896157
 31
0.0
1001
DBPROPERTIES
1002
{
1000
PbHidd
1002
}
  0
LINE
  5
53F
330
1F
100
AcDbEntity
  8
HIDDEN
100
AcDbLine
 10
115.9306236394998
 20
86.41018197896157
 30
0.0
 11
113.4163783476862
 21
90.10491549316332
 31
0.0
1001
DBPROPERTIES
1002
{
1000
PbHidd
1002
}
  0
LINE
  5
540
330
1F
100
AcDbEntity
  8
HIDDEN
100
AcDbLine
 10
113.4163783476862
 20
90.10491549316332
 30
0.0
 11
110.6617186346181
 21
93.65506718992611
 31
0.0
1001
DBPROPERTIES
1002
{
1000
PbHidd
1002
}
  0
LINE
  5
541
330
1F
100
AcDbEntity
  8
HIDDEN
100
AcDbLine
 10
110.6617186346181
 20
93.65506718992611
 30
0.0
 11
107.6914904801385
 21
97.0280410578855
 31
0.0
1001
DBPROPERTIES
1002
{
1000
PbHidd
1002
}
  0
LINE
  5
542
330
1F
100
AcDbEntity
  8
HIDDEN
100
AcDbLine
 10
107.6914904801385
 20
97.0280410578855
 30
0.0
 11
104.5256662103454
 21
100.2021415046218
 31
0.0
1001
DBPROPERTIES
1002
{
1000
PbHidd
1002
}
  0
LINE
  5
543
330
1F
100
AcDbEntity
  8
HIDDEN
100
AcDbLine
 10
104.5256662103454
 20
100.2021415046218
 30
0.0
 11
101.1701052610646
 21
103.1697966046725
 31
0.0
1001
DBPROPERTIES
1002
{
1000
PbHidd
1002
}
  0
LINE
  5
544
330
1F
100
AcDbEntity
  8
HIDDEN
100
AcDbLine
 10
101.1701052610646
 20
103.1697966046725
 30
0.0
 11
97.67054572120992
 21
105.8903652043921
 31
0.0
1001
DBPROPERTIES
1002
{
1000
PbHidd
1002
}
  0
LINE
  5
545
330
1F
100
AcDbEntity
  8
HIDDEN
100
AcDbLine
 10
97.67054572120992
 20
105.8903652043921
 30
0.0
 11
94.00709908382328
 21
108.3765427512811
 31
0.0
1001
DBPROPERTIES
1002
{
1000
PbHidd
1002
}
  0
LINE
  5
546
330
1F
100
AcDbEntity
  8
HIDDEN
100
AcDbLine
 10
94.00709908382328
 20
108.3765427512811
 30
0.0
 11
90.25760493862434
 21
110.5743500197404
 31
0.0
1001
DBPROPERTIES
1002
{
1000
PbHidd
1002
}
  0
LINE
  5
547
330
1F
100
AcDbEntity
  8
HIDDEN
100
AcDbLine
 10
90.25760493862434
 20
110.5743500197404
 30
0.0
 11
86.36883533651704
 21
112.5110676683677
 31
0.0
1001
DBPROPERTIES
1002
{
1000
PbHidd
1002
}
  0
LINE
  5
548
330
1F
100
AcDbEntity
  8
HIDDEN
100
AcDbLine
 10
86.36883533651704
 20
112.5110676683677
 30
0.0
 11
82.45811456325899
 21
114.1262141934853
 31
0.0
1001
DBPROPERTIES
1002
{
1000
PbHidd
1002
}
  0
LINE
  5
549
330
1F
100
AcDbEntity
  8
HIDDEN
100
AcDbLine
 10
82.45811456325899
 20
114.1262141934853
 30
0.0
 11
80.46673648585976
 21
114.8246487126073
 31
0.0
1001
DBPROPERTIES
1002
{
1000
PbHidd
1002
}
  0
LINE
  5
54A
330
1F
100
AcDbEntity
  8
HIDDEN
100
AcDbLine
 10
80.46673648585976
 20
114.8246487126073
 30
0.0
 11
77.44098168292876
 21
115.7284394663302
 31
0.0
1001
DBPROPERTIES
1002
{
1000
PbHidd
1002
}
  0
LINE
  5
54B
330
1F
100
AcDbEntity
  8
HIDDEN
100
AcDbLine
 10
77.44098168292876
 20
115.7284394663302
 30
0.0
 11
74.45155926871378
 21
116.4359273869451
 31
0.0
1001
DBPROPERTIES
1002
{
1000
PbHidd
1002
}
  0
LINE
  5
54C
330
1F
100
AcDbEntity
  8
HIDDEN
100
AcDbLine
 10
74.45155926871378
 20
116.4359273869451
 30
0.0
 11
70.38045894287949
 21
117.1013495649024
 31
0.0
1001
DBPROPERTIES
1002
{
1000
PbHidd
1002
}
  0
LINE
  5
54D
330
1F
100
AcDbEntity
  8
HIDDEN
100
AcDbLine
 10
70.38045894287949
 20
117.1013495649024
 30
0.0
 11
66.4276890154922
 21
117.4112746267644
 31
0.0
1001
DBPROPERTIES
1002
{
1000
PbHidd
1002
}
  0
LINE
  5
54E
330
1F
100
AcDbEntity
  8
HIDDEN
100
AcDbLine
 10
66.4276890154922
 20
117.4112746267644
 30
0.0
 11
65.24912543474966
 21
117.4376236453704
 31
0.0
1001
DBPROPERTIES
1002
{
1000
PbHidd
1002
}
  0
LINE
  5
54F
330
1F
100
AcDbEntity
  8
HIDDEN
100
AcDbLine
 10
65.24912543474966
 20
117.4376236453704
 30
0.0
 11
61.85226565501376
 21
117.3368712508694
 31
0.0
1001
DBPROPERTIES
1002
{
1000
PbHidd
1002
}
  0
LINE
  5
550
330
1F
100
AcDbEntity
  8
HIDDEN
100
AcDbLine
 10
61.85226565501376
 20
117.3368712508694
 30
0.0
 11
58.58925170331887
 21
116.9807840339709
 31
0.0
1001
DBPROPERTIES
1002
{
1000
PbHidd
1002
}
  0
LINE
  5
551
330
1F
100
AcDbEntity
  8
HIDDEN
100
AcDbLine
 10
58.58925170331887
 20
116.9807840339709
 30
0.0
 11
56.67046127665215
 21
116.64490934936
 31
0.0
1001
DBPROPERTIES
1002
{
1000
PbHidd
1002
}
  0
LINE
  5
552
330
1F
100
AcDbEntity
  8
HIDDEN
100
AcDbLine
 10
56.67046127665215
 20
116.64490934936
 30
0.0
 11
54.80578115476473
 21
116.2228808758314
 31
0.0
1001
DBPROPERTIES
1002
{
1000
PbHidd
1002
}
  0
LINE
  5
553
330
1F
100
AcDbEntity
  8
HIDDEN
100
AcDbLine
 10
54.80578115476473
 20
116.2228808758314
 30
0.0
 11
52.95418175328656
 21
115.704832513594
 31
0.0
1001
DBPROPERTIES
1002
{
1000
PbHidd
1002
}
  0
LINE
  5
554
330
1F
100
AcDbEntity
  8
HIDDEN
100
AcDbLine
 10
52.95418175328656
 20
115.704832513594
 30
0.0
 11
51.16193368491973
 21
115.1030377092377
 31
0.0
1001
DBPROPERTIES
1002
{
1000
PbHidd
1002
}
  0
LINE
  5
555
330
1F
100
AcDbEntity
  8
HIDDEN
100
AcDbLine
 10
51.16193368491973
 20
115.1030377092377
 30
0.0
 11
48.91648833233987
 21
114.1980350687545
 31
0.0
1001
DBPROPERTIES
1002
{
1000
PbHidd
1002
}
  0
LINE
  5
556
330
1F
100
AcDbEntity
  8
HIDDEN
100
AcDbLine
 10
48.91648833233987
 20
114.1980350687545
 30
0.0
 11
46.77234416635366
 21
113.1610223386082
 31
0.0
1001
DBPROPERTIES
1002
{
1000
PbHidd
1002
}
  0
LINE
  5
557
330
1F
100
AcDbEntity
  8
HIDDEN
100
AcDbLine
 10
46.77234416635366
 20
113.1610223386082
 30
0.0
 11
44.39556155398384
 21
111.7880340259545
 31
0.0
1001
DBPROPERTIES
1002
{
1000
PbHidd
1002
}
  0
LINE
  5
558
330
1F
100
AcDbEntity
  8
HIDDEN
100
AcDbLine
 10
44.39556155398384
 20
111.7880340259545
 30
0.0
 11
42.2778740961685
 21
110.3361383718859
 31
0.0
1001
DBPROPERTIES
1002
{
1000
PbHidd
1002
}
  0
LINE
  5
559
330
1F
100
AcDbEntity
  8
HIDDEN
100
AcDbLine
 10
42.2778740961685
 20
110.3361383718859
 30
0.0
 11
40.28585666495884
 21
108.7381083712922
 31
0.0
1001
DBPROPERTIES
1002
{
1000
PbHidd
1002
}
  0
LINE
  5
55A
330
1F
100
AcDbEntity
  8
HIDDEN
100
AcDbLine
 10
50.63358895580603
 20
-187.2329721549051
 30
0.0
 11
50.08117924532372
 21
-187.6235848071804
 31
0.0
1001
DBPROPERTIES
1002
{
1000
PbHidd
1002
}
  0
LINE
  5
55B
330
1F
100
AcDbEntity
  8
HIDDEN
100
AcDbLine
 10
50.02372737312143
 20
-178.7756871381348
 30
0.0
 11
50.02372737312143
 21
-188.1923655253967
 31
0.0
1001
DBPROPERTIES
1002
{
1000
PbHidd
1002
}
  0
LINE
  5
55C
330
1F
100
AcDbEntity
  8
HIDDEN
100
AcDbLine
 10
50.63359020168093
 20
-177.2303778602282
 30
0.0
 11
50.08118049119862
 21
-177.6209905125036
 31
0.0
1001
DBPROPERTIES
1002
{
1000
PbHidd
1002
}
  0
LINE
  5
55D
330
1F
100
AcDbEntity
  8
HIDDEN
100
AcDbLine
 10
50.02372737312143
 20
-177.1085988074489
 30
0.0
 11
50.02372737312143
 21
-178.1897694687866
 31
0.0
1001
DBPROPERTIES
1002
{
1000
PbHidd
1002
}
  0
LINE
  5
55E
330
1F
100
AcDbEntity
  8
HIDDEN
100
AcDbLine
 10
-56.06073954981709
 20
-156.4329712776545
 30
0.0
 11
-56.61315081107404
 21
-156.8235850264931
 31
0.0
1001
DBPROPERTIES
1002
{
1000
PbHidd
1002
}
  0
LINE
  5
55F
330
1F
100
AcDbEntity
  8
HIDDEN
100
AcDbLine
 10
-56.6706023731214
 20
-147.9756871381348
 30
0.0
 11
-56.6706023731214
 21
-157.3923655253967
 31
0.0
1001
DBPROPERTIES
1002
{
1000
PbHidd
1002
}
  0
LINE
  5
560
330
1F
100
AcDbEntity
  8
HIDDEN
100
AcDbLine
 10
-56.06073830394219
 20
-146.4303769829776
 30
0.0
 11
-56.61314956519914
 21
-146.8209907318163
 31
0.0
1001
DBPROPERTIES
1002
{
1000
PbHidd
1002
}
  0
LINE
  5
561
330
1F
100
AcDbEntity
  8
HIDDEN
100
AcDbLine
 10
-56.6706023731214
 20
-146.3085988074489
 30
0.0
 11
-56.6706023731214
 21
-147.3897694687867
 31
0.0
1001
DBPROPERTIES
1002
{
1000
PbHidd
1002
}
  0
LINE
  5
562
330
1F
100
AcDbEntity
  8
HIDDEN
100
AcDbLine
 10
165.9503797651211
 20
2.407545729954951
 30
0.0
 11
166.2365116978728
 21
1.707333897957133
 31
0.0
1001
DBPROPERTIES
1002
{
1000
PbHidd
1002
}
  0
LINE
  5
563
330
1F
100
AcDbEntity
  8
HIDDEN
100
AcDbLine
 10
157.0845765608749
 20
4.541610169091364
 30
0.0
 11
166.5012549481368
 21
1.823249268212457
 31
0.0
1001
DBPROPERTIES
1002
{
1000
PbHidd
1002
}
  0
LINE
  5
564
330
1F
100
AcDbEntity
  8
HIDDEN
100
AcDbLine
 10
155.9477857060841
 20
5.295047309175187
 30
0.0
 11
156.2339176388359
 21
4.594835477177377
 31
0.0
1001
DBPROPERTIES
1002
{
1000
PbHidd
1002
}
  0
LINE
  5
565
330
1F
100
AcDbEntity
  8
HIDDEN
100
AcDbLine
 10
155.4174750156901
 20
5.022860932030817
 30
0.0
 11
156.4986588915268
 21
4.71075003115191
 31
0.0
1001
DBPROPERTIES
1002
{
1000
PbHidd
1002
}
  0
LINE
  5
566
330
1F
100
AcDbEntity
  8
HIDDEN
100
AcDbLine
 10
165.9503798398639
 20
-104.2867841991959
 30
0.0
 11
166.2365117726157
 21
-104.9869960311938
 31
0.0
1001
DBPROPERTIES
1002
{
1000
PbHidd
1002
}
  0
LINE
  5
567
330
1F
100
AcDbEntity
  8
HIDDEN
100
AcDbLine
 10
157.0845765608749
 20
-102.1527195771515
 30
0.0
 11
166.5012549481368
 21
-104.8710804780304
 31
0.0
1001
DBPROPERTIES
1002
{
1000
PbHidd
1002
}
  0
LINE
  5
568
330
1F
100
AcDbEntity
  8
HIDDEN
100
AcDbLine
 10
155.947785780827
 20
-101.3992826199757
 30
0.0
 11
156.2339177135788
 21
-102.0994944519735
 31
0.0
1001
DBPROPERTIES
1002
{
1000
PbHidd
1002
}
  0
LINE
  5
569
330
1F
100
AcDbEntity
  8
HIDDEN
100
AcDbLine
 10
155.4174750156901
 20
-101.671468814212
 30
0.0
 11
156.4986588915268
 21
-101.9835797150909
 31
0.0
1001
DBPROPERTIES
1002
{
1000
PbHidd
1002
}
  0
LINE
  5
56A
330
1F
100
AcDbEntity
  8
HIDDEN
100
AcDbLine
 10
-185.8689640521632
 20
3.342454270045062
 30
0.0
 11
-186.1550959849149
 21
4.04266610204288
 31
0.0
1001
DBPROPERTIES
1002
{
1000
PbHidd
1002
}
  0
LINE
  5
56B
330
1F
100
AcDbEntity
  8
HIDDEN
100
AcDbLine
 10
-177.003160847917
 20
1.208389830908666
 30
0.0
 11
-186.4198392351789
 21
3.926750731787573
 31
0.0
1001
DBPROPERTIES
1002
{
1000
PbHidd
1002
}
  0
LINE
  5
56C
330
1F
100
AcDbEntity
  8
HIDDEN
100
AcDbLine
 10
-175.8663699931262
 20
0.4549526908248258
 30
0.0
 11
-176.152501925878
 21
1.155164522822643
 31
0.0
1001
DBPROPERTIES
1002
{
1000
PbHidd
1002
}
  0
LINE
  5
56D
330
1F
100
AcDbEntity
  8
HIDDEN
100
AcDbLine
 10
-175.3360593027321
 20
0.727139067969213
 30
0.0
 11
-176.4172431785689
 21
1.039249968848119
 31
0.0
1001
DBPROPERTIES
1002
{
1000
PbHidd
1002
}
  0
LINE
  5
56E
330
1F
100
AcDbEntity
  8
HIDDEN
100
AcDbLine
 10
-185.868964126906
 20
110.036784199196
 30
0.0
 11
-186.1550960596578
 21
110.7369960311938
 31
0.0
1001
DBPROPERTIES
1002
{
1000
PbHidd
1002
}
  0
LINE
  5
56F
330
1F
100
AcDbEntity
  8
HIDDEN
100
AcDbLine
 10
-177.003160847917
 20
107.9027195771515
 30
0.0
 11
-186.4198392351789
 21
110.6210804780304
 31
0.0
1001
DBPROPERTIES
1002
{
1000
PbHidd
1002
}
  0
LINE
  5
570
330
1F
100
AcDbEntity
  8
HIDDEN
100
AcDbLine
 10
-175.8663700678691
 20
107.1492826199757
 30
0.0
 11
-176.1525020006209
 21
107.8494944519736
 31
0.0
1001
DBPROPERTIES
1002
{
1000
PbHidd
1002
}
  0
LINE
  5
571
330
1F
100
AcDbEntity
  8
HIDDEN
100
AcDbLine
 10
-175.3360593027321
 20
107.421468814212
 30
0.0
 11
-176.4172431785689
 21
107.733579715091
 31
0.0
1001
DBPROPERTIES
1002
{
1000
PbHidd
1002
}
  0
LINE
  5
572
330
1F
100
AcDbEntity
  8
THICK
100
AcDbLine
 10
137.8345190243109
 20
-136.231518504632
 30
0.0
 11
108.2845197872504
 21
-161.8225685257372
 31
0.0
1001
DBPROPERTIES
1002
{
1000
PbThick
1002
}
  0
LINE
  5
573
330
1F
100
AcDbEntity
  8
HIDDEN
100
AcDbLine
 10
-126.2393098867827
 20
124.3637495442167
 30
0.0
 11
-126.2393098867827
 21
128.9809351240278
 31
0.0
1001
DBPROPERTIES
1002
{
1000
PbHidd
1002
}
  0
LINE
  5
574
330
1F
100
AcDbEntity
  8
THICK
100
AcDbLine
 10
-126.2393098867827
 20
128.9809351240278
 30
0.0
 11
-126.2393098867827
 21
158.5120300656564
 31
0.0
1001
DBPROPERTIES
1002
{
1000
PbThick
1002
}
  0
LINE
  5
575
330
1F
100
AcDbEntity
  8
HIDDEN
100
AcDbLine
 10
-126.2393098867827
 20
158.5120300656564
 30
0.0
 11
-126.2393098867827
 21
168.3811200392825
 31
0.0
1001
DBPROPERTIES
1002
{
1000
PbHidd
1002
}
  0
LINE
  5
576
330
1F
100
AcDbEntity
  8
HIDDEN
100
AcDbLine
 10
-130.1193098867826
 20
187.1478905392913
 30
0.0
 11
-130.1193098867826
 21
193.6430810676746
 31
0.0
1001
DBPROPERTIES
1002
{
1000
PbHidd
1002
}
  0
LINE
  5
577
330
1F
100
AcDbEntity
  8
HIDDEN
100
AcDbLine
 10
-173.4593098867826
 20
149.6143495392737
 30
0.0
 11
-173.4593098867826
 21
156.109540067657
 31
0.0
1001
DBPROPERTIES
1002
{
1000
PbHidd
1002
}
  0
ENDSEC
  0
SECTION
  2
OBJECTS
  0
DICTIONARY
  5
C
330
0
100
AcDbDictionary
  3
ACAD_GROUP
350
D
  3
ACAD_LAYOUT
350
1A
  3
ACAD_MATERIAL
350
43
  3
ACAD_MLEADERSTYLE
350
6B
  3
ACAD_MLINESTYLE
350
17
  3
ACAD_PLOTSETTINGS
350
19
  3
ACAD_SCALELIST
350
47
  3
ACAD_VISUALSTYLE
350
2A
  3
ACDBVARIABLEDICTIONARY
350
578
1001
ACAD
1000
TREAT_AS_HARD
1070
     0
  0
DICTIONARY
  5
D
102
{ACAD_REACTORS
330
C
102
}
330
C
100
AcDbDictionary
1001
ACAD
1000
TREAT_AS_HARD
1070
     0
  0
DICTIONARY
  5
1A
102
{ACAD_REACTORS
330
C
102
}
330
C
100
AcDbDictionary
1001
ACAD
1000
TREAT_AS_HARD
1070
     0
  0
DICTIONARY
  5
43
102
{ACAD_REACTORS
330
C
102
}
330
C
100
AcDbDictionary
  3
BYBLOCK
350
45
  3
BYLAYER
350
44
  3
GLOBAL
350
46
1001
ACAD
1000
TREAT_AS_HARD
1070
     0
  0
DICTIONARY
  5
6B
102
{ACAD_REACTORS
330
C
102
}
330
C
100
AcDbDictionary
  3
STANDARD
350
6C
1001
ACAD
1000
TREAT_AS_HARD
1070
     0
  0
DICTIONARY
  5
17
102
{ACAD_REACTORS
330
C
102
}
330
C
100
AcDbDictionary
  3
STANDARD
350
18
1001
ACAD
1000
TREAT_AS_HARD
1070
     0
  0
DICTIONARY
  5
19
102
{ACAD_REACTORS
330
C
102
}
330
C
100
AcDbDictionary
1001
ACAD
1000
TREAT_AS_HARD
1070
     0
  0
DICTIONARY
  5
47
102
{ACAD_REACTORS
330
C
102
}
330
C
100
AcDbDictionary
  3
A0
350
48
  3
A1
350
49
  3
A2
350
4A
  3
A3
350
4B
  3
A4
350
4C
  3
A5
350
4D
  3
A6
350
4E
  3
A7
350
4F
  3
A8
350
50
  3
A9
350
51
  3
B0
350
52
  3
B1
350
53
  3
B2
350
54
  3
B3
350
55
  3
B4
350
56
  3
B5
350
57
  3
B6
350
58
  3
B7
350
59
  3
B8
350
5A
  3
B9
350
5B
  3
C0
350
5C
  3
C1
350
5D
  3
C2
350
5E
  3
C3
350
5F
  3
C4
350
60
  3
C5
350
61
  3
C6
350
62
  3
C7
350
63
  3
C8
350
64
  3
C9
350
65
  3
D0
350
66
  3
D1
350
67
  3
D2
350
68
1001
ACAD
1000
TREAT_AS_HARD
1070
     0
  0
DICTIONARY
  5
2A
102
{ACAD_REACTORS
330
C
102
}
330
C
100
AcDbDictionary
  3
2DWIREFRAME
350
2F
  3
BASIC
350
32
  3
BRIGHTEN
350
36
  3
COLORCHANGE
350
3A
  3
CONCEPTUAL
350
34
  3
DIM
350
35
  3
EDGECOLOROFF
350
3D
  3
FACEPATTERN
350
39
  3
FLAT
350
2B
  3
FLATWITHEDGES
350
2C
  3
GOURAUD
350
2D
  3
GOURAUDWITHEDGES
350
2E
  3
HIDDEN
350
31
  3
JITTEROFF
350
3B
  3
LINEPATTERN
350
38
  3
OVERHANGOFF
350
3C
  3
REALISTIC
350
33
  3
SHADED
350
42
  3
SHADED_WITH_EDGES
350
41
  3
SHADES_OF_GRAY
350
3E
  3
SKETCHY
350
3F
  3
THICKEN
350
37
  3
WIREFRAME
350
30
  3
X-RAY
350
40
1001
ACAD
1000
TREAT_AS_HARD
1070
     0
  0
DICTIONARY
  5
578
102
{ACAD_REACTORS
330
C
102
}
330
C
100
AcDbDictionary
  3
CANNOSCALE
350
581
  3
CMLEADERSTYLE
350
57A
  3
CTABLESTYLE
350
579
  3
DIMASSOC
350
57F
  3
HIDETEXT
350
580
  3
MSLTSCALE
350
582
  3
PSOLHEIGHT
350
57C
  3
PSOLWIDTH
350
57B
1001
ACAD
1000
TREAT_AS_HARD
1070
     0
  0
MATERIAL
  5
45
102
{ACAD_REACTORS
330
43
102
}
102
{ACAD_XDICTIONARY
360
585
102
}
330
43
100
AcDbMaterial
  1
BYBLOCK
  0
MATERIAL
  5
44
102
{ACAD_REACTORS
330
43
102
}
102
{ACAD_XDICTIONARY
360
583
102
}
330
43
100
AcDbMaterial
  1
BYLAYER
  0
MATERIAL
  5
46
102
{ACAD_REACTORS
330
43
102
}
102
{ACAD_XDICTIONARY
360
587
102
}
330
43
100
AcDbMaterial
  1
GLOBAL
  0
ACAD_PROXY_OBJECT
  5
6C
102
{ACAD_REACTORS
330
6B
102
}
330
6B
100
AcDbZombieObject
 90
      499
 91
      505
 93
      610
310
40901902A4063FBFFFFFE0000000000000020400000000000020404214DD185B99185C990000000000000104090141901A00000000000004100000000000000041025764000000000000039000
340
14
340
0
340
11
340
0
 94
        0
1001
ACAD_MLEADERVER
1070
     2
  0
MLINESTYLE
  5
18
102
{ACAD_REACTORS
330
17
102
}
330
17
100
AcDbMlineStyle
  2
Standard
 70
     0
  3

 62
   256
 51
90.0
 52
90.0
 71
     2
 49
0.5
 62
   256
  6
BYLAYER
 49
-0.5
 62
   256
  6
BYLAYER
  0
ACAD_PROXY_OBJECT
  5
48
102
{ACAD_REACTORS
330
47
102
}
330
47
100
AcDbZombieObject
 90
      499
 91
      503
 93
       41
310
903313A31580
  0
ACAD_PROXY_OBJECT
  5
49
102
{ACAD_REACTORS
330
47
102
}
330
47
100
AcDbZombieObject
 90
      499
 91
      503
 93
      105
310
903313A324000000000000004000
  0
ACAD_PROXY_OBJECT
  5
4A
102
{ACAD_REACTORS
330
47
102
}
330
47
100
AcDbZombieObject
 90
      499
 91
      503
 93
      105
310
903313A344000000000000104000
  0
ACAD_PROXY_OBJECT
  5
4B
102
{ACAD_REACTORS
330
47
102
}
330
47
100
AcDbZombieObject
 90
      499
 91
      503
 93
      105
310
903313A354000000000000144000
  0
ACAD_PROXY_OBJECT
  5
4C
102
{ACAD_REACTORS
330
47
102
}
330
47
100
AcDbZombieObject
 90
      499
 91
      503
 93
      105
310
903313A384000000000000204000
  0
ACAD_PROXY_OBJECT
  5
4D
102
{ACAD_REACTORS
330
47
102
}
330
47
100
AcDbZombieObject
 90
      499
 91
      503
 93
      113
310
904313A31304000000000000244000
  0
ACAD_PROXY_OBJECT
  5
4E
102
{ACAD_REACTORS
330
47
102
}
330
47
100
AcDbZombieObject
 90
      499
 91
      503
 93
      113
310
904313A31364000000000000304000
  0
ACAD_PROXY_OBJECT
  5
4F
102
{ACAD_REACTORS
330
47
102
}
330
47
100
AcDbZombieObject
 90
      499
 91
      503
 93
      113
310
904313A32304000000000000344000
  0
ACAD_PROXY_OBJECT
  5
50
102
{ACAD_REACTORS
330
47
102
}
330
47
100
AcDbZombieObject
 90
      499
 91
      503
 93
      113
310
904313A333040000000000003E4000
  0
ACAD_PROXY_OBJECT
  5
51
102
{ACAD_REACTORS
330
47
102
}
330
47
100
AcDbZombieObject
 90
      499
 91
      503
 93
      113
310
904313A34304000000000000444000
  0
ACAD_PROXY_OBJECT
  5
52
102
{ACAD_REACTORS
330
47
102
}
330
47
100
AcDbZombieObject
 90
      499
 91
      503
 93
      113
310
904313A35304000000000000494000
  0
ACAD_PROXY_OBJECT
  5
53
102
{ACAD_REACTORS
330
47
102
}
330
47
100
AcDbZombieObject
 90
      499
 91
      503
 93
      121
310
905313A3130304000000000000594000
  0
ACAD_PROXY_OBJECT
  5
54
102
{ACAD_REACTORS
330
47
102
}
330
47
100
AcDbZombieObject
 90
      499
 91
      503
 93
      105
310
903323A310000000000000010100
  0
ACAD_PROXY_OBJECT
  5
55
102
{ACAD_REACTORS
330
47
102
}
330
47
100
AcDbZombieObject
 90
      499
 91
      503
 93
      105
310
903343A310000000000000410100
  0
ACAD_PROXY_OBJECT
  5
56
102
{ACAD_REACTORS
330
47
102
}
330
47
100
AcDbZombieObject
 90
      499
 91
      503
 93
      105
310
903383A310000000000000810100
  0
ACAD_PROXY_OBJECT
  5
57
102
{ACAD_REACTORS
330
47
102
}
330
47
100
AcDbZombieObject
 90
      499
 91
      503
 93
      113
310
90431303A310000000000000910100
  0
ACAD_PROXY_OBJECT
  5
58
102
{ACAD_REACTORS
330
47
102
}
330
47
100
AcDbZombieObject
 90
      499
 91
      503
 93
      121
310
9053130303A310000000000001650100
  0
ACAD_PROXY_OBJECT
  5
59
102
{ACAD_REACTORS
330
47
102
}
330
47
100
AcDbZombieObject
 90
      499
 91
      503
 93
      257
310
90E312F31323822203D2031272D3022000000000000200FC000000000000284000
  0
ACAD_PROXY_OBJECT
  5
5A
102
{ACAD_REACTORS
330
47
102
}
330
47
100
AcDbZombieObject
 90
      499
 91
      503
 93
      249
310
90D312F363422203D2031272D3022000000000000240FC000000000000284000
  0
ACAD_PROXY_OBJECT
  5
5B
102
{ACAD_REACTORS
330
47
102
}
330
47
100
AcDbZombieObject
 90
      499
 91
      503
 93
      249
310
90D312F333222203D2031272D3022000000000000280FC000000000000284000
  0
ACAD_PROXY_OBJECT
  5
5C
102
{ACAD_REACTORS
330
47
102
}
330
47
100
AcDbZombieObject
 90
      499
 91
      503
 93
      249
310
90D312F313622203D2031272D30220000000000002C0FC000000000000284000
  0
ACAD_PROXY_OBJECT
  5
5D
102
{ACAD_REACTORS
330
47
102
}
330
47
100
AcDbZombieObject
 90
      499
 91
      503
 93
      249
310
90D332F333222203D2031272D30220000000000002E0FC000000000000284000
  0
ACAD_PROXY_OBJECT
  5
5E
102
{ACAD_REACTORS
330
47
102
}
330
47
100
AcDbZombieObject
 90
      499
 91
      503
 93
      241
310
90C312F3822203D2031272D3022000000000000300FC000000000000284000
  0
ACAD_PROXY_OBJECT
  5
5F
102
{ACAD_REACTORS
330
47
102
}
330
47
100
AcDbZombieObject
 90
      499
 91
      503
 93
      249
310
90D332F313622203D2031272D3022000000000000320FC000000000000284000
  0
ACAD_PROXY_OBJECT
  5
60
102
{ACAD_REACTORS
330
47
102
}
330
47
100
AcDbZombieObject
 90
      499
 91
      503
 93
      241
310
90C312F3422203D2031272D3022000000000000340FC000000000000284000
  0
ACAD_PROXY_OBJECT
  5
61
102
{ACAD_REACTORS
330
47
102
}
330
47
100
AcDbZombieObject
 90
      499
 91
      503
 93
      241
310
90C332F3822203D2031272D3022000000000000360FC000000000000284000
  0
ACAD_PROXY_OBJECT
  5
62
102
{ACAD_REACTORS
330
47
102
}
330
47
100
AcDbZombieObject
 90
      499
 91
      503
 93
      241
310
90C312F3222203D2031272D3022000000000000380FC000000000000284000
  0
ACAD_PROXY_OBJECT
  5
63
102
{ACAD_REACTORS
330
47
102
}
330
47
100
AcDbZombieObject
 90
      499
 91
      503
 93
      241
310
90C332F3422203D2031272D30220000000000003A0FC000000000000284000
  0
ACAD_PROXY_OBJECT
  5
64
102
{ACAD_REACTORS
330
47
102
}
330
47
100
AcDbZombieObject
 90
      499
 91
      503
 93
      161
310
90A3122203D2031272D30224000000000000284000
  0
ACAD_PROXY_OBJECT
  5
65
102
{ACAD_REACTORS
330
47
102
}
330
47
100
AcDbZombieObject
 90
      499
 91
      503
 93
      257
310
90E312D312F3222203D2031272D30220000000000003E0FC000000000000284000
  0
ACAD_PROXY_OBJECT
  5
66
102
{ACAD_REACTORS
330
47
102
}
330
47
100
AcDbZombieObject
 90
      499
 91
      503
 93
      225
310
90A3322203D2031272D302200000000000002100000000000000284000
  0
ACAD_PROXY_OBJECT
  5
67
102
{ACAD_REACTORS
330
47
102
}
330
47
100
AcDbZombieObject
 90
      499
 91
      503
 93
      225
310
90A3622203D2031272D302200000000000006100000000000000284000
  0
ACAD_PROXY_OBJECT
  5
68
102
{ACAD_REACTORS
330
47
102
}
330
47
100
AcDbZombieObject
 90
      499
 91
      503
 93
      249
310
90D31272D3022203D2031272D30220000000000000A100000000000000284000
  0
ACAD_PROXY_OBJECT
  5
2F
102
{ACAD_REACTORS
330
2A
102
}
330
2A
100
AcDbZombieObject
 90
      499
 91
      501
 93
      436
310
42CC9915DA5C99599C985B595049028333333333333E33F0000000000000F90107901411070040501600405405064090741402480A0340
1001
ACAD
1000
AcDbSavedByObjectVersion
1070
     0
  0
ACAD_PROXY_OBJECT
  5
32
102
{ACAD_REACTORS
330
2A
102
}
330
2A
100
AcDbZombieObject
 90
      499
 91
      501
 93
      388
310
4150985CDA58D07406404333333333333E33F0000000000000F90107A41107004050150841D405064090741402480A0350
1001
ACAD
1000
AcDbSavedByObjectVersion
1070
     0
  0
ACAD_PROXY_OBJECT
  5
36
102
{ACAD_REACTORS
330
2A
102
}
330
2A
100
AcDbZombieObject
 90
      499
 91
      501
 93
      428
310
42109C9A59DA1D195B90C409028333333333333E33F0000000000000F9010790141107004050150841D405064090741402480A029950
1001
ACAD
1000
AcDbSavedByObjectVersion
1070
     0
  0
ACAD_PROXY_OBJECT
  5
3A
102
{ACAD_REACTORS
330
2A
102
}
330
2A
100
AcDbZombieObject
 90
      499
 91
      501
 93
      452
310
42D0DBDB1BDC90DA185B99D95104090240C333333333333E33F0000000000000F90108901411070040501508421405064090741402480A0350
1001
ACAD
1000
AcDbSavedByObjectVersion
1070
     0
  0
ACAD_PROXY_OBJECT
  5
34
102
{ACAD_REACTORS
330
2A
102
}
330
2A
100
AcDbZombieObject
 90
      499
 91
      501
 93
      500
310
4290DBDB98D95C1D1D585B10940D028333333333333E33F0000000000000F90107902409070040501000000000018199010841D405064090740C02480A0340
1001
ACAD
1000
AcDbSavedByObjectVersion
1070
     0
  0
ACAD_PROXY_OBJECT
  5
35
102
{ACAD_REACTORS
330
2A
102
}
330
2A
100
AcDbZombieObject
 90
      499
 91
      501
 93
      412
310
40D11A5B50B409028333333333333E33F0000000000000F9010790141107004050150841D405064090741402480A02677FFFFFD0
1001
ACAD
1000
AcDbSavedByObjectVersion
1070
     0
  0
ACAD_PROXY_OBJECT
  5
3D
102
{ACAD_REACTORS
330
2A
102
}
330
2A
100
AcDbZombieObject
 90
      499
 91
      501
 93
      452
310
43115919D950DBDB1BDC93D999916409028333333333333E33F0000000000000F9010790141107004050150841D405064090741402480A0350
1001
ACAD
1000
AcDbSavedByObjectVersion
1070
     0
  0
ACAD_PROXY_OBJECT
  5
39
102
{ACAD_REACTORS
330
2A
102
}
330
2A
100
AcDbZombieObject
 90
      499
 91
      501
 93
      444
310
42D19858D95C185D1D195C9B90F409028333333333333E33F0000000000000F9010790141107004050150841D405064090741402480A0350
1001
ACAD
1000
AcDbSavedByObjectVersion
1070
     0
  0
ACAD_PROXY_OBJECT
  5
2B
102
{ACAD_REACTORS
330
2A
102
}
330
2A
100
AcDbZombieObject
 90
      499
 91
      501
 93
      380
310
41119B185D240901404333333333333E33F0000000000000F9010740A907004050150841D405064090741402480A1B50
1001
ACAD
1000
AcDbSavedByObjectVersion
1070
     0
  0
ACAD_PROXY_OBJECT
  5
2C
102
{ACAD_REACTORS
330
2A
102
}
330
2A
100
AcDbZombieObject
 90
      499
 91
      501
 93
      468
310
43519B185D15DA5D1A115919D95CD0140901404333333333333E33F0000000000000F90107409019070040501600405405064090741402480A1B50
1001
ACAD
1000
AcDbSavedByObjectVersion
1070
     0
  0
ACAD_PROXY_OBJECT
  5
2D
102
{ACAD_REACTORS
330
2A
102
}
330
2A
100
AcDbZombieObject
 90
      499
 91
      501
 93
      404
310
41D1DBDD5C985D5910240902404333333333333E33F0000000000000F9010740A9070040501641D405064090741402480A1B50
1001
ACAD
1000
AcDbSavedByObjectVersion
1070
     0
  0
ACAD_PROXY_OBJECT
  5
2E
102
{ACAD_REACTORS
330
2A
102
}
330
2A
100
AcDbZombieObject
 90
      499
 91
      501
 93
      492
310
4411DBDD5C985D5915DA5D1A115919D95CD0340902404333333333333E33F0000000000000F90107409019070040501600405405064090741402480A1B50
1001
ACAD
1000
AcDbSavedByObjectVersion
1070
     0
  0
ACAD_PROXY_OBJECT
  5
31
102
{ACAD_REACTORS
330
2A
102
}
330
2A
100
AcDbZombieObject
 90
      499
 91
      501
 93
      476
310
41921A5919195B90640502408333333333333E33F0000000000000F901079024090700405020000000000001110200405405064090740C02480A0340
1001
ACAD
1000
AcDbSavedByObjectVersion
1070
     0
  0
ACAD_PROXY_OBJECT
  5
3B
102
{ACAD_REACTORS
330
2A
102
}
330
2A
100
AcDbZombieObject
 90
      499
 91
      501
 93
      428
310
42529A5D1D195C93D999914409028333333333333E33F0000000000000F9010790141107004050150A41D405064090741402480A0350
1001
ACAD
1000
AcDbSavedByObjectVersion
1070
     0
  0
ACAD_PROXY_OBJECT
  5
38
102
{ACAD_REACTORS
330
2A
102
}
330
2A
100
AcDbZombieObject
 90
      499
 91
      501
 93
      444
310
42D31A5B995C185D1D195C9B90E409028333333333333E33F0000000000000F9010790141107004050750841D405064090741402483A0350
1001
ACAD
1000
AcDbSavedByObjectVersion
1070
     0
  0
ACAD_PROXY_OBJECT
  5
3C
102
{ACAD_REACTORS
330
2A
102
}
330
2A
100
AcDbZombieObject
 90
      499
 91
      501
 93
      444
310
42D3DD995C9A185B99D3D999915409028333333333333E33F0000000000000F9010790141107004050150941D405064090741402480A0350
1001
ACAD
1000
AcDbSavedByObjectVersion
1070
     0
  0
ACAD_PROXY_OBJECT
  5
33
102
{ACAD_REACTORS
330
2A
102
}
330
2A
100
AcDbZombieObject
 90
      499
 91
      501
 93
      428
310
425499585B1A5CDD1A58D08409038333333333333E33F0000000000000F9010740A907004050150800405405064090740C02480A1B40
1001
ACAD
1000
AcDbSavedByObjectVersion
1070
     0
  0
ACAD_PROXY_OBJECT
  5
42
102
{ACAD_REACTORS
330
2A
102
}
330
2A
100
AcDbZombieObject
 90
      499
 91
      501
 93
      420
310
4194DA1859195911B40902404333333333333E33F0000000000000F9010740A41107004050150800405405064090840C02480A0B40
1001
ACAD
1000
AcDbSavedByObjectVersion
1070
     0
  0
ACAD_PROXY_OBJECT
  5
41
102
{ACAD_REACTORS
330
2A
102
}
330
2A
100
AcDbZombieObject
 90
      499
 91
      501
 93
      516
310
4454DA18591959081DDA5D1A08195919D95CD1A40902404333333333333E33F0000000000000F901074090142907004050250800405405064090740C02480A0B40
1001
ACAD
1000
AcDbSavedByObjectVersion
1070
     0
  0
ACAD_PROXY_OBJECT
  5
3E
102
{ACAD_REACTORS
330
2A
102
}
330
2A
100
AcDbZombieObject
 90
      499
 91
      501
 93
      532
310
4394DA1859195CC81BD98811DC985E5174090240C333333333333E33F0000000000000F901079024090741D01000000000000111010841D405064090740C02480A0340
1001
ACAD
1000
AcDbSavedByObjectVersion
1070
     0
  0
ACAD_PROXY_OBJECT
  5
3F
102
{ACAD_REACTORS
330
2A
102
}
330
2A
100
AcDbZombieObject
 90
      499
 91
      501
 93
      476
310
41D4DAD95D18DA1E51840502408333333333333E33F0000000000000F901079024090741D01000000000000111010B41D405064090741802480A0340
1001
ACAD
1000
AcDbSavedByObjectVersion
1070
     0
  0
ACAD_PROXY_OBJECT
  5
37
102
{ACAD_REACTORS
330
2A
102
}
330
2A
100
AcDbZombieObject
 90
      499
 91
      501
 93
      412
310
41D51A1A58DAD95B90D409028333333333333E33F0000000000000F9010790141107004050150C41D405064090741402480A0350
1001
ACAD
1000
AcDbSavedByObjectVersion
1070
     0
  0
ACAD_PROXY_OBJECT
  5
30
102
{ACAD_REACTORS
330
2A
102
}
330
2A
100
AcDbZombieObject
 90
      499
 91
      501
 93
      420
310
4255DA5C99599C985B595059028333333333333E33F0000000000000F90107901411070040501600405405064090740C02480A0340
1001
ACAD
1000
AcDbSavedByObjectVersion
1070
     0
  0
ACAD_PROXY_OBJECT
  5
40
102
{ACAD_REACTORS
330
2A
102
}
330
2A
100
AcDbZombieObject
 90
      499
 91
      501
 93
      404
310
41560B54985E51940902404000000000000E03F0000000000000F9010740501907004050150841D405064090740C02480A1B40
1001
ACAD
1000
AcDbSavedByObjectVersion
1070
     0
  0
DICTIONARYVAR
  5
581
102
{ACAD_REACTORS
330
578
102
}
330
578
100
DictionaryVariables
280
     0
  1
1:1
  0
DICTIONARYVAR
  5
57A
102
{ACAD_REACTORS
330
578
102
}
330
578
100
DictionaryVariables
280
     0
  1
Standard
  0
DICTIONARYVAR
  5
579
102
{ACAD_REACTORS
330
578
102
}
330
578
100
DictionaryVariables
280
     0
  1
Standard
  0
DICTIONARYVAR
  5
57F
102
{ACAD_REACTORS
330
578
102
}
330
578
100
DictionaryVariables
280
     0
  1
2
  0
DICTIONARYVAR
  5
580
102
{ACAD_REACTORS
330
578
102
}
330
578
100
DictionaryVariables
280
     0
  1
1
  0
DICTIONARYVAR
  5
582
102
{ACAD_REACTORS
330
578
102
}
330
578
100
DictionaryVariables
280
     0
  1
1
  0
DICTIONARYVAR
  5
57C
102
{ACAD_REACTORS
330
578
102
}
330
578
100
DictionaryVariables
280
     0
  1
80.000000
  0
DICTIONARYVAR
  5
57B
102
{ACAD_REACTORS
330
578
102
}
330
578
100
DictionaryVariables
280
     0
  1
5.000000
  0
DICTIONARY
  5
585
330
45
100
AcDbDictionary
  3
ACAD_XREC_ROUNDTRIP
360
586
1001
ACAD
1000
TREAT_AS_HARD
1070
     1
  0
DICTIONARY
  5
583
330
44
100
AcDbDictionary
  3
ACAD_XREC_ROUNDTRIP
360
584
1001
ACAD
1000
TREAT_AS_HARD
1070
     1
  0
DICTIONARY
  5
587
330
46
100
AcDbDictionary
  3
ACAD_XREC_ROUNDTRIP
360
588
1001
ACAD
1000
TREAT_AS_HARD
1070
     1
  0
XRECORD
  5
586
102
{ACAD_REACTORS
330
585
102
}
330
585
100
AcDbXrecord
102
MATERIAL
148
0.0
149
0.0
149
0.0
 93
        0
 94
      127
282
     0
 72
     1
 77
     1
171
     1
175
     1
179
     1
273
     0
  0
XRECORD
  5
584
102
{ACAD_REACTORS
330
583
102
}
330
583
100
AcDbXrecord
102
MATERIAL
148
0.0
149
0.0
149
0.0
 93
        0
 94
      127
282
     0
 72
     1
 77
     1
171
     1
175
     1
179
     1
273
     0
  0
XRECORD
  5
588
102
{ACAD_REACTORS
330
587
102
}
330
587
100
AcDbXrecord
102
MATERIAL
148
0.0
149
0.0
149
0.0
 93
        0
 94
      127
282
     0
 72
     1
 77
     1
171
     1
175
     1
179
     1
273
     0
  0
ENDSEC
  0
EOF
