  0
SECTION
  2
HEADER
  9
$ACADVER
  1
AC1012
  9
$DWGCODEPAGE
  3
ansi_1252
  9
$INSBASE
 10
0.0
 20
0.0
 30
0.0
  9
$EXTMIN
 10
1.000000000000000E+20
 20
1.000000000000000E+20
 30
1.000000000000000E+20
  9
$EXTMAX
 10
-1.000000000000000E+20
 20
-1.000000000000000E+20
 30
-1.000000000000000E+20
  9
$LIMMIN
 10
0.0
 20
0.0
  9
$LIMMAX
 10
420.0
 20
297.0
  9
$ORTHOMODE
 70
     0
  9
$REGENMODE
 70
     1
  9
$FILLMODE
 70
     1
  9
$QTEXTMODE
 70
     0
  9
$MIRRTEXT
 70
     1
  9
$DRAGMODE
 70
     2
  9
$LTSCALE
 40
1.0
  9
$OSMODE
 70
    37
  9
$ATTMODE
 70
     1
  9
$TEXTSIZE
 40
2.5
  9
$TRACEWID
 40
1.0
  9
$TEXTSTYLE
  7
STANDARD
  9
$CLAYER
  8
0
  9
$CELTYPE
  6
BYLAYER
  9
$CECOLOR
 62
   256
  9
$CELTSCALE
 40
1.0
  9
$DELOBJ
 70
     1
  9
$DISPSILH
 70
     0
  9
$DIMSCALE
 40
1.0
  9
$DIMASZ
 40
2.5
  9
$DIMEXO
 40
0.625
  9
$DIMDLI
 40
3.75
  9
$DIMRND
 40
0.0
  9
$DIMDLE
 40
0.0
  9
$DIMEXE
 40
1.25
  9
$DIMTP
 40
0.0
  9
$DIMTM
 40
0.0
  9
$DIMTXT
 40
2.5
  9
$DIMCEN
 40
2.5
  9
$DIMTSZ
 40
0.0
  9
$DIMTOL
 70
     0
  9
$DIMLIM
 70
     0
  9
$DIMTIH
 70
     0
  9
$DIMTOH
 70
     0
  9
$DIMSE1
 70
     0
  9
$DIMSE2
 70
     0
  9
$DIMTAD
 70
     1
  9
$DIMZIN
 70
     8
  9
$DIMBLK
  1

  9
$DIMASO
 70
     1
  9
$DIMSHO
 70
     1
  9
$DIMPOST
  1

  9
$DIMAPOST
  1

  9
$DIMALT
 70
     0
  9
$DIMALTD
 70
     3
  9
$DIMALTF
 40
0.03937007874016
  9
$DIMLFAC
 40
1.0
  9
$DIMTOFL
 70
     1
  9
$DIMTVP
 40
0.0
  9
$DIMTIX
 70
     0
  9
$DIMSOXD
 70
     0
  9
$DIMSAH
 70
     0
  9
$DIMBLK1
  1

  9
$DIMBLK2
  1

  9
$DIMSTYLE
  2
ISO-25
  9
$DIMCLRD
 70
     0
  9
$DIMCLRE
 70
     0
  9
$DIMCLRT
 70
     0
  9
$DIMTFAC
 40
1.0
  9
$DIMGAP
 40
0.625
  9
$DIMJUST
 70
     0
  9
$DIMSD1
 70
     0
  9
$DIMSD2
 70
     0
  9
$DIMTOLJ
 70
     0
  9
$DIMTZIN
 70
     8
  9
$DIMALTZ
 70
     0
  9
$DIMALTTZ
 70
     0
  9
$DIMFIT
 70
     3
  9
$DIMUPT
 70
     0
  9
$DIMUNIT
 70
     2
  9
$DIMDEC
 70
     2
  9
$DIMTDEC
 70
     2
  9
$DIMALTU
 70
     2
  9
$DIMALTTD
 70
     3
  9
$DIMTXSTY
  7
STANDARD
  9
$DIMAUNIT
 70
     0
  9
$LUNITS
 70
     2
  9
$LUPREC
 70
     4
  9
$SKETCHINC
 40
1.0
  9
$FILLETRAD
 40
10.0
  9
$AUNITS
 70
     0
  9
$AUPREC
 70
     0
  9
$MENU
  1
.
  9
$ELEVATION
 40
0.0
  9
$PELEVATION
 40
0.0
  9
$THICKNESS
 40
0.0
  9
$LIMCHECK
 70
     0
  9
$CHAMFERA
 40
0.0
  9
$CHAMFERB
 40
0.0
  9
$CHAMFERC
 40
0.0
  9
$CHAMFERD
 40
0.0
  9
$SKPOLY
 70
     0
  9
$TDCREATE
 40
2457988.442782731
  9
$TDUPDATE
 40
2457988.442785984
  9
$TDINDWG
 40
0.0000000116
  9
$TDUSRTIMER
 40
0.0000000116
  9
$USRTIMER
 70
     1
  9
$ANGBASE
 50
0.0
  9
$ANGDIR
 70
     0
  9
$PDMODE
 70
     0
  9
$PDSIZE
 40
0.0
  9
$PLINEWID
 40
0.0
  9
$COORDS
 70
     1
  9
$SPLFRAME
 70
     0
  9
$SPLINETYPE
 70
     6
  9
$SPLINESEGS
 70
     8
  9
$ATTDIA
 70
     0
  9
$ATTREQ
 70
     1
  9
$HANDLING
 70
     1
  9
$HANDSEED
  5
655
  9
$SURFTAB1
 70
     6
  9
$SURFTAB2
 70
     6
  9
$SURFTYPE
 70
     6
  9
$SURFU
 70
     6
  9
$SURFV
 70
     6
  9
$UCSNAME
  2

  9
$UCSORG
 10
0.0
 20
0.0
 30
0.0
  9
$UCSXDIR
 10
1.0
 20
0.0
 30
0.0
  9
$UCSYDIR
 10
0.0
 20
1.0
 30
0.0
  9
$PUCSNAME
  2

  9
$PUCSORG
 10
0.0
 20
0.0
 30
0.0
  9
$PUCSXDIR
 10
1.0
 20
0.0
 30
0.0
  9
$PUCSYDIR
 10
0.0
 20
1.0
 30
0.0
  9
$USERI1
 70
     0
  9
$USERI2
 70
     0
  9
$USERI3
 70
     0
  9
$USERI4
 70
     0
  9
$USERI5
 70
     0
  9
$USERR1
 40
0.0
  9
$USERR2
 40
0.0
  9
$USERR3
 40
0.0
  9
$USERR4
 40
0.0
  9
$USERR5
 40
0.0
  9
$WORLDVIEW
 70
     1
  9
$SHADEDGE
 70
     3
  9
$SHADEDIF
 70
    70
  9
$TILEMODE
 70
     1
  9
$MAXACTVP
 70
    64
  9
$PINSBASE
 10
0.0
 20
0.0
 30
0.0
  9
$PLIMCHECK
 70
     0
  9
$PEXTMIN
 10
1.000000000000000E+20
 20
1.000000000000000E+20
 30
1.000000000000000E+20
  9
$PEXTMAX
 10
-1.000000000000000E+20
 20
-1.000000000000000E+20
 30
-1.000000000000000E+20
  9
$PLIMMIN
 10
0.0
 20
0.0
  9
$PLIMMAX
 10
420.0
 20
297.0
  9
$UNITMODE
 70
     0
  9
$VISRETAIN
 70
     1
  9
$PLINEGEN
 70
     0
  9
$PSLTSCALE
 70
     1
  9
$TREEDEPTH
 70
  3020
  9
$PICKSTYLE
 70
     1
  9
$CMLSTYLE
  2
STANDARD
  9
$CMLJUST
 70
     0
  9
$CMLSCALE
 40
20.0
  9
$SAVEIMAGES
 70
     1
  0
ENDSEC
  0
SECTION
  2
CLASSES
  0
CLASS
  1
ACDBDICTIONARYWDFLT
  2
AcDbDictionaryWithDefault
  3
ObjectDBX Classes
 90
    32768
280
     0
281
     0
  0
CLASS
  1
VISUALSTYLE
  2
AcDbVisualStyle
  3
ObjectDBX Classes
 90
     4095
280
     0
281
     0
  0
CLASS
  1
MATERIAL
  2
AcDbMaterial
  3
ObjectDBX Classes
 90
     1153
280
     0
281
     0
  0
CLASS
  1
SCALE
  2
AcDbScale
  3
ObjectDBX Classes
 90
     1153
280
     0
281
     0
  0
CLASS
  1
TABLESTYLE
  2
AcDbTableStyle
  3
ObjectDBX Classes
 90
     4095
280
     0
281
     0
  0
CLASS
  1
MLEADERSTYLE
  2
AcDbMLeaderStyle
  3
ACDB_MLEADERSTYLE_CLASS
 90
     4095
280
     0
281
     0
  0
CLASS
  1
SUN
  2
AcDbSun
  3
SCENEOE
 90
     1153
280
     0
281
     0
  0
CLASS
  1
DICTIONARYVAR
  2
AcDbDictionaryVar
  3
ObjectDBX Classes
 90
        0
280
     0
281
     0
  0
CLASS
  1
XRECORD
  2
AcDbXrecord
  3
ObjectDBX Classes
 90
    32768
280
     0
281
     0
  0
CLASS
  1
LWPOLYLINE
  2
AcDbPolyline
  3
ObjectDBX Classes
 90
    32768
280
     0
281
     1
  0
CLASS
  1
HATCH
  2
AcDbHatch
  3
ObjectDBX Classes
 90
    32768
280
     0
281
     1
  0
CLASS
  1
ACDBPLACEHOLDER
  2
AcDbPlaceHolder
  3
ObjectDBX Classes
 90
        0
280
     0
281
     0
  0
CLASS
  1
LAYOUT
  2
AcDbLayout
  3
ObjectDBX Classes
 90
        0
280
     0
281
     0
  0
ENDSEC
  0
SECTION
  2
TABLES
  0
TABLE
  2
VPORT
  5
8
330
0
100
AcDbSymbolTable
 70
     1
  0
VPORT
  5
29
330
8
100
AcDbSymbolTableRecord
100
AcDbViewportTableRecord
  2
*ACTIVE
 70
     0
 10
0.0
 20
0.0
 11
1.0
 21
1.0
 12
0.0000000000000568
 22
-121.0
 13
0.0
 23
0.0
 14
10.0
 24
10.0
 15
10.0
 25
10.0
 16
0.0
 26
0.0
 36
1.0
 17
0.0
 27
0.0
 37
0.0
 40
246.84
 41
1.694214876033058
 42
50.0
 43
0.0
 44
0.0
 50
0.0
 51
0.0
 71
     0
 72
   100
 73
     1
 74
     3
 75
     0
 76
     0
 77
     0
 78
     0
  0
ENDTAB
  0
TABLE
  2
LTYPE
  5
5
330
0
100
AcDbSymbolTable
 70
     1
  0
LTYPE
  5
14
330
5
100
AcDbSymbolTableRecord
100
AcDbLinetypeTableRecord
  2
BYBLOCK
 70
     0
  3

 72
    65
 73
     0
 40
0.0
  0
LTYPE
  5
15
330
5
100
AcDbSymbolTableRecord
100
AcDbLinetypeTableRecord
  2
BYLAYER
 70
     0
  3

 72
    65
 73
     0
 40
0.0
  0
LTYPE
  5
16
330
5
100
AcDbSymbolTableRecord
100
AcDbLinetypeTableRecord
  2
CONTINUOUS
 70
     0
  3
Solid line
 72
    65
 73
     0
 40
0.0
  0
ENDTAB
  0
TABLE
  2
LAYER
  5
2
330
0
100
AcDbSymbolTable
 70
     4
  0
LAYER
  5
10
330
2
100
AcDbSymbolTableRecord
100
AcDbLayerTableRecord
  2
0
 70
     0
 62
     7
  6
CONTINUOUS
  0
LAYER
  5
6E
330
2
100
AcDbSymbolTableRecord
100
AcDbLayerTableRecord
  2
THICK
 70
     0
 62
     7
  6
CONTINUOUS
  0
LAYER
  5
6F
330
2
100
AcDbSymbolTableRecord
100
AcDbLayerTableRecord
  2
HIDDEN
 70
     0
 62
     7
  6
CONTINUOUS
  0
LAYER
  5
70
330
2
100
AcDbSymbolTableRecord
100
AcDbLayerTableRecord
  2
HASHLINES
 70
     0
 62
     7
  6
CONTINUOUS
  0
ENDTAB
  0
TABLE
  2
STYLE
  5
3
330
0
100
AcDbSymbolTable
 70
     1
  0
STYLE
  5
11
330
3
100
AcDbSymbolTableRecord
100
AcDbTextStyleTableRecord
  2
STANDARD
 70
     0
 40
0.0
 41
1.0
 50
0.0
 71
     0
 42
2.5
  3
txt
  4

  0
ENDTAB
  0
TABLE
  2
VIEW
  5
6
330
0
100
AcDbSymbolTable
 70
     0
  0
ENDTAB
  0
TABLE
  2
UCS
  5
7
330
0
100
AcDbSymbolTable
 70
     0
  0
ENDTAB
  0
TABLE
  2
APPID
  5
9
330
0
100
AcDbSymbolTable
 70
     3
  0
APPID
  5
12
330
9
100
AcDbSymbolTableRecord
100
AcDbRegAppTableRecord
  2
ACAD
 70
     0
  0
APPID
  5
71
330
9
100
AcDbSymbolTableRecord
100
AcDbRegAppTableRecord
  2
DBPROPERTIES
 70
     0
  0
APPID
  5
654
330
9
100
AcDbSymbolTableRecord
100
AcDbRegAppTableRecord
  2
ACAD_MLEADERVER
 70
     0
  0
ENDTAB
  0
TABLE
  2
DIMSTYLE
  5
A
330
0
100
AcDbSymbolTable
 70
     1
  0
DIMSTYLE
105
27
330
A
100
AcDbSymbolTableRecord
100
AcDbDimStyleTableRecord
  2
ISO-25
 70
     0
  3

  4

  5

  6

  7

 40
1.0
 41
2.5
 42
0.625
 43
3.75
 44
1.25
 45
0.0
 46
0.0
 47
0.0
 48
0.0
140
2.5
141
2.5
142
0.0
143
0.03937007874016
144
1.0
145
0.0
146
1.0
147
0.625
 71
     0
 72
     0
 73
     0
 74
     0
 75
     0
 76
     0
 77
     1
 78
     8
170
     0
171
     3
172
     1
173
     0
174
     0
175
     0
176
     0
177
     0
178
     0
270
     2
271
     2
272
     2
273
     2
274
     3
340
11
275
     0
280
     0
281
     0
282
     0
283
     0
284
     8
285
     0
286
     0
287
     3
288
     0
  0
ENDTAB
  0
TABLE
  2
BLOCK_RECORD
  5
1
330
0
100
AcDbSymbolTable
 70
     0
  0
BLOCK_RECORD
  5
1F
330
1
100
AcDbSymbolTableRecord
100
AcDbBlockTableRecord
  2
*MODEL_SPACE
  0
BLOCK_RECORD
  5
1B
330
1
100
AcDbSymbolTableRecord
100
AcDbBlockTableRecord
  2
*PAPER_SPACE
  0
ENDTAB
  0
ENDSEC
  0
SECTION
  2
BLOCKS
  0
BLOCK
  5
20
330
1F
100
AcDbEntity
  8
0
100
AcDbBlockBegin
  2
*MODEL_SPACE
 70
     0
 10
0.0
 20
0.0
 30
0.0
  3
*MODEL_SPACE
  1

  0
ENDBLK
  5
21
330
1F
100
AcDbEntity
  8
0
100
AcDbBlockEnd
  0
BLOCK
  5
1C
330
1B
100
AcDbEntity
 67
     1
  8
0
100
AcDbBlockBegin
  2
*PAPER_SPACE
 70
     0
 10
0.0
 20
0.0
 30
0.0
  3
*PAPER_SPACE
  1

  0
ENDBLK
  5
1D
330
1B
100
AcDbEntity
 67
     1
  8
0
100
AcDbBlockEnd
  0
ENDSEC
  0
SECTION
  2
ENTITIES
  0
LINE
  5
72
330
1F
100
AcDbEntity
  8
THICK
100
AcDbLine
 10
99.49999999999999
 20
-242.0
 30
0.0
 11
0.0000000000000156
 21
-242.0
 31
0.0
1001
DBPROPERTIES
1002
{
1000
PbThick
1002
}
  0
LINE
  5
73
330
1F
100
AcDbEntity
  8
THICK
100
AcDbLine
 10
-99.50000000000001
 20
-242.0
 30
0.0
 11
-0.0000000000000087
 21
-242.0
 31
0.0
1001
DBPROPERTIES
1002
{
1000
PbThick
1002
}
  0
LINE
  5
74
330
1F
100
AcDbEntity
  8
THICK
100
AcDbLine
 10
99.49999999999999
 20
-236.9
 30
0.0
 11
-0.0000000000000084
 21
-236.9
 31
0.0
1001
DBPROPERTIES
1002
{
1000
PbThick
1002
}
  0
LINE
  5
75
330
1F
100
AcDbEntity
  8
HIDDEN
100
AcDbLine
 10
-0.0000000000000328
 20
-236.9
 30
0.0
 11
99.49999999999999
 21
-236.9
 31
0.0
1001
DBPROPERTIES
1002
{
1000
PbHidd
1002
}
  0
LINE
  5
76
330
1F
100
AcDbEntity
  8
HIDDEN
100
AcDbLine
 10
-95.20000000000002
 20
-220.5
 30
0.0
 11
95.19999999999999
 21
-220.5
 31
0.0
1001
DBPROPERTIES
1002
{
1000
PbHidd
1002
}
  0
LINE
  5
77
330
1F
100
AcDbEntity
  8
THICK
100
AcDbLine
 10
-99.5000015258789
 20
-216.1999984741211
 30
0.0
 11
-95.1999984741211
 21
-220.5000015258789
 31
0.0
1001
DBPROPERTIES
1002
{
1000
PbThick
1002
}
  0
LINE
  5
78
330
1F
100
AcDbEntity
  8
HIDDEN
100
AcDbLine
 10
-0.0000000000000071
 20
-216.2
 30
0.0
 11
-99.50000000000001
 21
-216.2
 31
0.0
1001
DBPROPERTIES
1002
{
1000
PbHidd
1002
}
  0
LINE
  5
79
330
1F
100
AcDbEntity
  8
HIDDEN
100
AcDbLine
 10
99.49999999999999
 20
-216.2
 30
0.0
 11
-0.0000000000000071
 21
-216.2
 31
0.0
1001
DBPROPERTIES
1002
{
1000
PbHidd
1002
}
  0
LINE
  5
7A
330
1F
100
AcDbEntity
  8
THICK
100
AcDbLine
 10
95.19999847412109
 20
-220.5000015258789
 30
0.0
 11
99.50000152587889
 21
-216.1999984741211
 31
0.0
1001
DBPROPERTIES
1002
{
1000
PbThick
1002
}
  0
LINE
  5
7B
330
1F
100
AcDbEntity
  8
THICK
100
AcDbLine
 10
-95.20000000000002
 20
-220.5
 30
0.0
 11
-95.20000000000002
 21
-224.8000030517578
 31
0.0
1001
DBPROPERTIES
1002
{
1000
PbThick
1002
}
  0
LINE
  5
7C
330
1F
100
AcDbEntity
  8
THICK
100
AcDbLine
 10
95.19999999999999
 20
-224.8000030517578
 30
0.0
 11
95.19999999999999
 21
-220.5
 31
0.0
1001
DBPROPERTIES
1002
{
1000
PbThick
1002
}
  0
LINE
  5
7D
330
1F
100
AcDbEntity
  8
THICK
100
AcDbLine
 10
99.49999999999999
 20
-224.8
 30
0.0
 11
-0.0000000000000077
 21
-224.8
 31
0.0
1001
DBPROPERTIES
1002
{
1000
PbThick
1002
}
  0
LINE
  5
7E
330
1F
100
AcDbEntity
  8
THICK
100
AcDbLine
 10
99.49999999999999
 20
-228.3
 30
0.0
 11
-0.0000000000000079
 21
-228.3
 31
0.0
1001
DBPROPERTIES
1002
{
1000
PbThick
1002
}
  0
LINE
  5
7F
330
1F
100
AcDbEntity
  8
HIDDEN
100
AcDbLine
 10
95.19999999999999
 20
-232.6
 30
0.0
 11
-95.20000000000002
 21
-232.6
 31
0.0
1001
DBPROPERTIES
1002
{
1000
PbHidd
1002
}
  0
LINE
  5
80
330
1F
100
AcDbEntity
  8
THICK
100
AcDbLine
 10
99.49999694824216
 20
-236.8999969482422
 30
0.0
 11
95.20000152587889
 21
-232.6000015258789
 31
0.0
1001
DBPROPERTIES
1002
{
1000
PbThick
1002
}
  0
LINE
  5
81
330
1F
100
AcDbEntity
  8
HIDDEN
100
AcDbLine
 10
-99.50000000000001
 20
-236.9
 30
0.0
 11
-0.0000000000000328
 21
-236.9
 31
0.0
1001
DBPROPERTIES
1002
{
1000
PbHidd
1002
}
  0
LINE
  5
82
330
1F
100
AcDbEntity
  8
THICK
100
AcDbLine
 10
-95.20000152587893
 20
-232.6000015258789
 30
0.0
 11
-99.4999969482422
 21
-236.8999969482422
 31
0.0
1001
DBPROPERTIES
1002
{
1000
PbThick
1002
}
  0
LINE
  5
83
330
1F
100
AcDbEntity
  8
THICK
100
AcDbLine
 10
95.19999999999999
 20
-232.6000061035156
 30
0.0
 11
95.19999999999999
 21
-228.3000030517578
 31
0.0
1001
DBPROPERTIES
1002
{
1000
PbThick
1002
}
  0
LINE
  5
84
330
1F
100
AcDbEntity
  8
THICK
100
AcDbLine
 10
-95.20000000000002
 20
-228.3000030517578
 30
0.0
 11
-95.20000000000002
 21
-232.6000061035156
 31
0.0
1001
DBPROPERTIES
1002
{
1000
PbThick
1002
}
  0
LINE
  5
85
330
1F
100
AcDbEntity
  8
THICK
100
AcDbLine
 10
-0.0000000000000071
 20
-216.2
 30
0.0
 11
99.49999999999999
 21
-216.2
 31
0.0
1001
DBPROPERTIES
1002
{
1000
PbThick
1002
}
  0
LINE
  5
86
330
1F
100
AcDbEntity
  8
THICK
100
AcDbLine
 10
30.75
 20
-156.0
 30
0.0
 11
172.2
 21
-156.0
 31
0.0
1001
DBPROPERTIES
1002
{
1000
PbThick
1002
}
  0
LINE
  5
87
330
1F
100
AcDbEntity
  8
HIDDEN
100
AcDbLine
 10
-0.0000000000000402
 20
-145.4
 30
0.0
 11
172.2
 21
-145.4
 31
0.0
1001
DBPROPERTIES
1002
{
1000
PbHidd
1002
}
  0
LINE
  5
88
330
1F
100
AcDbEntity
  8
THICK
100
AcDbLine
 10
172.2
 20
-145.4
 30
0.0
 11
30.75000000000001
 21
-145.4
 31
0.0
1001
DBPROPERTIES
1002
{
1000
PbThick
1002
}
  0
LINE
  5
89
330
1F
100
AcDbEntity
  8
THICK
100
AcDbLine
 10
-41.0
 20
0.0
 30
0.0
 11
-0.0000000000000075
 21
0.0
 31
0.0
1001
DBPROPERTIES
1002
{
1000
PbThick
1002
}
  0
LINE
  5
8A
330
1F
100
AcDbEntity
  8
HIDDEN
100
AcDbLine
 10
-25.35176086425781
 20
-14.31999969482422
 30
0.0
 11
-25.34987258911133
 21
-14.31348037719727
 31
0.0
1001
DBPROPERTIES
1002
{
1000
PbHidd
1002
}
  0
LINE
  5
8B
330
1F
100
AcDbEntity
  8
HIDDEN
100
AcDbLine
 10
-25.34987258911133
 20
-14.31348037719727
 30
0.0
 11
-25.34797859191895
 21
-14.30696487426758
 31
0.0
1001
DBPROPERTIES
1002
{
1000
PbHidd
1002
}
  0
LINE
  5
8C
330
1F
100
AcDbEntity
  8
HIDDEN
100
AcDbLine
 10
-25.34797859191895
 20
-14.30696487426758
 30
0.0
 11
-25.3460750579834
 21
-14.30045318603516
 31
0.0
1001
DBPROPERTIES
1002
{
1000
PbHidd
1002
}
  0
LINE
  5
8D
330
1F
100
AcDbEntity
  8
HIDDEN
100
AcDbLine
 10
-25.3460750579834
 20
-14.30045318603516
 30
0.0
 11
-25.34416580200195
 21
-14.2939453125
 31
0.0
1001
DBPROPERTIES
1002
{
1000
PbHidd
1002
}
  0
LINE
  5
8E
330
1F
100
AcDbEntity
  8
HIDDEN
100
AcDbLine
 10
-25.34416580200195
 20
-14.2939453125
 30
0.0
 11
-25.34224700927734
 21
-14.28744220733643
 31
0.0
1001
DBPROPERTIES
1002
{
1000
PbHidd
1002
}
  0
LINE
  5
8F
330
1F
100
AcDbEntity
  8
HIDDEN
100
AcDbLine
 10
-25.34224700927734
 20
-14.28744220733643
 30
0.0
 11
-25.3403205871582
 21
-14.28094387054443
 31
0.0
1001
DBPROPERTIES
1002
{
1000
PbHidd
1002
}
  0
LINE
  5
90
330
1F
100
AcDbEntity
  8
HIDDEN
100
AcDbLine
 10
-25.3403205871582
 20
-14.28094387054443
 30
0.0
 11
-25.27058982849121
 21
-14.06344699859619
 31
0.0
1001
DBPROPERTIES
1002
{
1000
PbHidd
1002
}
  0
LINE
  5
91
330
1F
100
AcDbEntity
  8
HIDDEN
100
AcDbLine
 10
-25.27058982849121
 20
-14.06344699859619
 30
0.0
 11
-25.18928337097168
 21
-13.84241199493408
 31
0.0
1001
DBPROPERTIES
1002
{
1000
PbHidd
1002
}
  0
LINE
  5
92
330
1F
100
AcDbEntity
  8
HIDDEN
100
AcDbLine
 10
-25.18928337097168
 20
-13.84241199493408
 30
0.0
 11
-25.09637069702148
 21
-13.61925411224365
 31
0.0
1001
DBPROPERTIES
1002
{
1000
PbHidd
1002
}
  0
LINE
  5
93
330
1F
100
AcDbEntity
  8
HIDDEN
100
AcDbLine
 10
-25.09637069702148
 20
-13.61925411224365
 30
0.0
 11
-24.99184036254883
 21
-13.39538669586182
 31
0.0
1001
DBPROPERTIES
1002
{
1000
PbHidd
1002
}
  0
LINE
  5
94
330
1F
100
AcDbEntity
  8
HIDDEN
100
AcDbLine
 10
-24.99184036254883
 20
-13.39538669586182
 30
0.0
 11
-24.87592887878418
 21
-13.17218685150146
 31
0.0
1001
DBPROPERTIES
1002
{
1000
PbHidd
1002
}
  0
LINE
  5
95
330
1F
100
AcDbEntity
  8
HIDDEN
100
AcDbLine
 10
-24.87592887878418
 20
-13.17218685150146
 30
0.0
 11
-24.74905586242676
 21
-12.951003074646
 31
0.0
1001
DBPROPERTIES
1002
{
1000
PbHidd
1002
}
  0
LINE
  5
96
330
1F
100
AcDbEntity
  8
HIDDEN
100
AcDbLine
 10
-24.74905586242676
 20
-12.951003074646
 30
0.0
 11
-24.61164665222168
 21
-12.73318386077881
 31
0.0
1001
DBPROPERTIES
1002
{
1000
PbHidd
1002
}
  0
LINE
  5
97
330
1F
100
AcDbEntity
  8
HIDDEN
100
AcDbLine
 10
-24.61164665222168
 20
-12.73318386077881
 30
0.0
 11
-24.46416473388672
 21
-12.51994037628174
 31
0.0
1001
DBPROPERTIES
1002
{
1000
PbHidd
1002
}
  0
LINE
  5
98
330
1F
100
AcDbEntity
  8
HIDDEN
100
AcDbLine
 10
-24.46416473388672
 20
-12.51994037628174
 30
0.0
 11
-24.30736541748047
 21
-12.31244468688965
 31
0.0
1001
DBPROPERTIES
1002
{
1000
PbHidd
1002
}
  0
LINE
  5
99
330
1F
100
AcDbEntity
  8
HIDDEN
100
AcDbLine
 10
-24.30736541748047
 20
-12.31244468688965
 30
0.0
 11
-24.14207077026367
 21
-12.11190128326416
 31
0.0
1001
DBPROPERTIES
1002
{
1000
PbHidd
1002
}
  0
LINE
  5
9A
330
1F
100
AcDbEntity
  8
HIDDEN
100
AcDbLine
 10
-24.14207077026367
 20
-12.11190128326416
 30
0.0
 11
-23.96912574768066
 21
-11.9194974899292
 31
0.0
1001
DBPROPERTIES
1002
{
1000
PbHidd
1002
}
  0
LINE
  5
9B
330
1F
100
AcDbEntity
  8
HIDDEN
100
AcDbLine
 10
-23.96912574768066
 20
-11.9194974899292
 30
0.0
 11
-23.78962707519531
 21
-11.73624706268311
 31
0.0
1001
DBPROPERTIES
1002
{
1000
PbHidd
1002
}
  0
LINE
  5
9C
330
1F
100
AcDbEntity
  8
HIDDEN
100
AcDbLine
 10
-23.78962707519531
 20
-11.73624706268311
 30
0.0
 11
-23.60479545593262
 21
-11.56306934356689
 31
0.0
1001
DBPROPERTIES
1002
{
1000
PbHidd
1002
}
  0
LINE
  5
9D
330
1F
100
AcDbEntity
  8
HIDDEN
100
AcDbLine
 10
-23.60479545593262
 20
-11.56306934356689
 30
0.0
 11
-23.4151782989502
 21
-11.40032958984375
 31
0.0
1001
DBPROPERTIES
1002
{
1000
PbHidd
1002
}
  0
LINE
  5
9E
330
1F
100
AcDbEntity
  8
HIDDEN
100
AcDbLine
 10
-23.4151782989502
 20
-11.40032958984375
 30
0.0
 11
-23.21564292907715
 21
-11.24403381347656
 31
0.0
1001
DBPROPERTIES
1002
{
1000
PbHidd
1002
}
  0
LINE
  5
9F
330
1F
100
AcDbEntity
  8
HIDDEN
100
AcDbLine
 10
-23.21564292907715
 20
-11.24403381347656
 30
0.0
 11
-23.00590133666992
 21
-11.09488964080811
 31
0.0
1001
DBPROPERTIES
1002
{
1000
PbHidd
1002
}
  0
LINE
  5
A0
330
1F
100
AcDbEntity
  8
HIDDEN
100
AcDbLine
 10
-23.00590133666992
 20
-11.09488964080811
 30
0.0
 11
-22.78725242614746
 21
-10.95497894287109
 31
0.0
1001
DBPROPERTIES
1002
{
1000
PbHidd
1002
}
  0
LINE
  5
A1
330
1F
100
AcDbEntity
  8
HIDDEN
100
AcDbLine
 10
-22.78725242614746
 20
-10.95497894287109
 30
0.0
 11
-22.56114959716797
 21
-10.82609367370605
 31
0.0
1001
DBPROPERTIES
1002
{
1000
PbHidd
1002
}
  0
LINE
  5
A2
330
1F
100
AcDbEntity
  8
HIDDEN
100
AcDbLine
 10
-22.56114959716797
 20
-10.82609367370605
 30
0.0
 11
-22.32922554016113
 21
-10.70967388153076
 31
0.0
1001
DBPROPERTIES
1002
{
1000
PbHidd
1002
}
  0
LINE
  5
A3
330
1F
100
AcDbEntity
  8
HIDDEN
100
AcDbLine
 10
-22.32922554016113
 20
-10.70967388153076
 30
0.0
 11
-22.09309768676758
 21
-10.60711288452148
 31
0.0
1001
DBPROPERTIES
1002
{
1000
PbHidd
1002
}
  0
LINE
  5
A4
330
1F
100
AcDbEntity
  8
HIDDEN
100
AcDbLine
 10
-22.09309768676758
 20
-10.60711288452148
 30
0.0
 11
-21.85431671142578
 21
-10.51938533782959
 31
0.0
1001
DBPROPERTIES
1002
{
1000
PbHidd
1002
}
  0
LINE
  5
A5
330
1F
100
AcDbEntity
  8
HIDDEN
100
AcDbLine
 10
-21.85431671142578
 20
-10.51938533782959
 30
0.0
 11
-21.61470222473145
 21
-10.44716835021973
 31
0.0
1001
DBPROPERTIES
1002
{
1000
PbHidd
1002
}
  0
LINE
  5
A6
330
1F
100
AcDbEntity
  8
HIDDEN
100
AcDbLine
 10
-21.61470222473145
 20
-10.44716835021973
 30
0.0
 11
-21.37610816955566
 21
-10.39111137390137
 31
0.0
1001
DBPROPERTIES
1002
{
1000
PbHidd
1002
}
  0
LINE
  5
A7
330
1F
100
AcDbEntity
  8
HIDDEN
100
AcDbLine
 10
-21.37610816955566
 20
-10.39111137390137
 30
0.0
 11
-21.14041900634766
 21
-10.35140609741211
 31
0.0
1001
DBPROPERTIES
1002
{
1000
PbHidd
1002
}
  0
LINE
  5
A8
330
1F
100
AcDbEntity
  8
HIDDEN
100
AcDbLine
 10
-21.14041900634766
 20
-10.35140609741211
 30
0.0
 11
-20.90953636169434
 21
-10.32781028747559
 31
0.0
1001
DBPROPERTIES
1002
{
1000
PbHidd
1002
}
  0
LINE
  5
A9
330
1F
100
AcDbEntity
  8
HIDDEN
100
AcDbLine
 10
-20.90953636169434
 20
-10.32781028747559
 30
0.0
 11
-20.68366622924805
 21
-10.32003021240234
 31
0.0
1001
DBPROPERTIES
1002
{
1000
PbHidd
1002
}
  0
LINE
  5
AA
330
1F
100
AcDbEntity
  8
THICK
100
AcDbLine
 10
-20.68366622924805
 20
-10.32003021240234
 30
0.0
 11
-20.45973014831543
 21
-10.32790946960449
 31
0.0
1001
DBPROPERTIES
1002
{
1000
PbThick
1002
}
  0
LINE
  5
AB
330
1F
100
AcDbEntity
  8
THICK
100
AcDbLine
 10
-20.45973014831543
 20
-10.32790946960449
 30
0.0
 11
-20.23716163635254
 21
-10.35192203521729
 31
0.0
1001
DBPROPERTIES
1002
{
1000
PbThick
1002
}
  0
LINE
  5
AC
330
1F
100
AcDbEntity
  8
THICK
100
AcDbLine
 10
-20.23716163635254
 20
-10.35192203521729
 30
0.0
 11
-20.01821136474609
 21
-10.39266395568848
 31
0.0
1001
DBPROPERTIES
1002
{
1000
PbThick
1002
}
  0
LINE
  5
AD
330
1F
100
AcDbEntity
  8
THICK
100
AcDbLine
 10
-20.01821136474609
 20
-10.39266395568848
 30
0.0
 11
-19.80490493774414
 21
-10.45011711120605
 31
0.0
1001
DBPROPERTIES
1002
{
1000
PbThick
1002
}
  0
LINE
  5
AE
330
1F
100
AcDbEntity
  8
THICK
100
AcDbLine
 10
-19.80490493774414
 20
-10.45011711120605
 30
0.0
 11
-19.59914016723633
 21
-10.52389430999756
 31
0.0
1001
DBPROPERTIES
1002
{
1000
PbThick
1002
}
  0
LINE
  5
AF
330
1F
100
AcDbEntity
  8
THICK
100
AcDbLine
 10
-19.59914016723633
 20
-10.52389430999756
 30
0.0
 11
-19.40269470214844
 21
-10.61356639862061
 31
0.0
1001
DBPROPERTIES
1002
{
1000
PbThick
1002
}
  0
LINE
  5
B0
330
1F
100
AcDbEntity
  8
THICK
100
AcDbLine
 10
-19.40269470214844
 20
-10.61356639862061
 30
0.0
 11
-19.21691131591797
 21
-10.71819972991943
 31
0.0
1001
DBPROPERTIES
1002
{
1000
PbThick
1002
}
  0
LINE
  5
B1
330
1F
100
AcDbEntity
  8
THICK
100
AcDbLine
 10
-19.21691131591797
 20
-10.71819972991943
 30
0.0
 11
-19.04314231872559
 21
-10.83651733398438
 31
0.0
1001
DBPROPERTIES
1002
{
1000
PbThick
1002
}
  0
LINE
  5
B2
330
1F
100
AcDbEntity
  8
THICK
100
AcDbLine
 10
-19.04314231872559
 20
-10.83651733398438
 30
0.0
 11
-18.8826732635498
 21
-10.9671516418457
 31
0.0
1001
DBPROPERTIES
1002
{
1000
PbThick
1002
}
  0
LINE
  5
B3
330
1F
100
AcDbEntity
  8
THICK
100
AcDbLine
 10
-18.8826732635498
 20
-10.9671516418457
 30
0.0
 11
-18.73629570007324
 21
-11.10819911956787
 31
0.0
1001
DBPROPERTIES
1002
{
1000
PbThick
1002
}
  0
LINE
  5
B4
330
1F
100
AcDbEntity
  8
THICK
100
AcDbLine
 10
-18.73629570007324
 20
-11.10819911956787
 30
0.0
 11
-18.6046085357666
 21
-11.25755023956299
 31
0.0
1001
DBPROPERTIES
1002
{
1000
PbThick
1002
}
  0
LINE
  5
B5
330
1F
100
AcDbEntity
  8
THICK
100
AcDbLine
 10
-18.6046085357666
 20
-11.25755023956299
 30
0.0
 11
-18.48599815368652
 21
-11.416015625
 31
0.0
1001
DBPROPERTIES
1002
{
1000
PbThick
1002
}
  0
LINE
  5
B6
330
1F
100
AcDbEntity
  8
THICK
100
AcDbLine
 10
-18.48599815368652
 20
-11.416015625
 30
0.0
 11
-18.37838172912598
 21
-11.586012840271
 31
0.0
1001
DBPROPERTIES
1002
{
1000
PbThick
1002
}
  0
LINE
  5
B7
330
1F
100
AcDbEntity
  8
THICK
100
AcDbLine
 10
-18.37838172912598
 20
-11.586012840271
 30
0.0
 11
-18.28267478942871
 21
-11.76659393310547
 31
0.0
1001
DBPROPERTIES
1002
{
1000
PbThick
1002
}
  0
LINE
  5
B8
330
1F
100
AcDbEntity
  8
THICK
100
AcDbLine
 10
-18.28267478942871
 20
-11.76659393310547
 30
0.0
 11
-18.19977951049805
 21
-11.95677852630615
 31
0.0
1001
DBPROPERTIES
1002
{
1000
PbThick
1002
}
  0
LINE
  5
B9
330
1F
100
AcDbEntity
  8
THICK
100
AcDbLine
 10
-18.19977951049805
 20
-11.95677852630615
 30
0.0
 11
-18.13024520874023
 21
-12.15539932250977
 31
0.0
1001
DBPROPERTIES
1002
{
1000
PbThick
1002
}
  0
LINE
  5
BA
330
1F
100
AcDbEntity
  8
THICK
100
AcDbLine
 10
-18.13024520874023
 20
-12.15539932250977
 30
0.0
 11
-18.07435607910156
 21
-12.36115741729736
 31
0.0
1001
DBPROPERTIES
1002
{
1000
PbThick
1002
}
  0
LINE
  5
BB
330
1F
100
AcDbEntity
  8
THICK
100
AcDbLine
 10
-18.07435607910156
 20
-12.36115741729736
 30
0.0
 11
-18.03238677978516
 21
-12.57275485992432
 31
0.0
1001
DBPROPERTIES
1002
{
1000
PbThick
1002
}
  0
LINE
  5
BC
330
1F
100
AcDbEntity
  8
THICK
100
AcDbLine
 10
-18.03238677978516
 20
-12.57275485992432
 30
0.0
 11
-18.00439834594727
 21
-12.78895473480225
 31
0.0
1001
DBPROPERTIES
1002
{
1000
PbThick
1002
}
  0
LINE
  5
BD
330
1F
100
AcDbEntity
  8
THICK
100
AcDbLine
 10
-18.00439834594727
 20
-12.78895473480225
 30
0.0
 11
-17.99010848999023
 21
-13.00835514068604
 31
0.0
1001
DBPROPERTIES
1002
{
1000
PbThick
1002
}
  0
LINE
  5
BE
330
1F
100
AcDbEntity
  8
THICK
100
AcDbLine
 10
-17.99010848999023
 20
-13.00835514068604
 30
0.0
 11
-17.98919677734375
 21
-13.22948932647705
 31
0.0
1001
DBPROPERTIES
1002
{
1000
PbThick
1002
}
  0
LINE
  5
BF
330
1F
100
AcDbEntity
  8
THICK
100
AcDbLine
 10
-17.98919677734375
 20
-13.22948932647705
 30
0.0
 11
-18.00127220153809
 21
-13.45088481903076
 31
0.0
1001
DBPROPERTIES
1002
{
1000
PbThick
1002
}
  0
LINE
  5
C0
330
1F
100
AcDbEntity
  8
THICK
100
AcDbLine
 10
-18.00127220153809
 20
-13.45088481903076
 30
0.0
 11
-18.02553558349609
 21
-13.67101955413818
 31
0.0
1001
DBPROPERTIES
1002
{
1000
PbThick
1002
}
  0
LINE
  5
C1
330
1F
100
AcDbEntity
  8
THICK
100
AcDbLine
 10
-18.02553558349609
 20
-13.67101955413818
 30
0.0
 11
-18.06105613708496
 21
-13.88835525512695
 31
0.0
1001
DBPROPERTIES
1002
{
1000
PbThick
1002
}
  0
LINE
  5
C2
330
1F
100
AcDbEntity
  8
THICK
100
AcDbLine
 10
-18.06105613708496
 20
-13.88835525512695
 30
0.0
 11
-18.10722541809082
 21
-14.10278987884521
 31
0.0
1001
DBPROPERTIES
1002
{
1000
PbThick
1002
}
  0
LINE
  5
C3
330
1F
100
AcDbEntity
  8
THICK
100
AcDbLine
 10
-18.10722541809082
 20
-14.10278987884521
 30
0.0
 11
-18.16510200500488
 21
-14.31999397277832
 31
0.0
1001
DBPROPERTIES
1002
{
1000
PbThick
1002
}
  0
LINE
  5
C4
330
1F
100
AcDbEntity
  8
THICK
100
AcDbLine
 10
-18.16510200500488
 20
-14.31999397277832
 30
0.0
 11
-18.24426651000977
 21
-14.56685256958008
 31
0.0
1001
DBPROPERTIES
1002
{
1000
PbThick
1002
}
  0
LINE
  5
C5
330
1F
100
AcDbEntity
  8
THICK
100
AcDbLine
 10
-18.24426651000977
 20
-14.56685256958008
 30
0.0
 11
-18.33843803405762
 21
-14.81525135040283
 31
0.0
1001
DBPROPERTIES
1002
{
1000
PbThick
1002
}
  0
LINE
  5
C6
330
1F
100
AcDbEntity
  8
THICK
100
AcDbLine
 10
-18.33843803405762
 20
-14.81525135040283
 30
0.0
 11
-18.44745635986328
 21
-15.06356334686279
 31
0.0
1001
DBPROPERTIES
1002
{
1000
PbThick
1002
}
  0
LINE
  5
C7
330
1F
100
AcDbEntity
  8
THICK
100
AcDbLine
 10
-18.44745635986328
 20
-15.06356334686279
 30
0.0
 11
-18.57077598571777
 21
-15.3102388381958
 31
0.0
1001
DBPROPERTIES
1002
{
1000
PbThick
1002
}
  0
LINE
  5
C8
330
1F
100
AcDbEntity
  8
THICK
100
AcDbLine
 10
-18.57077598571777
 20
-15.3102388381958
 30
0.0
 11
-18.70778846740723
 21
-15.55373954772949
 31
0.0
1001
DBPROPERTIES
1002
{
1000
PbThick
1002
}
  0
LINE
  5
C9
330
1F
100
AcDbEntity
  8
THICK
100
AcDbLine
 10
-18.70778846740723
 20
-15.55373954772949
 30
0.0
 11
-18.85787010192871
 21
-15.79261684417725
 31
0.0
1001
DBPROPERTIES
1002
{
1000
PbThick
1002
}
  0
LINE
  5
CA
330
1F
100
AcDbEntity
  8
THICK
100
AcDbLine
 10
-18.85787010192871
 20
-15.79261684417725
 30
0.0
 11
-19.02008819580078
 21
-16.02556610107422
 31
0.0
1001
DBPROPERTIES
1002
{
1000
PbThick
1002
}
  0
LINE
  5
CB
330
1F
100
AcDbEntity
  8
THICK
100
AcDbLine
 10
-19.02008819580078
 20
-16.02556610107422
 30
0.0
 11
-19.193359375
 21
-16.25123023986816
 31
0.0
1001
DBPROPERTIES
1002
{
1000
PbThick
1002
}
  0
LINE
  5
CC
330
1F
100
AcDbEntity
  8
THICK
100
AcDbLine
 10
-19.193359375
 20
-16.25123023986816
 30
0.0
 11
-19.37658309936523
 21
-16.46826934814453
 31
0.0
1001
DBPROPERTIES
1002
{
1000
PbThick
1002
}
  0
LINE
  5
CD
330
1F
100
AcDbEntity
  8
THICK
100
AcDbLine
 10
-19.37658309936523
 20
-16.46826934814453
 30
0.0
 11
-19.56838607788086
 21
-16.67549705505371
 31
0.0
1001
DBPROPERTIES
1002
{
1000
PbThick
1002
}
  0
LINE
  5
CE
330
1F
100
AcDbEntity
  8
THICK
100
AcDbLine
 10
-19.56838607788086
 20
-16.67549705505371
 30
0.0
 11
-19.7672290802002
 21
-16.87183570861816
 31
0.0
1001
DBPROPERTIES
1002
{
1000
PbThick
1002
}
  0
LINE
  5
CF
330
1F
100
AcDbEntity
  8
THICK
100
AcDbLine
 10
-19.7672290802002
 20
-16.87183570861816
 30
0.0
 11
-19.97260856628418
 21
-17.0571117401123
 31
0.0
1001
DBPROPERTIES
1002
{
1000
PbThick
1002
}
  0
LINE
  5
D0
330
1F
100
AcDbEntity
  8
THICK
100
AcDbLine
 10
-19.97260856628418
 20
-17.0571117401123
 30
0.0
 11
-20.19023513793945
 21
-17.23606300354004
 31
0.0
1001
DBPROPERTIES
1002
{
1000
PbThick
1002
}
  0
LINE
  5
D1
330
1F
100
AcDbEntity
  8
THICK
100
AcDbLine
 10
-20.19023513793945
 20
-17.23606300354004
 30
0.0
 11
-20.42001533508301
 21
-17.40755462646484
 31
0.0
1001
DBPROPERTIES
1002
{
1000
PbThick
1002
}
  0
LINE
  5
D2
330
1F
100
AcDbEntity
  8
THICK
100
AcDbLine
 10
-20.42001533508301
 20
-17.40755462646484
 30
0.0
 11
-20.66046714782715
 21
-17.56919288635254
 31
0.0
1001
DBPROPERTIES
1002
{
1000
PbThick
1002
}
  0
LINE
  5
D3
330
1F
100
AcDbEntity
  8
THICK
100
AcDbLine
 10
-20.66046714782715
 20
-17.56919288635254
 30
0.0
 11
-20.90990447998047
 21
-17.71889495849609
 31
0.0
1001
DBPROPERTIES
1002
{
1000
PbThick
1002
}
  0
LINE
  5
D4
330
1F
100
AcDbEntity
  8
THICK
100
AcDbLine
 10
-20.90990447998047
 20
-17.71889495849609
 30
0.0
 11
-21.16642761230469
 21
-17.85490417480469
 31
0.0
1001
DBPROPERTIES
1002
{
1000
PbThick
1002
}
  0
LINE
  5
D5
330
1F
100
AcDbEntity
  8
THICK
100
AcDbLine
 10
-21.16642761230469
 20
-17.85490417480469
 30
0.0
 11
-21.42816352844238
 21
-17.97550964355469
 31
0.0
1001
DBPROPERTIES
1002
{
1000
PbThick
1002
}
  0
LINE
  5
D6
330
1F
100
AcDbEntity
  8
THICK
100
AcDbLine
 10
-21.42816352844238
 20
-17.97550964355469
 30
0.0
 11
-21.69332313537598
 21
-18.07942962646484
 31
0.0
1001
DBPROPERTIES
1002
{
1000
PbThick
1002
}
  0
LINE
  5
D7
330
1F
100
AcDbEntity
  8
THICK
100
AcDbLine
 10
-21.69332313537598
 20
-18.07942962646484
 30
0.0
 11
-21.95978736877441
 21
-18.16564559936523
 31
0.0
1001
DBPROPERTIES
1002
{
1000
PbThick
1002
}
  0
LINE
  5
D8
330
1F
100
AcDbEntity
  8
THICK
100
AcDbLine
 10
-21.95978736877441
 20
-18.16564559936523
 30
0.0
 11
-22.22538566589355
 21
-18.23315048217773
 31
0.0
1001
DBPROPERTIES
1002
{
1000
PbThick
1002
}
  0
LINE
  5
D9
330
1F
100
AcDbEntity
  8
THICK
100
AcDbLine
 10
-22.22538566589355
 20
-18.23315048217773
 30
0.0
 11
-22.48794746398926
 21
-18.28140449523926
 31
0.0
1001
DBPROPERTIES
1002
{
1000
PbThick
1002
}
  0
LINE
  5
DA
330
1F
100
AcDbEntity
  8
THICK
100
AcDbLine
 10
-22.48794746398926
 20
-18.28140449523926
 30
0.0
 11
-22.74529457092285
 21
-18.31034851074219
 31
0.0
1001
DBPROPERTIES
1002
{
1000
PbThick
1002
}
  0
LINE
  5
DB
330
1F
100
AcDbEntity
  8
THICK
100
AcDbLine
 10
-22.74529457092285
 20
-18.31034851074219
 30
0.0
 11
-22.996337890625
 21
-18.31996726989746
 31
0.0
1001
DBPROPERTIES
1002
{
1000
PbThick
1002
}
  0
LINE
  5
DC
330
1F
100
AcDbEntity
  8
HIDDEN
100
AcDbLine
 10
-22.996337890625
 20
-18.31996726989746
 30
0.0
 11
-23.2500114440918
 21
-18.30970001220703
 31
0.0
1001
DBPROPERTIES
1002
{
1000
PbHidd
1002
}
  0
LINE
  5
DD
330
1F
100
AcDbEntity
  8
HIDDEN
100
AcDbLine
 10
-23.2500114440918
 20
-18.30970001220703
 30
0.0
 11
-23.49863243103027
 21
-18.2785472869873
 31
0.0
1001
DBPROPERTIES
1002
{
1000
PbHidd
1002
}
  0
LINE
  5
DE
330
1F
100
AcDbEntity
  8
HIDDEN
100
AcDbLine
 10
-23.49863243103027
 20
-18.2785472869873
 30
0.0
 11
-23.73934936523438
 21
-18.22599792480469
 31
0.0
1001
DBPROPERTIES
1002
{
1000
PbHidd
1002
}
  0
LINE
  5
DF
330
1F
100
AcDbEntity
  8
HIDDEN
100
AcDbLine
 10
-23.73934936523438
 20
-18.22599792480469
 30
0.0
 11
-23.96975326538086
 21
-18.1523609161377
 31
0.0
1001
DBPROPERTIES
1002
{
1000
PbHidd
1002
}
  0
LINE
  5
E0
330
1F
100
AcDbEntity
  8
HIDDEN
100
AcDbLine
 10
-23.96975326538086
 20
-18.1523609161377
 30
0.0
 11
-24.18768501281738
 21
-18.05842971801758
 31
0.0
1001
DBPROPERTIES
1002
{
1000
PbHidd
1002
}
  0
LINE
  5
E1
330
1F
100
AcDbEntity
  8
HIDDEN
100
AcDbLine
 10
-24.18768501281738
 20
-18.05842971801758
 30
0.0
 11
-24.39123344421387
 21
-17.94505882263184
 31
0.0
1001
DBPROPERTIES
1002
{
1000
PbHidd
1002
}
  0
LINE
  5
E2
330
1F
100
AcDbEntity
  8
HIDDEN
100
AcDbLine
 10
-24.39123344421387
 20
-17.94505882263184
 30
0.0
 11
-24.57917785644531
 21
-17.81374549865723
 31
0.0
1001
DBPROPERTIES
1002
{
1000
PbHidd
1002
}
  0
LINE
  5
E3
330
1F
100
AcDbEntity
  8
HIDDEN
100
AcDbLine
 10
-24.57917785644531
 20
-17.81374549865723
 30
0.0
 11
-24.75027465820312
 21
-17.6663646697998
 31
0.0
1001
DBPROPERTIES
1002
{
1000
PbHidd
1002
}
  0
LINE
  5
E4
330
1F
100
AcDbEntity
  8
HIDDEN
100
AcDbLine
 10
-24.75027465820312
 20
-17.6663646697998
 30
0.0
 11
-24.90348052978516
 21
-17.50496864318848
 31
0.0
1001
DBPROPERTIES
1002
{
1000
PbHidd
1002
}
  0
LINE
  5
E5
330
1F
100
AcDbEntity
  8
HIDDEN
100
AcDbLine
 10
-24.90348052978516
 20
-17.50496864318848
 30
0.0
 11
-25.0384635925293
 21
-17.33226203918457
 31
0.0
1001
DBPROPERTIES
1002
{
1000
PbHidd
1002
}
  0
LINE
  5
E6
330
1F
100
AcDbEntity
  8
HIDDEN
100
AcDbLine
 10
-25.0384635925293
 20
-17.33226203918457
 30
0.0
 11
-25.15513610839844
 21
-17.15094375610352
 31
0.0
1001
DBPROPERTIES
1002
{
1000
PbHidd
1002
}
  0
LINE
  5
E7
330
1F
100
AcDbEntity
  8
HIDDEN
100
AcDbLine
 10
-25.15513610839844
 20
-17.15094375610352
 30
0.0
 11
-25.25645446777344
 21
-16.95808410644531
 31
0.0
1001
DBPROPERTIES
1002
{
1000
PbHidd
1002
}
  0
LINE
  5
E8
330
1F
100
AcDbEntity
  8
HIDDEN
100
AcDbLine
 10
-25.25645446777344
 20
-16.95808410644531
 30
0.0
 11
-25.34330177307129
 21
-16.7524471282959
 31
0.0
1001
DBPROPERTIES
1002
{
1000
PbHidd
1002
}
  0
LINE
  5
E9
330
1F
100
AcDbEntity
  8
HIDDEN
100
AcDbLine
 10
-25.34330177307129
 20
-16.7524471282959
 30
0.0
 11
-25.41487503051758
 21
-16.53529930114746
 31
0.0
1001
DBPROPERTIES
1002
{
1000
PbHidd
1002
}
  0
LINE
  5
EA
330
1F
100
AcDbEntity
  8
HIDDEN
100
AcDbLine
 10
-25.41487503051758
 20
-16.53529930114746
 30
0.0
 11
-25.47054100036621
 21
-16.30798530578613
 31
0.0
1001
DBPROPERTIES
1002
{
1000
PbHidd
1002
}
  0
LINE
  5
EB
330
1F
100
AcDbEntity
  8
HIDDEN
100
AcDbLine
 10
-25.47054100036621
 20
-16.30798530578613
 30
0.0
 11
-25.51011657714844
 21
-16.07207298278809
 31
0.0
1001
DBPROPERTIES
1002
{
1000
PbHidd
1002
}
  0
LINE
  5
EC
330
1F
100
AcDbEntity
  8
HIDDEN
100
AcDbLine
 10
-25.51011657714844
 20
-16.07207298278809
 30
0.0
 11
-25.53348350524902
 21
-15.82917022705078
 31
0.0
1001
DBPROPERTIES
1002
{
1000
PbHidd
1002
}
  0
LINE
  5
ED
330
1F
100
AcDbEntity
  8
HIDDEN
100
AcDbLine
 10
-25.53348350524902
 20
-15.82917022705078
 30
0.0
 11
-25.5406436920166
 21
-15.58082962036133
 31
0.0
1001
DBPROPERTIES
1002
{
1000
PbHidd
1002
}
  0
LINE
  5
EE
330
1F
100
AcDbEntity
  8
HIDDEN
100
AcDbLine
 10
-25.5406436920166
 20
-15.58082962036133
 30
0.0
 11
-25.5319938659668
 21
-15.32874774932861
 31
0.0
1001
DBPROPERTIES
1002
{
1000
PbHidd
1002
}
  0
LINE
  5
EF
330
1F
100
AcDbEntity
  8
HIDDEN
100
AcDbLine
 10
-25.5319938659668
 20
-15.32874774932861
 30
0.0
 11
-25.50801849365234
 21
-15.07474803924561
 31
0.0
1001
DBPROPERTIES
1002
{
1000
PbHidd
1002
}
  0
LINE
  5
F0
330
1F
100
AcDbEntity
  8
HIDDEN
100
AcDbLine
 10
-25.50801849365234
 20
-15.07474803924561
 30
0.0
 11
-25.46928977966309
 21
-14.82066631317139
 31
0.0
1001
DBPROPERTIES
1002
{
1000
PbHidd
1002
}
  0
LINE
  5
F1
330
1F
100
AcDbEntity
  8
HIDDEN
100
AcDbLine
 10
-25.46928977966309
 20
-14.82066631317139
 30
0.0
 11
-25.41681671142578
 21
-14.56843185424805
 31
0.0
1001
DBPROPERTIES
1002
{
1000
PbHidd
1002
}
  0
LINE
  5
F2
330
1F
100
AcDbEntity
  8
HIDDEN
100
AcDbLine
 10
-25.41681671142578
 20
-14.56843185424805
 30
0.0
 11
-25.35176086425781
 21
-14.31999969482422
 31
0.0
1001
DBPROPERTIES
1002
{
1000
PbHidd
1002
}
  0
LINE
  5
F3
330
1F
100
AcDbEntity
  8
HIDDEN
100
AcDbLine
 10
0.0000000000000045
 20
-21.82499444855586
 30
0.0
 11
-73.19999999999999
 21
-21.82499444855586
 31
0.0
1001
DBPROPERTIES
1002
{
1000
PbHidd
1002
}
  0
LINE
  5
F4
330
1F
100
AcDbEntity
  8
THICK
100
AcDbLine
 10
-73.19999999999999
 20
-21.82499444855586
 30
0.0
 11
-65.65649677929754
 21
-21.82499444855586
 31
0.0
1001
DBPROPERTIES
1002
{
1000
PbThick
1002
}
  0
LINE
  5
F5
330
1F
100
AcDbEntity
  8
HIDDEN
100
AcDbLine
 10
-65.65649677929754
 20
-21.82499444855586
 30
0.0
 11
-56.36579550820497
 21
-21.82499444855586
 31
0.0
1001
DBPROPERTIES
1002
{
1000
PbHidd
1002
}
  0
LINE
  5
F6
330
1F
100
AcDbEntity
  8
THICK
100
AcDbLine
 10
-56.36579550820497
 20
-21.82499444855586
 30
0.0
 11
-0.0000000000000134
 21
-21.82499444855586
 31
0.0
1001
DBPROPERTIES
1002
{
1000
PbThick
1002
}
  0
LINE
  5
F7
330
1F
100
AcDbEntity
  8
THICK
100
AcDbLine
 10
-73.19999999999999
 20
-20.26499444855585
 30
0.0
 11
-67.15154601486381
 21
-20.26499444855585
 31
0.0
1001
DBPROPERTIES
1002
{
1000
PbThick
1002
}
  0
LINE
  5
F8
330
1F
100
AcDbEntity
  8
HIDDEN
100
AcDbLine
 10
-67.15154601486381
 20
-20.26499444855585
 30
0.0
 11
-57.14437426704251
 21
-20.26499444855585
 31
0.0
1001
DBPROPERTIES
1002
{
1000
PbHidd
1002
}
  0
LINE
  5
F9
330
1F
100
AcDbEntity
  8
THICK
100
AcDbLine
 10
-57.14437426704251
 20
-20.26499444855585
 30
0.0
 11
-0.0000000000000134
 21
-20.26499444855585
 31
0.0
1001
DBPROPERTIES
1002
{
1000
PbThick
1002
}
  0
LINE
  5
FA
330
1F
100
AcDbEntity
  8
THICK
100
AcDbLine
 10
-205.0
 20
-39.0
 30
0.0
 11
-0.0000000000000377
 21
-39.0
 31
0.0
1001
DBPROPERTIES
1002
{
1000
PbThick
1002
}
  0
LINE
  5
FB
330
1F
100
AcDbEntity
  8
THICK
100
AcDbLine
 10
-57.75
 20
-36.82681655883789
 30
0.0
 11
-58.03533172607422
 21
-36.83723449707031
 31
0.0
1001
DBPROPERTIES
1002
{
1000
PbThick
1002
}
  0
LINE
  5
FC
330
1F
100
AcDbEntity
  8
THICK
100
AcDbLine
 10
-58.03533172607422
 20
-36.83723449707031
 30
0.0
 11
-58.31838607788086
 21
-36.84562301635742
 31
0.0
1001
DBPROPERTIES
1002
{
1000
PbThick
1002
}
  0
LINE
  5
FD
330
1F
100
AcDbEntity
  8
THICK
100
AcDbLine
 10
-58.31838607788086
 20
-36.84562301635742
 30
0.0
 11
-58.59757614135742
 21
-36.85195159912109
 31
0.0
1001
DBPROPERTIES
1002
{
1000
PbThick
1002
}
  0
LINE
  5
FE
330
1F
100
AcDbEntity
  8
THICK
100
AcDbLine
 10
-58.59757614135742
 20
-36.85195159912109
 30
0.0
 11
-58.87137222290039
 21
-36.85625076293945
 31
0.0
1001
DBPROPERTIES
1002
{
1000
PbThick
1002
}
  0
LINE
  5
FF
330
1F
100
AcDbEntity
  8
THICK
100
AcDbLine
 10
-58.87137222290039
 20
-36.85625076293945
 30
0.0
 11
-59.13827514648438
 21
-36.85857391357422
 31
0.0
1001
DBPROPERTIES
1002
{
1000
PbThick
1002
}
  0
LINE
  5
100
330
1F
100
AcDbEntity
  8
THICK
100
AcDbLine
 10
-59.13827514648438
 20
-36.85857391357422
 30
0.0
 11
-59.39717864990234
 21
-36.85897445678711
 31
0.0
1001
DBPROPERTIES
1002
{
1000
PbThick
1002
}
  0
LINE
  5
101
330
1F
100
AcDbEntity
  8
THICK
100
AcDbLine
 10
-59.39717864990234
 20
-36.85897445678711
 30
0.0
 11
-59.65325546264648
 21
-36.85746765136719
 31
0.0
1001
DBPROPERTIES
1002
{
1000
PbThick
1002
}
  0
LINE
  5
102
330
1F
100
AcDbEntity
  8
THICK
100
AcDbLine
 10
-59.65325546264648
 20
-36.85746765136719
 30
0.0
 11
-59.90717697143555
 21
-36.85400772094727
 31
0.0
1001
DBPROPERTIES
1002
{
1000
PbThick
1002
}
  0
LINE
  5
103
330
1F
100
AcDbEntity
  8
THICK
100
AcDbLine
 10
-59.90717697143555
 20
-36.85400772094727
 30
0.0
 11
-60.15717697143555
 21
-36.84854125976562
 31
0.0
1001
DBPROPERTIES
1002
{
1000
PbThick
1002
}
  0
LINE
  5
104
330
1F
100
AcDbEntity
  8
THICK
100
AcDbLine
 10
-60.15717697143555
 20
-36.84854125976562
 30
0.0
 11
-60.40150833129883
 21
-36.84102249145508
 31
0.0
1001
DBPROPERTIES
1002
{
1000
PbThick
1002
}
  0
LINE
  5
105
330
1F
100
AcDbEntity
  8
THICK
100
AcDbLine
 10
-60.40150833129883
 20
-36.84102249145508
 30
0.0
 11
-60.63866806030273
 21
-36.83145523071289
 31
0.0
1001
DBPROPERTIES
1002
{
1000
PbThick
1002
}
  0
LINE
  5
106
330
1F
100
AcDbEntity
  8
THICK
100
AcDbLine
 10
-60.63866806030273
 20
-36.83145523071289
 30
0.0
 11
-60.86725234985352
 21
-36.81987762451172
 31
0.0
1001
DBPROPERTIES
1002
{
1000
PbThick
1002
}
  0
LINE
  5
107
330
1F
100
AcDbEntity
  8
THICK
100
AcDbLine
 10
-60.86725234985352
 20
-36.81987762451172
 30
0.0
 11
-61.08587265014648
 21
-36.80633163452148
 31
0.0
1001
DBPROPERTIES
1002
{
1000
PbThick
1002
}
  0
LINE
  5
108
330
1F
100
AcDbEntity
  8
THICK
100
AcDbLine
 10
-61.08587265014648
 20
-36.80633163452148
 30
0.0
 11
-61.29339218139648
 21
-36.79085922241211
 31
0.0
1001
DBPROPERTIES
1002
{
1000
PbThick
1002
}
  0
LINE
  5
109
330
1F
100
AcDbEntity
  8
THICK
100
AcDbLine
 10
-61.29339218139648
 20
-36.79085922241211
 30
0.0
 11
-61.4888801574707
 21
-36.7735710144043
 31
0.0
1001
DBPROPERTIES
1002
{
1000
PbThick
1002
}
  0
LINE
  5
10A
330
1F
100
AcDbEntity
  8
THICK
100
AcDbLine
 10
-61.4888801574707
 20
-36.7735710144043
 30
0.0
 11
-61.67139053344727
 21
-36.75457763671875
 31
0.0
1001
DBPROPERTIES
1002
{
1000
PbThick
1002
}
  0
LINE
  5
10B
330
1F
100
AcDbEntity
  8
THICK
100
AcDbLine
 10
-61.67139053344727
 20
-36.75457763671875
 30
0.0
 11
-61.84000015258789
 21
-36.7339973449707
 31
0.0
1001
DBPROPERTIES
1002
{
1000
PbThick
1002
}
  0
LINE
  5
10C
330
1F
100
AcDbEntity
  8
THICK
100
AcDbLine
 10
-61.84000015258789
 20
-36.7339973449707
 30
0.0
 11
-61.99411010742188
 21
-36.71199035644531
 31
0.0
1001
DBPROPERTIES
1002
{
1000
PbThick
1002
}
  0
LINE
  5
10D
330
1F
100
AcDbEntity
  8
THICK
100
AcDbLine
 10
-61.99411010742188
 20
-36.71199035644531
 30
0.0
 11
-62.13336181640625
 21
-36.68875122070312
 31
0.0
1001
DBPROPERTIES
1002
{
1000
PbThick
1002
}
  0
LINE
  5
10E
330
1F
100
AcDbEntity
  8
THICK
100
AcDbLine
 10
-62.13336181640625
 20
-36.68875122070312
 30
0.0
 11
-62.25741958618164
 21
-36.66447067260742
 31
0.0
1001
DBPROPERTIES
1002
{
1000
PbThick
1002
}
  0
LINE
  5
10F
330
1F
100
AcDbEntity
  8
THICK
100
AcDbLine
 10
-62.25741958618164
 20
-36.66447067260742
 30
0.0
 11
-62.36830520629883
 21
-36.6387939453125
 31
0.0
1001
DBPROPERTIES
1002
{
1000
PbThick
1002
}
  0
LINE
  5
110
330
1F
100
AcDbEntity
  8
THICK
100
AcDbLine
 10
-62.36830520629883
 20
-36.6387939453125
 30
0.0
 11
-62.4669075012207
 21
-36.6114501953125
 31
0.0
1001
DBPROPERTIES
1002
{
1000
PbThick
1002
}
  0
LINE
  5
111
330
1F
100
AcDbEntity
  8
THICK
100
AcDbLine
 10
-62.4669075012207
 20
-36.6114501953125
 30
0.0
 11
-62.5521240234375
 21
-36.58255386352539
 31
0.0
1001
DBPROPERTIES
1002
{
1000
PbThick
1002
}
  0
LINE
  5
112
330
1F
100
AcDbEntity
  8
THICK
100
AcDbLine
 10
-62.5521240234375
 20
-36.58255386352539
 30
0.0
 11
-62.62287139892578
 21
-36.55221557617188
 31
0.0
1001
DBPROPERTIES
1002
{
1000
PbThick
1002
}
  0
LINE
  5
113
330
1F
100
AcDbEntity
  8
THICK
100
AcDbLine
 10
-62.62287139892578
 20
-36.55221557617188
 30
0.0
 11
-62.67842102050781
 21
-36.52058029174805
 31
0.0
1001
DBPROPERTIES
1002
{
1000
PbThick
1002
}
  0
LINE
  5
114
330
1F
100
AcDbEntity
  8
THICK
100
AcDbLine
 10
-62.67842102050781
 20
-36.52058029174805
 30
0.0
 11
-62.71836090087891
 21
-36.48780822753906
 31
0.0
1001
DBPROPERTIES
1002
{
1000
PbThick
1002
}
  0
LINE
  5
115
330
1F
100
AcDbEntity
  8
THICK
100
AcDbLine
 10
-62.71836090087891
 20
-36.48780822753906
 30
0.0
 11
-62.74230194091797
 21
-36.45406341552734
 31
0.0
1001
DBPROPERTIES
1002
{
1000
PbThick
1002
}
  0
LINE
  5
116
330
1F
100
AcDbEntity
  8
THICK
100
AcDbLine
 10
-62.74230194091797
 20
-36.45406341552734
 30
0.0
 11
-62.74994277954102
 21
-36.41950607299805
 31
0.0
1001
DBPROPERTIES
1002
{
1000
PbThick
1002
}
  0
LINE
  5
117
330
1F
100
AcDbEntity
  8
THICK
100
AcDbLine
 10
-62.74994277954102
 20
-36.41950607299805
 30
0.0
 11
-62.74085235595703
 21
-36.38309860229492
 31
0.0
1001
DBPROPERTIES
1002
{
1000
PbThick
1002
}
  0
LINE
  5
118
330
1F
100
AcDbEntity
  8
THICK
100
AcDbLine
 10
-62.74085235595703
 20
-36.38309860229492
 30
0.0
 11
-62.71475982666016
 21
-36.34622192382812
 31
0.0
1001
DBPROPERTIES
1002
{
1000
PbThick
1002
}
  0
LINE
  5
119
330
1F
100
AcDbEntity
  8
THICK
100
AcDbLine
 10
-62.71475982666016
 20
-36.34622192382812
 30
0.0
 11
-62.67197036743164
 21
-36.30910491943359
 31
0.0
1001
DBPROPERTIES
1002
{
1000
PbThick
1002
}
  0
LINE
  5
11A
330
1F
100
AcDbEntity
  8
THICK
100
AcDbLine
 10
-62.67197036743164
 20
-36.30910491943359
 30
0.0
 11
-62.61312484741211
 21
-36.27196884155273
 31
0.0
1001
DBPROPERTIES
1002
{
1000
PbThick
1002
}
  0
LINE
  5
11B
330
1F
100
AcDbEntity
  8
THICK
100
AcDbLine
 10
-62.61312484741211
 20
-36.27196884155273
 30
0.0
 11
-62.53928375244141
 21
-36.23506164550781
 31
0.0
1001
DBPROPERTIES
1002
{
1000
PbThick
1002
}
  0
LINE
  5
11C
330
1F
100
AcDbEntity
  8
THICK
100
AcDbLine
 10
-62.53928375244141
 20
-36.23506164550781
 30
0.0
 11
-62.45153045654297
 21
-36.1986198425293
 31
0.0
1001
DBPROPERTIES
1002
{
1000
PbThick
1002
}
  0
LINE
  5
11D
330
1F
100
AcDbEntity
  8
THICK
100
AcDbLine
 10
-62.45153045654297
 20
-36.1986198425293
 30
0.0
 11
-62.36449432373047
 21
-36.16738510131836
 31
0.0
1001
DBPROPERTIES
1002
{
1000
PbThick
1002
}
  0
LINE
  5
11E
330
1F
100
AcDbEntity
  8
THICK
100
AcDbLine
 10
-62.36449432373047
 20
-36.16738510131836
 30
0.0
 11
-62.26530838012695
 21
-36.13574981689453
 31
0.0
1001
DBPROPERTIES
1002
{
1000
PbThick
1002
}
  0
LINE
  5
11F
330
1F
100
AcDbEntity
  8
THICK
100
AcDbLine
 10
-62.26530838012695
 20
-36.13574981689453
 30
0.0
 11
-62.15408325195312
 21
-36.1038818359375
 31
0.0
1001
DBPROPERTIES
1002
{
1000
PbThick
1002
}
  0
LINE
  5
120
330
1F
100
AcDbEntity
  8
THICK
100
AcDbLine
 10
-62.15408325195312
 20
-36.1038818359375
 30
0.0
 11
-62.03092956542969
 21
-36.07193756103516
 31
0.0
1001
DBPROPERTIES
1002
{
1000
PbThick
1002
}
  0
LINE
  5
121
330
1F
100
AcDbEntity
  8
THICK
100
AcDbLine
 10
-62.03092956542969
 20
-36.07193756103516
 30
0.0
 11
-61.89606094360352
 21
-36.04007720947266
 31
0.0
1001
DBPROPERTIES
1002
{
1000
PbThick
1002
}
  0
LINE
  5
122
330
1F
100
AcDbEntity
  8
THICK
100
AcDbLine
 10
-61.89606094360352
 20
-36.04007720947266
 30
0.0
 11
-61.75
 21
-36.00845336914062
 31
0.0
1001
DBPROPERTIES
1002
{
1000
PbThick
1002
}
  0
LINE
  5
123
330
1F
100
AcDbEntity
  8
HIDDEN
100
AcDbLine
 10
-61.75
 20
-36.00845336914062
 30
0.0
 11
-61.52322387695312
 21
-35.96401596069336
 31
0.0
1001
DBPROPERTIES
1002
{
1000
PbHidd
1002
}
  0
LINE
  5
124
330
1F
100
AcDbEntity
  8
HIDDEN
100
AcDbLine
 10
-61.52322387695312
 20
-35.96401596069336
 30
0.0
 11
-61.27643585205078
 21
-35.9207763671875
 31
0.0
1001
DBPROPERTIES
1002
{
1000
PbHidd
1002
}
  0
LINE
  5
125
330
1F
100
AcDbEntity
  8
HIDDEN
100
AcDbLine
 10
-61.27643585205078
 20
-35.9207763671875
 30
0.0
 11
-61.01180648803711
 21
-35.87909698486328
 31
0.0
1001
DBPROPERTIES
1002
{
1000
PbHidd
1002
}
  0
LINE
  5
126
330
1F
100
AcDbEntity
  8
HIDDEN
100
AcDbLine
 10
-61.01180648803711
 20
-35.87909698486328
 30
0.0
 11
-60.73201751708984
 21
-35.8393440246582
 31
0.0
1001
DBPROPERTIES
1002
{
1000
PbHidd
1002
}
  0
LINE
  5
127
330
1F
100
AcDbEntity
  8
HIDDEN
100
AcDbLine
 10
-60.73201751708984
 20
-35.8393440246582
 30
0.0
 11
-60.43992233276367
 21
-35.8018684387207
 31
0.0
1001
DBPROPERTIES
1002
{
1000
PbHidd
1002
}
  0
LINE
  5
128
330
1F
100
AcDbEntity
  8
HIDDEN
100
AcDbLine
 10
-60.43992233276367
 20
-35.8018684387207
 30
0.0
 11
-60.13899612426758
 21
-35.76694869995117
 31
0.0
1001
DBPROPERTIES
1002
{
1000
PbHidd
1002
}
  0
LINE
  5
129
330
1F
100
AcDbEntity
  8
HIDDEN
100
AcDbLine
 10
-60.13899612426758
 20
-35.76694869995117
 30
0.0
 11
-59.8321533203125
 21
-35.73476409912109
 31
0.0
1001
DBPROPERTIES
1002
{
1000
PbHidd
1002
}
  0
LINE
  5
12A
330
1F
100
AcDbEntity
  8
HIDDEN
100
AcDbLine
 10
-59.8321533203125
 20
-35.73476409912109
 30
0.0
 11
-59.51159286499023
 21
-35.70449066162109
 31
0.0
1001
DBPROPERTIES
1002
{
1000
PbHidd
1002
}
  0
LINE
  5
12B
330
1F
100
AcDbEntity
  8
HIDDEN
100
AcDbLine
 10
-59.51159286499023
 20
-35.70449066162109
 30
0.0
 11
-59.1763916015625
 21
-35.67617416381836
 31
0.0
1001
DBPROPERTIES
1002
{
1000
PbHidd
1002
}
  0
LINE
  5
12C
330
1F
100
AcDbEntity
  8
HIDDEN
100
AcDbLine
 10
-59.1763916015625
 20
-35.67617416381836
 30
0.0
 11
-58.82944869995117
 21
-35.65024566650391
 31
0.0
1001
DBPROPERTIES
1002
{
1000
PbHidd
1002
}
  0
LINE
  5
12D
330
1F
100
AcDbEntity
  8
HIDDEN
100
AcDbLine
 10
-58.82944869995117
 20
-35.65024566650391
 30
0.0
 11
-58.47389221191406
 21
-35.62705612182617
 31
0.0
1001
DBPROPERTIES
1002
{
1000
PbHidd
1002
}
  0
LINE
  5
12E
330
1F
100
AcDbEntity
  8
HIDDEN
100
AcDbLine
 10
-58.47389221191406
 20
-35.62705612182617
 30
0.0
 11
-58.1130256652832
 21
-35.60686874389648
 31
0.0
1001
DBPROPERTIES
1002
{
1000
PbHidd
1002
}
  0
LINE
  5
12F
330
1F
100
AcDbEntity
  8
HIDDEN
100
AcDbLine
 10
-58.1130256652832
 20
-35.60686874389648
 30
0.0
 11
-57.75
 21
-35.58993148803711
 31
0.0
1001
DBPROPERTIES
1002
{
1000
PbHidd
1002
}
  0
LINE
  5
130
330
1F
100
AcDbEntity
  8
HIDDEN
100
AcDbLine
 10
-57.75
 20
-35.58993148803711
 30
0.0
 11
-57.50018692016602
 21
-35.5802116394043
 31
0.0
1001
DBPROPERTIES
1002
{
1000
PbHidd
1002
}
  0
LINE
  5
131
330
1F
100
AcDbEntity
  8
HIDDEN
100
AcDbLine
 10
-57.50018692016602
 20
-35.5802116394043
 30
0.0
 11
-57.25195693969727
 21
-35.57212066650391
 31
0.0
1001
DBPROPERTIES
1002
{
1000
PbHidd
1002
}
  0
LINE
  5
132
330
1F
100
AcDbEntity
  8
HIDDEN
100
AcDbLine
 10
-57.25195693969727
 20
-35.57212066650391
 30
0.0
 11
-57.00642395019531
 21
-35.56568145751953
 31
0.0
1001
DBPROPERTIES
1002
{
1000
PbHidd
1002
}
  0
LINE
  5
133
330
1F
100
AcDbEntity
  8
HIDDEN
100
AcDbLine
 10
-57.00642395019531
 20
-35.56568145751953
 30
0.0
 11
-56.76467132568359
 21
-35.5609016418457
 31
0.0
1001
DBPROPERTIES
1002
{
1000
PbHidd
1002
}
  0
LINE
  5
134
330
1F
100
AcDbEntity
  8
HIDDEN
100
AcDbLine
 10
-56.76467132568359
 20
-35.5609016418457
 30
0.0
 11
-56.52775955200195
 21
-35.5577392578125
 31
0.0
1001
DBPROPERTIES
1002
{
1000
PbHidd
1002
}
  0
LINE
  5
135
330
1F
100
AcDbEntity
  8
HIDDEN
100
AcDbLine
 10
-56.52775955200195
 20
-35.5577392578125
 30
0.0
 11
-56.29673767089844
 21
-35.55615615844727
 31
0.0
1001
DBPROPERTIES
1002
{
1000
PbHidd
1002
}
  0
LINE
  5
136
330
1F
100
AcDbEntity
  8
HIDDEN
100
AcDbLine
 10
-56.29673767089844
 20
-35.55615615844727
 30
0.0
 11
-56.0717887878418
 21
-35.55611038208008
 31
0.0
1001
DBPROPERTIES
1002
{
1000
PbHidd
1002
}
  0
LINE
  5
137
330
1F
100
AcDbEntity
  8
HIDDEN
100
AcDbLine
 10
-56.0717887878418
 20
-35.55611038208008
 30
0.0
 11
-55.8481559753418
 21
-35.55759811401367
 31
0.0
1001
DBPROPERTIES
1002
{
1000
PbHidd
1002
}
  0
LINE
  5
138
330
1F
100
AcDbEntity
  8
HIDDEN
100
AcDbLine
 10
-55.8481559753418
 20
-35.55759811401367
 30
0.0
 11
-55.62597274780273
 21
-35.56066513061523
 31
0.0
1001
DBPROPERTIES
1002
{
1000
PbHidd
1002
}
  0
LINE
  5
139
330
1F
100
AcDbEntity
  8
HIDDEN
100
AcDbLine
 10
-55.62597274780273
 20
-35.56066513061523
 30
0.0
 11
-55.4064826965332
 21
-35.56534957885742
 31
0.0
1001
DBPROPERTIES
1002
{
1000
PbHidd
1002
}
  0
LINE
  5
13A
330
1F
100
AcDbEntity
  8
HIDDEN
100
AcDbLine
 10
-55.4064826965332
 20
-35.56534957885742
 30
0.0
 11
-55.19092559814453
 21
-35.57168579101562
 31
0.0
1001
DBPROPERTIES
1002
{
1000
PbHidd
1002
}
  0
LINE
  5
13B
330
1F
100
AcDbEntity
  8
HIDDEN
100
AcDbLine
 10
-55.19092559814453
 20
-35.57168579101562
 30
0.0
 11
-54.98040390014648
 21
-35.57968139648438
 31
0.0
1001
DBPROPERTIES
1002
{
1000
PbHidd
1002
}
  0
LINE
  5
13C
330
1F
100
AcDbEntity
  8
HIDDEN
100
AcDbLine
 10
-54.98040390014648
 20
-35.57968139648438
 30
0.0
 11
-54.77590942382812
 21
-35.58930206298828
 31
0.0
1001
DBPROPERTIES
1002
{
1000
PbHidd
1002
}
  0
LINE
  5
13D
330
1F
100
AcDbEntity
  8
HIDDEN
100
AcDbLine
 10
-54.77590942382812
 20
-35.58930206298828
 30
0.0
 11
-54.57843017578125
 21
-35.60052490234375
 31
0.0
1001
DBPROPERTIES
1002
{
1000
PbHidd
1002
}
  0
LINE
  5
13E
330
1F
100
AcDbEntity
  8
HIDDEN
100
AcDbLine
 10
-54.57843017578125
 20
-35.60052490234375
 30
0.0
 11
-54.38891220092773
 21
-35.61331939697266
 31
0.0
1001
DBPROPERTIES
1002
{
1000
PbHidd
1002
}
  0
LINE
  5
13F
330
1F
100
AcDbEntity
  8
HIDDEN
100
AcDbLine
 10
-54.38891220092773
 20
-35.61331939697266
 30
0.0
 11
-54.20803833007812
 21
-35.62762069702148
 31
0.0
1001
DBPROPERTIES
1002
{
1000
PbHidd
1002
}
  0
LINE
  5
140
330
1F
100
AcDbEntity
  8
HIDDEN
100
AcDbLine
 10
-54.20803833007812
 20
-35.62762069702148
 30
0.0
 11
-54.03649139404297
 21
-35.64334869384766
 31
0.0
1001
DBPROPERTIES
1002
{
1000
PbHidd
1002
}
  0
LINE
  5
141
330
1F
100
AcDbEntity
  8
HIDDEN
100
AcDbLine
 10
-54.03649139404297
 20
-35.64334869384766
 30
0.0
 11
-53.87493896484375
 21
-35.66041564941406
 31
0.0
1001
DBPROPERTIES
1002
{
1000
PbHidd
1002
}
  0
LINE
  5
142
330
1F
100
AcDbEntity
  8
HIDDEN
100
AcDbLine
 10
-53.87493896484375
 20
-35.66041564941406
 30
0.0
 11
-53.72403717041016
 21
-35.67872619628906
 31
0.0
1001
DBPROPERTIES
1002
{
1000
PbHidd
1002
}
  0
LINE
  5
143
330
1F
100
AcDbEntity
  8
HIDDEN
100
AcDbLine
 10
-53.72403717041016
 20
-35.67872619628906
 30
0.0
 11
-53.58420562744141
 21
-35.69815063476562
 31
0.0
1001
DBPROPERTIES
1002
{
1000
PbHidd
1002
}
  0
LINE
  5
144
330
1F
100
AcDbEntity
  8
HIDDEN
100
AcDbLine
 10
-53.58420562744141
 20
-35.69815063476562
 30
0.0
 11
-53.45570373535156
 21
-35.71855545043945
 31
0.0
1001
DBPROPERTIES
1002
{
1000
PbHidd
1002
}
  0
LINE
  5
145
330
1F
100
AcDbEntity
  8
HIDDEN
100
AcDbLine
 10
-53.45570373535156
 20
-35.71855545043945
 30
0.0
 11
-53.33880615234375
 21
-35.73978424072266
 31
0.0
1001
DBPROPERTIES
1002
{
1000
PbHidd
1002
}
  0
LINE
  5
146
330
1F
100
AcDbEntity
  8
HIDDEN
100
AcDbLine
 10
-53.33880615234375
 20
-35.73978424072266
 30
0.0
 11
-53.23260116577148
 21
-35.76194381713867
 31
0.0
1001
DBPROPERTIES
1002
{
1000
PbHidd
1002
}
  0
LINE
  5
147
330
1F
100
AcDbEntity
  8
HIDDEN
100
AcDbLine
 10
-53.23260116577148
 20
-35.76194381713867
 30
0.0
 11
-53.13520431518555
 21
-35.78544235229492
 31
0.0
1001
DBPROPERTIES
1002
{
1000
PbHidd
1002
}
  0
LINE
  5
148
330
1F
100
AcDbEntity
  8
HIDDEN
100
AcDbLine
 10
-53.13520431518555
 20
-35.78544235229492
 30
0.0
 11
-53.04734420776367
 21
-35.81020736694336
 31
0.0
1001
DBPROPERTIES
1002
{
1000
PbHidd
1002
}
  0
LINE
  5
149
330
1F
100
AcDbEntity
  8
HIDDEN
100
AcDbLine
 10
-53.04734420776367
 20
-35.81020736694336
 30
0.0
 11
-52.96982192993164
 21
-35.83615875244141
 31
0.0
1001
DBPROPERTIES
1002
{
1000
PbHidd
1002
}
  0
LINE
  5
14A
330
1F
100
AcDbEntity
  8
HIDDEN
100
AcDbLine
 10
-52.96982192993164
 20
-35.83615875244141
 30
0.0
 11
-52.90339279174805
 21
-35.86320495605469
 31
0.0
1001
DBPROPERTIES
1002
{
1000
PbHidd
1002
}
  0
LINE
  5
14B
330
1F
100
AcDbEntity
  8
HIDDEN
100
AcDbLine
 10
-52.90339279174805
 20
-35.86320495605469
 30
0.0
 11
-52.84849548339844
 21
-35.8912353515625
 31
0.0
1001
DBPROPERTIES
1002
{
1000
PbHidd
1002
}
  0
LINE
  5
14C
330
1F
100
AcDbEntity
  8
HIDDEN
100
AcDbLine
 10
-52.84849548339844
 20
-35.8912353515625
 30
0.0
 11
-52.80545425415039
 21
-35.92012786865234
 31
0.0
1001
DBPROPERTIES
1002
{
1000
PbHidd
1002
}
  0
LINE
  5
14D
330
1F
100
AcDbEntity
  8
HIDDEN
100
AcDbLine
 10
-52.80545425415039
 20
-35.92012786865234
 30
0.0
 11
-52.77457809448242
 21
-35.94976425170898
 31
0.0
1001
DBPROPERTIES
1002
{
1000
PbHidd
1002
}
  0
LINE
  5
14E
330
1F
100
AcDbEntity
  8
HIDDEN
100
AcDbLine
 10
-52.77457809448242
 20
-35.94976425170898
 30
0.0
 11
-52.75613784790039
 21
-35.98003005981445
 31
0.0
1001
DBPROPERTIES
1002
{
1000
PbHidd
1002
}
  0
LINE
  5
14F
330
1F
100
AcDbEntity
  8
HIDDEN
100
AcDbLine
 10
-52.75613784790039
 20
-35.98003005981445
 30
0.0
 11
-52.75008010864258
 21
-36.01079559326172
 31
0.0
1001
DBPROPERTIES
1002
{
1000
PbHidd
1002
}
  0
LINE
  5
150
330
1F
100
AcDbEntity
  8
THICK
100
AcDbLine
 10
-52.75008010864258
 20
-36.01079559326172
 30
0.0
 11
-52.75595474243164
 21
-36.04110717773438
 31
0.0
1001
DBPROPERTIES
1002
{
1000
PbThick
1002
}
  0
LINE
  5
151
330
1F
100
AcDbEntity
  8
THICK
100
AcDbLine
 10
-52.75595474243164
 20
-36.04110717773438
 30
0.0
 11
-52.77331924438477
 21
-36.07162857055664
 31
0.0
1001
DBPROPERTIES
1002
{
1000
PbThick
1002
}
  0
LINE
  5
152
330
1F
100
AcDbEntity
  8
THICK
100
AcDbLine
 10
-52.77331924438477
 20
-36.07162857055664
 30
0.0
 11
-52.802001953125
 21
-36.10222625732422
 31
0.0
1001
DBPROPERTIES
1002
{
1000
PbThick
1002
}
  0
LINE
  5
153
330
1F
100
AcDbEntity
  8
THICK
100
AcDbLine
 10
-52.802001953125
 20
-36.10222625732422
 30
0.0
 11
-52.84151840209961
 21
-36.13276672363281
 31
0.0
1001
DBPROPERTIES
1002
{
1000
PbThick
1002
}
  0
LINE
  5
154
330
1F
100
AcDbEntity
  8
THICK
100
AcDbLine
 10
-52.84151840209961
 20
-36.13276672363281
 30
0.0
 11
-52.89128875732422
 21
-36.16310501098633
 31
0.0
1001
DBPROPERTIES
1002
{
1000
PbThick
1002
}
  0
LINE
  5
155
330
1F
100
AcDbEntity
  8
THICK
100
AcDbLine
 10
-52.89128875732422
 20
-36.16310501098633
 30
0.0
 11
-52.95072174072266
 21
-36.19309616088867
 31
0.0
1001
DBPROPERTIES
1002
{
1000
PbThick
1002
}
  0
LINE
  5
156
330
1F
100
AcDbEntity
  8
THICK
100
AcDbLine
 10
-52.95072174072266
 20
-36.19309616088867
 30
0.0
 11
-53.01999664306641
 21
-36.22293090820312
 31
0.0
1001
DBPROPERTIES
1002
{
1000
PbThick
1002
}
  0
LINE
  5
157
330
1F
100
AcDbEntity
  8
THICK
100
AcDbLine
 10
-53.01999664306641
 20
-36.22293090820312
 30
0.0
 11
-53.1003532409668
 21
-36.25312042236328
 31
0.0
1001
DBPROPERTIES
1002
{
1000
PbThick
1002
}
  0
LINE
  5
158
330
1F
100
AcDbEntity
  8
THICK
100
AcDbLine
 10
-53.1003532409668
 20
-36.25312042236328
 30
0.0
 11
-53.1917839050293
 21
-36.28354644775391
 31
0.0
1001
DBPROPERTIES
1002
{
1000
PbThick
1002
}
  0
LINE
  5
159
330
1F
100
AcDbEntity
  8
THICK
100
AcDbLine
 10
-53.1917839050293
 20
-36.28354644775391
 30
0.0
 11
-53.29424285888672
 21
-36.31407165527344
 31
0.0
1001
DBPROPERTIES
1002
{
1000
PbThick
1002
}
  0
LINE
  5
15A
330
1F
100
AcDbEntity
  8
THICK
100
AcDbLine
 10
-53.29424285888672
 20
-36.31407165527344
 30
0.0
 11
-53.40766525268555
 21
-36.34456634521484
 31
0.0
1001
DBPROPERTIES
1002
{
1000
PbThick
1002
}
  0
LINE
  5
15B
330
1F
100
AcDbEntity
  8
THICK
100
AcDbLine
 10
-53.40766525268555
 20
-36.34456634521484
 30
0.0
 11
-53.53177642822266
 21
-36.37490081787109
 31
0.0
1001
DBPROPERTIES
1002
{
1000
PbThick
1002
}
  0
LINE
  5
15C
330
1F
100
AcDbEntity
  8
THICK
100
AcDbLine
 10
-53.53177642822266
 20
-36.37490081787109
 30
0.0
 11
-53.66613388061523
 21
-36.40495300292969
 31
0.0
1001
DBPROPERTIES
1002
{
1000
PbThick
1002
}
  0
LINE
  5
15D
330
1F
100
AcDbEntity
  8
THICK
100
AcDbLine
 10
-53.66613388061523
 20
-36.40495300292969
 30
0.0
 11
-53.810302734375
 21
-36.43460845947266
 31
0.0
1001
DBPROPERTIES
1002
{
1000
PbThick
1002
}
  0
LINE
  5
15E
330
1F
100
AcDbEntity
  8
THICK
100
AcDbLine
 10
-53.810302734375
 20
-36.43460845947266
 30
0.0
 11
-53.96384811401367
 21
-36.46373748779297
 31
0.0
1001
DBPROPERTIES
1002
{
1000
PbThick
1002
}
  0
LINE
  5
15F
330
1F
100
AcDbEntity
  8
THICK
100
AcDbLine
 10
-53.96384811401367
 20
-36.46373748779297
 30
0.0
 11
-54.12628173828125
 21
-36.49224853515625
 31
0.0
1001
DBPROPERTIES
1002
{
1000
PbThick
1002
}
  0
LINE
  5
160
330
1F
100
AcDbEntity
  8
THICK
100
AcDbLine
 10
-54.12628173828125
 20
-36.49224853515625
 30
0.0
 11
-54.29689025878906
 21
-36.52004241943359
 31
0.0
1001
DBPROPERTIES
1002
{
1000
PbThick
1002
}
  0
LINE
  5
161
330
1F
100
AcDbEntity
  8
THICK
100
AcDbLine
 10
-54.29689025878906
 20
-36.52004241943359
 30
0.0
 11
-54.47492218017578
 21
-36.54701995849609
 31
0.0
1001
DBPROPERTIES
1002
{
1000
PbThick
1002
}
  0
LINE
  5
162
330
1F
100
AcDbEntity
  8
THICK
100
AcDbLine
 10
-54.47492218017578
 20
-36.54701995849609
 30
0.0
 11
-54.65962600708008
 21
-36.57308197021484
 31
0.0
1001
DBPROPERTIES
1002
{
1000
PbThick
1002
}
  0
LINE
  5
163
330
1F
100
AcDbEntity
  8
THICK
100
AcDbLine
 10
-54.65962600708008
 20
-36.57308197021484
 30
0.0
 11
-54.85017395019531
 21
-36.59812545776367
 31
0.0
1001
DBPROPERTIES
1002
{
1000
PbThick
1002
}
  0
LINE
  5
164
330
1F
100
AcDbEntity
  8
THICK
100
AcDbLine
 10
-54.85017395019531
 20
-36.59812545776367
 30
0.0
 11
-55.04555892944336
 21
-36.62208938598633
 31
0.0
1001
DBPROPERTIES
1002
{
1000
PbThick
1002
}
  0
LINE
  5
165
330
1F
100
AcDbEntity
  8
THICK
100
AcDbLine
 10
-55.04555892944336
 20
-36.62208938598633
 30
0.0
 11
-55.24474716186523
 21
-36.64490127563477
 31
0.0
1001
DBPROPERTIES
1002
{
1000
PbThick
1002
}
  0
LINE
  5
166
330
1F
100
AcDbEntity
  8
THICK
100
AcDbLine
 10
-55.24474716186523
 20
-36.64490127563477
 30
0.0
 11
-55.44671249389648
 21
-36.66648864746094
 31
0.0
1001
DBPROPERTIES
1002
{
1000
PbThick
1002
}
  0
LINE
  5
167
330
1F
100
AcDbEntity
  8
THICK
100
AcDbLine
 10
-55.44671249389648
 20
-36.66648864746094
 30
0.0
 11
-55.65373992919922
 21
-36.68711090087891
 31
0.0
1001
DBPROPERTIES
1002
{
1000
PbThick
1002
}
  0
LINE
  5
168
330
1F
100
AcDbEntity
  8
THICK
100
AcDbLine
 10
-55.65373992919922
 20
-36.68711090087891
 30
0.0
 11
-55.86819839477539
 21
-36.70699691772461
 31
0.0
1001
DBPROPERTIES
1002
{
1000
PbThick
1002
}
  0
LINE
  5
169
330
1F
100
AcDbEntity
  8
THICK
100
AcDbLine
 10
-55.86819839477539
 20
-36.70699691772461
 30
0.0
 11
-56.08927917480469
 21
-36.72602462768555
 31
0.0
1001
DBPROPERTIES
1002
{
1000
PbThick
1002
}
  0
LINE
  5
16A
330
1F
100
AcDbEntity
  8
THICK
100
AcDbLine
 10
-56.08927917480469
 20
-36.72602462768555
 30
0.0
 11
-56.31616973876953
 21
-36.74407196044922
 31
0.0
1001
DBPROPERTIES
1002
{
1000
PbThick
1002
}
  0
LINE
  5
16B
330
1F
100
AcDbEntity
  8
THICK
100
AcDbLine
 10
-56.31616973876953
 20
-36.74407196044922
 30
0.0
 11
-56.54804611206055
 21
-36.76102447509766
 31
0.0
1001
DBPROPERTIES
1002
{
1000
PbThick
1002
}
  0
LINE
  5
16C
330
1F
100
AcDbEntity
  8
THICK
100
AcDbLine
 10
-56.54804611206055
 20
-36.76102447509766
 30
0.0
 11
-56.78400039672852
 21
-36.77680587768555
 31
0.0
1001
DBPROPERTIES
1002
{
1000
PbThick
1002
}
  0
LINE
  5
16D
330
1F
100
AcDbEntity
  8
THICK
100
AcDbLine
 10
-56.78400039672852
 20
-36.77680587768555
 30
0.0
 11
-57.02309036254883
 21
-36.79133987426758
 31
0.0
1001
DBPROPERTIES
1002
{
1000
PbThick
1002
}
  0
LINE
  5
16E
330
1F
100
AcDbEntity
  8
THICK
100
AcDbLine
 10
-57.02309036254883
 20
-36.79133987426758
 30
0.0
 11
-57.26437759399414
 21
-36.80455780029297
 31
0.0
1001
DBPROPERTIES
1002
{
1000
PbThick
1002
}
  0
LINE
  5
16F
330
1F
100
AcDbEntity
  8
THICK
100
AcDbLine
 10
-57.26437759399414
 20
-36.80455780029297
 30
0.0
 11
-57.50695419311523
 21
-36.81639862060547
 31
0.0
1001
DBPROPERTIES
1002
{
1000
PbThick
1002
}
  0
LINE
  5
170
330
1F
100
AcDbEntity
  8
THICK
100
AcDbLine
 10
-57.50695419311523
 20
-36.81639862060547
 30
0.0
 11
-57.75
 21
-36.82681655883789
 31
0.0
1001
DBPROPERTIES
1002
{
1000
PbThick
1002
}
  0
LINE
  5
171
330
1F
100
AcDbEntity
  8
THICK
100
AcDbLine
 10
-188.6
 20
-56.94999999999999
 30
0.0
 11
-0.0000000000000376
 21
-56.94999999999999
 31
0.0
1001
DBPROPERTIES
1002
{
1000
PbThick
1002
}
  0
LINE
  5
172
330
1F
100
AcDbEntity
  8
THICK
100
AcDbLine
 10
-168.1
 20
-48.75
 30
0.0
 11
-61.74999991556724
 21
-48.75
 31
0.0
1001
DBPROPERTIES
1002
{
1000
PbThick
1002
}
  0
LINE
  5
173
330
1F
100
AcDbEntity
  8
HIDDEN
100
AcDbLine
 10
-61.74999991556724
 20
-48.75
 30
0.0
 11
-53.74999994423963
 21
-48.75
 31
0.0
1001
DBPROPERTIES
1002
{
1000
PbHidd
1002
}
  0
LINE
  5
174
330
1F
100
AcDbEntity
  8
THICK
100
AcDbLine
 10
-53.74999994423963
 20
-48.75
 30
0.0
 11
-0.0000000000000339
 21
-48.75
 31
0.0
1001
DBPROPERTIES
1002
{
1000
PbThick
1002
}
  0
LINE
  5
175
330
1F
100
AcDbEntity
  8
THICK
100
AcDbLine
 10
-57.75000381469727
 20
-56.83924865722656
 30
0.0
 11
-58.04965591430664
 21
-56.87267684936523
 31
0.0
1001
DBPROPERTIES
1002
{
1000
PbThick
1002
}
  0
LINE
  5
176
330
1F
100
AcDbEntity
  8
THICK
100
AcDbLine
 10
-58.04965591430664
 20
-56.87267684936523
 30
0.0
 11
-58.34727096557617
 21
-56.89926528930664
 31
0.0
1001
DBPROPERTIES
1002
{
1000
PbThick
1002
}
  0
LINE
  5
177
330
1F
100
AcDbEntity
  8
THICK
100
AcDbLine
 10
-58.34727096557617
 20
-56.89926528930664
 30
0.0
 11
-58.64097595214844
 21
-56.91888046264648
 31
0.0
1001
DBPROPERTIES
1002
{
1000
PbThick
1002
}
  0
LINE
  5
178
330
1F
100
AcDbEntity
  8
THICK
100
AcDbLine
 10
-58.64097595214844
 20
-56.91888046264648
 30
0.0
 11
-58.928955078125
 21
-56.93162155151367
 31
0.0
1001
DBPROPERTIES
1002
{
1000
PbThick
1002
}
  0
LINE
  5
179
330
1F
100
AcDbEntity
  8
THICK
100
AcDbLine
 10
-58.928955078125
 20
-56.93162155151367
 30
0.0
 11
-59.20940780639648
 21
-56.93763732910156
 31
0.0
1001
DBPROPERTIES
1002
{
1000
PbThick
1002
}
  0
LINE
  5
17A
330
1F
100
AcDbEntity
  8
THICK
100
AcDbLine
 10
-59.20940780639648
 20
-56.93763732910156
 30
0.0
 11
-59.48218154907227
 21
-56.93707656860352
 31
0.0
1001
DBPROPERTIES
1002
{
1000
PbThick
1002
}
  0
LINE
  5
17B
330
1F
100
AcDbEntity
  8
THICK
100
AcDbLine
 10
-59.48218154907227
 20
-56.93707656860352
 30
0.0
 11
-59.75248718261719
 21
-56.92991638183594
 31
0.0
1001
DBPROPERTIES
1002
{
1000
PbThick
1002
}
  0
LINE
  5
17C
330
1F
100
AcDbEntity
  8
THICK
100
AcDbLine
 10
-59.75248718261719
 20
-56.92991638183594
 30
0.0
 11
-60.01911163330078
 21
-56.91601181030273
 31
0.0
1001
DBPROPERTIES
1002
{
1000
PbThick
1002
}
  0
LINE
  5
17D
330
1F
100
AcDbEntity
  8
THICK
100
AcDbLine
 10
-60.01911163330078
 20
-56.91601181030273
 30
0.0
 11
-60.28000640869141
 21
-56.89519882202148
 31
0.0
1001
DBPROPERTIES
1002
{
1000
PbThick
1002
}
  0
LINE
  5
17E
330
1F
100
AcDbEntity
  8
THICK
100
AcDbLine
 10
-60.28000640869141
 20
-56.89519882202148
 30
0.0
 11
-60.53326034545898
 21
-56.86742782592773
 31
0.0
1001
DBPROPERTIES
1002
{
1000
PbThick
1002
}
  0
LINE
  5
17F
330
1F
100
AcDbEntity
  8
THICK
100
AcDbLine
 10
-60.53326034545898
 20
-56.86742782592773
 30
0.0
 11
-60.77725601196289
 21
-56.83283996582031
 31
0.0
1001
DBPROPERTIES
1002
{
1000
PbThick
1002
}
  0
LINE
  5
180
330
1F
100
AcDbEntity
  8
THICK
100
AcDbLine
 10
-60.77725601196289
 20
-56.83283996582031
 30
0.0
 11
-61.01041412353516
 21
-56.79162979125977
 31
0.0
1001
DBPROPERTIES
1002
{
1000
PbThick
1002
}
  0
LINE
  5
181
330
1F
100
AcDbEntity
  8
THICK
100
AcDbLine
 10
-61.01041412353516
 20
-56.79162979125977
 30
0.0
 11
-61.23129272460938
 21
-56.74397659301758
 31
0.0
1001
DBPROPERTIES
1002
{
1000
PbThick
1002
}
  0
LINE
  5
182
330
1F
100
AcDbEntity
  8
THICK
100
AcDbLine
 10
-61.23129272460938
 20
-56.74397659301758
 30
0.0
 11
-61.43887329101562
 21
-56.69022369384766
 31
0.0
1001
DBPROPERTIES
1002
{
1000
PbThick
1002
}
  0
LINE
  5
183
330
1F
100
AcDbEntity
  8
THICK
100
AcDbLine
 10
-61.43887329101562
 20
-56.69022369384766
 30
0.0
 11
-61.63215637207031
 21
-56.63083648681641
 31
0.0
1001
DBPROPERTIES
1002
{
1000
PbThick
1002
}
  0
LINE
  5
184
330
1F
100
AcDbEntity
  8
THICK
100
AcDbLine
 10
-61.63215637207031
 20
-56.63083648681641
 30
0.0
 11
-61.81013870239258
 21
-56.56626510620117
 31
0.0
1001
DBPROPERTIES
1002
{
1000
PbThick
1002
}
  0
LINE
  5
185
330
1F
100
AcDbEntity
  8
THICK
100
AcDbLine
 10
-61.81013870239258
 20
-56.56626510620117
 30
0.0
 11
-61.97211074829102
 21
-56.49708557128906
 31
0.0
1001
DBPROPERTIES
1002
{
1000
PbThick
1002
}
  0
LINE
  5
186
330
1F
100
AcDbEntity
  8
THICK
100
AcDbLine
 10
-61.97211074829102
 20
-56.49708557128906
 30
0.0
 11
-62.11776351928711
 21
-56.42401123046875
 31
0.0
1001
DBPROPERTIES
1002
{
1000
PbThick
1002
}
  0
LINE
  5
187
330
1F
100
AcDbEntity
  8
THICK
100
AcDbLine
 10
-62.11776351928711
 20
-56.42401123046875
 30
0.0
 11
-62.246826171875
 21
-56.34777069091797
 31
0.0
1001
DBPROPERTIES
1002
{
1000
PbThick
1002
}
  0
LINE
  5
188
330
1F
100
AcDbEntity
  8
THICK
100
AcDbLine
 10
-62.246826171875
 20
-56.34777069091797
 30
0.0
 11
-62.36119842529297
 21
-56.26758193969727
 31
0.0
1001
DBPROPERTIES
1002
{
1000
PbThick
1002
}
  0
LINE
  5
189
330
1F
100
AcDbEntity
  8
THICK
100
AcDbLine
 10
-62.36119842529297
 20
-56.26758193969727
 30
0.0
 11
-62.46243667602539
 21
-56.18233871459961
 31
0.0
1001
DBPROPERTIES
1002
{
1000
PbThick
1002
}
  0
LINE
  5
18A
330
1F
100
AcDbEntity
  8
THICK
100
AcDbLine
 10
-62.46243667602539
 20
-56.18233871459961
 30
0.0
 11
-62.5495719909668
 21
-56.0924186706543
 31
0.0
1001
DBPROPERTIES
1002
{
1000
PbThick
1002
}
  0
LINE
  5
18B
330
1F
100
AcDbEntity
  8
THICK
100
AcDbLine
 10
-62.5495719909668
 20
-56.0924186706543
 30
0.0
 11
-62.62163543701172
 21
-55.99820709228516
 31
0.0
1001
DBPROPERTIES
1002
{
1000
PbThick
1002
}
  0
LINE
  5
18C
330
1F
100
AcDbEntity
  8
THICK
100
AcDbLine
 10
-62.62163543701172
 20
-55.99820709228516
 30
0.0
 11
-62.67798233032227
 21
-55.900146484375
 31
0.0
1001
DBPROPERTIES
1002
{
1000
PbThick
1002
}
  0
LINE
  5
18D
330
1F
100
AcDbEntity
  8
THICK
100
AcDbLine
 10
-62.67798233032227
 20
-55.900146484375
 30
0.0
 11
-62.71832275390625
 21
-55.79875564575195
 31
0.0
1001
DBPROPERTIES
1002
{
1000
PbThick
1002
}
  0
LINE
  5
18E
330
1F
100
AcDbEntity
  8
THICK
100
AcDbLine
 10
-62.71832275390625
 20
-55.79875564575195
 30
0.0
 11
-62.74237442016602
 21
-55.69456100463867
 31
0.0
1001
DBPROPERTIES
1002
{
1000
PbThick
1002
}
  0
LINE
  5
18F
330
1F
100
AcDbEntity
  8
THICK
100
AcDbLine
 10
-62.74237442016602
 20
-55.69456100463867
 30
0.0
 11
-62.74994659423828
 21
-55.58805465698242
 31
0.0
1001
DBPROPERTIES
1002
{
1000
PbThick
1002
}
  0
LINE
  5
190
330
1F
100
AcDbEntity
  8
THICK
100
AcDbLine
 10
-62.74994659423828
 20
-55.58805465698242
 30
0.0
 11
-62.74065780639648
 21
-55.4759521484375
 31
0.0
1001
DBPROPERTIES
1002
{
1000
PbThick
1002
}
  0
LINE
  5
191
330
1F
100
AcDbEntity
  8
THICK
100
AcDbLine
 10
-62.74065780639648
 20
-55.4759521484375
 30
0.0
 11
-62.71433258056641
 21
-55.36262893676758
 31
0.0
1001
DBPROPERTIES
1002
{
1000
PbThick
1002
}
  0
LINE
  5
192
330
1F
100
AcDbEntity
  8
THICK
100
AcDbLine
 10
-62.71433258056641
 20
-55.36262893676758
 30
0.0
 11
-62.6713752746582
 21
-55.24875640869141
 31
0.0
1001
DBPROPERTIES
1002
{
1000
PbThick
1002
}
  0
LINE
  5
193
330
1F
100
AcDbEntity
  8
THICK
100
AcDbLine
 10
-62.6713752746582
 20
-55.24875640869141
 30
0.0
 11
-62.61250305175781
 21
-55.13503265380859
 31
0.0
1001
DBPROPERTIES
1002
{
1000
PbThick
1002
}
  0
LINE
  5
194
330
1F
100
AcDbEntity
  8
THICK
100
AcDbLine
 10
-62.61250305175781
 20
-55.13503265380859
 30
0.0
 11
-62.53883743286133
 21
-55.02218627929688
 31
0.0
1001
DBPROPERTIES
1002
{
1000
PbThick
1002
}
  0
LINE
  5
195
330
1F
100
AcDbEntity
  8
THICK
100
AcDbLine
 10
-62.53883743286133
 20
-55.02218627929688
 30
0.0
 11
-62.45153045654297
 21
-54.91095352172852
 31
0.0
1001
DBPROPERTIES
1002
{
1000
PbThick
1002
}
  0
LINE
  5
196
330
1F
100
AcDbEntity
  8
THICK
100
AcDbLine
 10
-62.45153045654297
 20
-54.91095352172852
 30
0.0
 11
-62.36475372314453
 21
-54.81533813476562
 31
0.0
1001
DBPROPERTIES
1002
{
1000
PbThick
1002
}
  0
LINE
  5
197
330
1F
100
AcDbEntity
  8
THICK
100
AcDbLine
 10
-62.36475372314453
 20
-54.81533813476562
 30
0.0
 11
-62.26579666137695
 21
-54.71841430664062
 31
0.0
1001
DBPROPERTIES
1002
{
1000
PbThick
1002
}
  0
LINE
  5
198
330
1F
100
AcDbEntity
  8
THICK
100
AcDbLine
 10
-62.26579666137695
 20
-54.71841430664062
 30
0.0
 11
-62.15471267700195
 21
-54.62066650390625
 31
0.0
1001
DBPROPERTIES
1002
{
1000
PbThick
1002
}
  0
LINE
  5
199
330
1F
100
AcDbEntity
  8
THICK
100
AcDbLine
 10
-62.15471267700195
 20
-54.62066650390625
 30
0.0
 11
-62.03156661987305
 21
-54.5225715637207
 31
0.0
1001
DBPROPERTIES
1002
{
1000
PbThick
1002
}
  0
LINE
  5
19A
330
1F
100
AcDbEntity
  8
THICK
100
AcDbLine
 10
-62.03156661987305
 20
-54.5225715637207
 30
0.0
 11
-61.89651489257812
 21
-54.42460250854492
 31
0.0
1001
DBPROPERTIES
1002
{
1000
PbThick
1002
}
  0
LINE
  5
19B
330
1F
100
AcDbEntity
  8
THICK
100
AcDbLine
 10
-61.89651489257812
 20
-54.42460250854492
 30
0.0
 11
-61.75
 21
-54.32721328735352
 31
0.0
1001
DBPROPERTIES
1002
{
1000
PbThick
1002
}
  0
LINE
  5
19C
330
1F
100
AcDbEntity
  8
HIDDEN
100
AcDbLine
 10
-61.75
 20
-54.32721328735352
 30
0.0
 11
-61.5284538269043
 21
-54.19378662109375
 31
0.0
1001
DBPROPERTIES
1002
{
1000
PbHidd
1002
}
  0
LINE
  5
19D
330
1F
100
AcDbEntity
  8
HIDDEN
100
AcDbLine
 10
-61.5284538269043
 20
-54.19378662109375
 30
0.0
 11
-61.28707885742188
 21
-54.06351852416992
 31
0.0
1001
DBPROPERTIES
1002
{
1000
PbHidd
1002
}
  0
LINE
  5
19E
330
1F
100
AcDbEntity
  8
HIDDEN
100
AcDbLine
 10
-61.28707885742188
 20
-54.06351852416992
 30
0.0
 11
-61.02762603759766
 21
-53.93743515014648
 31
0.0
1001
DBPROPERTIES
1002
{
1000
PbHidd
1002
}
  0
LINE
  5
19F
330
1F
100
AcDbEntity
  8
HIDDEN
100
AcDbLine
 10
-61.02762603759766
 20
-53.93743515014648
 30
0.0
 11
-60.75234603881836
 21
-53.81658172607422
 31
0.0
1001
DBPROPERTIES
1002
{
1000
PbHidd
1002
}
  0
LINE
  5
1A0
330
1F
100
AcDbEntity
  8
HIDDEN
100
AcDbLine
 10
-60.75234603881836
 20
-53.81658172607422
 30
0.0
 11
-60.46359634399414
 21
-53.70198822021484
 31
0.0
1001
DBPROPERTIES
1002
{
1000
PbHidd
1002
}
  0
LINE
  5
1A1
330
1F
100
AcDbEntity
  8
HIDDEN
100
AcDbLine
 10
-60.46359634399414
 20
-53.70198822021484
 30
0.0
 11
-60.16428756713867
 21
-53.59450149536133
 31
0.0
1001
DBPROPERTIES
1002
{
1000
PbHidd
1002
}
  0
LINE
  5
1A2
330
1F
100
AcDbEntity
  8
HIDDEN
100
AcDbLine
 10
-60.16428756713867
 20
-53.59450149536133
 30
0.0
 11
-59.85756301879883
 21
-53.49489974975586
 31
0.0
1001
DBPROPERTIES
1002
{
1000
PbHidd
1002
}
  0
LINE
  5
1A3
330
1F
100
AcDbEntity
  8
HIDDEN
100
AcDbLine
 10
-59.85756301879883
 20
-53.49489974975586
 30
0.0
 11
-59.53815841674805
 21
-53.40150833129883
 31
0.0
1001
DBPROPERTIES
1002
{
1000
PbHidd
1002
}
  0
LINE
  5
1A4
330
1F
100
AcDbEntity
  8
HIDDEN
100
AcDbLine
 10
-59.53815841674805
 20
-53.40150833129883
 30
0.0
 11
-59.20165634155273
 21
-53.3134651184082
 31
0.0
1001
DBPROPERTIES
1002
{
1000
PbHidd
1002
}
  0
LINE
  5
1A5
330
1F
100
AcDbEntity
  8
HIDDEN
100
AcDbLine
 10
-59.20165634155273
 20
-53.3134651184082
 30
0.0
 11
-58.85114288330078
 21
-53.23234939575195
 31
0.0
1001
DBPROPERTIES
1002
{
1000
PbHidd
1002
}
  0
LINE
  5
1A6
330
1F
100
AcDbEntity
  8
HIDDEN
100
AcDbLine
 10
-58.85114288330078
 20
-53.23234939575195
 30
0.0
 11
-58.48996353149414
 21
-53.15948867797852
 31
0.0
1001
DBPROPERTIES
1002
{
1000
PbHidd
1002
}
  0
LINE
  5
1A7
330
1F
100
AcDbEntity
  8
HIDDEN
100
AcDbLine
 10
-58.48996353149414
 20
-53.15948867797852
 30
0.0
 11
-58.12174987792969
 21
-53.09590530395508
 31
0.0
1001
DBPROPERTIES
1002
{
1000
PbHidd
1002
}
  0
LINE
  5
1A8
330
1F
100
AcDbEntity
  8
HIDDEN
100
AcDbLine
 10
-58.12174987792969
 20
-53.09590530395508
 30
0.0
 11
-57.74999618530273
 21
-53.04253387451172
 31
0.0
1001
DBPROPERTIES
1002
{
1000
PbHidd
1002
}
  0
LINE
  5
1A9
330
1F
100
AcDbEntity
  8
HIDDEN
100
AcDbLine
 10
-57.74999618530273
 20
-53.04253387451172
 30
0.0
 11
-57.38882446289062
 21
-53.00095748901367
 31
0.0
1001
DBPROPERTIES
1002
{
1000
PbHidd
1002
}
  0
LINE
  5
1AA
330
1F
100
AcDbEntity
  8
HIDDEN
100
AcDbLine
 10
-57.38882446289062
 20
-53.00095748901367
 30
0.0
 11
-57.0311393737793
 21
-52.96986389160156
 31
0.0
1001
DBPROPERTIES
1002
{
1000
PbHidd
1002
}
  0
LINE
  5
1AB
330
1F
100
AcDbEntity
  8
HIDDEN
100
AcDbLine
 10
-57.0311393737793
 20
-52.96986389160156
 30
0.0
 11
-56.68043518066406
 21
-52.94943618774414
 31
0.0
1001
DBPROPERTIES
1002
{
1000
PbHidd
1002
}
  0
LINE
  5
1AC
330
1F
100
AcDbEntity
  8
HIDDEN
100
AcDbLine
 10
-56.68043518066406
 20
-52.94943618774414
 30
0.0
 11
-56.34010314941406
 21
-52.93941116333008
 31
0.0
1001
DBPROPERTIES
1002
{
1000
PbHidd
1002
}
  0
LINE
  5
1AD
330
1F
100
AcDbEntity
  8
HIDDEN
100
AcDbLine
 10
-56.34010314941406
 20
-52.93941116333008
 30
0.0
 11
-56.01151657104492
 21
-52.93947601318359
 31
0.0
1001
DBPROPERTIES
1002
{
1000
PbHidd
1002
}
  0
LINE
  5
1AE
330
1F
100
AcDbEntity
  8
HIDDEN
100
AcDbLine
 10
-56.01151657104492
 20
-52.93947601318359
 30
0.0
 11
-55.68657302856445
 21
-52.94963455200195
 31
0.0
1001
DBPROPERTIES
1002
{
1000
PbHidd
1002
}
  0
LINE
  5
1AF
330
1F
100
AcDbEntity
  8
HIDDEN
100
AcDbLine
 10
-55.68657302856445
 20
-52.94963455200195
 30
0.0
 11
-55.36723709106445
 21
-52.9702033996582
 31
0.0
1001
DBPROPERTIES
1002
{
1000
PbHidd
1002
}
  0
LINE
  5
1B0
330
1F
100
AcDbEntity
  8
HIDDEN
100
AcDbLine
 10
-55.36723709106445
 20
-52.9702033996582
 30
0.0
 11
-55.05730819702148
 21
-53.00143814086914
 31
0.0
1001
DBPROPERTIES
1002
{
1000
PbHidd
1002
}
  0
LINE
  5
1B1
330
1F
100
AcDbEntity
  8
HIDDEN
100
AcDbLine
 10
-55.05730819702148
 20
-53.00143814086914
 30
0.0
 11
-54.760009765625
 21
-53.04315185546875
 31
0.0
1001
DBPROPERTIES
1002
{
1000
PbHidd
1002
}
  0
LINE
  5
1B2
330
1F
100
AcDbEntity
  8
HIDDEN
100
AcDbLine
 10
-54.760009765625
 20
-53.04315185546875
 30
0.0
 11
-54.47835540771484
 21
-53.09497833251953
 31
0.0
1001
DBPROPERTIES
1002
{
1000
PbHidd
1002
}
  0
LINE
  5
1B3
330
1F
100
AcDbEntity
  8
HIDDEN
100
AcDbLine
 10
-54.47835540771484
 20
-53.09497833251953
 30
0.0
 11
-54.21484756469727
 21
-53.15644836425781
 31
0.0
1001
DBPROPERTIES
1002
{
1000
PbHidd
1002
}
  0
LINE
  5
1B4
330
1F
100
AcDbEntity
  8
HIDDEN
100
AcDbLine
 10
-54.21484756469727
 20
-53.15644836425781
 30
0.0
 11
-53.97142791748047
 21
-53.22672271728516
 31
0.0
1001
DBPROPERTIES
1002
{
1000
PbHidd
1002
}
  0
LINE
  5
1B5
330
1F
100
AcDbEntity
  8
HIDDEN
100
AcDbLine
 10
-53.97142791748047
 20
-53.22672271728516
 30
0.0
 11
-53.75001907348633
 21
-53.30485534667969
 31
0.0
1001
DBPROPERTIES
1002
{
1000
PbHidd
1002
}
  0
LINE
  5
1B6
330
1F
100
AcDbEntity
  8
THICK
100
AcDbLine
 10
-53.75001907348633
 20
-53.30485534667969
 30
0.0
 11
-53.54268646240234
 21
-53.3940544128418
 31
0.0
1001
DBPROPERTIES
1002
{
1000
PbThick
1002
}
  0
LINE
  5
1B7
330
1F
100
AcDbEntity
  8
THICK
100
AcDbLine
 10
-53.54268646240234
 20
-53.3940544128418
 30
0.0
 11
-53.3618278503418
 21
-53.48895263671875
 31
0.0
1001
DBPROPERTIES
1002
{
1000
PbThick
1002
}
  0
LINE
  5
1B8
330
1F
100
AcDbEntity
  8
THICK
100
AcDbLine
 10
-53.3618278503418
 20
-53.48895263671875
 30
0.0
 11
-53.20474624633789
 21
-53.5900993347168
 31
0.0
1001
DBPROPERTIES
1002
{
1000
PbThick
1002
}
  0
LINE
  5
1B9
330
1F
100
AcDbEntity
  8
THICK
100
AcDbLine
 10
-53.20474624633789
 20
-53.5900993347168
 30
0.0
 11
-53.06821441650391
 21
-53.69945907592773
 31
0.0
1001
DBPROPERTIES
1002
{
1000
PbThick
1002
}
  0
LINE
  5
1BA
330
1F
100
AcDbEntity
  8
THICK
100
AcDbLine
 10
-53.06821441650391
 20
-53.69945907592773
 30
0.0
 11
-52.95432281494141
 21
-53.81623077392578
 31
0.0
1001
DBPROPERTIES
1002
{
1000
PbThick
1002
}
  0
LINE
  5
1BB
330
1F
100
AcDbEntity
  8
THICK
100
AcDbLine
 10
-52.95432281494141
 20
-53.81623077392578
 30
0.0
 11
-52.86482620239258
 21
-53.93951416015625
 31
0.0
1001
DBPROPERTIES
1002
{
1000
PbThick
1002
}
  0
LINE
  5
1BC
330
1F
100
AcDbEntity
  8
THICK
100
AcDbLine
 10
-52.86482620239258
 20
-53.93951416015625
 30
0.0
 11
-52.80057525634766
 21
-54.06821823120117
 31
0.0
1001
DBPROPERTIES
1002
{
1000
PbThick
1002
}
  0
LINE
  5
1BD
330
1F
100
AcDbEntity
  8
THICK
100
AcDbLine
 10
-52.80057525634766
 20
-54.06821823120117
 30
0.0
 11
-52.76227569580078
 21
-54.20123291015625
 31
0.0
1001
DBPROPERTIES
1002
{
1000
PbThick
1002
}
  0
LINE
  5
1BE
330
1F
100
AcDbEntity
  8
THICK
100
AcDbLine
 10
-52.76227569580078
 20
-54.20123291015625
 30
0.0
 11
-52.75008392333984
 21
-54.33747482299805
 31
0.0
1001
DBPROPERTIES
1002
{
1000
PbThick
1002
}
  0
LINE
  5
1BF
330
1F
100
AcDbEntity
  8
THICK
100
AcDbLine
 10
-52.75008392333984
 20
-54.33747482299805
 30
0.0
 11
-52.76045608520508
 21
-54.45853424072266
 31
0.0
1001
DBPROPERTIES
1002
{
1000
PbThick
1002
}
  0
LINE
  5
1C0
330
1F
100
AcDbEntity
  8
THICK
100
AcDbLine
 10
-52.76045608520508
 20
-54.45853424072266
 30
0.0
 11
-52.79007339477539
 21
-54.58024597167969
 31
0.0
1001
DBPROPERTIES
1002
{
1000
PbThick
1002
}
  0
LINE
  5
1C1
330
1F
100
AcDbEntity
  8
THICK
100
AcDbLine
 10
-52.79007339477539
 20
-54.58024597167969
 30
0.0
 11
-52.83816146850586
 21
-54.70173263549805
 31
0.0
1001
DBPROPERTIES
1002
{
1000
PbThick
1002
}
  0
LINE
  5
1C2
330
1F
100
AcDbEntity
  8
THICK
100
AcDbLine
 10
-52.83816146850586
 20
-54.70173263549805
 30
0.0
 11
-52.90341949462891
 21
-54.82206726074219
 31
0.0
1001
DBPROPERTIES
1002
{
1000
PbThick
1002
}
  0
LINE
  5
1C3
330
1F
100
AcDbEntity
  8
THICK
100
AcDbLine
 10
-52.90341949462891
 20
-54.82206726074219
 30
0.0
 11
-52.98464202880859
 21
-54.94050979614258
 31
0.0
1001
DBPROPERTIES
1002
{
1000
PbThick
1002
}
  0
LINE
  5
1C4
330
1F
100
AcDbEntity
  8
THICK
100
AcDbLine
 10
-52.98464202880859
 20
-54.94050979614258
 30
0.0
 11
-53.08361053466797
 21
-55.05988311767578
 31
0.0
1001
DBPROPERTIES
1002
{
1000
PbThick
1002
}
  0
LINE
  5
1C5
330
1F
100
AcDbEntity
  8
THICK
100
AcDbLine
 10
-53.08361053466797
 20
-55.05988311767578
 30
0.0
 11
-53.20133209228516
 21
-55.18080902099609
 31
0.0
1001
DBPROPERTIES
1002
{
1000
PbThick
1002
}
  0
LINE
  5
1C6
330
1F
100
AcDbEntity
  8
THICK
100
AcDbLine
 10
-53.20133209228516
 20
-55.18080902099609
 30
0.0
 11
-53.33781051635742
 21
-55.30240249633789
 31
0.0
1001
DBPROPERTIES
1002
{
1000
PbThick
1002
}
  0
LINE
  5
1C7
330
1F
100
AcDbEntity
  8
THICK
100
AcDbLine
 10
-53.33781051635742
 20
-55.30240249633789
 30
0.0
 11
-53.49288940429688
 21
-55.42378234863281
 31
0.0
1001
DBPROPERTIES
1002
{
1000
PbThick
1002
}
  0
LINE
  5
1C8
330
1F
100
AcDbEntity
  8
THICK
100
AcDbLine
 10
-53.49288940429688
 20
-55.42378234863281
 30
0.0
 11
-53.66584777832031
 21
-55.54412460327148
 31
0.0
1001
DBPROPERTIES
1002
{
1000
PbThick
1002
}
  0
LINE
  5
1C9
330
1F
100
AcDbEntity
  8
THICK
100
AcDbLine
 10
-53.66584777832031
 20
-55.54412460327148
 30
0.0
 11
-53.85585403442383
 21
-55.6626091003418
 31
0.0
1001
DBPROPERTIES
1002
{
1000
PbThick
1002
}
  0
LINE
  5
1CA
330
1F
100
AcDbEntity
  8
THICK
100
AcDbLine
 10
-53.85585403442383
 20
-55.6626091003418
 30
0.0
 11
-54.06206130981445
 21
-55.77845001220703
 31
0.0
1001
DBPROPERTIES
1002
{
1000
PbThick
1002
}
  0
LINE
  5
1CB
330
1F
100
AcDbEntity
  8
THICK
100
AcDbLine
 10
-54.06206130981445
 20
-55.77845001220703
 30
0.0
 11
-54.28324508666992
 21
-55.8909912109375
 31
0.0
1001
DBPROPERTIES
1002
{
1000
PbThick
1002
}
  0
LINE
  5
1CC
330
1F
100
AcDbEntity
  8
THICK
100
AcDbLine
 10
-54.28324508666992
 20
-55.8909912109375
 30
0.0
 11
-54.51789093017578
 21
-55.99951934814453
 31
0.0
1001
DBPROPERTIES
1002
{
1000
PbThick
1002
}
  0
LINE
  5
1CD
330
1F
100
AcDbEntity
  8
THICK
100
AcDbLine
 10
-54.51789093017578
 20
-55.99951934814453
 30
0.0
 11
-54.76445388793945
 21
-56.10334396362305
 31
0.0
1001
DBPROPERTIES
1002
{
1000
PbThick
1002
}
  0
LINE
  5
1CE
330
1F
100
AcDbEntity
  8
THICK
100
AcDbLine
 10
-54.76445388793945
 20
-56.10334396362305
 30
0.0
 11
-55.02103424072266
 21
-56.20186614990234
 31
0.0
1001
DBPROPERTIES
1002
{
1000
PbThick
1002
}
  0
LINE
  5
1CF
330
1F
100
AcDbEntity
  8
THICK
100
AcDbLine
 10
-55.02103424072266
 20
-56.20186614990234
 30
0.0
 11
-55.28547668457031
 21
-56.29457473754883
 31
0.0
1001
DBPROPERTIES
1002
{
1000
PbThick
1002
}
  0
LINE
  5
1D0
330
1F
100
AcDbEntity
  8
THICK
100
AcDbLine
 10
-55.28547668457031
 20
-56.29457473754883
 30
0.0
 11
-55.55655670166016
 21
-56.38125228881836
 31
0.0
1001
DBPROPERTIES
1002
{
1000
PbThick
1002
}
  0
LINE
  5
1D1
330
1F
100
AcDbEntity
  8
THICK
100
AcDbLine
 10
-55.55655670166016
 20
-56.38125228881836
 30
0.0
 11
-55.84081268310547
 21
-56.46390533447266
 31
0.0
1001
DBPROPERTIES
1002
{
1000
PbThick
1002
}
  0
LINE
  5
1D2
330
1F
100
AcDbEntity
  8
THICK
100
AcDbLine
 10
-55.84081268310547
 20
-56.46390533447266
 30
0.0
 11
-56.13831329345703
 21
-56.54220962524414
 31
0.0
1001
DBPROPERTIES
1002
{
1000
PbThick
1002
}
  0
LINE
  5
1D3
330
1F
100
AcDbEntity
  8
THICK
100
AcDbLine
 10
-56.13831329345703
 20
-56.54220962524414
 30
0.0
 11
-56.44708251953125
 21
-56.61518859863281
 31
0.0
1001
DBPROPERTIES
1002
{
1000
PbThick
1002
}
  0
LINE
  5
1D4
330
1F
100
AcDbEntity
  8
THICK
100
AcDbLine
 10
-56.44708251953125
 20
-56.61518859863281
 30
0.0
 11
-56.76498413085938
 21
-56.68199157714844
 31
0.0
1001
DBPROPERTIES
1002
{
1000
PbThick
1002
}
  0
LINE
  5
1D5
330
1F
100
AcDbEntity
  8
THICK
100
AcDbLine
 10
-56.76498413085938
 20
-56.68199157714844
 30
0.0
 11
-57.08965301513672
 21
-56.74198913574219
 31
0.0
1001
DBPROPERTIES
1002
{
1000
PbThick
1002
}
  0
LINE
  5
1D6
330
1F
100
AcDbEntity
  8
THICK
100
AcDbLine
 10
-57.08965301513672
 20
-56.74198913574219
 30
0.0
 11
-57.4187126159668
 21
-56.79455947875977
 31
0.0
1001
DBPROPERTIES
1002
{
1000
PbThick
1002
}
  0
LINE
  5
1D7
330
1F
100
AcDbEntity
  8
THICK
100
AcDbLine
 10
-57.4187126159668
 20
-56.79455947875977
 30
0.0
 11
-57.75000381469727
 21
-56.83924865722656
 31
0.0
1001
DBPROPERTIES
1002
{
1000
PbThick
1002
}
  0
LINE
  5
1D8
330
1F
100
AcDbEntity
  8
THICK
100
AcDbLine
 10
-188.6
 20
-76.44999999999999
 30
0.0
 11
-0.0000000000000388
 21
-76.44999999999999
 31
0.0
1001
DBPROPERTIES
1002
{
1000
PbThick
1002
}
  0
LINE
  5
1D9
330
1F
100
AcDbEntity
  8
THICK
100
AcDbLine
 10
-168.1
 20
-68.25
 30
0.0
 11
-61.74999991556739
 21
-68.25
 31
0.0
1001
DBPROPERTIES
1002
{
1000
PbThick
1002
}
  0
LINE
  5
1DA
330
1F
100
AcDbEntity
  8
HIDDEN
100
AcDbLine
 10
-61.74999991556739
 20
-68.25
 30
0.0
 11
-53.74999994371153
 21
-68.25
 31
0.0
1001
DBPROPERTIES
1002
{
1000
PbHidd
1002
}
  0
LINE
  5
1DB
330
1F
100
AcDbEntity
  8
THICK
100
AcDbLine
 10
-53.74999994371153
 20
-68.25
 30
0.0
 11
-0.0000000000000351
 21
-68.25
 31
0.0
1001
DBPROPERTIES
1002
{
1000
PbThick
1002
}
  0
LINE
  5
1DC
330
1F
100
AcDbEntity
  8
THICK
100
AcDbLine
 10
-57.75000381469727
 20
-76.33924865722656
 30
0.0
 11
-58.04965591430664
 21
-76.37267303466797
 31
0.0
1001
DBPROPERTIES
1002
{
1000
PbThick
1002
}
  0
LINE
  5
1DD
330
1F
100
AcDbEntity
  8
THICK
100
AcDbLine
 10
-58.04965591430664
 20
-76.37267303466797
 30
0.0
 11
-58.34727096557617
 21
-76.39926147460938
 31
0.0
1001
DBPROPERTIES
1002
{
1000
PbThick
1002
}
  0
LINE
  5
1DE
330
1F
100
AcDbEntity
  8
THICK
100
AcDbLine
 10
-58.34727096557617
 20
-76.39926147460938
 30
0.0
 11
-58.64097595214844
 21
-76.41888427734375
 31
0.0
1001
DBPROPERTIES
1002
{
1000
PbThick
1002
}
  0
LINE
  5
1DF
330
1F
100
AcDbEntity
  8
THICK
100
AcDbLine
 10
-58.64097595214844
 20
-76.41888427734375
 30
0.0
 11
-58.928955078125
 21
-76.4316177368164
 31
0.0
1001
DBPROPERTIES
1002
{
1000
PbThick
1002
}
  0
LINE
  5
1E0
330
1F
100
AcDbEntity
  8
THICK
100
AcDbLine
 10
-58.928955078125
 20
-76.4316177368164
 30
0.0
 11
-59.20940780639648
 21
-76.43763732910156
 31
0.0
1001
DBPROPERTIES
1002
{
1000
PbThick
1002
}
  0
LINE
  5
1E1
330
1F
100
AcDbEntity
  8
THICK
100
AcDbLine
 10
-59.20940780639648
 20
-76.43763732910156
 30
0.0
 11
-59.48218154907227
 21
-76.43707275390625
 31
0.0
1001
DBPROPERTIES
1002
{
1000
PbThick
1002
}
  0
LINE
  5
1E2
330
1F
100
AcDbEntity
  8
THICK
100
AcDbLine
 10
-59.48218154907227
 20
-76.43707275390625
 30
0.0
 11
-59.75248718261719
 21
-76.42991638183594
 31
0.0
1001
DBPROPERTIES
1002
{
1000
PbThick
1002
}
  0
LINE
  5
1E3
330
1F
100
AcDbEntity
  8
THICK
100
AcDbLine
 10
-59.75248718261719
 20
-76.42991638183594
 30
0.0
 11
-60.01911163330078
 21
-76.41600799560547
 31
0.0
1001
DBPROPERTIES
1002
{
1000
PbThick
1002
}
  0
LINE
  5
1E4
330
1F
100
AcDbEntity
  8
THICK
100
AcDbLine
 10
-60.01911163330078
 20
-76.41600799560547
 30
0.0
 11
-60.28000640869141
 21
-76.39520263671875
 31
0.0
1001
DBPROPERTIES
1002
{
1000
PbThick
1002
}
  0
LINE
  5
1E5
330
1F
100
AcDbEntity
  8
THICK
100
AcDbLine
 10
-60.28000640869141
 20
-76.39520263671875
 30
0.0
 11
-60.53326034545898
 21
-76.36742401123047
 31
0.0
1001
DBPROPERTIES
1002
{
1000
PbThick
1002
}
  0
LINE
  5
1E6
330
1F
100
AcDbEntity
  8
THICK
100
AcDbLine
 10
-60.53326034545898
 20
-76.36742401123047
 30
0.0
 11
-60.77725601196289
 21
-76.33283996582031
 31
0.0
1001
DBPROPERTIES
1002
{
1000
PbThick
1002
}
  0
LINE
  5
1E7
330
1F
100
AcDbEntity
  8
THICK
100
AcDbLine
 10
-60.77725601196289
 20
-76.33283996582031
 30
0.0
 11
-61.01041412353516
 21
-76.2916259765625
 31
0.0
1001
DBPROPERTIES
1002
{
1000
PbThick
1002
}
  0
LINE
  5
1E8
330
1F
100
AcDbEntity
  8
THICK
100
AcDbLine
 10
-61.01041412353516
 20
-76.2916259765625
 30
0.0
 11
-61.23129272460938
 21
-76.24397277832031
 31
0.0
1001
DBPROPERTIES
1002
{
1000
PbThick
1002
}
  0
LINE
  5
1E9
330
1F
100
AcDbEntity
  8
THICK
100
AcDbLine
 10
-61.23129272460938
 20
-76.24397277832031
 30
0.0
 11
-61.43887329101562
 21
-76.19022369384766
 31
0.0
1001
DBPROPERTIES
1002
{
1000
PbThick
1002
}
  0
LINE
  5
1EA
330
1F
100
AcDbEntity
  8
THICK
100
AcDbLine
 10
-61.43887329101562
 20
-76.19022369384766
 30
0.0
 11
-61.63215637207031
 21
-76.1308364868164
 31
0.0
1001
DBPROPERTIES
1002
{
1000
PbThick
1002
}
  0
LINE
  5
1EB
330
1F
100
AcDbEntity
  8
THICK
100
AcDbLine
 10
-61.63215637207031
 20
-76.1308364868164
 30
0.0
 11
-61.81013870239258
 21
-76.0662612915039
 31
0.0
1001
DBPROPERTIES
1002
{
1000
PbThick
1002
}
  0
LINE
  5
1EC
330
1F
100
AcDbEntity
  8
THICK
100
AcDbLine
 10
-61.81013870239258
 20
-76.0662612915039
 30
0.0
 11
-61.97211074829102
 21
-75.99708557128906
 31
0.0
1001
DBPROPERTIES
1002
{
1000
PbThick
1002
}
  0
LINE
  5
1ED
330
1F
100
AcDbEntity
  8
THICK
100
AcDbLine
 10
-61.97211074829102
 20
-75.99708557128906
 30
0.0
 11
-62.11776351928711
 21
-75.92401123046875
 31
0.0
1001
DBPROPERTIES
1002
{
1000
PbThick
1002
}
  0
LINE
  5
1EE
330
1F
100
AcDbEntity
  8
THICK
100
AcDbLine
 10
-62.11776351928711
 20
-75.92401123046875
 30
0.0
 11
-62.246826171875
 21
-75.84777069091797
 31
0.0
1001
DBPROPERTIES
1002
{
1000
PbThick
1002
}
  0
LINE
  5
1EF
330
1F
100
AcDbEntity
  8
THICK
100
AcDbLine
 10
-62.246826171875
 20
-75.84777069091797
 30
0.0
 11
-62.36119842529297
 21
-75.767578125
 31
0.0
1001
DBPROPERTIES
1002
{
1000
PbThick
1002
}
  0
LINE
  5
1F0
330
1F
100
AcDbEntity
  8
THICK
100
AcDbLine
 10
-62.36119842529297
 20
-75.767578125
 30
0.0
 11
-62.46243667602539
 21
-75.68233489990234
 31
0.0
1001
DBPROPERTIES
1002
{
1000
PbThick
1002
}
  0
LINE
  5
1F1
330
1F
100
AcDbEntity
  8
THICK
100
AcDbLine
 10
-62.46243667602539
 20
-75.68233489990234
 30
0.0
 11
-62.5495719909668
 21
-75.59241485595703
 31
0.0
1001
DBPROPERTIES
1002
{
1000
PbThick
1002
}
  0
LINE
  5
1F2
330
1F
100
AcDbEntity
  8
THICK
100
AcDbLine
 10
-62.5495719909668
 20
-75.59241485595703
 30
0.0
 11
-62.62163543701172
 21
-75.49820709228516
 31
0.0
1001
DBPROPERTIES
1002
{
1000
PbThick
1002
}
  0
LINE
  5
1F3
330
1F
100
AcDbEntity
  8
THICK
100
AcDbLine
 10
-62.62163543701172
 20
-75.49820709228516
 30
0.0
 11
-62.67798233032227
 21
-75.400146484375
 31
0.0
1001
DBPROPERTIES
1002
{
1000
PbThick
1002
}
  0
LINE
  5
1F4
330
1F
100
AcDbEntity
  8
THICK
100
AcDbLine
 10
-62.67798233032227
 20
-75.400146484375
 30
0.0
 11
-62.71832275390625
 21
-75.29875946044922
 31
0.0
1001
DBPROPERTIES
1002
{
1000
PbThick
1002
}
  0
LINE
  5
1F5
330
1F
100
AcDbEntity
  8
THICK
100
AcDbLine
 10
-62.71832275390625
 20
-75.29875946044922
 30
0.0
 11
-62.74237442016602
 21
-75.1945571899414
 31
0.0
1001
DBPROPERTIES
1002
{
1000
PbThick
1002
}
  0
LINE
  5
1F6
330
1F
100
AcDbEntity
  8
THICK
100
AcDbLine
 10
-62.74237442016602
 20
-75.1945571899414
 30
0.0
 11
-62.74994659423828
 21
-75.08805084228516
 31
0.0
1001
DBPROPERTIES
1002
{
1000
PbThick
1002
}
  0
LINE
  5
1F7
330
1F
100
AcDbEntity
  8
THICK
100
AcDbLine
 10
-62.74994659423828
 20
-75.08805084228516
 30
0.0
 11
-62.74065780639648
 21
-74.9759521484375
 31
0.0
1001
DBPROPERTIES
1002
{
1000
PbThick
1002
}
  0
LINE
  5
1F8
330
1F
100
AcDbEntity
  8
THICK
100
AcDbLine
 10
-62.74065780639648
 20
-74.9759521484375
 30
0.0
 11
-62.71433258056641
 21
-74.86262512207031
 31
0.0
1001
DBPROPERTIES
1002
{
1000
PbThick
1002
}
  0
LINE
  5
1F9
330
1F
100
AcDbEntity
  8
THICK
100
AcDbLine
 10
-62.71433258056641
 20
-74.86262512207031
 30
0.0
 11
-62.6713752746582
 21
-74.7487564086914
 31
0.0
1001
DBPROPERTIES
1002
{
1000
PbThick
1002
}
  0
LINE
  5
1FA
330
1F
100
AcDbEntity
  8
THICK
100
AcDbLine
 10
-62.6713752746582
 20
-74.7487564086914
 30
0.0
 11
-62.61250305175781
 21
-74.6350326538086
 31
0.0
1001
DBPROPERTIES
1002
{
1000
PbThick
1002
}
  0
LINE
  5
1FB
330
1F
100
AcDbEntity
  8
THICK
100
AcDbLine
 10
-62.61250305175781
 20
-74.6350326538086
 30
0.0
 11
-62.53883743286133
 21
-74.52218627929688
 31
0.0
1001
DBPROPERTIES
1002
{
1000
PbThick
1002
}
  0
LINE
  5
1FC
330
1F
100
AcDbEntity
  8
THICK
100
AcDbLine
 10
-62.53883743286133
 20
-74.52218627929688
 30
0.0
 11
-62.45153045654297
 21
-74.41095733642578
 31
0.0
1001
DBPROPERTIES
1002
{
1000
PbThick
1002
}
  0
LINE
  5
1FD
330
1F
100
AcDbEntity
  8
THICK
100
AcDbLine
 10
-62.45153045654297
 20
-74.41095733642578
 30
0.0
 11
-62.36475372314453
 21
-74.31533813476562
 31
0.0
1001
DBPROPERTIES
1002
{
1000
PbThick
1002
}
  0
LINE
  5
1FE
330
1F
100
AcDbEntity
  8
THICK
100
AcDbLine
 10
-62.36475372314453
 20
-74.31533813476562
 30
0.0
 11
-62.26579666137695
 21
-74.21841430664062
 31
0.0
1001
DBPROPERTIES
1002
{
1000
PbThick
1002
}
  0
LINE
  5
1FF
330
1F
100
AcDbEntity
  8
THICK
100
AcDbLine
 10
-62.26579666137695
 20
-74.21841430664062
 30
0.0
 11
-62.15471267700195
 21
-74.12066650390625
 31
0.0
1001
DBPROPERTIES
1002
{
1000
PbThick
1002
}
  0
LINE
  5
200
330
1F
100
AcDbEntity
  8
THICK
100
AcDbLine
 10
-62.15471267700195
 20
-74.12066650390625
 30
0.0
 11
-62.03156661987305
 21
-74.02256774902344
 31
0.0
1001
DBPROPERTIES
1002
{
1000
PbThick
1002
}
  0
LINE
  5
201
330
1F
100
AcDbEntity
  8
THICK
100
AcDbLine
 10
-62.03156661987305
 20
-74.02256774902344
 30
0.0
 11
-61.89651489257812
 21
-73.92459869384766
 31
0.0
1001
DBPROPERTIES
1002
{
1000
PbThick
1002
}
  0
LINE
  5
202
330
1F
100
AcDbEntity
  8
THICK
100
AcDbLine
 10
-61.89651489257812
 20
-73.92459869384766
 30
0.0
 11
-61.75
 21
-73.82721710205078
 31
0.0
1001
DBPROPERTIES
1002
{
1000
PbThick
1002
}
  0
LINE
  5
203
330
1F
100
AcDbEntity
  8
HIDDEN
100
AcDbLine
 10
-61.75
 20
-73.82721710205078
 30
0.0
 11
-61.5284538269043
 21
-73.69378662109375
 31
0.0
1001
DBPROPERTIES
1002
{
1000
PbHidd
1002
}
  0
LINE
  5
204
330
1F
100
AcDbEntity
  8
HIDDEN
100
AcDbLine
 10
-61.5284538269043
 20
-73.69378662109375
 30
0.0
 11
-61.28707885742188
 21
-73.56352233886719
 31
0.0
1001
DBPROPERTIES
1002
{
1000
PbHidd
1002
}
  0
LINE
  5
205
330
1F
100
AcDbEntity
  8
HIDDEN
100
AcDbLine
 10
-61.28707885742188
 20
-73.56352233886719
 30
0.0
 11
-61.02762603759766
 21
-73.43743133544922
 31
0.0
1001
DBPROPERTIES
1002
{
1000
PbHidd
1002
}
  0
LINE
  5
206
330
1F
100
AcDbEntity
  8
HIDDEN
100
AcDbLine
 10
-61.02762603759766
 20
-73.43743133544922
 30
0.0
 11
-60.75234603881836
 21
-73.31658172607422
 31
0.0
1001
DBPROPERTIES
1002
{
1000
PbHidd
1002
}
  0
LINE
  5
207
330
1F
100
AcDbEntity
  8
HIDDEN
100
AcDbLine
 10
-60.75234603881836
 20
-73.31658172607422
 30
0.0
 11
-60.46359634399414
 21
-73.20198822021484
 31
0.0
1001
DBPROPERTIES
1002
{
1000
PbHidd
1002
}
  0
LINE
  5
208
330
1F
100
AcDbEntity
  8
HIDDEN
100
AcDbLine
 10
-60.46359634399414
 20
-73.20198822021484
 30
0.0
 11
-60.16428756713867
 21
-73.0945053100586
 31
0.0
1001
DBPROPERTIES
1002
{
1000
PbHidd
1002
}
  0
LINE
  5
209
330
1F
100
AcDbEntity
  8
HIDDEN
100
AcDbLine
 10
-60.16428756713867
 20
-73.0945053100586
 30
0.0
 11
-59.85756301879883
 21
-72.9948959350586
 31
0.0
1001
DBPROPERTIES
1002
{
1000
PbHidd
1002
}
  0
LINE
  5
20A
330
1F
100
AcDbEntity
  8
HIDDEN
100
AcDbLine
 10
-59.85756301879883
 20
-72.9948959350586
 30
0.0
 11
-59.53815841674805
 21
-72.90150451660156
 31
0.0
1001
DBPROPERTIES
1002
{
1000
PbHidd
1002
}
  0
LINE
  5
20B
330
1F
100
AcDbEntity
  8
HIDDEN
100
AcDbLine
 10
-59.53815841674805
 20
-72.90150451660156
 30
0.0
 11
-59.20165634155273
 21
-72.81346893310547
 31
0.0
1001
DBPROPERTIES
1002
{
1000
PbHidd
1002
}
  0
LINE
  5
20C
330
1F
100
AcDbEntity
  8
HIDDEN
100
AcDbLine
 10
-59.20165634155273
 20
-72.81346893310547
 30
0.0
 11
-58.85114288330078
 21
-72.73235321044922
 31
0.0
1001
DBPROPERTIES
1002
{
1000
PbHidd
1002
}
  0
LINE
  5
20D
330
1F
100
AcDbEntity
  8
HIDDEN
100
AcDbLine
 10
-58.85114288330078
 20
-72.73235321044922
 30
0.0
 11
-58.48996353149414
 21
-72.65948486328125
 31
0.0
1001
DBPROPERTIES
1002
{
1000
PbHidd
1002
}
  0
LINE
  5
20E
330
1F
100
AcDbEntity
  8
HIDDEN
100
AcDbLine
 10
-58.48996353149414
 20
-72.65948486328125
 30
0.0
 11
-58.12174987792969
 21
-72.59590911865234
 31
0.0
1001
DBPROPERTIES
1002
{
1000
PbHidd
1002
}
  0
LINE
  5
20F
330
1F
100
AcDbEntity
  8
HIDDEN
100
AcDbLine
 10
-58.12174987792969
 20
-72.59590911865234
 30
0.0
 11
-57.74999618530273
 21
-72.54253387451172
 31
0.0
1001
DBPROPERTIES
1002
{
1000
PbHidd
1002
}
  0
LINE
  5
210
330
1F
100
AcDbEntity
  8
HIDDEN
100
AcDbLine
 10
-57.74999618530273
 20
-72.54253387451172
 30
0.0
 11
-57.38882446289062
 21
-72.50096130371094
 31
0.0
1001
DBPROPERTIES
1002
{
1000
PbHidd
1002
}
  0
LINE
  5
211
330
1F
100
AcDbEntity
  8
HIDDEN
100
AcDbLine
 10
-57.38882446289062
 20
-72.50096130371094
 30
0.0
 11
-57.0311393737793
 21
-72.46986389160156
 31
0.0
1001
DBPROPERTIES
1002
{
1000
PbHidd
1002
}
  0
LINE
  5
212
330
1F
100
AcDbEntity
  8
HIDDEN
100
AcDbLine
 10
-57.0311393737793
 20
-72.46986389160156
 30
0.0
 11
-56.68043518066406
 21
-72.44943237304688
 31
0.0
1001
DBPROPERTIES
1002
{
1000
PbHidd
1002
}
  0
LINE
  5
213
330
1F
100
AcDbEntity
  8
HIDDEN
100
AcDbLine
 10
-56.68043518066406
 20
-72.44943237304688
 30
0.0
 11
-56.34010314941406
 21
-72.43940734863281
 31
0.0
1001
DBPROPERTIES
1002
{
1000
PbHidd
1002
}
  0
LINE
  5
214
330
1F
100
AcDbEntity
  8
HIDDEN
100
AcDbLine
 10
-56.34010314941406
 20
-72.43940734863281
 30
0.0
 11
-56.01151657104492
 21
-72.4394760131836
 31
0.0
1001
DBPROPERTIES
1002
{
1000
PbHidd
1002
}
  0
LINE
  5
215
330
1F
100
AcDbEntity
  8
HIDDEN
100
AcDbLine
 10
-56.01151657104492
 20
-72.4394760131836
 30
0.0
 11
-55.68657302856445
 21
-72.44963836669922
 31
0.0
1001
DBPROPERTIES
1002
{
1000
PbHidd
1002
}
  0
LINE
  5
216
330
1F
100
AcDbEntity
  8
HIDDEN
100
AcDbLine
 10
-55.68657302856445
 20
-72.44963836669922
 30
0.0
 11
-55.36724090576172
 21
-72.47020721435547
 31
0.0
1001
DBPROPERTIES
1002
{
1000
PbHidd
1002
}
  0
LINE
  5
217
330
1F
100
AcDbEntity
  8
HIDDEN
100
AcDbLine
 10
-55.36724090576172
 20
-72.47020721435547
 30
0.0
 11
-55.05730819702148
 21
-72.5014419555664
 31
0.0
1001
DBPROPERTIES
1002
{
1000
PbHidd
1002
}
  0
LINE
  5
218
330
1F
100
AcDbEntity
  8
HIDDEN
100
AcDbLine
 10
-55.05730819702148
 20
-72.5014419555664
 30
0.0
 11
-54.760009765625
 21
-72.54315185546875
 31
0.0
1001
DBPROPERTIES
1002
{
1000
PbHidd
1002
}
  0
LINE
  5
219
330
1F
100
AcDbEntity
  8
HIDDEN
100
AcDbLine
 10
-54.760009765625
 20
-72.54315185546875
 30
0.0
 11
-54.47835540771484
 21
-72.59497833251953
 31
0.0
1001
DBPROPERTIES
1002
{
1000
PbHidd
1002
}
  0
LINE
  5
21A
330
1F
100
AcDbEntity
  8
HIDDEN
100
AcDbLine
 10
-54.47835540771484
 20
-72.59497833251953
 30
0.0
 11
-54.21484756469727
 21
-72.65644836425781
 31
0.0
1001
DBPROPERTIES
1002
{
1000
PbHidd
1002
}
  0
LINE
  5
21B
330
1F
100
AcDbEntity
  8
HIDDEN
100
AcDbLine
 10
-54.21484756469727
 20
-72.65644836425781
 30
0.0
 11
-53.97142791748047
 21
-72.72672271728516
 31
0.0
1001
DBPROPERTIES
1002
{
1000
PbHidd
1002
}
  0
LINE
  5
21C
330
1F
100
AcDbEntity
  8
HIDDEN
100
AcDbLine
 10
-53.97142791748047
 20
-72.72672271728516
 30
0.0
 11
-53.75001907348633
 21
-72.80485534667969
 31
0.0
1001
DBPROPERTIES
1002
{
1000
PbHidd
1002
}
  0
LINE
  5
21D
330
1F
100
AcDbEntity
  8
THICK
100
AcDbLine
 10
-53.75001907348633
 20
-72.80485534667969
 30
0.0
 11
-53.54268646240234
 21
-72.89405059814453
 31
0.0
1001
DBPROPERTIES
1002
{
1000
PbThick
1002
}
  0
LINE
  5
21E
330
1F
100
AcDbEntity
  8
THICK
100
AcDbLine
 10
-53.54268646240234
 20
-72.89405059814453
 30
0.0
 11
-53.3618278503418
 21
-72.98895263671875
 31
0.0
1001
DBPROPERTIES
1002
{
1000
PbThick
1002
}
  0
LINE
  5
21F
330
1F
100
AcDbEntity
  8
THICK
100
AcDbLine
 10
-53.3618278503418
 20
-72.98895263671875
 30
0.0
 11
-53.20474624633789
 21
-73.09009552001953
 31
0.0
1001
DBPROPERTIES
1002
{
1000
PbThick
1002
}
  0
LINE
  5
220
330
1F
100
AcDbEntity
  8
THICK
100
AcDbLine
 10
-53.20474624633789
 20
-73.09009552001953
 30
0.0
 11
-53.06821441650391
 21
-73.199462890625
 31
0.0
1001
DBPROPERTIES
1002
{
1000
PbThick
1002
}
  0
LINE
  5
221
330
1F
100
AcDbEntity
  8
THICK
100
AcDbLine
 10
-53.06821441650391
 20
-73.199462890625
 30
0.0
 11
-52.95432281494141
 21
-73.31623077392578
 31
0.0
1001
DBPROPERTIES
1002
{
1000
PbThick
1002
}
  0
LINE
  5
222
330
1F
100
AcDbEntity
  8
THICK
100
AcDbLine
 10
-52.95432281494141
 20
-73.31623077392578
 30
0.0
 11
-52.86482620239258
 21
-73.43951416015625
 31
0.0
1001
DBPROPERTIES
1002
{
1000
PbThick
1002
}
  0
LINE
  5
223
330
1F
100
AcDbEntity
  8
THICK
100
AcDbLine
 10
-52.86482620239258
 20
-73.43951416015625
 30
0.0
 11
-52.80057525634766
 21
-73.5682144165039
 31
0.0
1001
DBPROPERTIES
1002
{
1000
PbThick
1002
}
  0
LINE
  5
224
330
1F
100
AcDbEntity
  8
THICK
100
AcDbLine
 10
-52.80057525634766
 20
-73.5682144165039
 30
0.0
 11
-52.76227569580078
 21
-73.70123291015625
 31
0.0
1001
DBPROPERTIES
1002
{
1000
PbThick
1002
}
  0
LINE
  5
225
330
1F
100
AcDbEntity
  8
THICK
100
AcDbLine
 10
-52.76227569580078
 20
-73.70123291015625
 30
0.0
 11
-52.75008392333984
 21
-73.83747100830078
 31
0.0
1001
DBPROPERTIES
1002
{
1000
PbThick
1002
}
  0
LINE
  5
226
330
1F
100
AcDbEntity
  8
THICK
100
AcDbLine
 10
-52.75008392333984
 20
-73.83747100830078
 30
0.0
 11
-52.76045608520508
 21
-73.95853424072266
 31
0.0
1001
DBPROPERTIES
1002
{
1000
PbThick
1002
}
  0
LINE
  5
227
330
1F
100
AcDbEntity
  8
THICK
100
AcDbLine
 10
-52.76045608520508
 20
-73.95853424072266
 30
0.0
 11
-52.79007339477539
 21
-74.08024597167969
 31
0.0
1001
DBPROPERTIES
1002
{
1000
PbThick
1002
}
  0
LINE
  5
228
330
1F
100
AcDbEntity
  8
THICK
100
AcDbLine
 10
-52.79007339477539
 20
-74.08024597167969
 30
0.0
 11
-52.83816146850586
 21
-74.20172882080078
 31
0.0
1001
DBPROPERTIES
1002
{
1000
PbThick
1002
}
  0
LINE
  5
229
330
1F
100
AcDbEntity
  8
THICK
100
AcDbLine
 10
-52.83816146850586
 20
-74.20172882080078
 30
0.0
 11
-52.90341949462891
 21
-74.32206726074219
 31
0.0
1001
DBPROPERTIES
1002
{
1000
PbThick
1002
}
  0
LINE
  5
22A
330
1F
100
AcDbEntity
  8
THICK
100
AcDbLine
 10
-52.90341949462891
 20
-74.32206726074219
 30
0.0
 11
-52.98464202880859
 21
-74.44051361083984
 31
0.0
1001
DBPROPERTIES
1002
{
1000
PbThick
1002
}
  0
LINE
  5
22B
330
1F
100
AcDbEntity
  8
THICK
100
AcDbLine
 10
-52.98464202880859
 20
-74.44051361083984
 30
0.0
 11
-53.08361053466797
 21
-74.55988311767578
 31
0.0
1001
DBPROPERTIES
1002
{
1000
PbThick
1002
}
  0
LINE
  5
22C
330
1F
100
AcDbEntity
  8
THICK
100
AcDbLine
 10
-53.08361053466797
 20
-74.55988311767578
 30
0.0
 11
-53.20133209228516
 21
-74.6808090209961
 31
0.0
1001
DBPROPERTIES
1002
{
1000
PbThick
1002
}
  0
LINE
  5
22D
330
1F
100
AcDbEntity
  8
THICK
100
AcDbLine
 10
-53.20133209228516
 20
-74.6808090209961
 30
0.0
 11
-53.33781051635742
 21
-74.80239868164062
 31
0.0
1001
DBPROPERTIES
1002
{
1000
PbThick
1002
}
  0
LINE
  5
22E
330
1F
100
AcDbEntity
  8
THICK
100
AcDbLine
 10
-53.33781051635742
 20
-74.80239868164062
 30
0.0
 11
-53.49288940429688
 21
-74.92378234863281
 31
0.0
1001
DBPROPERTIES
1002
{
1000
PbThick
1002
}
  0
LINE
  5
22F
330
1F
100
AcDbEntity
  8
THICK
100
AcDbLine
 10
-53.49288940429688
 20
-74.92378234863281
 30
0.0
 11
-53.66584777832031
 21
-75.04412841796875
 31
0.0
1001
DBPROPERTIES
1002
{
1000
PbThick
1002
}
  0
LINE
  5
230
330
1F
100
AcDbEntity
  8
THICK
100
AcDbLine
 10
-53.66584777832031
 20
-75.04412841796875
 30
0.0
 11
-53.85585403442383
 21
-75.16260528564453
 31
0.0
1001
DBPROPERTIES
1002
{
1000
PbThick
1002
}
  0
LINE
  5
231
330
1F
100
AcDbEntity
  8
THICK
100
AcDbLine
 10
-53.85585403442383
 20
-75.16260528564453
 30
0.0
 11
-54.06206130981445
 21
-75.27845001220703
 31
0.0
1001
DBPROPERTIES
1002
{
1000
PbThick
1002
}
  0
LINE
  5
232
330
1F
100
AcDbEntity
  8
THICK
100
AcDbLine
 10
-54.06206130981445
 20
-75.27845001220703
 30
0.0
 11
-54.28324508666992
 21
-75.3909912109375
 31
0.0
1001
DBPROPERTIES
1002
{
1000
PbThick
1002
}
  0
LINE
  5
233
330
1F
100
AcDbEntity
  8
THICK
100
AcDbLine
 10
-54.28324508666992
 20
-75.3909912109375
 30
0.0
 11
-54.51789093017578
 21
-75.49951934814453
 31
0.0
1001
DBPROPERTIES
1002
{
1000
PbThick
1002
}
  0
LINE
  5
234
330
1F
100
AcDbEntity
  8
THICK
100
AcDbLine
 10
-54.51789093017578
 20
-75.49951934814453
 30
0.0
 11
-54.76445388793945
 21
-75.60334014892578
 31
0.0
1001
DBPROPERTIES
1002
{
1000
PbThick
1002
}
  0
LINE
  5
235
330
1F
100
AcDbEntity
  8
THICK
100
AcDbLine
 10
-54.76445388793945
 20
-75.60334014892578
 30
0.0
 11
-55.02103424072266
 21
-75.70186614990234
 31
0.0
1001
DBPROPERTIES
1002
{
1000
PbThick
1002
}
  0
LINE
  5
236
330
1F
100
AcDbEntity
  8
THICK
100
AcDbLine
 10
-55.02103424072266
 20
-75.70186614990234
 30
0.0
 11
-55.28547668457031
 21
-75.7945785522461
 31
0.0
1001
DBPROPERTIES
1002
{
1000
PbThick
1002
}
  0
LINE
  5
237
330
1F
100
AcDbEntity
  8
THICK
100
AcDbLine
 10
-55.28547668457031
 20
-75.7945785522461
 30
0.0
 11
-55.55655670166016
 21
-75.88125610351562
 31
0.0
1001
DBPROPERTIES
1002
{
1000
PbThick
1002
}
  0
LINE
  5
238
330
1F
100
AcDbEntity
  8
THICK
100
AcDbLine
 10
-55.55655670166016
 20
-75.88125610351562
 30
0.0
 11
-55.84081268310547
 21
-75.96390533447266
 31
0.0
1001
DBPROPERTIES
1002
{
1000
PbThick
1002
}
  0
LINE
  5
239
330
1F
100
AcDbEntity
  8
THICK
100
AcDbLine
 10
-55.84081268310547
 20
-75.96390533447266
 30
0.0
 11
-56.13831329345703
 21
-76.04220581054688
 31
0.0
1001
DBPROPERTIES
1002
{
1000
PbThick
1002
}
  0
LINE
  5
23A
330
1F
100
AcDbEntity
  8
THICK
100
AcDbLine
 10
-56.13831329345703
 20
-76.04220581054688
 30
0.0
 11
-56.44708251953125
 21
-76.11518859863281
 31
0.0
1001
DBPROPERTIES
1002
{
1000
PbThick
1002
}
  0
LINE
  5
23B
330
1F
100
AcDbEntity
  8
THICK
100
AcDbLine
 10
-56.44708251953125
 20
-76.11518859863281
 30
0.0
 11
-56.76498413085938
 21
-76.18199157714844
 31
0.0
1001
DBPROPERTIES
1002
{
1000
PbThick
1002
}
  0
LINE
  5
23C
330
1F
100
AcDbEntity
  8
THICK
100
AcDbLine
 10
-56.76498413085938
 20
-76.18199157714844
 30
0.0
 11
-57.08965301513672
 21
-76.24198913574219
 31
0.0
1001
DBPROPERTIES
1002
{
1000
PbThick
1002
}
  0
LINE
  5
23D
330
1F
100
AcDbEntity
  8
THICK
100
AcDbLine
 10
-57.08965301513672
 20
-76.24198913574219
 30
0.0
 11
-57.4187126159668
 21
-76.2945556640625
 31
0.0
1001
DBPROPERTIES
1002
{
1000
PbThick
1002
}
  0
LINE
  5
23E
330
1F
100
AcDbEntity
  8
THICK
100
AcDbLine
 10
-57.4187126159668
 20
-76.2945556640625
 30
0.0
 11
-57.75000381469727
 21
-76.33924865722656
 31
0.0
1001
DBPROPERTIES
1002
{
1000
PbThick
1002
}
  0
LINE
  5
23F
330
1F
100
AcDbEntity
  8
THICK
100
AcDbLine
 10
-188.6
 20
-95.94999999999999
 30
0.0
 11
-0.00000000000004
 21
-95.94999999999999
 31
0.0
1001
DBPROPERTIES
1002
{
1000
PbThick
1002
}
  0
LINE
  5
240
330
1F
100
AcDbEntity
  8
THICK
100
AcDbLine
 10
-168.1
 20
-87.75
 30
0.0
 11
-61.74999991556739
 21
-87.75
 31
0.0
1001
DBPROPERTIES
1002
{
1000
PbThick
1002
}
  0
LINE
  5
241
330
1F
100
AcDbEntity
  8
HIDDEN
100
AcDbLine
 10
-61.74999991556739
 20
-87.75
 30
0.0
 11
-53.74999994318345
 21
-87.75
 31
0.0
1001
DBPROPERTIES
1002
{
1000
PbHidd
1002
}
  0
LINE
  5
242
330
1F
100
AcDbEntity
  8
THICK
100
AcDbLine
 10
-53.74999994318345
 20
-87.75
 30
0.0
 11
-0.0000000000000363
 21
-87.75
 31
0.0
1001
DBPROPERTIES
1002
{
1000
PbThick
1002
}
  0
LINE
  5
243
330
1F
100
AcDbEntity
  8
THICK
100
AcDbLine
 10
-57.75000381469727
 20
-95.83924865722656
 30
0.0
 11
-58.04965591430664
 21
-95.87267303466797
 31
0.0
1001
DBPROPERTIES
1002
{
1000
PbThick
1002
}
  0
LINE
  5
244
330
1F
100
AcDbEntity
  8
THICK
100
AcDbLine
 10
-58.04965591430664
 20
-95.87267303466797
 30
0.0
 11
-58.34727096557617
 21
-95.89926147460938
 31
0.0
1001
DBPROPERTIES
1002
{
1000
PbThick
1002
}
  0
LINE
  5
245
330
1F
100
AcDbEntity
  8
THICK
100
AcDbLine
 10
-58.34727096557617
 20
-95.89926147460938
 30
0.0
 11
-58.64097595214844
 21
-95.91888427734375
 31
0.0
1001
DBPROPERTIES
1002
{
1000
PbThick
1002
}
  0
LINE
  5
246
330
1F
100
AcDbEntity
  8
THICK
100
AcDbLine
 10
-58.64097595214844
 20
-95.91888427734375
 30
0.0
 11
-58.928955078125
 21
-95.9316177368164
 31
0.0
1001
DBPROPERTIES
1002
{
1000
PbThick
1002
}
  0
LINE
  5
247
330
1F
100
AcDbEntity
  8
THICK
100
AcDbLine
 10
-58.928955078125
 20
-95.9316177368164
 30
0.0
 11
-59.20940780639648
 21
-95.93763732910156
 31
0.0
1001
DBPROPERTIES
1002
{
1000
PbThick
1002
}
  0
LINE
  5
248
330
1F
100
AcDbEntity
  8
THICK
100
AcDbLine
 10
-59.20940780639648
 20
-95.93763732910156
 30
0.0
 11
-59.48218154907227
 21
-95.93707275390625
 31
0.0
1001
DBPROPERTIES
1002
{
1000
PbThick
1002
}
  0
LINE
  5
249
330
1F
100
AcDbEntity
  8
THICK
100
AcDbLine
 10
-59.48218154907227
 20
-95.93707275390625
 30
0.0
 11
-59.75248718261719
 21
-95.92991638183594
 31
0.0
1001
DBPROPERTIES
1002
{
1000
PbThick
1002
}
  0
LINE
  5
24A
330
1F
100
AcDbEntity
  8
THICK
100
AcDbLine
 10
-59.75248718261719
 20
-95.92991638183594
 30
0.0
 11
-60.01911163330078
 21
-95.91600799560547
 31
0.0
1001
DBPROPERTIES
1002
{
1000
PbThick
1002
}
  0
LINE
  5
24B
330
1F
100
AcDbEntity
  8
THICK
100
AcDbLine
 10
-60.01911163330078
 20
-95.91600799560547
 30
0.0
 11
-60.28000640869141
 21
-95.89520263671875
 31
0.0
1001
DBPROPERTIES
1002
{
1000
PbThick
1002
}
  0
LINE
  5
24C
330
1F
100
AcDbEntity
  8
THICK
100
AcDbLine
 10
-60.28000640869141
 20
-95.89520263671875
 30
0.0
 11
-60.53326034545898
 21
-95.86742401123047
 31
0.0
1001
DBPROPERTIES
1002
{
1000
PbThick
1002
}
  0
LINE
  5
24D
330
1F
100
AcDbEntity
  8
THICK
100
AcDbLine
 10
-60.53326034545898
 20
-95.86742401123047
 30
0.0
 11
-60.77725601196289
 21
-95.83283996582031
 31
0.0
1001
DBPROPERTIES
1002
{
1000
PbThick
1002
}
  0
LINE
  5
24E
330
1F
100
AcDbEntity
  8
THICK
100
AcDbLine
 10
-60.77725601196289
 20
-95.83283996582031
 30
0.0
 11
-61.01041412353516
 21
-95.7916259765625
 31
0.0
1001
DBPROPERTIES
1002
{
1000
PbThick
1002
}
  0
LINE
  5
24F
330
1F
100
AcDbEntity
  8
THICK
100
AcDbLine
 10
-61.01041412353516
 20
-95.7916259765625
 30
0.0
 11
-61.23129272460938
 21
-95.74397277832031
 31
0.0
1001
DBPROPERTIES
1002
{
1000
PbThick
1002
}
  0
LINE
  5
250
330
1F
100
AcDbEntity
  8
THICK
100
AcDbLine
 10
-61.23129272460938
 20
-95.74397277832031
 30
0.0
 11
-61.43887329101562
 21
-95.69022369384766
 31
0.0
1001
DBPROPERTIES
1002
{
1000
PbThick
1002
}
  0
LINE
  5
251
330
1F
100
AcDbEntity
  8
THICK
100
AcDbLine
 10
-61.43887329101562
 20
-95.69022369384766
 30
0.0
 11
-61.63215637207031
 21
-95.6308364868164
 31
0.0
1001
DBPROPERTIES
1002
{
1000
PbThick
1002
}
  0
LINE
  5
252
330
1F
100
AcDbEntity
  8
THICK
100
AcDbLine
 10
-61.63215637207031
 20
-95.6308364868164
 30
0.0
 11
-61.81013870239258
 21
-95.5662612915039
 31
0.0
1001
DBPROPERTIES
1002
{
1000
PbThick
1002
}
  0
LINE
  5
253
330
1F
100
AcDbEntity
  8
THICK
100
AcDbLine
 10
-61.81013870239258
 20
-95.5662612915039
 30
0.0
 11
-61.97211074829102
 21
-95.49708557128906
 31
0.0
1001
DBPROPERTIES
1002
{
1000
PbThick
1002
}
  0
LINE
  5
254
330
1F
100
AcDbEntity
  8
THICK
100
AcDbLine
 10
-61.97211074829102
 20
-95.49708557128906
 30
0.0
 11
-62.11776351928711
 21
-95.42401123046875
 31
0.0
1001
DBPROPERTIES
1002
{
1000
PbThick
1002
}
  0
LINE
  5
255
330
1F
100
AcDbEntity
  8
THICK
100
AcDbLine
 10
-62.11776351928711
 20
-95.42401123046875
 30
0.0
 11
-62.246826171875
 21
-95.34777069091797
 31
0.0
1001
DBPROPERTIES
1002
{
1000
PbThick
1002
}
  0
LINE
  5
256
330
1F
100
AcDbEntity
  8
THICK
100
AcDbLine
 10
-62.246826171875
 20
-95.34777069091797
 30
0.0
 11
-62.36119842529297
 21
-95.267578125
 31
0.0
1001
DBPROPERTIES
1002
{
1000
PbThick
1002
}
  0
LINE
  5
257
330
1F
100
AcDbEntity
  8
THICK
100
AcDbLine
 10
-62.36119842529297
 20
-95.267578125
 30
0.0
 11
-62.46243667602539
 21
-95.18233489990234
 31
0.0
1001
DBPROPERTIES
1002
{
1000
PbThick
1002
}
  0
LINE
  5
258
330
1F
100
AcDbEntity
  8
THICK
100
AcDbLine
 10
-62.46243667602539
 20
-95.18233489990234
 30
0.0
 11
-62.5495719909668
 21
-95.09241485595703
 31
0.0
1001
DBPROPERTIES
1002
{
1000
PbThick
1002
}
  0
LINE
  5
259
330
1F
100
AcDbEntity
  8
THICK
100
AcDbLine
 10
-62.5495719909668
 20
-95.09241485595703
 30
0.0
 11
-62.62163543701172
 21
-94.99820709228516
 31
0.0
1001
DBPROPERTIES
1002
{
1000
PbThick
1002
}
  0
LINE
  5
25A
330
1F
100
AcDbEntity
  8
THICK
100
AcDbLine
 10
-62.62163543701172
 20
-94.99820709228516
 30
0.0
 11
-62.67798233032227
 21
-94.900146484375
 31
0.0
1001
DBPROPERTIES
1002
{
1000
PbThick
1002
}
  0
LINE
  5
25B
330
1F
100
AcDbEntity
  8
THICK
100
AcDbLine
 10
-62.67798233032227
 20
-94.900146484375
 30
0.0
 11
-62.71832275390625
 21
-94.79875946044922
 31
0.0
1001
DBPROPERTIES
1002
{
1000
PbThick
1002
}
  0
LINE
  5
25C
330
1F
100
AcDbEntity
  8
THICK
100
AcDbLine
 10
-62.71832275390625
 20
-94.79875946044922
 30
0.0
 11
-62.74237442016602
 21
-94.6945571899414
 31
0.0
1001
DBPROPERTIES
1002
{
1000
PbThick
1002
}
  0
LINE
  5
25D
330
1F
100
AcDbEntity
  8
THICK
100
AcDbLine
 10
-62.74237442016602
 20
-94.6945571899414
 30
0.0
 11
-62.74994659423828
 21
-94.58805084228516
 31
0.0
1001
DBPROPERTIES
1002
{
1000
PbThick
1002
}
  0
LINE
  5
25E
330
1F
100
AcDbEntity
  8
THICK
100
AcDbLine
 10
-62.74994659423828
 20
-94.58805084228516
 30
0.0
 11
-62.74065780639648
 21
-94.4759521484375
 31
0.0
1001
DBPROPERTIES
1002
{
1000
PbThick
1002
}
  0
LINE
  5
25F
330
1F
100
AcDbEntity
  8
THICK
100
AcDbLine
 10
-62.74065780639648
 20
-94.4759521484375
 30
0.0
 11
-62.71433258056641
 21
-94.36262512207031
 31
0.0
1001
DBPROPERTIES
1002
{
1000
PbThick
1002
}
  0
LINE
  5
260
330
1F
100
AcDbEntity
  8
THICK
100
AcDbLine
 10
-62.71433258056641
 20
-94.36262512207031
 30
0.0
 11
-62.6713752746582
 21
-94.2487564086914
 31
0.0
1001
DBPROPERTIES
1002
{
1000
PbThick
1002
}
  0
LINE
  5
261
330
1F
100
AcDbEntity
  8
THICK
100
AcDbLine
 10
-62.6713752746582
 20
-94.2487564086914
 30
0.0
 11
-62.61250305175781
 21
-94.1350326538086
 31
0.0
1001
DBPROPERTIES
1002
{
1000
PbThick
1002
}
  0
LINE
  5
262
330
1F
100
AcDbEntity
  8
THICK
100
AcDbLine
 10
-62.61250305175781
 20
-94.1350326538086
 30
0.0
 11
-62.53883743286133
 21
-94.02218627929688
 31
0.0
1001
DBPROPERTIES
1002
{
1000
PbThick
1002
}
  0
LINE
  5
263
330
1F
100
AcDbEntity
  8
THICK
100
AcDbLine
 10
-62.53883743286133
 20
-94.02218627929688
 30
0.0
 11
-62.45153045654297
 21
-93.91095733642578
 31
0.0
1001
DBPROPERTIES
1002
{
1000
PbThick
1002
}
  0
LINE
  5
264
330
1F
100
AcDbEntity
  8
THICK
100
AcDbLine
 10
-62.45153045654297
 20
-93.91095733642578
 30
0.0
 11
-62.36475372314453
 21
-93.81533813476562
 31
0.0
1001
DBPROPERTIES
1002
{
1000
PbThick
1002
}
  0
LINE
  5
265
330
1F
100
AcDbEntity
  8
THICK
100
AcDbLine
 10
-62.36475372314453
 20
-93.81533813476562
 30
0.0
 11
-62.26579666137695
 21
-93.71841430664062
 31
0.0
1001
DBPROPERTIES
1002
{
1000
PbThick
1002
}
  0
LINE
  5
266
330
1F
100
AcDbEntity
  8
THICK
100
AcDbLine
 10
-62.26579666137695
 20
-93.71841430664062
 30
0.0
 11
-62.15471267700195
 21
-93.62066650390625
 31
0.0
1001
DBPROPERTIES
1002
{
1000
PbThick
1002
}
  0
LINE
  5
267
330
1F
100
AcDbEntity
  8
THICK
100
AcDbLine
 10
-62.15471267700195
 20
-93.62066650390625
 30
0.0
 11
-62.03156661987305
 21
-93.52256774902344
 31
0.0
1001
DBPROPERTIES
1002
{
1000
PbThick
1002
}
  0
LINE
  5
268
330
1F
100
AcDbEntity
  8
THICK
100
AcDbLine
 10
-62.03156661987305
 20
-93.52256774902344
 30
0.0
 11
-61.89651489257812
 21
-93.42459869384766
 31
0.0
1001
DBPROPERTIES
1002
{
1000
PbThick
1002
}
  0
LINE
  5
269
330
1F
100
AcDbEntity
  8
THICK
100
AcDbLine
 10
-61.89651489257812
 20
-93.42459869384766
 30
0.0
 11
-61.75
 21
-93.32721710205078
 31
0.0
1001
DBPROPERTIES
1002
{
1000
PbThick
1002
}
  0
LINE
  5
26A
330
1F
100
AcDbEntity
  8
HIDDEN
100
AcDbLine
 10
-61.75
 20
-93.32721710205078
 30
0.0
 11
-61.5284538269043
 21
-93.19378662109375
 31
0.0
1001
DBPROPERTIES
1002
{
1000
PbHidd
1002
}
  0
LINE
  5
26B
330
1F
100
AcDbEntity
  8
HIDDEN
100
AcDbLine
 10
-61.5284538269043
 20
-93.19378662109375
 30
0.0
 11
-61.28707885742188
 21
-93.06352233886719
 31
0.0
1001
DBPROPERTIES
1002
{
1000
PbHidd
1002
}
  0
LINE
  5
26C
330
1F
100
AcDbEntity
  8
HIDDEN
100
AcDbLine
 10
-61.28707885742188
 20
-93.06352233886719
 30
0.0
 11
-61.02762603759766
 21
-92.93743133544922
 31
0.0
1001
DBPROPERTIES
1002
{
1000
PbHidd
1002
}
  0
LINE
  5
26D
330
1F
100
AcDbEntity
  8
HIDDEN
100
AcDbLine
 10
-61.02762603759766
 20
-92.93743133544922
 30
0.0
 11
-60.75234603881836
 21
-92.81658172607422
 31
0.0
1001
DBPROPERTIES
1002
{
1000
PbHidd
1002
}
  0
LINE
  5
26E
330
1F
100
AcDbEntity
  8
HIDDEN
100
AcDbLine
 10
-60.75234603881836
 20
-92.81658172607422
 30
0.0
 11
-60.46359634399414
 21
-92.70198822021484
 31
0.0
1001
DBPROPERTIES
1002
{
1000
PbHidd
1002
}
  0
LINE
  5
26F
330
1F
100
AcDbEntity
  8
HIDDEN
100
AcDbLine
 10
-60.46359634399414
 20
-92.70198822021484
 30
0.0
 11
-60.16428756713867
 21
-92.5945053100586
 31
0.0
1001
DBPROPERTIES
1002
{
1000
PbHidd
1002
}
  0
LINE
  5
270
330
1F
100
AcDbEntity
  8
HIDDEN
100
AcDbLine
 10
-60.16428756713867
 20
-92.5945053100586
 30
0.0
 11
-59.85756301879883
 21
-92.4948959350586
 31
0.0
1001
DBPROPERTIES
1002
{
1000
PbHidd
1002
}
  0
LINE
  5
271
330
1F
100
AcDbEntity
  8
HIDDEN
100
AcDbLine
 10
-59.85756301879883
 20
-92.4948959350586
 30
0.0
 11
-59.53815841674805
 21
-92.40150451660156
 31
0.0
1001
DBPROPERTIES
1002
{
1000
PbHidd
1002
}
  0
LINE
  5
272
330
1F
100
AcDbEntity
  8
HIDDEN
100
AcDbLine
 10
-59.53815841674805
 20
-92.40150451660156
 30
0.0
 11
-59.20165634155273
 21
-92.31346893310547
 31
0.0
1001
DBPROPERTIES
1002
{
1000
PbHidd
1002
}
  0
LINE
  5
273
330
1F
100
AcDbEntity
  8
HIDDEN
100
AcDbLine
 10
-59.20165634155273
 20
-92.31346893310547
 30
0.0
 11
-58.85114288330078
 21
-92.23235321044922
 31
0.0
1001
DBPROPERTIES
1002
{
1000
PbHidd
1002
}
  0
LINE
  5
274
330
1F
100
AcDbEntity
  8
HIDDEN
100
AcDbLine
 10
-58.85114288330078
 20
-92.23235321044922
 30
0.0
 11
-58.48996353149414
 21
-92.15948486328125
 31
0.0
1001
DBPROPERTIES
1002
{
1000
PbHidd
1002
}
  0
LINE
  5
275
330
1F
100
AcDbEntity
  8
HIDDEN
100
AcDbLine
 10
-58.48996353149414
 20
-92.15948486328125
 30
0.0
 11
-58.12174987792969
 21
-92.09590911865234
 31
0.0
1001
DBPROPERTIES
1002
{
1000
PbHidd
1002
}
  0
LINE
  5
276
330
1F
100
AcDbEntity
  8
HIDDEN
100
AcDbLine
 10
-58.12174987792969
 20
-92.09590911865234
 30
0.0
 11
-57.74999618530273
 21
-92.04253387451172
 31
0.0
1001
DBPROPERTIES
1002
{
1000
PbHidd
1002
}
  0
LINE
  5
277
330
1F
100
AcDbEntity
  8
HIDDEN
100
AcDbLine
 10
-57.74999618530273
 20
-92.04253387451172
 30
0.0
 11
-57.38882446289062
 21
-92.00096130371094
 31
0.0
1001
DBPROPERTIES
1002
{
1000
PbHidd
1002
}
  0
LINE
  5
278
330
1F
100
AcDbEntity
  8
HIDDEN
100
AcDbLine
 10
-57.38882446289062
 20
-92.00096130371094
 30
0.0
 11
-57.0311393737793
 21
-91.96986389160156
 31
0.0
1001
DBPROPERTIES
1002
{
1000
PbHidd
1002
}
  0
LINE
  5
279
330
1F
100
AcDbEntity
  8
HIDDEN
100
AcDbLine
 10
-57.0311393737793
 20
-91.96986389160156
 30
0.0
 11
-56.68043518066406
 21
-91.94943237304688
 31
0.0
1001
DBPROPERTIES
1002
{
1000
PbHidd
1002
}
  0
LINE
  5
27A
330
1F
100
AcDbEntity
  8
HIDDEN
100
AcDbLine
 10
-56.68043518066406
 20
-91.94943237304688
 30
0.0
 11
-56.34010314941406
 21
-91.93940734863281
 31
0.0
1001
DBPROPERTIES
1002
{
1000
PbHidd
1002
}
  0
LINE
  5
27B
330
1F
100
AcDbEntity
  8
HIDDEN
100
AcDbLine
 10
-56.34010314941406
 20
-91.93940734863281
 30
0.0
 11
-56.01151657104492
 21
-91.9394760131836
 31
0.0
1001
DBPROPERTIES
1002
{
1000
PbHidd
1002
}
  0
LINE
  5
27C
330
1F
100
AcDbEntity
  8
HIDDEN
100
AcDbLine
 10
-56.01151657104492
 20
-91.9394760131836
 30
0.0
 11
-55.68657302856445
 21
-91.94963836669922
 31
0.0
1001
DBPROPERTIES
1002
{
1000
PbHidd
1002
}
  0
LINE
  5
27D
330
1F
100
AcDbEntity
  8
HIDDEN
100
AcDbLine
 10
-55.68657302856445
 20
-91.94963836669922
 30
0.0
 11
-55.36724090576172
 21
-91.97020721435547
 31
0.0
1001
DBPROPERTIES
1002
{
1000
PbHidd
1002
}
  0
LINE
  5
27E
330
1F
100
AcDbEntity
  8
HIDDEN
100
AcDbLine
 10
-55.36724090576172
 20
-91.97020721435547
 30
0.0
 11
-55.05730819702148
 21
-92.0014419555664
 31
0.0
1001
DBPROPERTIES
1002
{
1000
PbHidd
1002
}
  0
LINE
  5
27F
330
1F
100
AcDbEntity
  8
HIDDEN
100
AcDbLine
 10
-55.05730819702148
 20
-92.0014419555664
 30
0.0
 11
-54.760009765625
 21
-92.04315185546875
 31
0.0
1001
DBPROPERTIES
1002
{
1000
PbHidd
1002
}
  0
LINE
  5
280
330
1F
100
AcDbEntity
  8
HIDDEN
100
AcDbLine
 10
-54.760009765625
 20
-92.04315185546875
 30
0.0
 11
-54.47835540771484
 21
-92.09497833251953
 31
0.0
1001
DBPROPERTIES
1002
{
1000
PbHidd
1002
}
  0
LINE
  5
281
330
1F
100
AcDbEntity
  8
HIDDEN
100
AcDbLine
 10
-54.47835540771484
 20
-92.09497833251953
 30
0.0
 11
-54.21484756469727
 21
-92.15644836425781
 31
0.0
1001
DBPROPERTIES
1002
{
1000
PbHidd
1002
}
  0
LINE
  5
282
330
1F
100
AcDbEntity
  8
HIDDEN
100
AcDbLine
 10
-54.21484756469727
 20
-92.15644836425781
 30
0.0
 11
-53.97142791748047
 21
-92.22672271728516
 31
0.0
1001
DBPROPERTIES
1002
{
1000
PbHidd
1002
}
  0
LINE
  5
283
330
1F
100
AcDbEntity
  8
HIDDEN
100
AcDbLine
 10
-53.97142791748047
 20
-92.22672271728516
 30
0.0
 11
-53.75001907348633
 21
-92.30485534667969
 31
0.0
1001
DBPROPERTIES
1002
{
1000
PbHidd
1002
}
  0
LINE
  5
284
330
1F
100
AcDbEntity
  8
THICK
100
AcDbLine
 10
-53.75001907348633
 20
-92.30485534667969
 30
0.0
 11
-53.54268646240234
 21
-92.39405059814453
 31
0.0
1001
DBPROPERTIES
1002
{
1000
PbThick
1002
}
  0
LINE
  5
285
330
1F
100
AcDbEntity
  8
THICK
100
AcDbLine
 10
-53.54268646240234
 20
-92.39405059814453
 30
0.0
 11
-53.3618278503418
 21
-92.48895263671875
 31
0.0
1001
DBPROPERTIES
1002
{
1000
PbThick
1002
}
  0
LINE
  5
286
330
1F
100
AcDbEntity
  8
THICK
100
AcDbLine
 10
-53.3618278503418
 20
-92.48895263671875
 30
0.0
 11
-53.20474624633789
 21
-92.59009552001953
 31
0.0
1001
DBPROPERTIES
1002
{
1000
PbThick
1002
}
  0
LINE
  5
287
330
1F
100
AcDbEntity
  8
THICK
100
AcDbLine
 10
-53.20474624633789
 20
-92.59009552001953
 30
0.0
 11
-53.06821441650391
 21
-92.699462890625
 31
0.0
1001
DBPROPERTIES
1002
{
1000
PbThick
1002
}
  0
LINE
  5
288
330
1F
100
AcDbEntity
  8
THICK
100
AcDbLine
 10
-53.06821441650391
 20
-92.699462890625
 30
0.0
 11
-52.95432281494141
 21
-92.81623077392578
 31
0.0
1001
DBPROPERTIES
1002
{
1000
PbThick
1002
}
  0
LINE
  5
289
330
1F
100
AcDbEntity
  8
THICK
100
AcDbLine
 10
-52.95432281494141
 20
-92.81623077392578
 30
0.0
 11
-52.86482620239258
 21
-92.93951416015625
 31
0.0
1001
DBPROPERTIES
1002
{
1000
PbThick
1002
}
  0
LINE
  5
28A
330
1F
100
AcDbEntity
  8
THICK
100
AcDbLine
 10
-52.86482620239258
 20
-92.93951416015625
 30
0.0
 11
-52.80057525634766
 21
-93.0682144165039
 31
0.0
1001
DBPROPERTIES
1002
{
1000
PbThick
1002
}
  0
LINE
  5
28B
330
1F
100
AcDbEntity
  8
THICK
100
AcDbLine
 10
-52.80057525634766
 20
-93.0682144165039
 30
0.0
 11
-52.76227569580078
 21
-93.20123291015625
 31
0.0
1001
DBPROPERTIES
1002
{
1000
PbThick
1002
}
  0
LINE
  5
28C
330
1F
100
AcDbEntity
  8
THICK
100
AcDbLine
 10
-52.76227569580078
 20
-93.20123291015625
 30
0.0
 11
-52.75008392333984
 21
-93.33747100830078
 31
0.0
1001
DBPROPERTIES
1002
{
1000
PbThick
1002
}
  0
LINE
  5
28D
330
1F
100
AcDbEntity
  8
THICK
100
AcDbLine
 10
-52.75008392333984
 20
-93.33747100830078
 30
0.0
 11
-52.76045608520508
 21
-93.45853424072266
 31
0.0
1001
DBPROPERTIES
1002
{
1000
PbThick
1002
}
  0
LINE
  5
28E
330
1F
100
AcDbEntity
  8
THICK
100
AcDbLine
 10
-52.76045608520508
 20
-93.45853424072266
 30
0.0
 11
-52.79007339477539
 21
-93.58024597167969
 31
0.0
1001
DBPROPERTIES
1002
{
1000
PbThick
1002
}
  0
LINE
  5
28F
330
1F
100
AcDbEntity
  8
THICK
100
AcDbLine
 10
-52.79007339477539
 20
-93.58024597167969
 30
0.0
 11
-52.83816146850586
 21
-93.70172882080078
 31
0.0
1001
DBPROPERTIES
1002
{
1000
PbThick
1002
}
  0
LINE
  5
290
330
1F
100
AcDbEntity
  8
THICK
100
AcDbLine
 10
-52.83816146850586
 20
-93.70172882080078
 30
0.0
 11
-52.90341949462891
 21
-93.82206726074219
 31
0.0
1001
DBPROPERTIES
1002
{
1000
PbThick
1002
}
  0
LINE
  5
291
330
1F
100
AcDbEntity
  8
THICK
100
AcDbLine
 10
-52.90341949462891
 20
-93.82206726074219
 30
0.0
 11
-52.98464202880859
 21
-93.94051361083984
 31
0.0
1001
DBPROPERTIES
1002
{
1000
PbThick
1002
}
  0
LINE
  5
292
330
1F
100
AcDbEntity
  8
THICK
100
AcDbLine
 10
-52.98464202880859
 20
-93.94051361083984
 30
0.0
 11
-53.08361053466797
 21
-94.05988311767578
 31
0.0
1001
DBPROPERTIES
1002
{
1000
PbThick
1002
}
  0
LINE
  5
293
330
1F
100
AcDbEntity
  8
THICK
100
AcDbLine
 10
-53.08361053466797
 20
-94.05988311767578
 30
0.0
 11
-53.20133209228516
 21
-94.1808090209961
 31
0.0
1001
DBPROPERTIES
1002
{
1000
PbThick
1002
}
  0
LINE
  5
294
330
1F
100
AcDbEntity
  8
THICK
100
AcDbLine
 10
-53.20133209228516
 20
-94.1808090209961
 30
0.0
 11
-53.33781051635742
 21
-94.30239868164062
 31
0.0
1001
DBPROPERTIES
1002
{
1000
PbThick
1002
}
  0
LINE
  5
295
330
1F
100
AcDbEntity
  8
THICK
100
AcDbLine
 10
-53.33781051635742
 20
-94.30239868164062
 30
0.0
 11
-53.49288940429688
 21
-94.42378234863281
 31
0.0
1001
DBPROPERTIES
1002
{
1000
PbThick
1002
}
  0
LINE
  5
296
330
1F
100
AcDbEntity
  8
THICK
100
AcDbLine
 10
-53.49288940429688
 20
-94.42378234863281
 30
0.0
 11
-53.66584777832031
 21
-94.54412841796875
 31
0.0
1001
DBPROPERTIES
1002
{
1000
PbThick
1002
}
  0
LINE
  5
297
330
1F
100
AcDbEntity
  8
THICK
100
AcDbLine
 10
-53.66584777832031
 20
-94.54412841796875
 30
0.0
 11
-53.85585403442383
 21
-94.66260528564453
 31
0.0
1001
DBPROPERTIES
1002
{
1000
PbThick
1002
}
  0
LINE
  5
298
330
1F
100
AcDbEntity
  8
THICK
100
AcDbLine
 10
-53.85585403442383
 20
-94.66260528564453
 30
0.0
 11
-54.06206130981445
 21
-94.77845001220703
 31
0.0
1001
DBPROPERTIES
1002
{
1000
PbThick
1002
}
  0
LINE
  5
299
330
1F
100
AcDbEntity
  8
THICK
100
AcDbLine
 10
-54.06206130981445
 20
-94.77845001220703
 30
0.0
 11
-54.28324508666992
 21
-94.8909912109375
 31
0.0
1001
DBPROPERTIES
1002
{
1000
PbThick
1002
}
  0
LINE
  5
29A
330
1F
100
AcDbEntity
  8
THICK
100
AcDbLine
 10
-54.28324508666992
 20
-94.8909912109375
 30
0.0
 11
-54.51789093017578
 21
-94.99951934814453
 31
0.0
1001
DBPROPERTIES
1002
{
1000
PbThick
1002
}
  0
LINE
  5
29B
330
1F
100
AcDbEntity
  8
THICK
100
AcDbLine
 10
-54.51789093017578
 20
-94.99951934814453
 30
0.0
 11
-54.76445388793945
 21
-95.10334014892578
 31
0.0
1001
DBPROPERTIES
1002
{
1000
PbThick
1002
}
  0
LINE
  5
29C
330
1F
100
AcDbEntity
  8
THICK
100
AcDbLine
 10
-54.76445388793945
 20
-95.10334014892578
 30
0.0
 11
-55.02103424072266
 21
-95.20186614990234
 31
0.0
1001
DBPROPERTIES
1002
{
1000
PbThick
1002
}
  0
LINE
  5
29D
330
1F
100
AcDbEntity
  8
THICK
100
AcDbLine
 10
-55.02103424072266
 20
-95.20186614990234
 30
0.0
 11
-55.28547668457031
 21
-95.2945785522461
 31
0.0
1001
DBPROPERTIES
1002
{
1000
PbThick
1002
}
  0
LINE
  5
29E
330
1F
100
AcDbEntity
  8
THICK
100
AcDbLine
 10
-55.28547668457031
 20
-95.2945785522461
 30
0.0
 11
-55.55655670166016
 21
-95.38125610351562
 31
0.0
1001
DBPROPERTIES
1002
{
1000
PbThick
1002
}
  0
LINE
  5
29F
330
1F
100
AcDbEntity
  8
THICK
100
AcDbLine
 10
-55.55655670166016
 20
-95.38125610351562
 30
0.0
 11
-55.84081268310547
 21
-95.46390533447266
 31
0.0
1001
DBPROPERTIES
1002
{
1000
PbThick
1002
}
  0
LINE
  5
2A0
330
1F
100
AcDbEntity
  8
THICK
100
AcDbLine
 10
-55.84081268310547
 20
-95.46390533447266
 30
0.0
 11
-56.13831329345703
 21
-95.54220581054688
 31
0.0
1001
DBPROPERTIES
1002
{
1000
PbThick
1002
}
  0
LINE
  5
2A1
330
1F
100
AcDbEntity
  8
THICK
100
AcDbLine
 10
-56.13831329345703
 20
-95.54220581054688
 30
0.0
 11
-56.44708251953125
 21
-95.61518859863281
 31
0.0
1001
DBPROPERTIES
1002
{
1000
PbThick
1002
}
  0
LINE
  5
2A2
330
1F
100
AcDbEntity
  8
THICK
100
AcDbLine
 10
-56.44708251953125
 20
-95.61518859863281
 30
0.0
 11
-56.76498413085938
 21
-95.68199157714844
 31
0.0
1001
DBPROPERTIES
1002
{
1000
PbThick
1002
}
  0
LINE
  5
2A3
330
1F
100
AcDbEntity
  8
THICK
100
AcDbLine
 10
-56.76498413085938
 20
-95.68199157714844
 30
0.0
 11
-57.08965301513672
 21
-95.74198913574219
 31
0.0
1001
DBPROPERTIES
1002
{
1000
PbThick
1002
}
  0
LINE
  5
2A4
330
1F
100
AcDbEntity
  8
THICK
100
AcDbLine
 10
-57.08965301513672
 20
-95.74198913574219
 30
0.0
 11
-57.4187126159668
 21
-95.7945556640625
 31
0.0
1001
DBPROPERTIES
1002
{
1000
PbThick
1002
}
  0
LINE
  5
2A5
330
1F
100
AcDbEntity
  8
THICK
100
AcDbLine
 10
-57.4187126159668
 20
-95.7945556640625
 30
0.0
 11
-57.75000381469727
 21
-95.83924865722656
 31
0.0
1001
DBPROPERTIES
1002
{
1000
PbThick
1002
}
  0
LINE
  5
2A6
330
1F
100
AcDbEntity
  8
THICK
100
AcDbLine
 10
-188.6
 20
-115.45
 30
0.0
 11
-0.0000000000000412
 21
-115.45
 31
0.0
1001
DBPROPERTIES
1002
{
1000
PbThick
1002
}
  0
LINE
  5
2A7
330
1F
100
AcDbEntity
  8
THICK
100
AcDbLine
 10
-168.1
 20
-107.25
 30
0.0
 11
-61.74999991556754
 21
-107.25
 31
0.0
1001
DBPROPERTIES
1002
{
1000
PbThick
1002
}
  0
LINE
  5
2A8
330
1F
100
AcDbEntity
  8
HIDDEN
100
AcDbLine
 10
-61.74999991556754
 20
-107.25
 30
0.0
 11
-53.74999994265551
 21
-107.25
 31
0.0
1001
DBPROPERTIES
1002
{
1000
PbHidd
1002
}
  0
LINE
  5
2A9
330
1F
100
AcDbEntity
  8
THICK
100
AcDbLine
 10
-53.74999994265551
 20
-107.25
 30
0.0
 11
-0.0000000000000374
 21
-107.25
 31
0.0
1001
DBPROPERTIES
1002
{
1000
PbThick
1002
}
  0
LINE
  5
2AA
330
1F
100
AcDbEntity
  8
THICK
100
AcDbLine
 10
-57.75000381469727
 20
-115.3392486572266
 30
0.0
 11
-58.04965591430664
 21
-115.372673034668
 31
0.0
1001
DBPROPERTIES
1002
{
1000
PbThick
1002
}
  0
LINE
  5
2AB
330
1F
100
AcDbEntity
  8
THICK
100
AcDbLine
 10
-58.04965591430664
 20
-115.372673034668
 30
0.0
 11
-58.34727096557617
 21
-115.3992614746094
 31
0.0
1001
DBPROPERTIES
1002
{
1000
PbThick
1002
}
  0
LINE
  5
2AC
330
1F
100
AcDbEntity
  8
THICK
100
AcDbLine
 10
-58.34727096557617
 20
-115.3992614746094
 30
0.0
 11
-58.64097595214844
 21
-115.4188842773438
 31
0.0
1001
DBPROPERTIES
1002
{
1000
PbThick
1002
}
  0
LINE
  5
2AD
330
1F
100
AcDbEntity
  8
THICK
100
AcDbLine
 10
-58.64097595214844
 20
-115.4188842773438
 30
0.0
 11
-58.928955078125
 21
-115.4316177368164
 31
0.0
1001
DBPROPERTIES
1002
{
1000
PbThick
1002
}
  0
LINE
  5
2AE
330
1F
100
AcDbEntity
  8
THICK
100
AcDbLine
 10
-58.928955078125
 20
-115.4316177368164
 30
0.0
 11
-59.20940780639648
 21
-115.4376373291016
 31
0.0
1001
DBPROPERTIES
1002
{
1000
PbThick
1002
}
  0
LINE
  5
2AF
330
1F
100
AcDbEntity
  8
THICK
100
AcDbLine
 10
-59.20940780639648
 20
-115.4376373291016
 30
0.0
 11
-59.48218154907227
 21
-115.4370727539062
 31
0.0
1001
DBPROPERTIES
1002
{
1000
PbThick
1002
}
  0
LINE
  5
2B0
330
1F
100
AcDbEntity
  8
THICK
100
AcDbLine
 10
-59.48218154907227
 20
-115.4370727539062
 30
0.0
 11
-59.75248718261719
 21
-115.4299163818359
 31
0.0
1001
DBPROPERTIES
1002
{
1000
PbThick
1002
}
  0
LINE
  5
2B1
330
1F
100
AcDbEntity
  8
THICK
100
AcDbLine
 10
-59.75248718261719
 20
-115.4299163818359
 30
0.0
 11
-60.01911163330078
 21
-115.4160079956055
 31
0.0
1001
DBPROPERTIES
1002
{
1000
PbThick
1002
}
  0
LINE
  5
2B2
330
1F
100
AcDbEntity
  8
THICK
100
AcDbLine
 10
-60.01911163330078
 20
-115.4160079956055
 30
0.0
 11
-60.28000640869141
 21
-115.3952026367188
 31
0.0
1001
DBPROPERTIES
1002
{
1000
PbThick
1002
}
  0
LINE
  5
2B3
330
1F
100
AcDbEntity
  8
THICK
100
AcDbLine
 10
-60.28000640869141
 20
-115.3952026367188
 30
0.0
 11
-60.53326034545898
 21
-115.3674240112305
 31
0.0
1001
DBPROPERTIES
1002
{
1000
PbThick
1002
}
  0
LINE
  5
2B4
330
1F
100
AcDbEntity
  8
THICK
100
AcDbLine
 10
-60.53326034545898
 20
-115.3674240112305
 30
0.0
 11
-60.77725601196289
 21
-115.3328399658203
 31
0.0
1001
DBPROPERTIES
1002
{
1000
PbThick
1002
}
  0
LINE
  5
2B5
330
1F
100
AcDbEntity
  8
THICK
100
AcDbLine
 10
-60.77725601196289
 20
-115.3328399658203
 30
0.0
 11
-61.01041412353516
 21
-115.2916259765625
 31
0.0
1001
DBPROPERTIES
1002
{
1000
PbThick
1002
}
  0
LINE
  5
2B6
330
1F
100
AcDbEntity
  8
THICK
100
AcDbLine
 10
-61.01041412353516
 20
-115.2916259765625
 30
0.0
 11
-61.23129272460938
 21
-115.2439727783203
 31
0.0
1001
DBPROPERTIES
1002
{
1000
PbThick
1002
}
  0
LINE
  5
2B7
330
1F
100
AcDbEntity
  8
THICK
100
AcDbLine
 10
-61.23129272460938
 20
-115.2439727783203
 30
0.0
 11
-61.43887329101562
 21
-115.1902236938477
 31
0.0
1001
DBPROPERTIES
1002
{
1000
PbThick
1002
}
  0
LINE
  5
2B8
330
1F
100
AcDbEntity
  8
THICK
100
AcDbLine
 10
-61.43887329101562
 20
-115.1902236938477
 30
0.0
 11
-61.63215637207031
 21
-115.1308364868164
 31
0.0
1001
DBPROPERTIES
1002
{
1000
PbThick
1002
}
  0
LINE
  5
2B9
330
1F
100
AcDbEntity
  8
THICK
100
AcDbLine
 10
-61.63215637207031
 20
-115.1308364868164
 30
0.0
 11
-61.81013870239258
 21
-115.0662612915039
 31
0.0
1001
DBPROPERTIES
1002
{
1000
PbThick
1002
}
  0
LINE
  5
2BA
330
1F
100
AcDbEntity
  8
THICK
100
AcDbLine
 10
-61.81013870239258
 20
-115.0662612915039
 30
0.0
 11
-61.97211074829102
 21
-114.9970855712891
 31
0.0
1001
DBPROPERTIES
1002
{
1000
PbThick
1002
}
  0
LINE
  5
2BB
330
1F
100
AcDbEntity
  8
THICK
100
AcDbLine
 10
-61.97211074829102
 20
-114.9970855712891
 30
0.0
 11
-62.11776351928711
 21
-114.9240112304688
 31
0.0
1001
DBPROPERTIES
1002
{
1000
PbThick
1002
}
  0
LINE
  5
2BC
330
1F
100
AcDbEntity
  8
THICK
100
AcDbLine
 10
-62.11776351928711
 20
-114.9240112304688
 30
0.0
 11
-62.246826171875
 21
-114.847770690918
 31
0.0
1001
DBPROPERTIES
1002
{
1000
PbThick
1002
}
  0
LINE
  5
2BD
330
1F
100
AcDbEntity
  8
THICK
100
AcDbLine
 10
-62.246826171875
 20
-114.847770690918
 30
0.0
 11
-62.36119842529297
 21
-114.767578125
 31
0.0
1001
DBPROPERTIES
1002
{
1000
PbThick
1002
}
  0
LINE
  5
2BE
330
1F
100
AcDbEntity
  8
THICK
100
AcDbLine
 10
-62.36119842529297
 20
-114.767578125
 30
0.0
 11
-62.46243667602539
 21
-114.6823348999023
 31
0.0
1001
DBPROPERTIES
1002
{
1000
PbThick
1002
}
  0
LINE
  5
2BF
330
1F
100
AcDbEntity
  8
THICK
100
AcDbLine
 10
-62.46243667602539
 20
-114.6823348999023
 30
0.0
 11
-62.5495719909668
 21
-114.592414855957
 31
0.0
1001
DBPROPERTIES
1002
{
1000
PbThick
1002
}
  0
LINE
  5
2C0
330
1F
100
AcDbEntity
  8
THICK
100
AcDbLine
 10
-62.5495719909668
 20
-114.592414855957
 30
0.0
 11
-62.62163543701172
 21
-114.4982070922852
 31
0.0
1001
DBPROPERTIES
1002
{
1000
PbThick
1002
}
  0
LINE
  5
2C1
330
1F
100
AcDbEntity
  8
THICK
100
AcDbLine
 10
-62.62163543701172
 20
-114.4982070922852
 30
0.0
 11
-62.67798233032227
 21
-114.400146484375
 31
0.0
1001
DBPROPERTIES
1002
{
1000
PbThick
1002
}
  0
LINE
  5
2C2
330
1F
100
AcDbEntity
  8
THICK
100
AcDbLine
 10
-62.67798233032227
 20
-114.400146484375
 30
0.0
 11
-62.71832275390625
 21
-114.2987594604492
 31
0.0
1001
DBPROPERTIES
1002
{
1000
PbThick
1002
}
  0
LINE
  5
2C3
330
1F
100
AcDbEntity
  8
THICK
100
AcDbLine
 10
-62.71832275390625
 20
-114.2987594604492
 30
0.0
 11
-62.74237442016602
 21
-114.1945571899414
 31
0.0
1001
DBPROPERTIES
1002
{
1000
PbThick
1002
}
  0
LINE
  5
2C4
330
1F
100
AcDbEntity
  8
THICK
100
AcDbLine
 10
-62.74237442016602
 20
-114.1945571899414
 30
0.0
 11
-62.74994659423828
 21
-114.0880508422852
 31
0.0
1001
DBPROPERTIES
1002
{
1000
PbThick
1002
}
  0
LINE
  5
2C5
330
1F
100
AcDbEntity
  8
THICK
100
AcDbLine
 10
-62.74994659423828
 20
-114.0880508422852
 30
0.0
 11
-62.74065780639648
 21
-113.9759521484375
 31
0.0
1001
DBPROPERTIES
1002
{
1000
PbThick
1002
}
  0
LINE
  5
2C6
330
1F
100
AcDbEntity
  8
THICK
100
AcDbLine
 10
-62.74065780639648
 20
-113.9759521484375
 30
0.0
 11
-62.71433258056641
 21
-113.8626251220703
 31
0.0
1001
DBPROPERTIES
1002
{
1000
PbThick
1002
}
  0
LINE
  5
2C7
330
1F
100
AcDbEntity
  8
THICK
100
AcDbLine
 10
-62.71433258056641
 20
-113.8626251220703
 30
0.0
 11
-62.6713752746582
 21
-113.7487564086914
 31
0.0
1001
DBPROPERTIES
1002
{
1000
PbThick
1002
}
  0
LINE
  5
2C8
330
1F
100
AcDbEntity
  8
THICK
100
AcDbLine
 10
-62.6713752746582
 20
-113.7487564086914
 30
0.0
 11
-62.61250305175781
 21
-113.6350326538086
 31
0.0
1001
DBPROPERTIES
1002
{
1000
PbThick
1002
}
  0
LINE
  5
2C9
330
1F
100
AcDbEntity
  8
THICK
100
AcDbLine
 10
-62.61250305175781
 20
-113.6350326538086
 30
0.0
 11
-62.53883743286133
 21
-113.5221862792969
 31
0.0
1001
DBPROPERTIES
1002
{
1000
PbThick
1002
}
  0
LINE
  5
2CA
330
1F
100
AcDbEntity
  8
THICK
100
AcDbLine
 10
-62.53883743286133
 20
-113.5221862792969
 30
0.0
 11
-62.45153045654297
 21
-113.4109573364258
 31
0.0
1001
DBPROPERTIES
1002
{
1000
PbThick
1002
}
  0
LINE
  5
2CB
330
1F
100
AcDbEntity
  8
THICK
100
AcDbLine
 10
-62.45153045654297
 20
-113.4109573364258
 30
0.0
 11
-62.36475372314453
 21
-113.3153381347656
 31
0.0
1001
DBPROPERTIES
1002
{
1000
PbThick
1002
}
  0
LINE
  5
2CC
330
1F
100
AcDbEntity
  8
THICK
100
AcDbLine
 10
-62.36475372314453
 20
-113.3153381347656
 30
0.0
 11
-62.26579666137695
 21
-113.2184143066406
 31
0.0
1001
DBPROPERTIES
1002
{
1000
PbThick
1002
}
  0
LINE
  5
2CD
330
1F
100
AcDbEntity
  8
THICK
100
AcDbLine
 10
-62.26579666137695
 20
-113.2184143066406
 30
0.0
 11
-62.15471267700195
 21
-113.1206665039062
 31
0.0
1001
DBPROPERTIES
1002
{
1000
PbThick
1002
}
  0
LINE
  5
2CE
330
1F
100
AcDbEntity
  8
THICK
100
AcDbLine
 10
-62.15471267700195
 20
-113.1206665039062
 30
0.0
 11
-62.03156661987305
 21
-113.0225677490234
 31
0.0
1001
DBPROPERTIES
1002
{
1000
PbThick
1002
}
  0
LINE
  5
2CF
330
1F
100
AcDbEntity
  8
THICK
100
AcDbLine
 10
-62.03156661987305
 20
-113.0225677490234
 30
0.0
 11
-61.89651489257812
 21
-112.9245986938477
 31
0.0
1001
DBPROPERTIES
1002
{
1000
PbThick
1002
}
  0
LINE
  5
2D0
330
1F
100
AcDbEntity
  8
THICK
100
AcDbLine
 10
-61.89651489257812
 20
-112.9245986938477
 30
0.0
 11
-61.75
 21
-112.8272171020508
 31
0.0
1001
DBPROPERTIES
1002
{
1000
PbThick
1002
}
  0
LINE
  5
2D1
330
1F
100
AcDbEntity
  8
HIDDEN
100
AcDbLine
 10
-61.75
 20
-112.8272171020508
 30
0.0
 11
-61.5284538269043
 21
-112.6937866210938
 31
0.0
1001
DBPROPERTIES
1002
{
1000
PbHidd
1002
}
  0
LINE
  5
2D2
330
1F
100
AcDbEntity
  8
HIDDEN
100
AcDbLine
 10
-61.5284538269043
 20
-112.6937866210938
 30
0.0
 11
-61.28707885742188
 21
-112.5635223388672
 31
0.0
1001
DBPROPERTIES
1002
{
1000
PbHidd
1002
}
  0
LINE
  5
2D3
330
1F
100
AcDbEntity
  8
HIDDEN
100
AcDbLine
 10
-61.28707885742188
 20
-112.5635223388672
 30
0.0
 11
-61.02762603759766
 21
-112.4374313354492
 31
0.0
1001
DBPROPERTIES
1002
{
1000
PbHidd
1002
}
  0
LINE
  5
2D4
330
1F
100
AcDbEntity
  8
HIDDEN
100
AcDbLine
 10
-61.02762603759766
 20
-112.4374313354492
 30
0.0
 11
-60.75234603881836
 21
-112.3165817260742
 31
0.0
1001
DBPROPERTIES
1002
{
1000
PbHidd
1002
}
  0
LINE
  5
2D5
330
1F
100
AcDbEntity
  8
HIDDEN
100
AcDbLine
 10
-60.75234603881836
 20
-112.3165817260742
 30
0.0
 11
-60.46359634399414
 21
-112.2019882202148
 31
0.0
1001
DBPROPERTIES
1002
{
1000
PbHidd
1002
}
  0
LINE
  5
2D6
330
1F
100
AcDbEntity
  8
HIDDEN
100
AcDbLine
 10
-60.46359634399414
 20
-112.2019882202148
 30
0.0
 11
-60.16428756713867
 21
-112.0945053100586
 31
0.0
1001
DBPROPERTIES
1002
{
1000
PbHidd
1002
}
  0
LINE
  5
2D7
330
1F
100
AcDbEntity
  8
HIDDEN
100
AcDbLine
 10
-60.16428756713867
 20
-112.0945053100586
 30
0.0
 11
-59.85756301879883
 21
-111.9948959350586
 31
0.0
1001
DBPROPERTIES
1002
{
1000
PbHidd
1002
}
  0
LINE
  5
2D8
330
1F
100
AcDbEntity
  8
HIDDEN
100
AcDbLine
 10
-59.85756301879883
 20
-111.9948959350586
 30
0.0
 11
-59.53815841674805
 21
-111.9015045166016
 31
0.0
1001
DBPROPERTIES
1002
{
1000
PbHidd
1002
}
  0
LINE
  5
2D9
330
1F
100
AcDbEntity
  8
HIDDEN
100
AcDbLine
 10
-59.53815841674805
 20
-111.9015045166016
 30
0.0
 11
-59.20165634155273
 21
-111.8134689331055
 31
0.0
1001
DBPROPERTIES
1002
{
1000
PbHidd
1002
}
  0
LINE
  5
2DA
330
1F
100
AcDbEntity
  8
HIDDEN
100
AcDbLine
 10
-59.20165634155273
 20
-111.8134689331055
 30
0.0
 11
-58.85114288330078
 21
-111.7323532104492
 31
0.0
1001
DBPROPERTIES
1002
{
1000
PbHidd
1002
}
  0
LINE
  5
2DB
330
1F
100
AcDbEntity
  8
HIDDEN
100
AcDbLine
 10
-58.85114288330078
 20
-111.7323532104492
 30
0.0
 11
-58.48996353149414
 21
-111.6594848632812
 31
0.0
1001
DBPROPERTIES
1002
{
1000
PbHidd
1002
}
  0
LINE
  5
2DC
330
1F
100
AcDbEntity
  8
HIDDEN
100
AcDbLine
 10
-58.48996353149414
 20
-111.6594848632812
 30
0.0
 11
-58.12174987792969
 21
-111.5959091186523
 31
0.0
1001
DBPROPERTIES
1002
{
1000
PbHidd
1002
}
  0
LINE
  5
2DD
330
1F
100
AcDbEntity
  8
HIDDEN
100
AcDbLine
 10
-58.12174987792969
 20
-111.5959091186523
 30
0.0
 11
-57.74999618530273
 21
-111.5425338745117
 31
0.0
1001
DBPROPERTIES
1002
{
1000
PbHidd
1002
}
  0
LINE
  5
2DE
330
1F
100
AcDbEntity
  8
HIDDEN
100
AcDbLine
 10
-57.74999618530273
 20
-111.5425338745117
 30
0.0
 11
-57.38882446289062
 21
-111.5009613037109
 31
0.0
1001
DBPROPERTIES
1002
{
1000
PbHidd
1002
}
  0
LINE
  5
2DF
330
1F
100
AcDbEntity
  8
HIDDEN
100
AcDbLine
 10
-57.38882446289062
 20
-111.5009613037109
 30
0.0
 11
-57.0311393737793
 21
-111.4698638916016
 31
0.0
1001
DBPROPERTIES
1002
{
1000
PbHidd
1002
}
  0
LINE
  5
2E0
330
1F
100
AcDbEntity
  8
HIDDEN
100
AcDbLine
 10
-57.0311393737793
 20
-111.4698638916016
 30
0.0
 11
-56.68043518066406
 21
-111.4494323730469
 31
0.0
1001
DBPROPERTIES
1002
{
1000
PbHidd
1002
}
  0
LINE
  5
2E1
330
1F
100
AcDbEntity
  8
HIDDEN
100
AcDbLine
 10
-56.68043518066406
 20
-111.4494323730469
 30
0.0
 11
-56.34010314941406
 21
-111.4394073486328
 31
0.0
1001
DBPROPERTIES
1002
{
1000
PbHidd
1002
}
  0
LINE
  5
2E2
330
1F
100
AcDbEntity
  8
HIDDEN
100
AcDbLine
 10
-56.34010314941406
 20
-111.4394073486328
 30
0.0
 11
-56.01151657104492
 21
-111.4394760131836
 31
0.0
1001
DBPROPERTIES
1002
{
1000
PbHidd
1002
}
  0
LINE
  5
2E3
330
1F
100
AcDbEntity
  8
HIDDEN
100
AcDbLine
 10
-56.01151657104492
 20
-111.4394760131836
 30
0.0
 11
-55.68657302856445
 21
-111.4496383666992
 31
0.0
1001
DBPROPERTIES
1002
{
1000
PbHidd
1002
}
  0
LINE
  5
2E4
330
1F
100
AcDbEntity
  8
HIDDEN
100
AcDbLine
 10
-55.68657302856445
 20
-111.4496383666992
 30
0.0
 11
-55.36723709106445
 21
-111.4702072143555
 31
0.0
1001
DBPROPERTIES
1002
{
1000
PbHidd
1002
}
  0
LINE
  5
2E5
330
1F
100
AcDbEntity
  8
HIDDEN
100
AcDbLine
 10
-55.36723709106445
 20
-111.4702072143555
 30
0.0
 11
-55.05730819702148
 21
-111.5014419555664
 31
0.0
1001
DBPROPERTIES
1002
{
1000
PbHidd
1002
}
  0
LINE
  5
2E6
330
1F
100
AcDbEntity
  8
HIDDEN
100
AcDbLine
 10
-55.05730819702148
 20
-111.5014419555664
 30
0.0
 11
-54.760009765625
 21
-111.5431518554688
 31
0.0
1001
DBPROPERTIES
1002
{
1000
PbHidd
1002
}
  0
LINE
  5
2E7
330
1F
100
AcDbEntity
  8
HIDDEN
100
AcDbLine
 10
-54.760009765625
 20
-111.5431518554688
 30
0.0
 11
-54.47835540771484
 21
-111.5949783325195
 31
0.0
1001
DBPROPERTIES
1002
{
1000
PbHidd
1002
}
  0
LINE
  5
2E8
330
1F
100
AcDbEntity
  8
HIDDEN
100
AcDbLine
 10
-54.47835540771484
 20
-111.5949783325195
 30
0.0
 11
-54.21484756469727
 21
-111.6564483642578
 31
0.0
1001
DBPROPERTIES
1002
{
1000
PbHidd
1002
}
  0
LINE
  5
2E9
330
1F
100
AcDbEntity
  8
HIDDEN
100
AcDbLine
 10
-54.21484756469727
 20
-111.6564483642578
 30
0.0
 11
-53.97142791748047
 21
-111.7267227172852
 31
0.0
1001
DBPROPERTIES
1002
{
1000
PbHidd
1002
}
  0
LINE
  5
2EA
330
1F
100
AcDbEntity
  8
HIDDEN
100
AcDbLine
 10
-53.97142791748047
 20
-111.7267227172852
 30
0.0
 11
-53.75001907348633
 21
-111.8048553466797
 31
0.0
1001
DBPROPERTIES
1002
{
1000
PbHidd
1002
}
  0
LINE
  5
2EB
330
1F
100
AcDbEntity
  8
THICK
100
AcDbLine
 10
-53.75001907348633
 20
-111.8048553466797
 30
0.0
 11
-53.54268646240234
 21
-111.8940505981445
 31
0.0
1001
DBPROPERTIES
1002
{
1000
PbThick
1002
}
  0
LINE
  5
2EC
330
1F
100
AcDbEntity
  8
THICK
100
AcDbLine
 10
-53.54268646240234
 20
-111.8940505981445
 30
0.0
 11
-53.3618278503418
 21
-111.9889526367188
 31
0.0
1001
DBPROPERTIES
1002
{
1000
PbThick
1002
}
  0
LINE
  5
2ED
330
1F
100
AcDbEntity
  8
THICK
100
AcDbLine
 10
-53.3618278503418
 20
-111.9889526367188
 30
0.0
 11
-53.20474624633789
 21
-112.0900955200195
 31
0.0
1001
DBPROPERTIES
1002
{
1000
PbThick
1002
}
  0
LINE
  5
2EE
330
1F
100
AcDbEntity
  8
THICK
100
AcDbLine
 10
-53.20474624633789
 20
-112.0900955200195
 30
0.0
 11
-53.06821441650391
 21
-112.199462890625
 31
0.0
1001
DBPROPERTIES
1002
{
1000
PbThick
1002
}
  0
LINE
  5
2EF
330
1F
100
AcDbEntity
  8
THICK
100
AcDbLine
 10
-53.06821441650391
 20
-112.199462890625
 30
0.0
 11
-52.95432281494141
 21
-112.3162307739258
 31
0.0
1001
DBPROPERTIES
1002
{
1000
PbThick
1002
}
  0
LINE
  5
2F0
330
1F
100
AcDbEntity
  8
THICK
100
AcDbLine
 10
-52.95432281494141
 20
-112.3162307739258
 30
0.0
 11
-52.86482620239258
 21
-112.4395141601562
 31
0.0
1001
DBPROPERTIES
1002
{
1000
PbThick
1002
}
  0
LINE
  5
2F1
330
1F
100
AcDbEntity
  8
THICK
100
AcDbLine
 10
-52.86482620239258
 20
-112.4395141601562
 30
0.0
 11
-52.80057525634766
 21
-112.5682144165039
 31
0.0
1001
DBPROPERTIES
1002
{
1000
PbThick
1002
}
  0
LINE
  5
2F2
330
1F
100
AcDbEntity
  8
THICK
100
AcDbLine
 10
-52.80057525634766
 20
-112.5682144165039
 30
0.0
 11
-52.76227569580078
 21
-112.7012329101562
 31
0.0
1001
DBPROPERTIES
1002
{
1000
PbThick
1002
}
  0
LINE
  5
2F3
330
1F
100
AcDbEntity
  8
THICK
100
AcDbLine
 10
-52.76227569580078
 20
-112.7012329101562
 30
0.0
 11
-52.75008392333984
 21
-112.8374710083008
 31
0.0
1001
DBPROPERTIES
1002
{
1000
PbThick
1002
}
  0
LINE
  5
2F4
330
1F
100
AcDbEntity
  8
THICK
100
AcDbLine
 10
-52.75008392333984
 20
-112.8374710083008
 30
0.0
 11
-52.76045608520508
 21
-112.9585342407227
 31
0.0
1001
DBPROPERTIES
1002
{
1000
PbThick
1002
}
  0
LINE
  5
2F5
330
1F
100
AcDbEntity
  8
THICK
100
AcDbLine
 10
-52.76045608520508
 20
-112.9585342407227
 30
0.0
 11
-52.79007339477539
 21
-113.0802459716797
 31
0.0
1001
DBPROPERTIES
1002
{
1000
PbThick
1002
}
  0
LINE
  5
2F6
330
1F
100
AcDbEntity
  8
THICK
100
AcDbLine
 10
-52.79007339477539
 20
-113.0802459716797
 30
0.0
 11
-52.83816146850586
 21
-113.2017288208008
 31
0.0
1001
DBPROPERTIES
1002
{
1000
PbThick
1002
}
  0
LINE
  5
2F7
330
1F
100
AcDbEntity
  8
THICK
100
AcDbLine
 10
-52.83816146850586
 20
-113.2017288208008
 30
0.0
 11
-52.90341949462891
 21
-113.3220672607422
 31
0.0
1001
DBPROPERTIES
1002
{
1000
PbThick
1002
}
  0
LINE
  5
2F8
330
1F
100
AcDbEntity
  8
THICK
100
AcDbLine
 10
-52.90341949462891
 20
-113.3220672607422
 30
0.0
 11
-52.98464202880859
 21
-113.4405136108398
 31
0.0
1001
DBPROPERTIES
1002
{
1000
PbThick
1002
}
  0
LINE
  5
2F9
330
1F
100
AcDbEntity
  8
THICK
100
AcDbLine
 10
-52.98464202880859
 20
-113.4405136108398
 30
0.0
 11
-53.08361053466797
 21
-113.5598831176758
 31
0.0
1001
DBPROPERTIES
1002
{
1000
PbThick
1002
}
  0
LINE
  5
2FA
330
1F
100
AcDbEntity
  8
THICK
100
AcDbLine
 10
-53.08361053466797
 20
-113.5598831176758
 30
0.0
 11
-53.20133209228516
 21
-113.6808090209961
 31
0.0
1001
DBPROPERTIES
1002
{
1000
PbThick
1002
}
  0
LINE
  5
2FB
330
1F
100
AcDbEntity
  8
THICK
100
AcDbLine
 10
-53.20133209228516
 20
-113.6808090209961
 30
0.0
 11
-53.33781051635742
 21
-113.8023986816406
 31
0.0
1001
DBPROPERTIES
1002
{
1000
PbThick
1002
}
  0
LINE
  5
2FC
330
1F
100
AcDbEntity
  8
THICK
100
AcDbLine
 10
-53.33781051635742
 20
-113.8023986816406
 30
0.0
 11
-53.49288940429688
 21
-113.9237823486328
 31
0.0
1001
DBPROPERTIES
1002
{
1000
PbThick
1002
}
  0
LINE
  5
2FD
330
1F
100
AcDbEntity
  8
THICK
100
AcDbLine
 10
-53.49288940429688
 20
-113.9237823486328
 30
0.0
 11
-53.66584777832031
 21
-114.0441284179688
 31
0.0
1001
DBPROPERTIES
1002
{
1000
PbThick
1002
}
  0
LINE
  5
2FE
330
1F
100
AcDbEntity
  8
THICK
100
AcDbLine
 10
-53.66584777832031
 20
-114.0441284179688
 30
0.0
 11
-53.85585403442383
 21
-114.1626052856445
 31
0.0
1001
DBPROPERTIES
1002
{
1000
PbThick
1002
}
  0
LINE
  5
2FF
330
1F
100
AcDbEntity
  8
THICK
100
AcDbLine
 10
-53.85585403442383
 20
-114.1626052856445
 30
0.0
 11
-54.06206130981445
 21
-114.278450012207
 31
0.0
1001
DBPROPERTIES
1002
{
1000
PbThick
1002
}
  0
LINE
  5
300
330
1F
100
AcDbEntity
  8
THICK
100
AcDbLine
 10
-54.06206130981445
 20
-114.278450012207
 30
0.0
 11
-54.28324508666992
 21
-114.3909912109375
 31
0.0
1001
DBPROPERTIES
1002
{
1000
PbThick
1002
}
  0
LINE
  5
301
330
1F
100
AcDbEntity
  8
THICK
100
AcDbLine
 10
-54.28324508666992
 20
-114.3909912109375
 30
0.0
 11
-54.51789093017578
 21
-114.4995193481445
 31
0.0
1001
DBPROPERTIES
1002
{
1000
PbThick
1002
}
  0
LINE
  5
302
330
1F
100
AcDbEntity
  8
THICK
100
AcDbLine
 10
-54.51789093017578
 20
-114.4995193481445
 30
0.0
 11
-54.76445388793945
 21
-114.6033401489258
 31
0.0
1001
DBPROPERTIES
1002
{
1000
PbThick
1002
}
  0
LINE
  5
303
330
1F
100
AcDbEntity
  8
THICK
100
AcDbLine
 10
-54.76445388793945
 20
-114.6033401489258
 30
0.0
 11
-55.02103424072266
 21
-114.7018661499023
 31
0.0
1001
DBPROPERTIES
1002
{
1000
PbThick
1002
}
  0
LINE
  5
304
330
1F
100
AcDbEntity
  8
THICK
100
AcDbLine
 10
-55.02103424072266
 20
-114.7018661499023
 30
0.0
 11
-55.28547668457031
 21
-114.7945785522461
 31
0.0
1001
DBPROPERTIES
1002
{
1000
PbThick
1002
}
  0
LINE
  5
305
330
1F
100
AcDbEntity
  8
THICK
100
AcDbLine
 10
-55.28547668457031
 20
-114.7945785522461
 30
0.0
 11
-55.55655670166016
 21
-114.8812561035156
 31
0.0
1001
DBPROPERTIES
1002
{
1000
PbThick
1002
}
  0
LINE
  5
306
330
1F
100
AcDbEntity
  8
THICK
100
AcDbLine
 10
-55.55655670166016
 20
-114.8812561035156
 30
0.0
 11
-55.84081268310547
 21
-114.9639053344727
 31
0.0
1001
DBPROPERTIES
1002
{
1000
PbThick
1002
}
  0
LINE
  5
307
330
1F
100
AcDbEntity
  8
THICK
100
AcDbLine
 10
-55.84081268310547
 20
-114.9639053344727
 30
0.0
 11
-56.13831329345703
 21
-115.0422058105469
 31
0.0
1001
DBPROPERTIES
1002
{
1000
PbThick
1002
}
  0
LINE
  5
308
330
1F
100
AcDbEntity
  8
THICK
100
AcDbLine
 10
-56.13831329345703
 20
-115.0422058105469
 30
0.0
 11
-56.44708251953125
 21
-115.1151885986328
 31
0.0
1001
DBPROPERTIES
1002
{
1000
PbThick
1002
}
  0
LINE
  5
309
330
1F
100
AcDbEntity
  8
THICK
100
AcDbLine
 10
-56.44708251953125
 20
-115.1151885986328
 30
0.0
 11
-56.76498413085938
 21
-115.1819915771484
 31
0.0
1001
DBPROPERTIES
1002
{
1000
PbThick
1002
}
  0
LINE
  5
30A
330
1F
100
AcDbEntity
  8
THICK
100
AcDbLine
 10
-56.76498413085938
 20
-115.1819915771484
 30
0.0
 11
-57.08965301513672
 21
-115.2419891357422
 31
0.0
1001
DBPROPERTIES
1002
{
1000
PbThick
1002
}
  0
LINE
  5
30B
330
1F
100
AcDbEntity
  8
THICK
100
AcDbLine
 10
-57.08965301513672
 20
-115.2419891357422
 30
0.0
 11
-57.4187126159668
 21
-115.2945556640625
 31
0.0
1001
DBPROPERTIES
1002
{
1000
PbThick
1002
}
  0
LINE
  5
30C
330
1F
100
AcDbEntity
  8
THICK
100
AcDbLine
 10
-57.4187126159668
 20
-115.2945556640625
 30
0.0
 11
-57.75000381469727
 21
-115.3392486572266
 31
0.0
1001
DBPROPERTIES
1002
{
1000
PbThick
1002
}
  0
LINE
  5
30D
330
1F
100
AcDbEntity
  8
THICK
100
AcDbLine
 10
-188.6
 20
-134.95
 30
0.0
 11
-0.0000000000000424
 21
-134.95
 31
0.0
1001
DBPROPERTIES
1002
{
1000
PbThick
1002
}
  0
LINE
  5
30E
330
1F
100
AcDbEntity
  8
THICK
100
AcDbLine
 10
-168.1
 20
-126.75
 30
0.0
 11
-61.74999991556754
 21
-126.75
 31
0.0
1001
DBPROPERTIES
1002
{
1000
PbThick
1002
}
  0
LINE
  5
30F
330
1F
100
AcDbEntity
  8
HIDDEN
100
AcDbLine
 10
-61.74999991556754
 20
-126.75
 30
0.0
 11
-53.74999994212742
 21
-126.75
 31
0.0
1001
DBPROPERTIES
1002
{
1000
PbHidd
1002
}
  0
LINE
  5
310
330
1F
100
AcDbEntity
  8
THICK
100
AcDbLine
 10
-53.74999994212742
 20
-126.75
 30
0.0
 11
-0.0000000000000386
 21
-126.75
 31
0.0
1001
DBPROPERTIES
1002
{
1000
PbThick
1002
}
  0
LINE
  5
311
330
1F
100
AcDbEntity
  8
THICK
100
AcDbLine
 10
-57.75000381469727
 20
-134.8392486572266
 30
0.0
 11
-58.04965591430664
 21
-134.8726806640625
 31
0.0
1001
DBPROPERTIES
1002
{
1000
PbThick
1002
}
  0
LINE
  5
312
330
1F
100
AcDbEntity
  8
THICK
100
AcDbLine
 10
-58.04965591430664
 20
-134.8726806640625
 30
0.0
 11
-58.34727096557617
 21
-134.8992614746094
 31
0.0
1001
DBPROPERTIES
1002
{
1000
PbThick
1002
}
  0
LINE
  5
313
330
1F
100
AcDbEntity
  8
THICK
100
AcDbLine
 10
-58.34727096557617
 20
-134.8992614746094
 30
0.0
 11
-58.64097595214844
 21
-134.9188842773438
 31
0.0
1001
DBPROPERTIES
1002
{
1000
PbThick
1002
}
  0
LINE
  5
314
330
1F
100
AcDbEntity
  8
THICK
100
AcDbLine
 10
-58.64097595214844
 20
-134.9188842773438
 30
0.0
 11
-58.928955078125
 21
-134.9316253662109
 31
0.0
1001
DBPROPERTIES
1002
{
1000
PbThick
1002
}
  0
LINE
  5
315
330
1F
100
AcDbEntity
  8
THICK
100
AcDbLine
 10
-58.928955078125
 20
-134.9316253662109
 30
0.0
 11
-59.20940780639648
 21
-134.9376373291016
 31
0.0
1001
DBPROPERTIES
1002
{
1000
PbThick
1002
}
  0
LINE
  5
316
330
1F
100
AcDbEntity
  8
THICK
100
AcDbLine
 10
-59.20940780639648
 20
-134.9376373291016
 30
0.0
 11
-59.48218154907227
 21
-134.9370727539062
 31
0.0
1001
DBPROPERTIES
1002
{
1000
PbThick
1002
}
  0
LINE
  5
317
330
1F
100
AcDbEntity
  8
THICK
100
AcDbLine
 10
-59.48218154907227
 20
-134.9370727539062
 30
0.0
 11
-59.75248718261719
 21
-134.9299163818359
 31
0.0
1001
DBPROPERTIES
1002
{
1000
PbThick
1002
}
  0
LINE
  5
318
330
1F
100
AcDbEntity
  8
THICK
100
AcDbLine
 10
-59.75248718261719
 20
-134.9299163818359
 30
0.0
 11
-60.01911163330078
 21
-134.916015625
 31
0.0
1001
DBPROPERTIES
1002
{
1000
PbThick
1002
}
  0
LINE
  5
319
330
1F
100
AcDbEntity
  8
THICK
100
AcDbLine
 10
-60.01911163330078
 20
-134.916015625
 30
0.0
 11
-60.28000640869141
 21
-134.8952026367188
 31
0.0
1001
DBPROPERTIES
1002
{
1000
PbThick
1002
}
  0
LINE
  5
31A
330
1F
100
AcDbEntity
  8
THICK
100
AcDbLine
 10
-60.28000640869141
 20
-134.8952026367188
 30
0.0
 11
-60.53326034545898
 21
-134.867431640625
 31
0.0
1001
DBPROPERTIES
1002
{
1000
PbThick
1002
}
  0
LINE
  5
31B
330
1F
100
AcDbEntity
  8
THICK
100
AcDbLine
 10
-60.53326034545898
 20
-134.867431640625
 30
0.0
 11
-60.77725601196289
 21
-134.8328399658203
 31
0.0
1001
DBPROPERTIES
1002
{
1000
PbThick
1002
}
  0
LINE
  5
31C
330
1F
100
AcDbEntity
  8
THICK
100
AcDbLine
 10
-60.77725601196289
 20
-134.8328399658203
 30
0.0
 11
-61.01041412353516
 21
-134.7916259765625
 31
0.0
1001
DBPROPERTIES
1002
{
1000
PbThick
1002
}
  0
LINE
  5
31D
330
1F
100
AcDbEntity
  8
THICK
100
AcDbLine
 10
-61.01041412353516
 20
-134.7916259765625
 30
0.0
 11
-61.23129272460938
 21
-134.7439727783203
 31
0.0
1001
DBPROPERTIES
1002
{
1000
PbThick
1002
}
  0
LINE
  5
31E
330
1F
100
AcDbEntity
  8
THICK
100
AcDbLine
 10
-61.23129272460938
 20
-134.7439727783203
 30
0.0
 11
-61.43887329101562
 21
-134.6902313232422
 31
0.0
1001
DBPROPERTIES
1002
{
1000
PbThick
1002
}
  0
LINE
  5
31F
330
1F
100
AcDbEntity
  8
THICK
100
AcDbLine
 10
-61.43887329101562
 20
-134.6902313232422
 30
0.0
 11
-61.63215637207031
 21
-134.6308288574219
 31
0.0
1001
DBPROPERTIES
1002
{
1000
PbThick
1002
}
  0
LINE
  5
320
330
1F
100
AcDbEntity
  8
THICK
100
AcDbLine
 10
-61.63215637207031
 20
-134.6308288574219
 30
0.0
 11
-61.81013870239258
 21
-134.5662689208984
 31
0.0
1001
DBPROPERTIES
1002
{
1000
PbThick
1002
}
  0
LINE
  5
321
330
1F
100
AcDbEntity
  8
THICK
100
AcDbLine
 10
-61.81013870239258
 20
-134.5662689208984
 30
0.0
 11
-61.97211074829102
 21
-134.4970855712891
 31
0.0
1001
DBPROPERTIES
1002
{
1000
PbThick
1002
}
  0
LINE
  5
322
330
1F
100
AcDbEntity
  8
THICK
100
AcDbLine
 10
-61.97211074829102
 20
-134.4970855712891
 30
0.0
 11
-62.11776351928711
 21
-134.4240112304688
 31
0.0
1001
DBPROPERTIES
1002
{
1000
PbThick
1002
}
  0
LINE
  5
323
330
1F
100
AcDbEntity
  8
THICK
100
AcDbLine
 10
-62.11776351928711
 20
-134.4240112304688
 30
0.0
 11
-62.246826171875
 21
-134.3477783203125
 31
0.0
1001
DBPROPERTIES
1002
{
1000
PbThick
1002
}
  0
LINE
  5
324
330
1F
100
AcDbEntity
  8
THICK
100
AcDbLine
 10
-62.246826171875
 20
-134.3477783203125
 30
0.0
 11
-62.36119842529297
 21
-134.267578125
 31
0.0
1001
DBPROPERTIES
1002
{
1000
PbThick
1002
}
  0
LINE
  5
325
330
1F
100
AcDbEntity
  8
THICK
100
AcDbLine
 10
-62.36119842529297
 20
-134.267578125
 30
0.0
 11
-62.46243667602539
 21
-134.1823425292969
 31
0.0
1001
DBPROPERTIES
1002
{
1000
PbThick
1002
}
  0
LINE
  5
326
330
1F
100
AcDbEntity
  8
THICK
100
AcDbLine
 10
-62.46243667602539
 20
-134.1823425292969
 30
0.0
 11
-62.5495719909668
 21
-134.0924224853516
 31
0.0
1001
DBPROPERTIES
1002
{
1000
PbThick
1002
}
  0
LINE
  5
327
330
1F
100
AcDbEntity
  8
THICK
100
AcDbLine
 10
-62.5495719909668
 20
-134.0924224853516
 30
0.0
 11
-62.62163543701172
 21
-133.9981994628906
 31
0.0
1001
DBPROPERTIES
1002
{
1000
PbThick
1002
}
  0
LINE
  5
328
330
1F
100
AcDbEntity
  8
THICK
100
AcDbLine
 10
-62.62163543701172
 20
-133.9981994628906
 30
0.0
 11
-62.67798233032227
 21
-133.900146484375
 31
0.0
1001
DBPROPERTIES
1002
{
1000
PbThick
1002
}
  0
LINE
  5
329
330
1F
100
AcDbEntity
  8
THICK
100
AcDbLine
 10
-62.67798233032227
 20
-133.900146484375
 30
0.0
 11
-62.71832275390625
 21
-133.7987518310547
 31
0.0
1001
DBPROPERTIES
1002
{
1000
PbThick
1002
}
  0
LINE
  5
32A
330
1F
100
AcDbEntity
  8
THICK
100
AcDbLine
 10
-62.71832275390625
 20
-133.7987518310547
 30
0.0
 11
-62.74237442016602
 21
-133.6945648193359
 31
0.0
1001
DBPROPERTIES
1002
{
1000
PbThick
1002
}
  0
LINE
  5
32B
330
1F
100
AcDbEntity
  8
THICK
100
AcDbLine
 10
-62.74237442016602
 20
-133.6945648193359
 30
0.0
 11
-62.74994659423828
 21
-133.5880584716797
 31
0.0
1001
DBPROPERTIES
1002
{
1000
PbThick
1002
}
  0
LINE
  5
32C
330
1F
100
AcDbEntity
  8
THICK
100
AcDbLine
 10
-62.74994659423828
 20
-133.5880584716797
 30
0.0
 11
-62.74065780639648
 21
-133.4759521484375
 31
0.0
1001
DBPROPERTIES
1002
{
1000
PbThick
1002
}
  0
LINE
  5
32D
330
1F
100
AcDbEntity
  8
THICK
100
AcDbLine
 10
-62.74065780639648
 20
-133.4759521484375
 30
0.0
 11
-62.71433258056641
 21
-133.3626251220703
 31
0.0
1001
DBPROPERTIES
1002
{
1000
PbThick
1002
}
  0
LINE
  5
32E
330
1F
100
AcDbEntity
  8
THICK
100
AcDbLine
 10
-62.71433258056641
 20
-133.3626251220703
 30
0.0
 11
-62.6713752746582
 21
-133.2487487792969
 31
0.0
1001
DBPROPERTIES
1002
{
1000
PbThick
1002
}
  0
LINE
  5
32F
330
1F
100
AcDbEntity
  8
THICK
100
AcDbLine
 10
-62.6713752746582
 20
-133.2487487792969
 30
0.0
 11
-62.61250305175781
 21
-133.1350250244141
 31
0.0
1001
DBPROPERTIES
1002
{
1000
PbThick
1002
}
  0
LINE
  5
330
330
1F
100
AcDbEntity
  8
THICK
100
AcDbLine
 10
-62.61250305175781
 20
-133.1350250244141
 30
0.0
 11
-62.53883743286133
 21
-133.0221862792969
 31
0.0
1001
DBPROPERTIES
1002
{
1000
PbThick
1002
}
  0
LINE
  5
331
330
1F
100
AcDbEntity
  8
THICK
100
AcDbLine
 10
-62.53883743286133
 20
-133.0221862792969
 30
0.0
 11
-62.45153045654297
 21
-132.9109497070312
 31
0.0
1001
DBPROPERTIES
1002
{
1000
PbThick
1002
}
  0
LINE
  5
332
330
1F
100
AcDbEntity
  8
THICK
100
AcDbLine
 10
-62.45153045654297
 20
-132.9109497070312
 30
0.0
 11
-62.36475372314453
 21
-132.8153381347656
 31
0.0
1001
DBPROPERTIES
1002
{
1000
PbThick
1002
}
  0
LINE
  5
333
330
1F
100
AcDbEntity
  8
THICK
100
AcDbLine
 10
-62.36475372314453
 20
-132.8153381347656
 30
0.0
 11
-62.26579666137695
 21
-132.7184143066406
 31
0.0
1001
DBPROPERTIES
1002
{
1000
PbThick
1002
}
  0
LINE
  5
334
330
1F
100
AcDbEntity
  8
THICK
100
AcDbLine
 10
-62.26579666137695
 20
-132.7184143066406
 30
0.0
 11
-62.15471267700195
 21
-132.6206665039062
 31
0.0
1001
DBPROPERTIES
1002
{
1000
PbThick
1002
}
  0
LINE
  5
335
330
1F
100
AcDbEntity
  8
THICK
100
AcDbLine
 10
-62.15471267700195
 20
-132.6206665039062
 30
0.0
 11
-62.03156661987305
 21
-132.5225677490234
 31
0.0
1001
DBPROPERTIES
1002
{
1000
PbThick
1002
}
  0
LINE
  5
336
330
1F
100
AcDbEntity
  8
THICK
100
AcDbLine
 10
-62.03156661987305
 20
-132.5225677490234
 30
0.0
 11
-61.89651489257812
 21
-132.4246063232422
 31
0.0
1001
DBPROPERTIES
1002
{
1000
PbThick
1002
}
  0
LINE
  5
337
330
1F
100
AcDbEntity
  8
THICK
100
AcDbLine
 10
-61.89651489257812
 20
-132.4246063232422
 30
0.0
 11
-61.75
 21
-132.3272094726562
 31
0.0
1001
DBPROPERTIES
1002
{
1000
PbThick
1002
}
  0
LINE
  5
338
330
1F
100
AcDbEntity
  8
HIDDEN
100
AcDbLine
 10
-61.75
 20
-132.3272094726562
 30
0.0
 11
-61.5284538269043
 21
-132.1937866210938
 31
0.0
1001
DBPROPERTIES
1002
{
1000
PbHidd
1002
}
  0
LINE
  5
339
330
1F
100
AcDbEntity
  8
HIDDEN
100
AcDbLine
 10
-61.5284538269043
 20
-132.1937866210938
 30
0.0
 11
-61.28707885742188
 21
-132.0635223388672
 31
0.0
1001
DBPROPERTIES
1002
{
1000
PbHidd
1002
}
  0
LINE
  5
33A
330
1F
100
AcDbEntity
  8
HIDDEN
100
AcDbLine
 10
-61.28707885742188
 20
-132.0635223388672
 30
0.0
 11
-61.02762603759766
 21
-131.9374389648438
 31
0.0
1001
DBPROPERTIES
1002
{
1000
PbHidd
1002
}
  0
LINE
  5
33B
330
1F
100
AcDbEntity
  8
HIDDEN
100
AcDbLine
 10
-61.02762603759766
 20
-131.9374389648438
 30
0.0
 11
-60.75234603881836
 21
-131.8165893554688
 31
0.0
1001
DBPROPERTIES
1002
{
1000
PbHidd
1002
}
  0
LINE
  5
33C
330
1F
100
AcDbEntity
  8
HIDDEN
100
AcDbLine
 10
-60.75234603881836
 20
-131.8165893554688
 30
0.0
 11
-60.46359634399414
 21
-131.7019805908203
 31
0.0
1001
DBPROPERTIES
1002
{
1000
PbHidd
1002
}
  0
LINE
  5
33D
330
1F
100
AcDbEntity
  8
HIDDEN
100
AcDbLine
 10
-60.46359634399414
 20
-131.7019805908203
 30
0.0
 11
-60.16428756713867
 21
-131.5944976806641
 31
0.0
1001
DBPROPERTIES
1002
{
1000
PbHidd
1002
}
  0
LINE
  5
33E
330
1F
100
AcDbEntity
  8
HIDDEN
100
AcDbLine
 10
-60.16428756713867
 20
-131.5944976806641
 30
0.0
 11
-59.85756301879883
 21
-131.4949035644531
 31
0.0
1001
DBPROPERTIES
1002
{
1000
PbHidd
1002
}
  0
LINE
  5
33F
330
1F
100
AcDbEntity
  8
HIDDEN
100
AcDbLine
 10
-59.85756301879883
 20
-131.4949035644531
 30
0.0
 11
-59.53815841674805
 21
-131.4015045166016
 31
0.0
1001
DBPROPERTIES
1002
{
1000
PbHidd
1002
}
  0
LINE
  5
340
330
1F
100
AcDbEntity
  8
HIDDEN
100
AcDbLine
 10
-59.53815841674805
 20
-131.4015045166016
 30
0.0
 11
-59.20165634155273
 21
-131.3134613037109
 31
0.0
1001
DBPROPERTIES
1002
{
1000
PbHidd
1002
}
  0
LINE
  5
341
330
1F
100
AcDbEntity
  8
HIDDEN
100
AcDbLine
 10
-59.20165634155273
 20
-131.3134613037109
 30
0.0
 11
-58.85114288330078
 21
-131.2323455810547
 31
0.0
1001
DBPROPERTIES
1002
{
1000
PbHidd
1002
}
  0
LINE
  5
342
330
1F
100
AcDbEntity
  8
HIDDEN
100
AcDbLine
 10
-58.85114288330078
 20
-131.2323455810547
 30
0.0
 11
-58.48996353149414
 21
-131.1594848632812
 31
0.0
1001
DBPROPERTIES
1002
{
1000
PbHidd
1002
}
  0
LINE
  5
343
330
1F
100
AcDbEntity
  8
HIDDEN
100
AcDbLine
 10
-58.48996353149414
 20
-131.1594848632812
 30
0.0
 11
-58.12174987792969
 21
-131.0959014892578
 31
0.0
1001
DBPROPERTIES
1002
{
1000
PbHidd
1002
}
  0
LINE
  5
344
330
1F
100
AcDbEntity
  8
HIDDEN
100
AcDbLine
 10
-58.12174987792969
 20
-131.0959014892578
 30
0.0
 11
-57.74999618530273
 21
-131.0425415039062
 31
0.0
1001
DBPROPERTIES
1002
{
1000
PbHidd
1002
}
  0
LINE
  5
345
330
1F
100
AcDbEntity
  8
HIDDEN
100
AcDbLine
 10
-57.74999618530273
 20
-131.0425415039062
 30
0.0
 11
-57.38882446289062
 21
-131.0009613037109
 31
0.0
1001
DBPROPERTIES
1002
{
1000
PbHidd
1002
}
  0
LINE
  5
346
330
1F
100
AcDbEntity
  8
HIDDEN
100
AcDbLine
 10
-57.38882446289062
 20
-131.0009613037109
 30
0.0
 11
-57.0311393737793
 21
-130.9698638916016
 31
0.0
1001
DBPROPERTIES
1002
{
1000
PbHidd
1002
}
  0
LINE
  5
347
330
1F
100
AcDbEntity
  8
HIDDEN
100
AcDbLine
 10
-57.0311393737793
 20
-130.9698638916016
 30
0.0
 11
-56.68043518066406
 21
-130.9494323730469
 31
0.0
1001
DBPROPERTIES
1002
{
1000
PbHidd
1002
}
  0
LINE
  5
348
330
1F
100
AcDbEntity
  8
HIDDEN
100
AcDbLine
 10
-56.68043518066406
 20
-130.9494323730469
 30
0.0
 11
-56.34010314941406
 21
-130.9394073486328
 31
0.0
1001
DBPROPERTIES
1002
{
1000
PbHidd
1002
}
  0
LINE
  5
349
330
1F
100
AcDbEntity
  8
HIDDEN
100
AcDbLine
 10
-56.34010314941406
 20
-130.9394073486328
 30
0.0
 11
-56.01151657104492
 21
-130.9394683837891
 31
0.0
1001
DBPROPERTIES
1002
{
1000
PbHidd
1002
}
  0
LINE
  5
34A
330
1F
100
AcDbEntity
  8
HIDDEN
100
AcDbLine
 10
-56.01151657104492
 20
-130.9394683837891
 30
0.0
 11
-55.68657302856445
 21
-130.9496307373047
 31
0.0
1001
DBPROPERTIES
1002
{
1000
PbHidd
1002
}
  0
LINE
  5
34B
330
1F
100
AcDbEntity
  8
HIDDEN
100
AcDbLine
 10
-55.68657302856445
 20
-130.9496307373047
 30
0.0
 11
-55.36723709106445
 21
-130.9701995849609
 31
0.0
1001
DBPROPERTIES
1002
{
1000
PbHidd
1002
}
  0
LINE
  5
34C
330
1F
100
AcDbEntity
  8
HIDDEN
100
AcDbLine
 10
-55.36723709106445
 20
-130.9701995849609
 30
0.0
 11
-55.05730819702148
 21
-131.0014343261719
 31
0.0
1001
DBPROPERTIES
1002
{
1000
PbHidd
1002
}
  0
LINE
  5
34D
330
1F
100
AcDbEntity
  8
HIDDEN
100
AcDbLine
 10
-55.05730819702148
 20
-131.0014343261719
 30
0.0
 11
-54.760009765625
 21
-131.0431518554688
 31
0.0
1001
DBPROPERTIES
1002
{
1000
PbHidd
1002
}
  0
LINE
  5
34E
330
1F
100
AcDbEntity
  8
HIDDEN
100
AcDbLine
 10
-54.760009765625
 20
-131.0431518554688
 30
0.0
 11
-54.47835540771484
 21
-131.094970703125
 31
0.0
1001
DBPROPERTIES
1002
{
1000
PbHidd
1002
}
  0
LINE
  5
34F
330
1F
100
AcDbEntity
  8
HIDDEN
100
AcDbLine
 10
-54.47835540771484
 20
-131.094970703125
 30
0.0
 11
-54.21484756469727
 21
-131.1564483642578
 31
0.0
1001
DBPROPERTIES
1002
{
1000
PbHidd
1002
}
  0
LINE
  5
350
330
1F
100
AcDbEntity
  8
HIDDEN
100
AcDbLine
 10
-54.21484756469727
 20
-131.1564483642578
 30
0.0
 11
-53.97142791748047
 21
-131.2267150878906
 31
0.0
1001
DBPROPERTIES
1002
{
1000
PbHidd
1002
}
  0
LINE
  5
351
330
1F
100
AcDbEntity
  8
HIDDEN
100
AcDbLine
 10
-53.97142791748047
 20
-131.2267150878906
 30
0.0
 11
-53.75001907348633
 21
-131.3048553466797
 31
0.0
1001
DBPROPERTIES
1002
{
1000
PbHidd
1002
}
  0
LINE
  5
352
330
1F
100
AcDbEntity
  8
THICK
100
AcDbLine
 10
-53.75001907348633
 20
-131.3048553466797
 30
0.0
 11
-53.54268646240234
 21
-131.3940582275391
 31
0.0
1001
DBPROPERTIES
1002
{
1000
PbThick
1002
}
  0
LINE
  5
353
330
1F
100
AcDbEntity
  8
THICK
100
AcDbLine
 10
-53.54268646240234
 20
-131.3940582275391
 30
0.0
 11
-53.3618278503418
 21
-131.4889526367188
 31
0.0
1001
DBPROPERTIES
1002
{
1000
PbThick
1002
}
  0
LINE
  5
354
330
1F
100
AcDbEntity
  8
THICK
100
AcDbLine
 10
-53.3618278503418
 20
-131.4889526367188
 30
0.0
 11
-53.20474624633789
 21
-131.5901031494141
 31
0.0
1001
DBPROPERTIES
1002
{
1000
PbThick
1002
}
  0
LINE
  5
355
330
1F
100
AcDbEntity
  8
THICK
100
AcDbLine
 10
-53.20474624633789
 20
-131.5901031494141
 30
0.0
 11
-53.06821441650391
 21
-131.699462890625
 31
0.0
1001
DBPROPERTIES
1002
{
1000
PbThick
1002
}
  0
LINE
  5
356
330
1F
100
AcDbEntity
  8
THICK
100
AcDbLine
 10
-53.06821441650391
 20
-131.699462890625
 30
0.0
 11
-52.95432281494141
 21
-131.8162384033203
 31
0.0
1001
DBPROPERTIES
1002
{
1000
PbThick
1002
}
  0
LINE
  5
357
330
1F
100
AcDbEntity
  8
THICK
100
AcDbLine
 10
-52.95432281494141
 20
-131.8162384033203
 30
0.0
 11
-52.86482620239258
 21
-131.9395141601562
 31
0.0
1001
DBPROPERTIES
1002
{
1000
PbThick
1002
}
  0
LINE
  5
358
330
1F
100
AcDbEntity
  8
THICK
100
AcDbLine
 10
-52.86482620239258
 20
-131.9395141601562
 30
0.0
 11
-52.80057525634766
 21
-132.0682220458984
 31
0.0
1001
DBPROPERTIES
1002
{
1000
PbThick
1002
}
  0
LINE
  5
359
330
1F
100
AcDbEntity
  8
THICK
100
AcDbLine
 10
-52.80057525634766
 20
-132.0682220458984
 30
0.0
 11
-52.76227569580078
 21
-132.2012329101562
 31
0.0
1001
DBPROPERTIES
1002
{
1000
PbThick
1002
}
  0
LINE
  5
35A
330
1F
100
AcDbEntity
  8
THICK
100
AcDbLine
 10
-52.76227569580078
 20
-132.2012329101562
 30
0.0
 11
-52.75008392333984
 21
-132.3374786376953
 31
0.0
1001
DBPROPERTIES
1002
{
1000
PbThick
1002
}
  0
LINE
  5
35B
330
1F
100
AcDbEntity
  8
THICK
100
AcDbLine
 10
-52.75008392333984
 20
-132.3374786376953
 30
0.0
 11
-52.76045608520508
 21
-132.4585266113281
 31
0.0
1001
DBPROPERTIES
1002
{
1000
PbThick
1002
}
  0
LINE
  5
35C
330
1F
100
AcDbEntity
  8
THICK
100
AcDbLine
 10
-52.76045608520508
 20
-132.4585266113281
 30
0.0
 11
-52.79007339477539
 21
-132.5802459716797
 31
0.0
1001
DBPROPERTIES
1002
{
1000
PbThick
1002
}
  0
LINE
  5
35D
330
1F
100
AcDbEntity
  8
THICK
100
AcDbLine
 10
-52.79007339477539
 20
-132.5802459716797
 30
0.0
 11
-52.83816146850586
 21
-132.7017364501953
 31
0.0
1001
DBPROPERTIES
1002
{
1000
PbThick
1002
}
  0
LINE
  5
35E
330
1F
100
AcDbEntity
  8
THICK
100
AcDbLine
 10
-52.83816146850586
 20
-132.7017364501953
 30
0.0
 11
-52.90341949462891
 21
-132.8220672607422
 31
0.0
1001
DBPROPERTIES
1002
{
1000
PbThick
1002
}
  0
LINE
  5
35F
330
1F
100
AcDbEntity
  8
THICK
100
AcDbLine
 10
-52.90341949462891
 20
-132.8220672607422
 30
0.0
 11
-52.98464202880859
 21
-132.9405059814453
 31
0.0
1001
DBPROPERTIES
1002
{
1000
PbThick
1002
}
  0
LINE
  5
360
330
1F
100
AcDbEntity
  8
THICK
100
AcDbLine
 10
-52.98464202880859
 20
-132.9405059814453
 30
0.0
 11
-53.08361053466797
 21
-133.0598754882812
 31
0.0
1001
DBPROPERTIES
1002
{
1000
PbThick
1002
}
  0
LINE
  5
361
330
1F
100
AcDbEntity
  8
THICK
100
AcDbLine
 10
-53.08361053466797
 20
-133.0598754882812
 30
0.0
 11
-53.20133209228516
 21
-133.1808013916016
 31
0.0
1001
DBPROPERTIES
1002
{
1000
PbThick
1002
}
  0
LINE
  5
362
330
1F
100
AcDbEntity
  8
THICK
100
AcDbLine
 10
-53.20133209228516
 20
-133.1808013916016
 30
0.0
 11
-53.33781051635742
 21
-133.3023986816406
 31
0.0
1001
DBPROPERTIES
1002
{
1000
PbThick
1002
}
  0
LINE
  5
363
330
1F
100
AcDbEntity
  8
THICK
100
AcDbLine
 10
-53.33781051635742
 20
-133.3023986816406
 30
0.0
 11
-53.49288940429688
 21
-133.4237823486328
 31
0.0
1001
DBPROPERTIES
1002
{
1000
PbThick
1002
}
  0
LINE
  5
364
330
1F
100
AcDbEntity
  8
THICK
100
AcDbLine
 10
-53.49288940429688
 20
-133.4237823486328
 30
0.0
 11
-53.66584777832031
 21
-133.5441284179688
 31
0.0
1001
DBPROPERTIES
1002
{
1000
PbThick
1002
}
  0
LINE
  5
365
330
1F
100
AcDbEntity
  8
THICK
100
AcDbLine
 10
-53.66584777832031
 20
-133.5441284179688
 30
0.0
 11
-53.85585403442383
 21
-133.6626129150391
 31
0.0
1001
DBPROPERTIES
1002
{
1000
PbThick
1002
}
  0
LINE
  5
366
330
1F
100
AcDbEntity
  8
THICK
100
AcDbLine
 10
-53.85585403442383
 20
-133.6626129150391
 30
0.0
 11
-54.06206130981445
 21
-133.7784576416016
 31
0.0
1001
DBPROPERTIES
1002
{
1000
PbThick
1002
}
  0
LINE
  5
367
330
1F
100
AcDbEntity
  8
THICK
100
AcDbLine
 10
-54.06206130981445
 20
-133.7784576416016
 30
0.0
 11
-54.28324508666992
 21
-133.8909912109375
 31
0.0
1001
DBPROPERTIES
1002
{
1000
PbThick
1002
}
  0
LINE
  5
368
330
1F
100
AcDbEntity
  8
THICK
100
AcDbLine
 10
-54.28324508666992
 20
-133.8909912109375
 30
0.0
 11
-54.51789093017578
 21
-133.9995269775391
 31
0.0
1001
DBPROPERTIES
1002
{
1000
PbThick
1002
}
  0
LINE
  5
369
330
1F
100
AcDbEntity
  8
THICK
100
AcDbLine
 10
-54.51789093017578
 20
-133.9995269775391
 30
0.0
 11
-54.76445388793945
 21
-134.1033477783203
 31
0.0
1001
DBPROPERTIES
1002
{
1000
PbThick
1002
}
  0
LINE
  5
36A
330
1F
100
AcDbEntity
  8
THICK
100
AcDbLine
 10
-54.76445388793945
 20
-134.1033477783203
 30
0.0
 11
-55.02103424072266
 21
-134.2018737792969
 31
0.0
1001
DBPROPERTIES
1002
{
1000
PbThick
1002
}
  0
LINE
  5
36B
330
1F
100
AcDbEntity
  8
THICK
100
AcDbLine
 10
-55.02103424072266
 20
-134.2018737792969
 30
0.0
 11
-55.28547668457031
 21
-134.2945709228516
 31
0.0
1001
DBPROPERTIES
1002
{
1000
PbThick
1002
}
  0
LINE
  5
36C
330
1F
100
AcDbEntity
  8
THICK
100
AcDbLine
 10
-55.28547668457031
 20
-134.2945709228516
 30
0.0
 11
-55.55655670166016
 21
-134.3812561035156
 31
0.0
1001
DBPROPERTIES
1002
{
1000
PbThick
1002
}
  0
LINE
  5
36D
330
1F
100
AcDbEntity
  8
THICK
100
AcDbLine
 10
-55.55655670166016
 20
-134.3812561035156
 30
0.0
 11
-55.84081268310547
 21
-134.4638977050781
 31
0.0
1001
DBPROPERTIES
1002
{
1000
PbThick
1002
}
  0
LINE
  5
36E
330
1F
100
AcDbEntity
  8
THICK
100
AcDbLine
 10
-55.84081268310547
 20
-134.4638977050781
 30
0.0
 11
-56.13831329345703
 21
-134.5422058105469
 31
0.0
1001
DBPROPERTIES
1002
{
1000
PbThick
1002
}
  0
LINE
  5
36F
330
1F
100
AcDbEntity
  8
THICK
100
AcDbLine
 10
-56.13831329345703
 20
-134.5422058105469
 30
0.0
 11
-56.44708251953125
 21
-134.6151885986328
 31
0.0
1001
DBPROPERTIES
1002
{
1000
PbThick
1002
}
  0
LINE
  5
370
330
1F
100
AcDbEntity
  8
THICK
100
AcDbLine
 10
-56.44708251953125
 20
-134.6151885986328
 30
0.0
 11
-56.76498413085938
 21
-134.6819915771484
 31
0.0
1001
DBPROPERTIES
1002
{
1000
PbThick
1002
}
  0
LINE
  5
371
330
1F
100
AcDbEntity
  8
THICK
100
AcDbLine
 10
-56.76498413085938
 20
-134.6819915771484
 30
0.0
 11
-57.08965301513672
 21
-134.7419891357422
 31
0.0
1001
DBPROPERTIES
1002
{
1000
PbThick
1002
}
  0
LINE
  5
372
330
1F
100
AcDbEntity
  8
THICK
100
AcDbLine
 10
-57.08965301513672
 20
-134.7419891357422
 30
0.0
 11
-57.4187126159668
 21
-134.7945556640625
 31
0.0
1001
DBPROPERTIES
1002
{
1000
PbThick
1002
}
  0
LINE
  5
373
330
1F
100
AcDbEntity
  8
THICK
100
AcDbLine
 10
-57.4187126159668
 20
-134.7945556640625
 30
0.0
 11
-57.75000381469727
 21
-134.8392486572266
 31
0.0
1001
DBPROPERTIES
1002
{
1000
PbThick
1002
}
  0
LINE
  5
374
330
1F
100
AcDbEntity
  8
THICK
100
AcDbLine
 10
-167.2
 20
-140.4
 30
0.0
 11
-61.74999992695052
 21
-140.4
 31
0.0
1001
DBPROPERTIES
1002
{
1000
PbThick
1002
}
  0
LINE
  5
375
330
1F
100
AcDbEntity
  8
HIDDEN
100
AcDbLine
 10
-61.74999992695052
 20
-140.4
 30
0.0
 11
-53.7499999469708
 21
-140.4
 31
0.0
1001
DBPROPERTIES
1002
{
1000
PbHidd
1002
}
  0
LINE
  5
376
330
1F
100
AcDbEntity
  8
THICK
100
AcDbLine
 10
-53.7499999469708
 20
-140.4
 30
0.0
 11
-0.0000000000000393
 21
-140.4
 31
0.0
1001
DBPROPERTIES
1002
{
1000
PbThick
1002
}
  0
ARC
  5
377
330
1F
100
AcDbEntity
  8
THICK
100
AcDbCircle
 10
-167.2
 20
-145.4
 30
0.0
 40
5.0
100
AcDbArc
 50
89.99998127603165
 51
179.9999052562838
1001
DBPROPERTIES
1002
{
1000
PbThick
1002
}
  0
LINE
  5
378
330
1F
100
AcDbEntity
  8
THICK
100
AcDbLine
 10
-30.74999999999999
 20
-145.4
 30
0.0
 11
-53.74999998612673
 21
-145.4
 31
0.0
1001
DBPROPERTIES
1002
{
1000
PbThick
1002
}
  0
LINE
  5
379
330
1F
100
AcDbEntity
  8
HIDDEN
100
AcDbLine
 10
-53.74999998612673
 20
-145.4
 30
0.0
 11
-61.74999995238585
 21
-145.4
 31
0.0
1001
DBPROPERTIES
1002
{
1000
PbHidd
1002
}
  0
LINE
  5
37A
330
1F
100
AcDbEntity
  8
THICK
100
AcDbLine
 10
-61.74999995238585
 20
-145.4
 30
0.0
 11
-172.2
 21
-145.4
 31
0.0
1001
DBPROPERTIES
1002
{
1000
PbThick
1002
}
  0
ARC
  5
37B
330
1F
100
AcDbEntity
  8
THICK
100
AcDbCircle
 10
167.2
 20
-145.4
 30
0.0
 40
5.0
100
AcDbArc
 50
0.0000572957795131
 51
90.00003857181116
1001
DBPROPERTIES
1002
{
1000
PbThick
1002
}
  0
LINE
  5
37C
330
1F
100
AcDbEntity
  8
THICK
100
AcDbLine
 10
0.0000000000000016
 20
-140.4
 30
0.0
 11
167.2
 21
-140.4
 31
0.0
1001
DBPROPERTIES
1002
{
1000
PbThick
1002
}
  0
LINE
  5
37D
330
1F
100
AcDbEntity
  8
THICK
100
AcDbLine
 10
-61.75
 20
-151.6
 30
0.0
 11
-57.75
 21
-151.6
 31
0.0
1001
DBPROPERTIES
1002
{
1000
PbThick
1002
}
  0
LINE
  5
37E
330
1F
100
AcDbEntity
  8
HIDDEN
100
AcDbLine
 10
-60.57842712474618
 20
-34.31999999999999
 30
0.0
 11
-61.74999999999999
 21
-34.31999999999999
 31
0.0
1001
DBPROPERTIES
1002
{
1000
PbHidd
1002
}
  0
LINE
  5
37F
330
1F
100
AcDbEntity
  8
THICK
100
AcDbLine
 10
-61.74999999999948
 20
-34.31999999999999
 30
0.0
 11
-57.74999999999999
 21
-34.31999999999999
 31
0.0
1001
DBPROPERTIES
1002
{
1000
PbThick
1002
}
  0
LINE
  5
380
330
1F
100
AcDbEntity
  8
HIDDEN
100
AcDbLine
 10
-57.74999999999999
 20
-34.31999999999999
 30
0.0
 11
-60.57842712474618
 21
-34.31999999999999
 31
0.0
1001
DBPROPERTIES
1002
{
1000
PbHidd
1002
}
  0
LINE
  5
381
330
1F
100
AcDbEntity
  8
HIDDEN
100
AcDbLine
 10
-61.75
 20
-151.6
 30
0.0
 11
-57.75
 21
-151.6
 31
0.0
1001
DBPROPERTIES
1002
{
1000
PbHidd
1002
}
  0
LINE
  5
382
330
1F
100
AcDbEntity
  8
HIDDEN
100
AcDbLine
 10
-71.75
 20
-10.32000541687012
 30
0.0
 11
-71.75650787353516
 21
-10.32001304626465
 31
0.0
1001
DBPROPERTIES
1002
{
1000
PbHidd
1002
}
  0
LINE
  5
383
330
1F
100
AcDbEntity
  8
HIDDEN
100
AcDbLine
 10
-71.75650787353516
 20
-10.32001304626465
 30
0.0
 11
-71.7632064819336
 21
-10.32002925872803
 31
0.0
1001
DBPROPERTIES
1002
{
1000
PbHidd
1002
}
  0
LINE
  5
384
330
1F
100
AcDbEntity
  8
HIDDEN
100
AcDbLine
 10
-71.7632064819336
 20
-10.32002925872803
 30
0.0
 11
-71.76961517333984
 21
-10.32005310058594
 31
0.0
1001
DBPROPERTIES
1002
{
1000
PbHidd
1002
}
  0
LINE
  5
385
330
1F
100
AcDbEntity
  8
HIDDEN
100
AcDbLine
 10
-71.76961517333984
 20
-10.32005310058594
 30
0.0
 11
-71.77619934082031
 21
-10.32008838653564
 31
0.0
1001
DBPROPERTIES
1002
{
1000
PbHidd
1002
}
  0
LINE
  5
386
330
1F
100
AcDbEntity
  8
HIDDEN
100
AcDbLine
 10
-71.77619934082031
 20
-10.32008838653564
 30
0.0
 11
-71.7824478149414
 21
-10.3201322555542
 31
0.0
1001
DBPROPERTIES
1002
{
1000
PbHidd
1002
}
  0
LINE
  5
387
330
1F
100
AcDbEntity
  8
HIDDEN
100
AcDbLine
 10
-71.7824478149414
 20
-10.3201322555542
 30
0.0
 11
-71.78840637207031
 21
-10.32018566131592
 31
0.0
1001
DBPROPERTIES
1002
{
1000
PbHidd
1002
}
  0
LINE
  5
388
330
1F
100
AcDbEntity
  8
THICK
100
AcDbLine
 10
-71.78840637207031
 20
-10.32018566131592
 30
0.0
 11
-71.79399871826172
 21
-10.32024574279785
 31
0.0
1001
DBPROPERTIES
1002
{
1000
PbThick
1002
}
  0
LINE
  5
389
330
1F
100
AcDbEntity
  8
THICK
100
AcDbLine
 10
-71.79399871826172
 20
-10.32024574279785
 30
0.0
 11
-71.7996597290039
 21
-10.32031631469727
 31
0.0
1001
DBPROPERTIES
1002
{
1000
PbThick
1002
}
  0
LINE
  5
38A
330
1F
100
AcDbEntity
  8
THICK
100
AcDbLine
 10
-71.7996597290039
 20
-10.32031631469727
 30
0.0
 11
-71.80532836914062
 21
-10.32039546966553
 31
0.0
1001
DBPROPERTIES
1002
{
1000
PbThick
1002
}
  0
LINE
  5
38B
330
1F
100
AcDbEntity
  8
THICK
100
AcDbLine
 10
-71.80532836914062
 20
-10.32039546966553
 30
0.0
 11
-71.81095886230469
 21
-10.32048416137695
 31
0.0
1001
DBPROPERTIES
1002
{
1000
PbThick
1002
}
  0
LINE
  5
38C
330
1F
100
AcDbEntity
  8
THICK
100
AcDbLine
 10
-71.81095886230469
 20
-10.32048416137695
 30
0.0
 11
-71.8165054321289
 21
-10.32058048248291
 31
0.0
1001
DBPROPERTIES
1002
{
1000
PbThick
1002
}
  0
LINE
  5
38D
330
1F
100
AcDbEntity
  8
THICK
100
AcDbLine
 10
-71.8165054321289
 20
-10.32058048248291
 30
0.0
 11
-71.82190704345703
 21
-10.32068252563477
 31
0.0
1001
DBPROPERTIES
1002
{
1000
PbThick
1002
}
  0
LINE
  5
38E
330
1F
100
AcDbEntity
  8
THICK
100
AcDbLine
 10
-71.82190704345703
 20
-10.32068252563477
 30
0.0
 11
-71.82711791992188
 21
-10.32079219818115
 31
0.0
1001
DBPROPERTIES
1002
{
1000
PbThick
1002
}
  0
LINE
  5
38F
330
1F
100
AcDbEntity
  8
THICK
100
AcDbLine
 10
-71.82711791992188
 20
-10.32079219818115
 30
0.0
 11
-71.83214569091797
 21
-10.32090759277344
 31
0.0
1001
DBPROPERTIES
1002
{
1000
PbThick
1002
}
  0
LINE
  5
390
330
1F
100
AcDbEntity
  8
THICK
100
AcDbLine
 10
-71.83214569091797
 20
-10.32090759277344
 30
0.0
 11
-71.83719635009766
 21
-10.32103252410889
 31
0.0
1001
DBPROPERTIES
1002
{
1000
PbThick
1002
}
  0
LINE
  5
391
330
1F
100
AcDbEntity
  8
THICK
100
AcDbLine
 10
-71.83719635009766
 20
-10.32103252410889
 30
0.0
 11
-71.84227752685547
 21
-10.3211669921875
 31
0.0
1001
DBPROPERTIES
1002
{
1000
PbThick
1002
}
  0
LINE
  5
392
330
1F
100
AcDbEntity
  8
THICK
100
AcDbLine
 10
-71.84227752685547
 20
-10.3211669921875
 30
0.0
 11
-71.84739685058594
 21
-10.32131290435791
 31
0.0
1001
DBPROPERTIES
1002
{
1000
PbThick
1002
}
  0
LINE
  5
393
330
1F
100
AcDbEntity
  8
THICK
100
AcDbLine
 10
-71.84739685058594
 20
-10.32131290435791
 30
0.0
 11
-71.85254669189453
 21
-10.32146835327148
 31
0.0
1001
DBPROPERTIES
1002
{
1000
PbThick
1002
}
  0
LINE
  5
394
330
1F
100
AcDbEntity
  8
THICK
100
AcDbLine
 10
-71.85254669189453
 20
-10.32146835327148
 30
0.0
 11
-71.85771942138672
 21
-10.32163429260254
 31
0.0
1001
DBPROPERTIES
1002
{
1000
PbThick
1002
}
  0
LINE
  5
395
330
1F
100
AcDbEntity
  8
THICK
100
AcDbLine
 10
-71.85771942138672
 20
-10.32163429260254
 30
0.0
 11
-71.8629150390625
 21
-10.32181072235107
 31
0.0
1001
DBPROPERTIES
1002
{
1000
PbThick
1002
}
  0
LINE
  5
396
330
1F
100
AcDbEntity
  8
THICK
100
AcDbLine
 10
-71.8629150390625
 20
-10.32181072235107
 30
0.0
 11
-71.86812591552734
 21
-10.32199668884277
 31
0.0
1001
DBPROPERTIES
1002
{
1000
PbThick
1002
}
  0
LINE
  5
397
330
1F
100
AcDbEntity
  8
THICK
100
AcDbLine
 10
-71.86812591552734
 20
-10.32199668884277
 30
0.0
 11
-71.87335968017578
 21
-10.32219409942627
 31
0.0
1001
DBPROPERTIES
1002
{
1000
PbThick
1002
}
  0
LINE
  5
398
330
1F
100
AcDbEntity
  8
THICK
100
AcDbLine
 10
-71.87335968017578
 20
-10.32219409942627
 30
0.0
 11
-71.87859344482422
 21
-10.32240104675293
 31
0.0
1001
DBPROPERTIES
1002
{
1000
PbThick
1002
}
  0
LINE
  5
399
330
1F
100
AcDbEntity
  8
THICK
100
AcDbLine
 10
-71.87859344482422
 20
-10.32240104675293
 30
0.0
 11
-71.88383483886719
 21
-10.32261848449707
 31
0.0
1001
DBPROPERTIES
1002
{
1000
PbThick
1002
}
  0
LINE
  5
39A
330
1F
100
AcDbEntity
  8
THICK
100
AcDbLine
 10
-71.88383483886719
 20
-10.32261848449707
 30
0.0
 11
-71.88908386230469
 21
-10.32284641265869
 31
0.0
1001
DBPROPERTIES
1002
{
1000
PbThick
1002
}
  0
LINE
  5
39B
330
1F
100
AcDbEntity
  8
THICK
100
AcDbLine
 10
-71.88908386230469
 20
-10.32284641265869
 30
0.0
 11
-71.89432525634766
 21
-10.32308387756348
 31
0.0
1001
DBPROPERTIES
1002
{
1000
PbThick
1002
}
  0
LINE
  5
39C
330
1F
100
AcDbEntity
  8
THICK
100
AcDbLine
 10
-71.75
 20
-10.32480430603027
 30
0.0
 11
-71.88961791992188
 21
-10.3365306854248
 31
0.0
1001
DBPROPERTIES
1002
{
1000
PbThick
1002
}
  0
LINE
  5
39D
330
1F
100
AcDbEntity
  8
THICK
100
AcDbLine
 10
-71.88961791992188
 20
-10.3365306854248
 30
0.0
 11
-72.03193664550781
 21
-10.35854339599609
 31
0.0
1001
DBPROPERTIES
1002
{
1000
PbThick
1002
}
  0
LINE
  5
39E
330
1F
100
AcDbEntity
  8
THICK
100
AcDbLine
 10
-72.03193664550781
 20
-10.35854339599609
 30
0.0
 11
-72.17547607421875
 21
-10.39120864868164
 31
0.0
1001
DBPROPERTIES
1002
{
1000
PbThick
1002
}
  0
LINE
  5
39F
330
1F
100
AcDbEntity
  8
THICK
100
AcDbLine
 10
-72.17547607421875
 20
-10.39120864868164
 30
0.0
 11
-72.31876373291016
 21
-10.43445682525635
 31
0.0
1001
DBPROPERTIES
1002
{
1000
PbThick
1002
}
  0
LINE
  5
3A0
330
1F
100
AcDbEntity
  8
THICK
100
AcDbLine
 10
-72.31876373291016
 20
-10.43445682525635
 30
0.0
 11
-72.46038818359375
 21
-10.48805141448975
 31
0.0
1001
DBPROPERTIES
1002
{
1000
PbThick
1002
}
  0
LINE
  5
3A1
330
1F
100
AcDbEntity
  8
THICK
100
AcDbLine
 10
-72.46038818359375
 20
-10.48805141448975
 30
0.0
 11
-72.5990219116211
 21
-10.55125617980957
 31
0.0
1001
DBPROPERTIES
1002
{
1000
PbThick
1002
}
  0
LINE
  5
3A2
330
1F
100
AcDbEntity
  8
THICK
100
AcDbLine
 10
-72.5990219116211
 20
-10.55125617980957
 30
0.0
 11
-72.73332214355469
 21
-10.62317752838135
 31
0.0
1001
DBPROPERTIES
1002
{
1000
PbThick
1002
}
  0
LINE
  5
3A3
330
1F
100
AcDbEntity
  8
THICK
100
AcDbLine
 10
-72.73332214355469
 20
-10.62317752838135
 30
0.0
 11
-72.86205291748047
 21
-10.70247554779053
 31
0.0
1001
DBPROPERTIES
1002
{
1000
PbThick
1002
}
  0
LINE
  5
3A4
330
1F
100
AcDbEntity
  8
THICK
100
AcDbLine
 10
-72.86205291748047
 20
-10.70247554779053
 30
0.0
 11
-72.9848403930664
 21
-10.78816509246826
 31
0.0
1001
DBPROPERTIES
1002
{
1000
PbThick
1002
}
  0
LINE
  5
3A5
330
1F
100
AcDbEntity
  8
THICK
100
AcDbLine
 10
-72.9848403930664
 20
-10.78816509246826
 30
0.0
 11
-73.10724639892578
 21
-10.88408088684082
 31
0.0
1001
DBPROPERTIES
1002
{
1000
PbThick
1002
}
  0
LINE
  5
3A6
330
1F
100
AcDbEntity
  8
THICK
100
AcDbLine
 10
-73.10724639892578
 20
-10.88408088684082
 30
0.0
 11
-73.22931671142578
 21
-10.99092960357666
 31
0.0
1001
DBPROPERTIES
1002
{
1000
PbThick
1002
}
  0
LINE
  5
3A7
330
1F
100
AcDbEntity
  8
THICK
100
AcDbLine
 10
-73.22931671142578
 20
-10.99092960357666
 30
0.0
 11
-73.34952545166016
 21
-11.10819625854492
 31
0.0
1001
DBPROPERTIES
1002
{
1000
PbThick
1002
}
  0
LINE
  5
3A8
330
1F
100
AcDbEntity
  8
THICK
100
AcDbLine
 10
-73.34952545166016
 20
-11.10819625854492
 30
0.0
 11
-73.46654510498047
 21
-11.23494052886963
 31
0.0
1001
DBPROPERTIES
1002
{
1000
PbThick
1002
}
  0
LINE
  5
3A9
330
1F
100
AcDbEntity
  8
THICK
100
AcDbLine
 10
-73.46654510498047
 20
-11.23494052886963
 30
0.0
 11
-73.5791244506836
 21
-11.37011623382568
 31
0.0
1001
DBPROPERTIES
1002
{
1000
PbThick
1002
}
  0
LINE
  5
3AA
330
1F
100
AcDbEntity
  8
THICK
100
AcDbLine
 10
-73.5791244506836
 20
-11.37011623382568
 30
0.0
 11
-73.6862564086914
 21
-11.51234149932861
 31
0.0
1001
DBPROPERTIES
1002
{
1000
PbThick
1002
}
  0
LINE
  5
3AB
330
1F
100
AcDbEntity
  8
THICK
100
AcDbLine
 10
-73.6862564086914
 20
-11.51234149932861
 30
0.0
 11
-73.7869873046875
 21
-11.66000461578369
 31
0.0
1001
DBPROPERTIES
1002
{
1000
PbThick
1002
}
  0
LINE
  5
3AC
330
1F
100
AcDbEntity
  8
THICK
100
AcDbLine
 10
-73.7869873046875
 20
-11.66000461578369
 30
0.0
 11
-73.88054656982422
 21
-11.81125545501709
 31
0.0
1001
DBPROPERTIES
1002
{
1000
PbThick
1002
}
  0
LINE
  5
3AD
330
1F
100
AcDbEntity
  8
THICK
100
AcDbLine
 10
-73.88054656982422
 20
-11.81125545501709
 30
0.0
 11
-73.9664077758789
 21
-11.96404838562012
 31
0.0
1001
DBPROPERTIES
1002
{
1000
PbThick
1002
}
  0
LINE
  5
3AE
330
1F
100
AcDbEntity
  8
THICK
100
AcDbLine
 10
-73.9664077758789
 20
-11.96404838562012
 30
0.0
 11
-74.04779052734375
 21
-12.12376308441162
 31
0.0
1001
DBPROPERTIES
1002
{
1000
PbThick
1002
}
  0
LINE
  5
3AF
330
1F
100
AcDbEntity
  8
THICK
100
AcDbLine
 10
-74.04779052734375
 20
-12.12376308441162
 30
0.0
 11
-74.12596130371094
 21
-12.29367256164551
 31
0.0
1001
DBPROPERTIES
1002
{
1000
PbThick
1002
}
  0
LINE
  5
3B0
330
1F
100
AcDbEntity
  8
THICK
100
AcDbLine
 10
-74.12596130371094
 20
-12.29367256164551
 30
0.0
 11
-74.19953918457031
 21
-12.47216987609863
 31
0.0
1001
DBPROPERTIES
1002
{
1000
PbThick
1002
}
  0
LINE
  5
3B1
330
1F
100
AcDbEntity
  8
THICK
100
AcDbLine
 10
-74.19953918457031
 20
-12.47216987609863
 30
0.0
 11
-74.26744842529297
 21
-12.65736389160156
 31
0.0
1001
DBPROPERTIES
1002
{
1000
PbThick
1002
}
  0
LINE
  5
3B2
330
1F
100
AcDbEntity
  8
THICK
100
AcDbLine
 10
-74.26744842529297
 20
-12.65736389160156
 30
0.0
 11
-74.32880401611328
 21
-12.84727668762207
 31
0.0
1001
DBPROPERTIES
1002
{
1000
PbThick
1002
}
  0
LINE
  5
3B3
330
1F
100
AcDbEntity
  8
THICK
100
AcDbLine
 10
-74.32880401611328
 20
-12.84727668762207
 30
0.0
 11
-74.3830337524414
 21
-13.03976631164551
 31
0.0
1001
DBPROPERTIES
1002
{
1000
PbThick
1002
}
  0
LINE
  5
3B4
330
1F
100
AcDbEntity
  8
THICK
100
AcDbLine
 10
-74.3830337524414
 20
-13.03976631164551
 30
0.0
 11
-74.42977905273438
 21
-13.23248672485352
 31
0.0
1001
DBPROPERTIES
1002
{
1000
PbThick
1002
}
  0
LINE
  5
3B5
330
1F
100
AcDbEntity
  8
THICK
100
AcDbLine
 10
-74.42977905273438
 20
-13.23248672485352
 30
0.0
 11
-74.4689712524414
 21
-13.42297458648682
 31
0.0
1001
DBPROPERTIES
1002
{
1000
PbThick
1002
}
  0
LINE
  5
3B6
330
1F
100
AcDbEntity
  8
THICK
100
AcDbLine
 10
-74.4689712524414
 20
-13.42297458648682
 30
0.0
 11
-74.5014419555664
 21
-13.61279487609863
 31
0.0
1001
DBPROPERTIES
1002
{
1000
PbThick
1002
}
  0
LINE
  5
3B7
330
1F
100
AcDbEntity
  8
THICK
100
AcDbLine
 10
-74.5014419555664
 20
-13.61279487609863
 30
0.0
 11
-74.52937316894531
 21
-13.81650924682617
 31
0.0
1001
DBPROPERTIES
1002
{
1000
PbThick
1002
}
  0
LINE
  5
3B8
330
1F
100
AcDbEntity
  8
THICK
100
AcDbLine
 10
-74.52937316894531
 20
-13.81650924682617
 30
0.0
 11
-74.55072784423828
 21
-14.02033615112305
 31
0.0
1001
DBPROPERTIES
1002
{
1000
PbThick
1002
}
  0
LINE
  5
3B9
330
1F
100
AcDbEntity
  8
THICK
100
AcDbLine
 10
-74.55072784423828
 20
-14.02033615112305
 30
0.0
 11
-74.56670379638672
 21
-14.22008228302002
 31
0.0
1001
DBPROPERTIES
1002
{
1000
PbThick
1002
}
  0
LINE
  5
3BA
330
1F
100
AcDbEntity
  8
THICK
100
AcDbLine
 10
-74.56670379638672
 20
-14.22008228302002
 30
0.0
 11
-74.58671569824219
 21
-14.22733879089355
 31
0.0
1001
DBPROPERTIES
1002
{
1000
PbThick
1002
}
  0
LINE
  5
3BB
330
1F
100
AcDbEntity
  8
THICK
100
AcDbLine
 10
-74.58671569824219
 20
-14.22733879089355
 30
0.0
 11
-74.58605194091797
 21
-14.02719783782959
 31
0.0
1001
DBPROPERTIES
1002
{
1000
PbThick
1002
}
  0
LINE
  5
3BC
330
1F
100
AcDbEntity
  8
THICK
100
AcDbLine
 10
-74.58605194091797
 20
-14.02719783782959
 30
0.0
 11
-74.57563781738281
 21
-13.82356739044189
 31
0.0
1001
DBPROPERTIES
1002
{
1000
PbThick
1002
}
  0
LINE
  5
3BD
330
1F
100
AcDbEntity
  8
THICK
100
AcDbLine
 10
-74.57563781738281
 20
-13.82356739044189
 30
0.0
 11
-74.55670928955078
 21
-13.61940002441406
 31
0.0
1001
DBPROPERTIES
1002
{
1000
PbThick
1002
}
  0
LINE
  5
3BE
330
1F
100
AcDbEntity
  8
THICK
100
AcDbLine
 10
-74.55670928955078
 20
-13.61940002441406
 30
0.0
 11
-74.53160858154297
 21
-13.42912101745605
 31
0.0
1001
DBPROPERTIES
1002
{
1000
PbThick
1002
}
  0
LINE
  5
3BF
330
1F
100
AcDbEntity
  8
THICK
100
AcDbLine
 10
-74.53160858154297
 20
-13.42912101745605
 30
0.0
 11
-74.49923706054688
 21
-13.23867321014404
 31
0.0
1001
DBPROPERTIES
1002
{
1000
PbThick
1002
}
  0
LINE
  5
3C0
330
1F
100
AcDbEntity
  8
THICK
100
AcDbLine
 10
-74.49923706054688
 20
-13.23867321014404
 30
0.0
 11
-74.45890808105469
 21
-13.04590320587158
 31
0.0
1001
DBPROPERTIES
1002
{
1000
PbThick
1002
}
  0
LINE
  5
3C1
330
1F
100
AcDbEntity
  8
THICK
100
AcDbLine
 10
-74.45890808105469
 20
-13.04590320587158
 30
0.0
 11
-74.41071319580078
 21
-12.85328102111816
 31
0.0
1001
DBPROPERTIES
1002
{
1000
PbThick
1002
}
  0
LINE
  5
3C2
330
1F
100
AcDbEntity
  8
THICK
100
AcDbLine
 10
-74.41071319580078
 20
-12.85328102111816
 30
0.0
 11
-74.35499572753906
 21
-12.66315460205078
 31
0.0
1001
DBPROPERTIES
1002
{
1000
PbThick
1002
}
  0
LINE
  5
3C3
330
1F
100
AcDbEntity
  8
THICK
100
AcDbLine
 10
-74.35499572753906
 20
-12.66315460205078
 30
0.0
 11
-74.2923355102539
 21
-12.4776782989502
 31
0.0
1001
DBPROPERTIES
1002
{
1000
PbThick
1002
}
  0
LINE
  5
3C4
330
1F
100
AcDbEntity
  8
THICK
100
AcDbLine
 10
-74.2923355102539
 20
-12.4776782989502
 30
0.0
 11
-74.2236099243164
 21
-12.29883003234863
 31
0.0
1001
DBPROPERTIES
1002
{
1000
PbThick
1002
}
  0
LINE
  5
3C5
330
1F
100
AcDbEntity
  8
THICK
100
AcDbLine
 10
-74.2236099243164
 20
-12.29883003234863
 30
0.0
 11
-74.1498794555664
 21
-12.12851047515869
 31
0.0
1001
DBPROPERTIES
1002
{
1000
PbThick
1002
}
  0
LINE
  5
3C6
330
1F
100
AcDbEntity
  8
THICK
100
AcDbLine
 10
-74.1498794555664
 20
-12.12851047515869
 30
0.0
 11
-74.07252502441406
 21
-11.96833229064941
 31
0.0
1001
DBPROPERTIES
1002
{
1000
PbThick
1002
}
  0
LINE
  5
3C7
330
1F
100
AcDbEntity
  8
THICK
100
AcDbLine
 10
-74.07252502441406
 20
-11.96833229064941
 30
0.0
 11
-73.99059295654297
 21
-11.81541347503662
 31
0.0
1001
DBPROPERTIES
1002
{
1000
PbThick
1002
}
  0
LINE
  5
3C8
330
1F
100
AcDbEntity
  8
THICK
100
AcDbLine
 10
-73.99059295654297
 20
-11.81541347503662
 30
0.0
 11
-73.9008560180664
 21
-11.66401958465576
 31
0.0
1001
DBPROPERTIES
1002
{
1000
PbThick
1002
}
  0
LINE
  5
3C9
330
1F
100
AcDbEntity
  8
THICK
100
AcDbLine
 10
-73.9008560180664
 20
-11.66401958465576
 30
0.0
 11
-73.80377197265625
 21
-11.51613903045654
 31
0.0
1001
DBPROPERTIES
1002
{
1000
PbThick
1002
}
  0
LINE
  5
3CA
330
1F
100
AcDbEntity
  8
THICK
100
AcDbLine
 10
-73.80377197265625
 20
-11.51613903045654
 30
0.0
 11
-73.70008087158203
 21
-11.37363624572754
 31
0.0
1001
DBPROPERTIES
1002
{
1000
PbThick
1002
}
  0
LINE
  5
3CB
330
1F
100
AcDbEntity
  8
THICK
100
AcDbLine
 10
-73.70008087158203
 20
-11.37363624572754
 30
0.0
 11
-73.5906982421875
 21
-11.23812675476074
 31
0.0
1001
DBPROPERTIES
1002
{
1000
PbThick
1002
}
  0
LINE
  5
3CC
330
1F
100
AcDbEntity
  8
THICK
100
AcDbLine
 10
-73.5906982421875
 20
-11.23812675476074
 30
0.0
 11
-73.47660064697266
 21
-11.11101055145264
 31
0.0
1001
DBPROPERTIES
1002
{
1000
PbThick
1002
}
  0
LINE
  5
3CD
330
1F
100
AcDbEntity
  8
THICK
100
AcDbLine
 10
-73.47660064697266
 20
-11.11101055145264
 30
0.0
 11
-73.35903930664062
 21
-10.99333572387695
 31
0.0
1001
DBPROPERTIES
1002
{
1000
PbThick
1002
}
  0
LINE
  5
3CE
330
1F
100
AcDbEntity
  8
THICK
100
AcDbLine
 10
-73.35903930664062
 20
-10.99333572387695
 30
0.0
 11
-73.23930358886719
 21
-10.88605499267578
 31
0.0
1001
DBPROPERTIES
1002
{
1000
PbThick
1002
}
  0
LINE
  5
3CF
330
1F
100
AcDbEntity
  8
THICK
100
AcDbLine
 10
-73.23930358886719
 20
-10.88605499267578
 30
0.0
 11
-73.1189193725586
 21
-10.78969573974609
 31
0.0
1001
DBPROPERTIES
1002
{
1000
PbThick
1002
}
  0
LINE
  5
3D0
330
1F
100
AcDbEntity
  8
THICK
100
AcDbLine
 10
-73.1189193725586
 20
-10.78969573974609
 30
0.0
 11
-72.9980697631836
 21
-10.70368480682373
 31
0.0
1001
DBPROPERTIES
1002
{
1000
PbThick
1002
}
  0
LINE
  5
3D1
330
1F
100
AcDbEntity
  8
THICK
100
AcDbLine
 10
-72.9980697631836
 20
-10.70368480682373
 30
0.0
 11
-72.87123107910156
 21
-10.62411785125732
 31
0.0
1001
DBPROPERTIES
1002
{
1000
PbThick
1002
}
  0
LINE
  5
3D2
330
1F
100
AcDbEntity
  8
THICK
100
AcDbLine
 10
-72.87123107910156
 20
-10.62411785125732
 30
0.0
 11
-72.73861694335938
 21
-10.55187320709229
 31
0.0
1001
DBPROPERTIES
1002
{
1000
PbThick
1002
}
  0
LINE
  5
3D3
330
1F
100
AcDbEntity
  8
THICK
100
AcDbLine
 10
-72.73861694335938
 20
-10.55187320709229
 30
0.0
 11
-72.60142517089844
 21
-10.48830795288086
 31
0.0
1001
DBPROPERTIES
1002
{
1000
PbThick
1002
}
  0
LINE
  5
3D4
330
1F
100
AcDbEntity
  8
THICK
100
AcDbLine
 10
-72.60142517089844
 20
-10.48830795288086
 30
0.0
 11
-72.46099853515625
 21
-10.43432521820068
 31
0.0
1001
DBPROPERTIES
1002
{
1000
PbThick
1002
}
  0
LINE
  5
3D5
330
1F
100
AcDbEntity
  8
THICK
100
AcDbLine
 10
-72.46099853515625
 20
-10.43432521820068
 30
0.0
 11
-72.31864166259766
 21
-10.3906717300415
 31
0.0
1001
DBPROPERTIES
1002
{
1000
PbThick
1002
}
  0
LINE
  5
3D6
330
1F
100
AcDbEntity
  8
THICK
100
AcDbLine
 10
-72.31864166259766
 20
-10.3906717300415
 30
0.0
 11
-72.1757583618164
 21
-10.35760116577148
 31
0.0
1001
DBPROPERTIES
1002
{
1000
PbThick
1002
}
  0
LINE
  5
3D7
330
1F
100
AcDbEntity
  8
THICK
100
AcDbLine
 10
-72.1757583618164
 20
-10.35760116577148
 30
0.0
 11
-72.03382110595703
 21
-10.33518695831299
 31
0.0
1001
DBPROPERTIES
1002
{
1000
PbThick
1002
}
  0
LINE
  5
3D8
330
1F
100
AcDbEntity
  8
THICK
100
AcDbLine
 10
-72.03382110595703
 20
-10.33518695831299
 30
0.0
 11
-71.89432525634766
 21
-10.32308387756348
 31
0.0
1001
DBPROPERTIES
1002
{
1000
PbThick
1002
}
  0
ELLIPSE
  5
3D9
330
1F
100
AcDbEntity
  8
HIDDEN
100
AcDbEllipse
 10
-71.89213562373094
 20
-14.31999999999999
 30
0.0
 11
-2.449212707644755E-16
 21
-4.0
 31
0.0
210
0.0
220
0.0
230
1.0
 40
0.7071067811865475
 41
3.14007618381146
 42
3.141592653589793
1001
DBPROPERTIES
1002
{
1000
PbHidd
1002
}
  0
LINE
  5
3DA
330
1F
100
AcDbEntity
  8
THICK
100
AcDbLine
 10
-71.87158966064453
 20
-10.32001781463623
 30
0.0
 11
-71.89213562011719
 21
-10.31999969482422
 31
0.0
1001
DBPROPERTIES
1002
{
1000
PbThick
1002
}
  0
LINE
  5
3DB
330
1F
100
AcDbEntity
  8
THICK
100
AcDbLine
 10
-71.87158966064453
 20
-10.32001781463623
 30
0.0
 11
-71.87224578857422
 21
-10.3200159072876
 31
0.0
1001
DBPROPERTIES
1002
{
1000
PbThick
1002
}
  0
LINE
  5
3DC
330
1F
100
AcDbEntity
  8
THICK
100
AcDbLine
 10
-71.87224578857422
 20
-10.3200159072876
 30
0.0
 11
-71.8729248046875
 21
-10.32001399993896
 31
0.0
1001
DBPROPERTIES
1002
{
1000
PbThick
1002
}
  0
LINE
  5
3DD
330
1F
100
AcDbEntity
  8
THICK
100
AcDbLine
 10
-71.8729248046875
 20
-10.32001399993896
 30
0.0
 11
-71.8736343383789
 21
-10.32001304626465
 31
0.0
1001
DBPROPERTIES
1002
{
1000
PbThick
1002
}
  0
LINE
  5
3DE
330
1F
100
AcDbEntity
  8
THICK
100
AcDbLine
 10
-71.8736343383789
 20
-10.32001304626465
 30
0.0
 11
-71.87437438964844
 21
-10.32001113891602
 31
0.0
1001
DBPROPERTIES
1002
{
1000
PbThick
1002
}
  0
LINE
  5
3DF
330
1F
100
AcDbEntity
  8
THICK
100
AcDbLine
 10
-71.87437438964844
 20
-10.32001113891602
 30
0.0
 11
-71.87515258789062
 21
-10.3200101852417
 31
0.0
1001
DBPROPERTIES
1002
{
1000
PbThick
1002
}
  0
LINE
  5
3E0
330
1F
100
AcDbEntity
  8
THICK
100
AcDbLine
 10
-71.87515258789062
 20
-10.3200101852417
 30
0.0
 11
-71.8759536743164
 21
-10.32000923156738
 31
0.0
1001
DBPROPERTIES
1002
{
1000
PbThick
1002
}
  0
LINE
  5
3E1
330
1F
100
AcDbEntity
  8
HIDDEN
100
AcDbLine
 10
-68.92156982421875
 20
-14.32050514221191
 30
0.0
 11
-68.90960693359375
 21
-14.13827228546143
 31
0.0
1001
DBPROPERTIES
1002
{
1000
PbHidd
1002
}
  0
LINE
  5
3E2
330
1F
100
AcDbEntity
  8
HIDDEN
100
AcDbLine
 10
-68.90960693359375
 20
-14.13827228546143
 30
0.0
 11
-68.91136932373047
 21
-13.95821380615234
 31
0.0
1001
DBPROPERTIES
1002
{
1000
PbHidd
1002
}
  0
LINE
  5
3E3
330
1F
100
AcDbEntity
  8
HIDDEN
100
AcDbLine
 10
-68.91136932373047
 20
-13.95821380615234
 30
0.0
 11
-68.92074584960938
 21
-13.77013301849365
 31
0.0
1001
DBPROPERTIES
1002
{
1000
PbHidd
1002
}
  0
LINE
  5
3E4
330
1F
100
AcDbEntity
  8
HIDDEN
100
AcDbLine
 10
-68.92074584960938
 20
-13.77013301849365
 30
0.0
 11
-68.93688201904297
 21
-13.58554077148438
 31
0.0
1001
DBPROPERTIES
1002
{
1000
PbHidd
1002
}
  0
LINE
  5
3E5
330
1F
100
AcDbEntity
  8
HIDDEN
100
AcDbLine
 10
-68.93688201904297
 20
-13.58554077148438
 30
0.0
 11
-68.95809173583984
 21
-13.4129467010498
 31
0.0
1001
DBPROPERTIES
1002
{
1000
PbHidd
1002
}
  0
LINE
  5
3E6
330
1F
100
AcDbEntity
  8
HIDDEN
100
AcDbLine
 10
-68.95809173583984
 20
-13.4129467010498
 30
0.0
 11
-68.98555755615234
 21
-13.23872566223145
 31
0.0
1001
DBPROPERTIES
1002
{
1000
PbHidd
1002
}
  0
LINE
  5
3E7
330
1F
100
AcDbEntity
  8
HIDDEN
100
AcDbLine
 10
-68.98555755615234
 20
-13.23872566223145
 30
0.0
 11
-69.0196533203125
 21
-13.0625696182251
 31
0.0
1001
DBPROPERTIES
1002
{
1000
PbHidd
1002
}
  0
LINE
  5
3E8
330
1F
100
AcDbEntity
  8
HIDDEN
100
AcDbLine
 10
-69.0196533203125
 20
-13.0625696182251
 30
0.0
 11
-69.06034088134766
 21
-12.88637065887451
 31
0.0
1001
DBPROPERTIES
1002
{
1000
PbHidd
1002
}
  0
LINE
  5
3E9
330
1F
100
AcDbEntity
  8
HIDDEN
100
AcDbLine
 10
-69.06034088134766
 20
-12.88637065887451
 30
0.0
 11
-69.10740661621094
 21
-12.71193695068359
 31
0.0
1001
DBPROPERTIES
1002
{
1000
PbHidd
1002
}
  0
LINE
  5
3EA
330
1F
100
AcDbEntity
  8
HIDDEN
100
AcDbLine
 10
-69.10740661621094
 20
-12.71193695068359
 30
0.0
 11
-69.16047668457031
 21
-12.54095649719238
 31
0.0
1001
DBPROPERTIES
1002
{
1000
PbHidd
1002
}
  0
LINE
  5
3EB
330
1F
100
AcDbEntity
  8
HIDDEN
100
AcDbLine
 10
-69.16047668457031
 20
-12.54095649719238
 30
0.0
 11
-69.21894836425781
 21
-12.37495708465576
 31
0.0
1001
DBPROPERTIES
1002
{
1000
PbHidd
1002
}
  0
LINE
  5
3EC
330
1F
100
AcDbEntity
  8
HIDDEN
100
AcDbLine
 10
-69.21894836425781
 20
-12.37495708465576
 30
0.0
 11
-69.28211212158203
 21
-12.2154369354248
 31
0.0
1001
DBPROPERTIES
1002
{
1000
PbHidd
1002
}
  0
LINE
  5
3ED
330
1F
100
AcDbEntity
  8
HIDDEN
100
AcDbLine
 10
-69.28211212158203
 20
-12.2154369354248
 30
0.0
 11
-69.34902954101562
 21
-12.06372833251953
 31
0.0
1001
DBPROPERTIES
1002
{
1000
PbHidd
1002
}
  0
LINE
  5
3EE
330
1F
100
AcDbEntity
  8
HIDDEN
100
AcDbLine
 10
-69.34902954101562
 20
-12.06372833251953
 30
0.0
 11
-69.41870880126953
 21
-11.92083549499512
 31
0.0
1001
DBPROPERTIES
1002
{
1000
PbHidd
1002
}
  0
LINE
  5
3EF
330
1F
100
AcDbEntity
  8
HIDDEN
100
AcDbLine
 10
-69.41870880126953
 20
-11.92083549499512
 30
0.0
 11
-69.49362182617188
 21
-11.78132820129395
 31
0.0
1001
DBPROPERTIES
1002
{
1000
PbHidd
1002
}
  0
LINE
  5
3F0
330
1F
100
AcDbEntity
  8
HIDDEN
100
AcDbLine
 10
-69.49362182617188
 20
-11.78132820129395
 30
0.0
 11
-69.57503509521484
 21
-11.64339828491211
 31
0.0
1001
DBPROPERTIES
1002
{
1000
PbHidd
1002
}
  0
LINE
  5
3F1
330
1F
100
AcDbEntity
  8
HIDDEN
100
AcDbLine
 10
-69.57503509521484
 20
-11.64339828491211
 30
0.0
 11
-69.66255950927734
 21
-11.5086612701416
 31
0.0
1001
DBPROPERTIES
1002
{
1000
PbHidd
1002
}
  0
LINE
  5
3F2
330
1F
100
AcDbEntity
  8
HIDDEN
100
AcDbLine
 10
-69.66255950927734
 20
-11.5086612701416
 30
0.0
 11
-69.7556381225586
 21
-11.37850761413574
 31
0.0
1001
DBPROPERTIES
1002
{
1000
PbHidd
1002
}
  0
LINE
  5
3F3
330
1F
100
AcDbEntity
  8
HIDDEN
100
AcDbLine
 10
-69.7556381225586
 20
-11.37850761413574
 30
0.0
 11
-69.85357666015625
 21
-11.25416946411133
 31
0.0
1001
DBPROPERTIES
1002
{
1000
PbHidd
1002
}
  0
LINE
  5
3F4
330
1F
100
AcDbEntity
  8
HIDDEN
100
AcDbLine
 10
-69.85357666015625
 20
-11.25416946411133
 30
0.0
 11
-69.95565032958984
 21
-11.13674354553223
 31
0.0
1001
DBPROPERTIES
1002
{
1000
PbHidd
1002
}
  0
LINE
  5
3F5
330
1F
100
AcDbEntity
  8
HIDDEN
100
AcDbLine
 10
-69.95565032958984
 20
-11.13674354553223
 30
0.0
 11
-70.06095123291016
 21
-11.02704334259033
 31
0.0
1001
DBPROPERTIES
1002
{
1000
PbHidd
1002
}
  0
LINE
  5
3F6
330
1F
100
AcDbEntity
  8
HIDDEN
100
AcDbLine
 10
-70.06095123291016
 20
-11.02704334259033
 30
0.0
 11
-70.16850280761719
 21
-10.92583560943604
 31
0.0
1001
DBPROPERTIES
1002
{
1000
PbHidd
1002
}
  0
LINE
  5
3F7
330
1F
100
AcDbEntity
  8
HIDDEN
100
AcDbLine
 10
-70.16850280761719
 20
-10.92583560943604
 30
0.0
 11
-70.27720642089844
 21
-10.83363437652588
 31
0.0
1001
DBPROPERTIES
1002
{
1000
PbHidd
1002
}
  0
LINE
  5
3F8
330
1F
100
AcDbEntity
  8
HIDDEN
100
AcDbLine
 10
-70.27720642089844
 20
-10.83363437652588
 30
0.0
 11
-70.3858642578125
 21
-10.75073528289795
 31
0.0
1001
DBPROPERTIES
1002
{
1000
PbHidd
1002
}
  0
LINE
  5
3F9
330
1F
100
AcDbEntity
  8
HIDDEN
100
AcDbLine
 10
-70.3858642578125
 20
-10.75073528289795
 30
0.0
 11
-70.49722290039062
 21
-10.67477130889893
 31
0.0
1001
DBPROPERTIES
1002
{
1000
PbHidd
1002
}
  0
LINE
  5
3FA
330
1F
100
AcDbEntity
  8
HIDDEN
100
AcDbLine
 10
-70.49722290039062
 20
-10.67477130889893
 30
0.0
 11
-70.61408996582031
 21
-10.60411167144775
 31
0.0
1001
DBPROPERTIES
1002
{
1000
PbHidd
1002
}
  0
LINE
  5
3FB
330
1F
100
AcDbEntity
  8
HIDDEN
100
AcDbLine
 10
-70.61408996582031
 20
-10.60411167144775
 30
0.0
 11
-70.73558807373047
 21
-10.53994560241699
 31
0.0
1001
DBPROPERTIES
1002
{
1000
PbHidd
1002
}
  0
LINE
  5
3FC
330
1F
100
AcDbEntity
  8
HIDDEN
100
AcDbLine
 10
-70.73558807373047
 20
-10.53994560241699
 30
0.0
 11
-70.86079406738281
 21
-10.48321342468262
 31
0.0
1001
DBPROPERTIES
1002
{
1000
PbHidd
1002
}
  0
LINE
  5
3FD
330
1F
100
AcDbEntity
  8
HIDDEN
100
AcDbLine
 10
-70.86079406738281
 20
-10.48321342468262
 30
0.0
 11
-70.98869323730469
 21
-10.4345760345459
 31
0.0
1001
DBPROPERTIES
1002
{
1000
PbHidd
1002
}
  0
LINE
  5
3FE
330
1F
100
AcDbEntity
  8
HIDDEN
100
AcDbLine
 10
-70.98869323730469
 20
-10.4345760345459
 30
0.0
 11
-71.1182861328125
 21
-10.3945951461792
 31
0.0
1001
DBPROPERTIES
1002
{
1000
PbHidd
1002
}
  0
LINE
  5
3FF
330
1F
100
AcDbEntity
  8
HIDDEN
100
AcDbLine
 10
-71.1182861328125
 20
-10.3945951461792
 30
0.0
 11
-71.2485122680664
 21
-10.36345481872559
 31
0.0
1001
DBPROPERTIES
1002
{
1000
PbHidd
1002
}
  0
LINE
  5
400
330
1F
100
AcDbEntity
  8
HIDDEN
100
AcDbLine
 10
-71.2485122680664
 20
-10.36345481872559
 30
0.0
 11
-71.37824249267578
 21
-10.34122562408447
 31
0.0
1001
DBPROPERTIES
1002
{
1000
PbHidd
1002
}
  0
LINE
  5
401
330
1F
100
AcDbEntity
  8
HIDDEN
100
AcDbLine
 10
-71.37824249267578
 20
-10.34122562408447
 30
0.0
 11
-71.50633239746094
 21
-10.32773876190186
 31
0.0
1001
DBPROPERTIES
1002
{
1000
PbHidd
1002
}
  0
LINE
  5
402
330
1F
100
AcDbEntity
  8
HIDDEN
100
AcDbLine
 10
-71.50633239746094
 20
-10.32773876190186
 30
0.0
 11
-71.52437591552734
 21
-10.32650184631348
 31
0.0
1001
DBPROPERTIES
1002
{
1000
PbHidd
1002
}
  0
LINE
  5
403
330
1F
100
AcDbEntity
  8
HIDDEN
100
AcDbLine
 10
-71.52437591552734
 20
-10.32650184631348
 30
0.0
 11
-71.5423583984375
 21
-10.32543087005615
 31
0.0
1001
DBPROPERTIES
1002
{
1000
PbHidd
1002
}
  0
LINE
  5
404
330
1F
100
AcDbEntity
  8
HIDDEN
100
AcDbLine
 10
-71.5423583984375
 20
-10.32543087005615
 30
0.0
 11
-71.56027221679688
 21
-10.32452392578125
 31
0.0
1001
DBPROPERTIES
1002
{
1000
PbHidd
1002
}
  0
LINE
  5
405
330
1F
100
AcDbEntity
  8
HIDDEN
100
AcDbLine
 10
-71.56027221679688
 20
-10.32452392578125
 30
0.0
 11
-71.578125
 21
-10.32378005981445
 31
0.0
1001
DBPROPERTIES
1002
{
1000
PbHidd
1002
}
  0
LINE
  5
406
330
1F
100
AcDbEntity
  8
HIDDEN
100
AcDbLine
 10
-71.578125
 20
-10.32378005981445
 30
0.0
 11
-71.59590148925781
 21
-10.32319831848145
 31
0.0
1001
DBPROPERTIES
1002
{
1000
PbHidd
1002
}
  0
LINE
  5
407
330
1F
100
AcDbEntity
  8
HIDDEN
100
AcDbLine
 10
-71.59590148925781
 20
-10.32319831848145
 30
0.0
 11
-71.61360931396484
 21
-10.32277584075928
 31
0.0
1001
DBPROPERTIES
1002
{
1000
PbHidd
1002
}
  0
LINE
  5
408
330
1F
100
AcDbEntity
  8
THICK
100
AcDbLine
 10
-71.61360931396484
 20
-10.32277584075928
 30
0.0
 11
-71.62002563476562
 21
-10.32266139984131
 31
0.0
1001
DBPROPERTIES
1002
{
1000
PbThick
1002
}
  0
LINE
  5
409
330
1F
100
AcDbEntity
  8
THICK
100
AcDbLine
 10
-71.62002563476562
 20
-10.32266139984131
 30
0.0
 11
-71.62643432617188
 21
-10.32256889343262
 31
0.0
1001
DBPROPERTIES
1002
{
1000
PbThick
1002
}
  0
LINE
  5
40A
330
1F
100
AcDbEntity
  8
THICK
100
AcDbLine
 10
-71.62643432617188
 20
-10.32256889343262
 30
0.0
 11
-71.6328353881836
 21
-10.32249641418457
 31
0.0
1001
DBPROPERTIES
1002
{
1000
PbThick
1002
}
  0
LINE
  5
40B
330
1F
100
AcDbEntity
  8
THICK
100
AcDbLine
 10
-71.6328353881836
 20
-10.32249641418457
 30
0.0
 11
-71.63922119140625
 21
-10.32244491577148
 31
0.0
1001
DBPROPERTIES
1002
{
1000
PbThick
1002
}
  0
LINE
  5
40C
330
1F
100
AcDbEntity
  8
THICK
100
AcDbLine
 10
-71.63922119140625
 20
-10.32244491577148
 30
0.0
 11
-71.64559936523438
 21
-10.32241344451904
 31
0.0
1001
DBPROPERTIES
1002
{
1000
PbThick
1002
}
  0
LINE
  5
40D
330
1F
100
AcDbEntity
  8
THICK
100
AcDbLine
 10
-71.64559936523438
 20
-10.32241344451904
 30
0.0
 11
-71.65196228027344
 21
-10.32240390777588
 31
0.0
1001
DBPROPERTIES
1002
{
1000
PbThick
1002
}
  0
LINE
  5
40E
330
1F
100
AcDbEntity
  8
THICK
100
AcDbLine
 10
-54.92157287525379
 20
-34.31999999999999
 30
0.0
 11
-53.75000000317597
 21
-34.31999999999999
 31
0.0
1001
DBPROPERTIES
1002
{
1000
PbThick
1002
}
  0
LINE
  5
40F
330
1F
100
AcDbEntity
  8
HIDDEN
100
AcDbLine
 10
-53.74999999999999
 20
-34.31999999999999
 30
0.0
 11
-54.9215728752538
 21
-34.31999999999999
 31
0.0
1001
DBPROPERTIES
1002
{
1000
PbHidd
1002
}
  0
LINE
  5
410
330
1F
100
AcDbEntity
  8
HIDDEN
100
AcDbLine
 10
-54.9215728752538
 20
-34.31999999999999
 30
0.0
 11
-57.74999999999999
 21
-34.31999999999999
 31
0.0
1001
DBPROPERTIES
1002
{
1000
PbHidd
1002
}
  0
ELLIPSE
  5
411
330
1F
100
AcDbEntity
  8
HIDDEN
100
AcDbEllipse
 10
-71.89213562373094
 20
-14.31999999999999
 30
0.0
 11
-2.449212707644755E-16
 21
-4.0
 31
0.0
210
0.0
220
0.0
230
1.0
 40
0.7071067811865475
 41
0.0
 42
0.0015164697773285
1001
DBPROPERTIES
1002
{
1000
PbHidd
1002
}
  0
LINE
  5
412
330
1F
100
AcDbEntity
  8
HIDDEN
100
AcDbLine
 10
-71.88784790039062
 20
-18.31999588012695
 30
0.0
 11
-71.88482666015625
 21
-18.31999588012695
 31
0.0
1001
DBPROPERTIES
1002
{
1000
PbHidd
1002
}
  0
LINE
  5
413
330
1F
100
AcDbEntity
  8
HIDDEN
100
AcDbLine
 10
-71.88482666015625
 20
-18.31999588012695
 30
0.0
 11
-71.881591796875
 21
-18.31999588012695
 31
0.0
1001
DBPROPERTIES
1002
{
1000
PbHidd
1002
}
  0
LINE
  5
414
330
1F
100
AcDbEntity
  8
HIDDEN
100
AcDbLine
 10
-71.881591796875
 20
-18.31999588012695
 30
0.0
 11
-71.87812805175781
 21
-18.31999778747559
 31
0.0
1001
DBPROPERTIES
1002
{
1000
PbHidd
1002
}
  0
LINE
  5
415
330
1F
100
AcDbEntity
  8
HIDDEN
100
AcDbLine
 10
-71.87812805175781
 20
-18.31999778747559
 30
0.0
 11
-71.87445831298828
 21
-18.31999778747559
 31
0.0
1001
DBPROPERTIES
1002
{
1000
PbHidd
1002
}
  0
LINE
  5
416
330
1F
100
AcDbEntity
  8
HIDDEN
100
AcDbLine
 10
-71.87445831298828
 20
-18.31999778747559
 30
0.0
 11
-71.87064361572266
 21
-18.31999969482422
 31
0.0
1001
DBPROPERTIES
1002
{
1000
PbHidd
1002
}
  0
LINE
  5
417
330
1F
100
AcDbEntity
  8
HIDDEN
100
AcDbLine
 10
-71.87064361572266
 20
-18.31999969482422
 30
0.0
 11
-71.86672973632812
 21
-18.31999969482422
 31
0.0
1001
DBPROPERTIES
1002
{
1000
PbHidd
1002
}
  0
LINE
  5
418
330
1F
100
AcDbEntity
  8
HIDDEN
100
AcDbLine
 10
-71.86672973632812
 20
-18.31999969482422
 30
0.0
 11
-71.85287475585938
 21
-18.31999206542969
 31
0.0
1001
DBPROPERTIES
1002
{
1000
PbHidd
1002
}
  0
LINE
  5
419
330
1F
100
AcDbEntity
  8
HIDDEN
100
AcDbLine
 10
-71.85287475585938
 20
-18.31999206542969
 30
0.0
 11
-71.83844757080078
 21
-18.31996154785156
 31
0.0
1001
DBPROPERTIES
1002
{
1000
PbHidd
1002
}
  0
LINE
  5
41A
330
1F
100
AcDbEntity
  8
HIDDEN
100
AcDbLine
 10
-71.83844757080078
 20
-18.31996154785156
 30
0.0
 11
-71.82394409179688
 21
-18.31989860534668
 31
0.0
1001
DBPROPERTIES
1002
{
1000
PbHidd
1002
}
  0
LINE
  5
41B
330
1F
100
AcDbEntity
  8
HIDDEN
100
AcDbLine
 10
-71.82394409179688
 20
-18.31989860534668
 30
0.0
 11
-71.80972290039062
 21
-18.31979942321777
 31
0.0
1001
DBPROPERTIES
1002
{
1000
PbHidd
1002
}
  0
LINE
  5
41C
330
1F
100
AcDbEntity
  8
HIDDEN
100
AcDbLine
 10
-71.80972290039062
 20
-18.31979942321777
 30
0.0
 11
-71.79509735107422
 21
-18.31965255737305
 31
0.0
1001
DBPROPERTIES
1002
{
1000
PbHidd
1002
}
  0
LINE
  5
41D
330
1F
100
AcDbEntity
  8
HIDDEN
100
AcDbLine
 10
-71.79509735107422
 20
-18.31965255737305
 30
0.0
 11
-71.78011322021484
 21
-18.31945037841797
 31
0.0
1001
DBPROPERTIES
1002
{
1000
PbHidd
1002
}
  0
LINE
  5
41E
330
1F
100
AcDbEntity
  8
HIDDEN
100
AcDbLine
 10
-71.78011322021484
 20
-18.31945037841797
 30
0.0
 11
-71.7649154663086
 21
-18.31919479370117
 31
0.0
1001
DBPROPERTIES
1002
{
1000
PbHidd
1002
}
  0
LINE
  5
41F
330
1F
100
AcDbEntity
  8
HIDDEN
100
AcDbLine
 10
-71.7649154663086
 20
-18.31919479370117
 30
0.0
 11
-71.74967193603516
 21
-18.31888198852539
 31
0.0
1001
DBPROPERTIES
1002
{
1000
PbHidd
1002
}
  0
LINE
  5
420
330
1F
100
AcDbEntity
  8
HIDDEN
100
AcDbLine
 10
-71.74967193603516
 20
-18.31888198852539
 30
0.0
 11
-71.7345199584961
 21
-18.31850814819336
 31
0.0
1001
DBPROPERTIES
1002
{
1000
PbHidd
1002
}
  0
LINE
  5
421
330
1F
100
AcDbEntity
  8
HIDDEN
100
AcDbLine
 10
-71.7345199584961
 20
-18.31850814819336
 30
0.0
 11
-71.71928405761719
 21
-18.31806564331055
 31
0.0
1001
DBPROPERTIES
1002
{
1000
PbHidd
1002
}
  0
LINE
  5
422
330
1F
100
AcDbEntity
  8
HIDDEN
100
AcDbLine
 10
-71.71928405761719
 20
-18.31806564331055
 30
0.0
 11
-71.7034912109375
 21
-18.31753921508789
 31
0.0
1001
DBPROPERTIES
1002
{
1000
PbHidd
1002
}
  0
LINE
  5
423
330
1F
100
AcDbEntity
  8
HIDDEN
100
AcDbLine
 10
-71.7034912109375
 20
-18.31753921508789
 30
0.0
 11
-71.6871337890625
 21
-18.31691741943359
 31
0.0
1001
DBPROPERTIES
1002
{
1000
PbHidd
1002
}
  0
LINE
  5
424
330
1F
100
AcDbEntity
  8
HIDDEN
100
AcDbLine
 10
-71.6871337890625
 20
-18.31691741943359
 30
0.0
 11
-71.67021942138672
 21
-18.31619071960449
 31
0.0
1001
DBPROPERTIES
1002
{
1000
PbHidd
1002
}
  0
LINE
  5
425
330
1F
100
AcDbEntity
  8
HIDDEN
100
AcDbLine
 10
-71.67021942138672
 20
-18.31619071960449
 30
0.0
 11
-71.65276336669922
 21
-18.31534576416016
 31
0.0
1001
DBPROPERTIES
1002
{
1000
PbHidd
1002
}
  0
LINE
  5
426
330
1F
100
AcDbEntity
  8
HIDDEN
100
AcDbLine
 10
-71.65276336669922
 20
-18.31534576416016
 30
0.0
 11
-71.63477325439453
 21
-18.31437301635742
 31
0.0
1001
DBPROPERTIES
1002
{
1000
PbHidd
1002
}
  0
LINE
  5
427
330
1F
100
AcDbEntity
  8
HIDDEN
100
AcDbLine
 10
-71.63477325439453
 20
-18.31437301635742
 30
0.0
 11
-71.61626434326172
 21
-18.31326103210449
 31
0.0
1001
DBPROPERTIES
1002
{
1000
PbHidd
1002
}
  0
LINE
  5
428
330
1F
100
AcDbEntity
  8
HIDDEN
100
AcDbLine
 10
-71.61626434326172
 20
-18.31326103210449
 30
0.0
 11
-71.59722900390625
 21
-18.31199836730957
 31
0.0
1001
DBPROPERTIES
1002
{
1000
PbHidd
1002
}
  0
LINE
  5
429
330
1F
100
AcDbEntity
  8
HIDDEN
100
AcDbLine
 10
-71.59722900390625
 20
-18.31199836730957
 30
0.0
 11
-71.57769775390625
 21
-18.31057548522949
 31
0.0
1001
DBPROPERTIES
1002
{
1000
PbHidd
1002
}
  0
LINE
  5
42A
330
1F
100
AcDbEntity
  8
HIDDEN
100
AcDbLine
 10
-71.57769775390625
 20
-18.31057548522949
 30
0.0
 11
-71.55766296386719
 21
-18.30898094177246
 31
0.0
1001
DBPROPERTIES
1002
{
1000
PbHidd
1002
}
  0
LINE
  5
42B
330
1F
100
AcDbEntity
  8
HIDDEN
100
AcDbLine
 10
-71.55766296386719
 20
-18.30898094177246
 30
0.0
 11
-71.53713989257812
 21
-18.30720329284668
 31
0.0
1001
DBPROPERTIES
1002
{
1000
PbHidd
1002
}
  0
LINE
  5
42C
330
1F
100
AcDbEntity
  8
HIDDEN
100
AcDbLine
 10
-71.53713989257812
 20
-18.30720329284668
 30
0.0
 11
-71.5161361694336
 21
-18.30523300170898
 31
0.0
1001
DBPROPERTIES
1002
{
1000
PbHidd
1002
}
  0
LINE
  5
42D
330
1F
100
AcDbEntity
  8
HIDDEN
100
AcDbLine
 10
-71.5161361694336
 20
-18.30523300170898
 30
0.0
 11
-71.49465942382812
 21
-18.30305671691895
 31
0.0
1001
DBPROPERTIES
1002
{
1000
PbHidd
1002
}
  0
LINE
  5
42E
330
1F
100
AcDbEntity
  8
HIDDEN
100
AcDbLine
 10
-71.49465942382812
 20
-18.30305671691895
 30
0.0
 11
-71.47272491455078
 21
-18.3006649017334
 31
0.0
1001
DBPROPERTIES
1002
{
1000
PbHidd
1002
}
  0
LINE
  5
42F
330
1F
100
AcDbEntity
  8
HIDDEN
100
AcDbLine
 10
-71.47272491455078
 20
-18.3006649017334
 30
0.0
 11
-71.4503402709961
 21
-18.29804611206055
 31
0.0
1001
DBPROPERTIES
1002
{
1000
PbHidd
1002
}
  0
LINE
  5
430
330
1F
100
AcDbEntity
  8
HIDDEN
100
AcDbLine
 10
-71.4503402709961
 20
-18.29804611206055
 30
0.0
 11
-71.4275131225586
 21
-18.29517555236816
 31
0.0
1001
DBPROPERTIES
1002
{
1000
PbHidd
1002
}
  0
LINE
  5
431
330
1F
100
AcDbEntity
  8
HIDDEN
100
AcDbLine
 10
-71.4275131225586
 20
-18.29517555236816
 30
0.0
 11
-71.19641876220703
 21
-18.24389457702637
 31
0.0
1001
DBPROPERTIES
1002
{
1000
PbHidd
1002
}
  0
LINE
  5
432
330
1F
100
AcDbEntity
  8
HIDDEN
100
AcDbLine
 10
-71.19641876220703
 20
-18.24389457702637
 30
0.0
 11
-70.9692153930664
 21
-18.16554260253906
 31
0.0
1001
DBPROPERTIES
1002
{
1000
PbHidd
1002
}
  0
LINE
  5
433
330
1F
100
AcDbEntity
  8
HIDDEN
100
AcDbLine
 10
-70.9692153930664
 20
-18.16554260253906
 30
0.0
 11
-70.75341033935547
 21
-18.06462097167969
 31
0.0
1001
DBPROPERTIES
1002
{
1000
PbHidd
1002
}
  0
LINE
  5
434
330
1F
100
AcDbEntity
  8
HIDDEN
100
AcDbLine
 10
-70.75341033935547
 20
-18.06462097167969
 30
0.0
 11
-70.55130004882812
 21
-17.94408416748047
 31
0.0
1001
DBPROPERTIES
1002
{
1000
PbHidd
1002
}
  0
LINE
  5
435
330
1F
100
AcDbEntity
  8
HIDDEN
100
AcDbLine
 10
-70.55130004882812
 20
-17.94408416748047
 30
0.0
 11
-70.34821319580078
 21
-17.79513740539551
 31
0.0
1001
DBPROPERTIES
1002
{
1000
PbHidd
1002
}
  0
LINE
  5
436
330
1F
100
AcDbEntity
  8
HIDDEN
100
AcDbLine
 10
-70.34821319580078
 20
-17.79513740539551
 30
0.0
 11
-70.14962768554688
 21
-17.61933135986328
 31
0.0
1001
DBPROPERTIES
1002
{
1000
PbHidd
1002
}
  0
LINE
  5
437
330
1F
100
AcDbEntity
  8
HIDDEN
100
AcDbLine
 10
-70.14962768554688
 20
-17.61933135986328
 30
0.0
 11
-69.96296691894531
 21
-17.42131423950195
 31
0.0
1001
DBPROPERTIES
1002
{
1000
PbHidd
1002
}
  0
LINE
  5
438
330
1F
100
AcDbEntity
  8
HIDDEN
100
AcDbLine
 10
-69.96296691894531
 20
-17.42131423950195
 30
0.0
 11
-69.79366302490234
 21
-17.20997428894043
 31
0.0
1001
DBPROPERTIES
1002
{
1000
PbHidd
1002
}
  0
LINE
  5
439
330
1F
100
AcDbEntity
  8
HIDDEN
100
AcDbLine
 10
-69.79366302490234
 20
-17.20997428894043
 30
0.0
 11
-69.640869140625
 21
-16.98633575439453
 31
0.0
1001
DBPROPERTIES
1002
{
1000
PbHidd
1002
}
  0
LINE
  5
43A
330
1F
100
AcDbEntity
  8
HIDDEN
100
AcDbLine
 10
-69.640869140625
 20
-16.98633575439453
 30
0.0
 11
-69.49485778808594
 21
-16.73508262634277
 31
0.0
1001
DBPROPERTIES
1002
{
1000
PbHidd
1002
}
  0
LINE
  5
43B
330
1F
100
AcDbEntity
  8
HIDDEN
100
AcDbLine
 10
-69.49485778808594
 20
-16.73508262634277
 30
0.0
 11
-69.3611068725586
 21
-16.46261596679688
 31
0.0
1001
DBPROPERTIES
1002
{
1000
PbHidd
1002
}
  0
LINE
  5
43C
330
1F
100
AcDbEntity
  8
HIDDEN
100
AcDbLine
 10
-69.3611068725586
 20
-16.46261596679688
 30
0.0
 11
-69.24468994140625
 21
-16.17768096923828
 31
0.0
1001
DBPROPERTIES
1002
{
1000
PbHidd
1002
}
  0
LINE
  5
43D
330
1F
100
AcDbEntity
  8
HIDDEN
100
AcDbLine
 10
-69.24468994140625
 20
-16.17768096923828
 30
0.0
 11
-69.14859008789062
 21
-15.89119052886963
 31
0.0
1001
DBPROPERTIES
1002
{
1000
PbHidd
1002
}
  0
LINE
  5
43E
330
1F
100
AcDbEntity
  8
HIDDEN
100
AcDbLine
 10
-69.14859008789062
 20
-15.89119052886963
 30
0.0
 11
-69.07001495361328
 21
-15.59915447235107
 31
0.0
1001
DBPROPERTIES
1002
{
1000
PbHidd
1002
}
  0
LINE
  5
43F
330
1F
100
AcDbEntity
  8
HIDDEN
100
AcDbLine
 10
-69.07001495361328
 20
-15.59915447235107
 30
0.0
 11
-69.00514221191406
 21
-15.28560733795166
 31
0.0
1001
DBPROPERTIES
1002
{
1000
PbHidd
1002
}
  0
LINE
  5
440
330
1F
100
AcDbEntity
  8
HIDDEN
100
AcDbLine
 10
-69.00514221191406
 20
-15.28560733795166
 30
0.0
 11
-68.95802307128906
 21
-14.96050262451172
 31
0.0
1001
DBPROPERTIES
1002
{
1000
PbHidd
1002
}
  0
LINE
  5
441
330
1F
100
AcDbEntity
  8
HIDDEN
100
AcDbLine
 10
-68.95802307128906
 20
-14.96050262451172
 30
0.0
 11
-68.93048095703125
 21
-14.63486480712891
 31
0.0
1001
DBPROPERTIES
1002
{
1000
PbHidd
1002
}
  0
LINE
  5
442
330
1F
100
AcDbEntity
  8
HIDDEN
100
AcDbLine
 10
-68.93048095703125
 20
-14.63486480712891
 30
0.0
 11
-68.92156982421875
 21
-14.32050514221191
 31
0.0
1001
DBPROPERTIES
1002
{
1000
PbHidd
1002
}
  0
LINE
  5
443
330
1F
100
AcDbEntity
  8
THICK
100
AcDbLine
 10
-74.79981231689453
 20
-14.31999969482422
 30
0.0
 11
-74.79417419433594
 21
-14.56632423400879
 31
0.0
1001
DBPROPERTIES
1002
{
1000
PbThick
1002
}
  0
LINE
  5
444
330
1F
100
AcDbEntity
  8
THICK
100
AcDbLine
 10
-74.79417419433594
 20
-14.56632423400879
 30
0.0
 11
-74.77658081054688
 21
-14.82000541687012
 31
0.0
1001
DBPROPERTIES
1002
{
1000
PbThick
1002
}
  0
LINE
  5
445
330
1F
100
AcDbEntity
  8
THICK
100
AcDbLine
 10
-74.77658081054688
 20
-14.82000541687012
 30
0.0
 11
-74.74632263183594
 21
-15.0766487121582
 31
0.0
1001
DBPROPERTIES
1002
{
1000
PbThick
1002
}
  0
LINE
  5
446
330
1F
100
AcDbEntity
  8
THICK
100
AcDbLine
 10
-74.74632263183594
 20
-15.0766487121582
 30
0.0
 11
-74.70343780517578
 21
-15.3319845199585
 31
0.0
1001
DBPROPERTIES
1002
{
1000
PbThick
1002
}
  0
LINE
  5
447
330
1F
100
AcDbEntity
  8
THICK
100
AcDbLine
 10
-74.70343780517578
 20
-15.3319845199585
 30
0.0
 11
-74.64848327636719
 21
-15.58201122283936
 31
0.0
1001
DBPROPERTIES
1002
{
1000
PbThick
1002
}
  0
LINE
  5
448
330
1F
100
AcDbEntity
  8
THICK
100
AcDbLine
 10
-74.64848327636719
 20
-15.58201122283936
 30
0.0
 11
-74.58270263671875
 21
-15.82286262512207
 31
0.0
1001
DBPROPERTIES
1002
{
1000
PbThick
1002
}
  0
LINE
  5
449
330
1F
100
AcDbEntity
  8
THICK
100
AcDbLine
 10
-74.58270263671875
 20
-15.82286262512207
 30
0.0
 11
-74.50794982910156
 21
-16.05092239379883
 31
0.0
1001
DBPROPERTIES
1002
{
1000
PbThick
1002
}
  0
LINE
  5
44A
330
1F
100
AcDbEntity
  8
THICK
100
AcDbLine
 10
-74.50794982910156
 20
-16.05092239379883
 30
0.0
 11
-74.42459106445312
 21
-16.26779174804688
 31
0.0
1001
DBPROPERTIES
1002
{
1000
PbThick
1002
}
  0
LINE
  5
44B
330
1F
100
AcDbEntity
  8
THICK
100
AcDbLine
 10
-74.42459106445312
 20
-16.26779174804688
 30
0.0
 11
-74.32823944091797
 21
-16.4843692779541
 31
0.0
1001
DBPROPERTIES
1002
{
1000
PbThick
1002
}
  0
LINE
  5
44C
330
1F
100
AcDbEntity
  8
THICK
100
AcDbLine
 10
-74.32823944091797
 20
-16.4843692779541
 30
0.0
 11
-74.21916961669922
 21
-16.69717788696289
 31
0.0
1001
DBPROPERTIES
1002
{
1000
PbThick
1002
}
  0
LINE
  5
44D
330
1F
100
AcDbEntity
  8
THICK
100
AcDbLine
 10
-74.21916961669922
 20
-16.69717788696289
 30
0.0
 11
-74.09866333007812
 21
-16.90228652954102
 31
0.0
1001
DBPROPERTIES
1002
{
1000
PbThick
1002
}
  0
LINE
  5
44E
330
1F
100
AcDbEntity
  8
THICK
100
AcDbLine
 10
-74.09866333007812
 20
-16.90228652954102
 30
0.0
 11
-73.9683837890625
 21
-17.09624481201172
 31
0.0
1001
DBPROPERTIES
1002
{
1000
PbThick
1002
}
  0
LINE
  5
44F
330
1F
100
AcDbEntity
  8
THICK
100
AcDbLine
 10
-73.9683837890625
 20
-17.09624481201172
 30
0.0
 11
-73.83055877685547
 21
-17.27626419067383
 31
0.0
1001
DBPROPERTIES
1002
{
1000
PbThick
1002
}
  0
LINE
  5
450
330
1F
100
AcDbEntity
  8
THICK
100
AcDbLine
 10
-73.83055877685547
 20
-17.27626419067383
 30
0.0
 11
-73.68785095214844
 21
-17.43998336791992
 31
0.0
1001
DBPROPERTIES
1002
{
1000
PbThick
1002
}
  0
LINE
  5
451
330
1F
100
AcDbEntity
  8
THICK
100
AcDbLine
 10
-73.68785095214844
 20
-17.43998336791992
 30
0.0
 11
-73.5423583984375
 21
-17.58680152893066
 31
0.0
1001
DBPROPERTIES
1002
{
1000
PbThick
1002
}
  0
LINE
  5
452
330
1F
100
AcDbEntity
  8
THICK
100
AcDbLine
 10
-73.5423583984375
 20
-17.58680152893066
 30
0.0
 11
-73.38599395751953
 21
-17.72492408752441
 31
0.0
1001
DBPROPERTIES
1002
{
1000
PbThick
1002
}
  0
LINE
  5
453
330
1F
100
AcDbEntity
  8
THICK
100
AcDbLine
 10
-73.38599395751953
 20
-17.72492408752441
 30
0.0
 11
-73.21820831298828
 21
-17.8531436920166
 31
0.0
1001
DBPROPERTIES
1002
{
1000
PbThick
1002
}
  0
LINE
  5
454
330
1F
100
AcDbEntity
  8
HIDDEN
100
AcDbLine
 10
-73.21820831298828
 20
-17.8531436920166
 30
0.0
 11
-73.19438171386719
 21
-17.86980819702148
 31
0.0
1001
DBPROPERTIES
1002
{
1000
PbHidd
1002
}
  0
LINE
  5
455
330
1F
100
AcDbEntity
  8
HIDDEN
100
AcDbLine
 10
-73.19438171386719
 20
-17.86980819702148
 30
0.0
 11
-73.17039489746094
 21
-17.88621711730957
 31
0.0
1001
DBPROPERTIES
1002
{
1000
PbHidd
1002
}
  0
LINE
  5
456
330
1F
100
AcDbEntity
  8
HIDDEN
100
AcDbLine
 10
-73.17039489746094
 20
-17.88621711730957
 30
0.0
 11
-73.14625549316406
 21
-17.90235900878906
 31
0.0
1001
DBPROPERTIES
1002
{
1000
PbHidd
1002
}
  0
LINE
  5
457
330
1F
100
AcDbEntity
  8
HIDDEN
100
AcDbLine
 10
-73.14625549316406
 20
-17.90235900878906
 30
0.0
 11
-73.12197875976562
 21
-17.91823196411133
 31
0.0
1001
DBPROPERTIES
1002
{
1000
PbHidd
1002
}
  0
LINE
  5
458
330
1F
100
AcDbEntity
  8
HIDDEN
100
AcDbLine
 10
-73.12197875976562
 20
-17.91823196411133
 30
0.0
 11
-73.09756469726562
 21
-17.9338264465332
 31
0.0
1001
DBPROPERTIES
1002
{
1000
PbHidd
1002
}
  0
LINE
  5
459
330
1F
100
AcDbEntity
  8
HIDDEN
100
AcDbLine
 10
-73.09756469726562
 20
-17.9338264465332
 30
0.0
 11
-73.0730209350586
 21
-17.94913673400879
 31
0.0
1001
DBPROPERTIES
1002
{
1000
PbHidd
1002
}
  0
ELLIPSE
  5
45A
330
1F
100
AcDbEntity
  8
HIDDEN
100
AcDbEllipse
 10
-74.92050807568876
 20
-14.31999999999999
 30
0.0
 11
2.449212707644755E-16
 21
3.999999999999999
 31
0.0
210
0.0
220
0.0
230
1.0
 40
0.8660254037844388
 41
1.570796326794896
 42
4.71238898038469
1001
DBPROPERTIES
1002
{
1000
PbHidd
1002
}
  0
ELLIPSE
  5
45B
330
1F
100
AcDbEntity
  8
HIDDEN
100
AcDbEllipse
 10
-71.74213562373093
 20
-14.31999999999999
 30
0.0
 11
2.449212707644754E-16
 21
4.0
 31
0.0
210
0.0
220
0.0
230
1.0
 40
0.7071067811865476
 41
-3.030124898017299
 42
-1.570796326794896
1001
DBPROPERTIES
1002
{
1000
PbHidd
1002
}
  0
LINE
  5
45C
330
1F
100
AcDbEntity
  8
HIDDEN
100
AcDbLine
 10
-73.0729751586914
 20
-17.94901466369629
 30
0.0
 11
-72.96503448486328
 21
-18.01608276367188
 31
0.0
1001
DBPROPERTIES
1002
{
1000
PbHidd
1002
}
  0
LINE
  5
45D
330
1F
100
AcDbEntity
  8
HIDDEN
100
AcDbLine
 10
-72.96503448486328
 20
-18.01608276367188
 30
0.0
 11
-72.85507202148438
 21
-18.07651519775391
 31
0.0
1001
DBPROPERTIES
1002
{
1000
PbHidd
1002
}
  0
LINE
  5
45E
330
1F
100
AcDbEntity
  8
HIDDEN
100
AcDbLine
 10
-72.85507202148438
 20
-18.07651519775391
 30
0.0
 11
-72.73995971679688
 21
-18.13195991516113
 31
0.0
1001
DBPROPERTIES
1002
{
1000
PbHidd
1002
}
  0
LINE
  5
45F
330
1F
100
AcDbEntity
  8
HIDDEN
100
AcDbLine
 10
-72.73995971679688
 20
-18.13195991516113
 30
0.0
 11
-72.62084197998047
 21
-18.18148994445801
 31
0.0
1001
DBPROPERTIES
1002
{
1000
PbHidd
1002
}
  0
LINE
  5
460
330
1F
100
AcDbEntity
  8
HIDDEN
100
AcDbLine
 10
-72.62084197998047
 20
-18.18148994445801
 30
0.0
 11
-72.49884796142578
 21
-18.22421646118164
 31
0.0
1001
DBPROPERTIES
1002
{
1000
PbHidd
1002
}
  0
LINE
  5
461
330
1F
100
AcDbEntity
  8
HIDDEN
100
AcDbLine
 10
-72.49884796142578
 20
-18.22421646118164
 30
0.0
 11
-72.3750991821289
 21
-18.25909805297852
 31
0.0
1001
DBPROPERTIES
1002
{
1000
PbHidd
1002
}
  0
LINE
  5
462
330
1F
100
AcDbEntity
  8
HIDDEN
100
AcDbLine
 10
-72.3750991821289
 20
-18.25909805297852
 30
0.0
 11
-72.2508316040039
 21
-18.28591537475586
 31
0.0
1001
DBPROPERTIES
1002
{
1000
PbHidd
1002
}
  0
LINE
  5
463
330
1F
100
AcDbEntity
  8
HIDDEN
100
AcDbLine
 10
-72.2508316040039
 20
-18.28591537475586
 30
0.0
 11
-72.12733459472656
 21
-18.30484390258789
 31
0.0
1001
DBPROPERTIES
1002
{
1000
PbHidd
1002
}
  0
LINE
  5
464
330
1F
100
AcDbEntity
  8
HIDDEN
100
AcDbLine
 10
-72.12733459472656
 20
-18.30484390258789
 30
0.0
 11
-72.00590515136719
 21
-18.31612396240234
 31
0.0
1001
DBPROPERTIES
1002
{
1000
PbHidd
1002
}
  0
LINE
  5
465
330
1F
100
AcDbEntity
  8
HIDDEN
100
AcDbLine
 10
-72.00590515136719
 20
-18.31612396240234
 30
0.0
 11
-71.88784790039062
 21
-18.31999588012695
 31
0.0
1001
DBPROPERTIES
1002
{
1000
PbHidd
1002
}
  0
ARC
  5
466
330
1F
100
AcDbEntity
  8
THICK
100
AcDbCircle
 10
-37.75
 20
-151.6
 30
0.0
 40
24.0
100
AcDbArc
 50
180.0000374479367
 51
265.9709222128289
1001
DBPROPERTIES
1002
{
1000
PbThick
1002
}
  0
LINE
  5
467
330
1F
100
AcDbEntity
  8
THICK
100
AcDbLine
 10
-39.43629455566406
 20
-175.5406799316406
 30
0.0
 11
-39.43581008911133
 21
-175.5367126464844
 31
0.0
1001
DBPROPERTIES
1002
{
1000
PbThick
1002
}
  0
LINE
  5
468
330
1F
100
AcDbEntity
  8
THICK
100
AcDbLine
 10
-39.43581008911133
 20
-175.5367126464844
 30
0.0
 11
-39.43431091308594
 21
-175.5244445800781
 31
0.0
1001
DBPROPERTIES
1002
{
1000
PbThick
1002
}
  0
LINE
  5
469
330
1F
100
AcDbEntity
  8
THICK
100
AcDbLine
 10
-39.43431091308594
 20
-175.5244445800781
 30
0.0
 11
-39.43173980712891
 21
-175.5033721923828
 31
0.0
1001
DBPROPERTIES
1002
{
1000
PbThick
1002
}
  0
LINE
  5
46A
330
1F
100
AcDbEntity
  8
THICK
100
AcDbLine
 10
-39.43173980712891
 20
-175.5033721923828
 30
0.0
 11
-39.42805862426758
 21
-175.4732666015625
 31
0.0
1001
DBPROPERTIES
1002
{
1000
PbThick
1002
}
  0
LINE
  5
46B
330
1F
100
AcDbEntity
  8
THICK
100
AcDbLine
 10
-39.42805862426758
 20
-175.4732666015625
 30
0.0
 11
-39.42327117919922
 21
-175.4341735839844
 31
0.0
1001
DBPROPERTIES
1002
{
1000
PbThick
1002
}
  0
LINE
  5
46C
330
1F
100
AcDbEntity
  8
THICK
100
AcDbLine
 10
-39.42327117919922
 20
-175.4341735839844
 30
0.0
 11
-39.41739654541016
 21
-175.3862915039062
 31
0.0
1001
DBPROPERTIES
1002
{
1000
PbThick
1002
}
  0
LINE
  5
46D
330
1F
100
AcDbEntity
  8
THICK
100
AcDbLine
 10
-39.41739654541016
 20
-175.3862915039062
 30
0.0
 11
-39.41048812866211
 21
-175.3301391601562
 31
0.0
1001
DBPROPERTIES
1002
{
1000
PbThick
1002
}
  0
LINE
  5
46E
330
1F
100
AcDbEntity
  8
THICK
100
AcDbLine
 10
-39.41048812866211
 20
-175.3301391601562
 30
0.0
 11
-39.40262985229492
 21
-175.2664184570312
 31
0.0
1001
DBPROPERTIES
1002
{
1000
PbThick
1002
}
  0
LINE
  5
46F
330
1F
100
AcDbEntity
  8
THICK
100
AcDbLine
 10
-39.40262985229492
 20
-175.2664184570312
 30
0.0
 11
-39.3939208984375
 21
-175.1960906982422
 31
0.0
1001
DBPROPERTIES
1002
{
1000
PbThick
1002
}
  0
LINE
  5
470
330
1F
100
AcDbEntity
  8
THICK
100
AcDbLine
 10
-39.3939208984375
 20
-175.1960906982422
 30
0.0
 11
-39.38451385498047
 21
-175.120361328125
 31
0.0
1001
DBPROPERTIES
1002
{
1000
PbThick
1002
}
  0
LINE
  5
471
330
1F
100
AcDbEntity
  8
THICK
100
AcDbLine
 10
-39.38451385498047
 20
-175.120361328125
 30
0.0
 11
-39.37418746948242
 21
-175.03759765625
 31
0.0
1001
DBPROPERTIES
1002
{
1000
PbThick
1002
}
  0
LINE
  5
472
330
1F
100
AcDbEntity
  8
THICK
100
AcDbLine
 10
-39.37418746948242
 20
-175.03759765625
 30
0.0
 11
-39.36262893676758
 21
-174.9454040527344
 31
0.0
1001
DBPROPERTIES
1002
{
1000
PbThick
1002
}
  0
LINE
  5
473
330
1F
100
AcDbEntity
  8
THICK
100
AcDbLine
 10
-39.36262893676758
 20
-174.9454040527344
 30
0.0
 11
-39.34985733032227
 21
-174.8441009521484
 31
0.0
1001
DBPROPERTIES
1002
{
1000
PbThick
1002
}
  0
LINE
  5
474
330
1F
100
AcDbEntity
  8
THICK
100
AcDbLine
 10
-39.34985733032227
 20
-174.8441009521484
 30
0.0
 11
-39.33591461181641
 21
-174.7342224121094
 31
0.0
1001
DBPROPERTIES
1002
{
1000
PbThick
1002
}
  0
LINE
  5
475
330
1F
100
AcDbEntity
  8
THICK
100
AcDbLine
 10
-39.33591461181641
 20
-174.7342224121094
 30
0.0
 11
-39.32088088989258
 21
-174.6165466308594
 31
0.0
1001
DBPROPERTIES
1002
{
1000
PbThick
1002
}
  0
LINE
  5
476
330
1F
100
AcDbEntity
  8
THICK
100
AcDbLine
 10
-39.32088088989258
 20
-174.6165466308594
 30
0.0
 11
-39.30482482910156
 21
-174.4919586181641
 31
0.0
1001
DBPROPERTIES
1002
{
1000
PbThick
1002
}
  0
LINE
  5
477
330
1F
100
AcDbEntity
  8
THICK
100
AcDbLine
 10
-39.30482482910156
 20
-174.4919586181641
 30
0.0
 11
-39.28787612915039
 21
-174.3615875244141
 31
0.0
1001
DBPROPERTIES
1002
{
1000
PbThick
1002
}
  0
LINE
  5
478
330
1F
100
AcDbEntity
  8
THICK
100
AcDbLine
 10
-39.28787612915039
 20
-174.3615875244141
 30
0.0
 11
-39.27016067504883
 21
-174.2266998291016
 31
0.0
1001
DBPROPERTIES
1002
{
1000
PbThick
1002
}
  0
LINE
  5
479
330
1F
100
AcDbEntity
  8
THICK
100
AcDbLine
 10
-39.27016067504883
 20
-174.2266998291016
 30
0.0
 11
-39.25184631347656
 21
-174.0888061523438
 31
0.0
1001
DBPROPERTIES
1002
{
1000
PbThick
1002
}
  0
LINE
  5
47A
330
1F
100
AcDbEntity
  8
THICK
100
AcDbLine
 10
-39.25184631347656
 20
-174.0888061523438
 30
0.0
 11
-39.23311996459961
 21
-173.9495544433594
 31
0.0
1001
DBPROPERTIES
1002
{
1000
PbThick
1002
}
  0
LINE
  5
47B
330
1F
100
AcDbEntity
  8
THICK
100
AcDbLine
 10
-39.23311996459961
 20
-173.9495544433594
 30
0.0
 11
-39.21350860595703
 21
-173.8056793212891
 31
0.0
1001
DBPROPERTIES
1002
{
1000
PbThick
1002
}
  0
LINE
  5
47C
330
1F
100
AcDbEntity
  8
THICK
100
AcDbLine
 10
-39.21350860595703
 20
-173.8056793212891
 30
0.0
 11
-39.19235610961914
 21
-173.6529388427734
 31
0.0
1001
DBPROPERTIES
1002
{
1000
PbThick
1002
}
  0
LINE
  5
47D
330
1F
100
AcDbEntity
  8
THICK
100
AcDbLine
 10
-39.19235610961914
 20
-173.6529388427734
 30
0.0
 11
-39.16973876953125
 21
-173.4925384521484
 31
0.0
1001
DBPROPERTIES
1002
{
1000
PbThick
1002
}
  0
LINE
  5
47E
330
1F
100
AcDbEntity
  8
THICK
100
AcDbLine
 10
-39.16973876953125
 20
-173.4925384521484
 30
0.0
 11
-39.14572906494141
 21
-173.325927734375
 31
0.0
1001
DBPROPERTIES
1002
{
1000
PbThick
1002
}
  0
LINE
  5
47F
330
1F
100
AcDbEntity
  8
THICK
100
AcDbLine
 10
-39.14572906494141
 20
-173.325927734375
 30
0.0
 11
-39.12042236328125
 21
-173.1546325683594
 31
0.0
1001
DBPROPERTIES
1002
{
1000
PbThick
1002
}
  0
LINE
  5
480
330
1F
100
AcDbEntity
  8
THICK
100
AcDbLine
 10
-39.12042236328125
 20
-173.1546325683594
 30
0.0
 11
-39.09389495849609
 21
-172.9802856445312
 31
0.0
1001
DBPROPERTIES
1002
{
1000
PbThick
1002
}
  0
LINE
  5
481
330
1F
100
AcDbEntity
  8
THICK
100
AcDbLine
 10
-39.09389495849609
 20
-172.9802856445312
 30
0.0
 11
-39.06621932983398
 21
-172.8046875
 31
0.0
1001
DBPROPERTIES
1002
{
1000
PbThick
1002
}
  0
LINE
  5
482
330
1F
100
AcDbEntity
  8
THICK
100
AcDbLine
 10
-39.06621932983398
 20
-172.8046875
 30
0.0
 11
-39.03747177124023
 21
-172.6297149658203
 31
0.0
1001
DBPROPERTIES
1002
{
1000
PbThick
1002
}
  0
LINE
  5
483
330
1F
100
AcDbEntity
  8
THICK
100
AcDbLine
 10
-39.03747177124023
 20
-172.6297149658203
 30
0.0
 11
-39.0076789855957
 21
-172.4573822021484
 31
0.0
1001
DBPROPERTIES
1002
{
1000
PbThick
1002
}
  0
LINE
  5
484
330
1F
100
AcDbEntity
  8
THICK
100
AcDbLine
 10
-39.0076789855957
 20
-172.4573822021484
 30
0.0
 11
-38.97570037841797
 21
-172.2837677001953
 31
0.0
1001
DBPROPERTIES
1002
{
1000
PbThick
1002
}
  0
LINE
  5
485
330
1F
100
AcDbEntity
  8
THICK
100
AcDbLine
 10
-38.97570037841797
 20
-172.2837677001953
 30
0.0
 11
-38.93848419189453
 21
-172.0987854003906
 31
0.0
1001
DBPROPERTIES
1002
{
1000
PbThick
1002
}
  0
LINE
  5
486
330
1F
100
AcDbEntity
  8
THICK
100
AcDbLine
 10
-38.93848419189453
 20
-172.0987854003906
 30
0.0
 11
-38.89643478393555
 21
-171.9154663085938
 31
0.0
1001
DBPROPERTIES
1002
{
1000
PbThick
1002
}
  0
LINE
  5
487
330
1F
100
AcDbEntity
  8
THICK
100
AcDbLine
 10
-38.89643478393555
 20
-171.9154663085938
 30
0.0
 11
-38.84571838378906
 21
-171.7388000488281
 31
0.0
1001
DBPROPERTIES
1002
{
1000
PbThick
1002
}
  0
LINE
  5
488
330
1F
100
AcDbEntity
  8
THICK
100
AcDbLine
 10
-38.84571838378906
 20
-171.7388000488281
 30
0.0
 11
-38.75
 21
-171.5874938964844
 31
0.0
1001
DBPROPERTIES
1002
{
1000
PbThick
1002
}
  0
ARC
  5
489
330
1F
100
AcDbEntity
  8
THICK
100
AcDbCircle
 10
-37.75
 20
-151.6
 30
0.0
 40
16.0
100
AcDbArc
 50
180.0000374479367
 51
266.4166833774407
1001
DBPROPERTIES
1002
{
1000
PbThick
1002
}
  0
LINE
  5
48A
330
1F
100
AcDbEntity
  8
THICK
100
AcDbLine
 10
-53.75
 20
-151.6
 30
0.0
 11
-57.75
 21
-151.6
 31
0.0
1001
DBPROPERTIES
1002
{
1000
PbThick
1002
}
  0
ARC
  5
48B
330
1F
100
AcDbEntity
  8
THICK
100
AcDbCircle
 10
0.0000000000000029
 20
-166.0
 30
0.0
 40
5.0
100
AcDbArc
 50
0.0
 51
89.99998127603165
1001
DBPROPERTIES
1002
{
1000
PbThick
1002
}
  0
ARC
  5
48C
330
1F
100
AcDbEntity
  8
THICK
100
AcDbCircle
 10
0.0000000000000029
 20
-166.0
 30
0.0
 40
5.0
100
AcDbArc
 50
270.0000187239684
 51
0.0
1001
DBPROPERTIES
1002
{
1000
PbThick
1002
}
  0
ARC
  5
48D
330
1F
100
AcDbEntity
  8
THICK
100
AcDbCircle
 10
0.0000000000000029
 20
-166.0
 30
0.0
 40
3.0
100
AcDbArc
 50
270.0000187239684
 51
0.0
1001
DBPROPERTIES
1002
{
1000
PbThick
1002
}
  0
ARC
  5
48E
330
1F
100
AcDbEntity
  8
THICK
100
AcDbCircle
 10
0.0000000000000029
 20
-166.0
 30
0.0
 40
3.0
100
AcDbArc
 50
0.0
 51
89.99998127603165
1001
DBPROPERTIES
1002
{
1000
PbThick
1002
}
  0
LINE
  5
48F
330
1F
100
AcDbEntity
  8
HIDDEN
100
AcDbLine
 10
-30.75
 20
-144.3
 30
0.0
 11
-30.75
 21
-144.3
 31
0.0
1001
DBPROPERTIES
1002
{
1000
PbHidd
1002
}
  0
LINE
  5
490
330
1F
100
AcDbEntity
  8
HIDDEN
100
AcDbLine
 10
-30.75
 20
-156.0
 30
0.0
 11
-30.75
 21
-156.0
 31
0.0
1001
DBPROPERTIES
1002
{
1000
PbHidd
1002
}
  0
LINE
  5
491
330
1F
100
AcDbEntity
  8
HIDDEN
100
AcDbLine
 10
-30.75
 20
-205.8
 30
0.0
 11
-30.75
 21
-205.8
 31
0.0
1001
DBPROPERTIES
1002
{
1000
PbHidd
1002
}
  0
LINE
  5
492
330
1F
100
AcDbEntity
  8
THICK
100
AcDbLine
 10
-30.75
 20
-205.8
 30
0.0
 11
-30.75
 21
-144.3
 31
0.0
1001
DBPROPERTIES
1002
{
1000
PbThick
1002
}
  0
LINE
  5
493
330
1F
100
AcDbEntity
  8
HIDDEN
100
AcDbLine
 10
30.75
 20
-156.0
 30
0.0
 11
10.0
 21
-156.0
 31
0.0
1001
DBPROPERTIES
1002
{
1000
PbHidd
1002
}
  0
LINE
  5
494
330
1F
100
AcDbEntity
  8
HIDDEN
100
AcDbLine
 10
-10.0
 20
-156.0
 30
0.0
 11
-30.75
 21
-156.0
 31
0.0
1001
DBPROPERTIES
1002
{
1000
PbHidd
1002
}
  0
ELLIPSE
  5
495
330
1F
100
AcDbEntity
  8
HIDDEN
100
AcDbEllipse
 10
-74.92050807568876
 20
-14.31999999999999
 30
0.0
 11
2.449212707644755E-16
 21
3.999999999999999
 31
0.0
210
0.0
220
0.0
230
1.0
 40
0.8660254037844388
 41
-1.570796326794897
 42
1.570796326794897
1001
DBPROPERTIES
1002
{
1000
PbHidd
1002
}
  0
LINE
  5
496
330
1F
100
AcDbEntity
  8
HIDDEN
100
AcDbLine
 10
10.0
 20
-176.0
 30
0.0
 11
10.0
 21
-176.0
 31
0.0
1001
DBPROPERTIES
1002
{
1000
PbHidd
1002
}
  0
LINE
  5
497
330
1F
100
AcDbEntity
  8
HIDDEN
100
AcDbLine
 10
10.0
 20
-156.0
 30
0.0
 11
10.0
 21
-156.0
 31
0.0
1001
DBPROPERTIES
1002
{
1000
PbHidd
1002
}
  0
LINE
  5
498
330
1F
100
AcDbEntity
  8
THICK
100
AcDbLine
 10
10.0
 20
-176.0
 30
0.0
 11
10.0
 21
-156.0
 31
0.0
1001
DBPROPERTIES
1002
{
1000
PbThick
1002
}
  0
LINE
  5
499
330
1F
100
AcDbEntity
  8
HIDDEN
100
AcDbLine
 10
-9.999999999999996
 20
-156.0
 30
0.0
 11
-9.999999999999996
 21
-156.0
 31
0.0
1001
DBPROPERTIES
1002
{
1000
PbHidd
1002
}
  0
LINE
  5
49A
330
1F
100
AcDbEntity
  8
THICK
100
AcDbLine
 10
-9.999999999999996
 20
-156.0
 30
0.0
 11
10.0
 21
-156.0
 31
0.0
1001
DBPROPERTIES
1002
{
1000
PbThick
1002
}
  0
LINE
  5
49B
330
1F
100
AcDbEntity
  8
THICK
100
AcDbLine
 10
9.000000000000002
 20
-175.0
 30
0.0
 11
-8.999999999999998
 21
-175.0
 31
0.0
1001
DBPROPERTIES
1002
{
1000
PbThick
1002
}
  0
LINE
  5
49C
330
1F
100
AcDbEntity
  8
THICK
100
AcDbLine
 10
9.000000000000004
 20
-175.0
 30
0.0
 11
9.000000000000004
 21
-157.0
 31
0.0
1001
DBPROPERTIES
1002
{
1000
PbThick
1002
}
  0
LINE
  5
49D
330
1F
100
AcDbEntity
  8
THICK
100
AcDbLine
 10
-8.999999999999996
 20
-157.0
 30
0.0
 11
9.000000000000004
 21
-157.0
 31
0.0
1001
DBPROPERTIES
1002
{
1000
PbThick
1002
}
  0
LINE
  5
49E
330
1F
100
AcDbEntity
  8
THICK
100
AcDbLine
 10
-8.999999999999996
 20
-175.0
 30
0.0
 11
-8.999999999999996
 21
-157.0
 31
0.0
1001
DBPROPERTIES
1002
{
1000
PbThick
1002
}
  0
LINE
  5
49F
330
1F
100
AcDbEntity
  8
HIDDEN
100
AcDbLine
 10
9.000000000000002
 20
-175.0
 30
0.0
 11
9.000000000000002
 21
-175.0
 31
0.0
1001
DBPROPERTIES
1002
{
1000
PbHidd
1002
}
  0
LINE
  5
4A0
330
1F
100
AcDbEntity
  8
HIDDEN
100
AcDbLine
 10
9.000000000000004
 20
-157.0
 30
0.0
 11
9.000000000000004
 21
-157.0
 31
0.0
1001
DBPROPERTIES
1002
{
1000
PbHidd
1002
}
  0
LINE
  5
4A1
330
1F
100
AcDbEntity
  8
HIDDEN
100
AcDbLine
 10
-8.999999999999996
 20
-157.0
 30
0.0
 11
-8.999999999999996
 21
-157.0
 31
0.0
1001
DBPROPERTIES
1002
{
1000
PbHidd
1002
}
  0
LINE
  5
4A2
330
1F
100
AcDbEntity
  8
HIDDEN
100
AcDbLine
 10
-8.999999999999998
 20
-175.0
 30
0.0
 11
-8.999999999999998
 21
-175.0
 31
0.0
1001
DBPROPERTIES
1002
{
1000
PbHidd
1002
}
  0
LINE
  5
4A3
330
1F
100
AcDbEntity
  8
HIDDEN
100
AcDbLine
 10
-9.999999999999998
 20
-176.0
 30
0.0
 11
-9.999999999999998
 21
-176.0
 31
0.0
1001
DBPROPERTIES
1002
{
1000
PbHidd
1002
}
  0
LINE
  5
4A4
330
1F
100
AcDbEntity
  8
THICK
100
AcDbLine
 10
10.0
 20
-176.0
 30
0.0
 11
-9.999999999999998
 21
-176.0
 31
0.0
1001
DBPROPERTIES
1002
{
1000
PbThick
1002
}
  0
LINE
  5
4A5
330
1F
100
AcDbEntity
  8
THICK
100
AcDbLine
 10
-9.999999999999996
 20
-176.0
 30
0.0
 11
-9.999999999999996
 21
-156.0
 31
0.0
1001
DBPROPERTIES
1002
{
1000
PbThick
1002
}
  0
ARC
  5
4A6
330
1F
100
AcDbEntity
  8
THICK
100
AcDbCircle
 10
0.0000000000000029
 20
-166.0
 30
0.0
 40
5.0
100
AcDbArc
 50
89.99998127603165
 51
270.0000187239684
1001
DBPROPERTIES
1002
{
1000
PbThick
1002
}
  0
ARC
  5
4A7
330
1F
100
AcDbEntity
  8
THICK
100
AcDbCircle
 10
0.0000000000000029
 20
-166.0
 30
0.0
 40
3.0
100
AcDbArc
 50
89.99998127603165
 51
270.0000187239684
1001
DBPROPERTIES
1002
{
1000
PbThick
1002
}
  0
LINE
  5
4A8
330
1F
100
AcDbEntity
  8
THICK
100
AcDbLine
 10
-30.75
 20
-163.6
 30
0.0
 11
-38.75
 21
-163.6
 31
0.0
1001
DBPROPERTIES
1002
{
1000
PbThick
1002
}
  0
LINE
  5
4A9
330
1F
100
AcDbEntity
  8
HIDDEN
100
AcDbLine
 10
-30.75
 20
-167.6
 30
0.0
 11
-38.75
 21
-167.6
 31
0.0
1001
DBPROPERTIES
1002
{
1000
PbHidd
1002
}
  0
LINE
  5
4AA
330
1F
100
AcDbEntity
  8
HIDDEN
100
AcDbLine
 10
-30.75
 20
-175.6
 30
0.0
 11
-38.75
 21
-175.6
 31
0.0
1001
DBPROPERTIES
1002
{
1000
PbHidd
1002
}
  0
LINE
  5
4AB
330
1F
100
AcDbEntity
  8
THICK
100
AcDbLine
 10
-30.75
 20
-179.6
 30
0.0
 11
-38.75
 21
-179.6
 31
0.0
1001
DBPROPERTIES
1002
{
1000
PbThick
1002
}
  0
LINE
  5
4AC
330
1F
100
AcDbEntity
  8
THICK
100
AcDbLine
 10
-38.75
 20
-175.6
 30
0.0
 11
-38.75
 21
-179.6
 31
0.0
1001
DBPROPERTIES
1002
{
1000
PbThick
1002
}
  0
LINE
  5
4AD
330
1F
100
AcDbEntity
  8
THICK
100
AcDbLine
 10
-38.75
 20
-167.6
 30
0.0
 11
-38.75
 21
-175.6
 31
0.0
1001
DBPROPERTIES
1002
{
1000
PbThick
1002
}
  0
LINE
  5
4AE
330
1F
100
AcDbEntity
  8
THICK
100
AcDbLine
 10
-38.75
 20
-163.6
 30
0.0
 11
-38.75
 21
-167.6
 31
0.0
1001
DBPROPERTIES
1002
{
1000
PbThick
1002
}
  0
LINE
  5
4AF
330
1F
100
AcDbEntity
  8
THICK
100
AcDbLine
 10
-30.75
 20
-167.6
 30
0.0
 11
-38.75
 21
-167.6
 31
0.0
1001
DBPROPERTIES
1002
{
1000
PbThick
1002
}
  0
LINE
  5
4B0
330
1F
100
AcDbEntity
  8
THICK
100
AcDbLine
 10
-30.75
 20
-175.6
 30
0.0
 11
-38.75
 21
-175.6
 31
0.0
1001
DBPROPERTIES
1002
{
1000
PbThick
1002
}
  0
LINE
  5
4B1
330
1F
100
AcDbEntity
  8
HIDDEN
100
AcDbLine
 10
-38.75
 20
-171.5874938964844
 30
0.0
 11
-38.82469940185547
 21
-171.6827239990234
 31
0.0
1001
DBPROPERTIES
1002
{
1000
PbHidd
1002
}
  0
LINE
  5
4B2
330
1F
100
AcDbEntity
  8
HIDDEN
100
AcDbLine
 10
-38.82469940185547
 20
-171.6827239990234
 30
0.0
 11
-38.86639785766602
 21
-171.8043365478516
 31
0.0
1001
DBPROPERTIES
1002
{
1000
PbHidd
1002
}
  0
LINE
  5
4B3
330
1F
100
AcDbEntity
  8
HIDDEN
100
AcDbLine
 10
-38.86639785766602
 20
-171.8043365478516
 30
0.0
 11
-38.89821243286133
 21
-171.9225769042969
 31
0.0
1001
DBPROPERTIES
1002
{
1000
PbHidd
1002
}
  0
LINE
  5
4B4
330
1F
100
AcDbEntity
  8
HIDDEN
100
AcDbLine
 10
-38.89821243286133
 20
-171.9225769042969
 30
0.0
 11
-38.92719650268555
 21
-172.0466461181641
 31
0.0
1001
DBPROPERTIES
1002
{
1000
PbHidd
1002
}
  0
LINE
  5
4B5
330
1F
100
AcDbEntity
  8
HIDDEN
100
AcDbLine
 10
-38.92719650268555
 20
-172.0466461181641
 30
0.0
 11
-38.95397567749023
 21
-172.1734008789062
 31
0.0
1001
DBPROPERTIES
1002
{
1000
PbHidd
1002
}
  0
LINE
  5
4B6
330
1F
100
AcDbEntity
  8
HIDDEN
100
AcDbLine
 10
-38.95397567749023
 20
-172.1734008789062
 30
0.0
 11
-38.97845077514648
 21
-172.2982025146484
 31
0.0
1001
DBPROPERTIES
1002
{
1000
PbHidd
1002
}
  0
LINE
  5
4B7
330
1F
100
AcDbEntity
  8
HIDDEN
100
AcDbLine
 10
-38.97845077514648
 20
-172.2982025146484
 30
0.0
 11
-39.00037384033203
 21
-172.4166564941406
 31
0.0
1001
DBPROPERTIES
1002
{
1000
PbHidd
1002
}
  0
LINE
  5
4B8
330
1F
100
AcDbEntity
  8
HIDDEN
100
AcDbLine
 10
-39.00037384033203
 20
-172.4166564941406
 30
0.0
 11
-39.02091598510742
 21
-172.5327453613281
 31
0.0
1001
DBPROPERTIES
1002
{
1000
PbHidd
1002
}
  0
LINE
  5
4B9
330
1F
100
AcDbEntity
  8
HIDDEN
100
AcDbLine
 10
-39.02091598510742
 20
-172.5327453613281
 30
0.0
 11
-39.04097366333008
 21
-172.6506042480469
 31
0.0
1001
DBPROPERTIES
1002
{
1000
PbHidd
1002
}
  0
LINE
  5
4BA
330
1F
100
AcDbEntity
  8
HIDDEN
100
AcDbLine
 10
-39.04097366333008
 20
-172.6506042480469
 30
0.0
 11
-39.06055450439453
 21
-172.7695770263672
 31
0.0
1001
DBPROPERTIES
1002
{
1000
PbHidd
1002
}
  0
LINE
  5
4BB
330
1F
100
AcDbEntity
  8
HIDDEN
100
AcDbLine
 10
-39.06055450439453
 20
-172.7695770263672
 30
0.0
 11
-39.07963943481445
 21
-172.8890075683594
 31
0.0
1001
DBPROPERTIES
1002
{
1000
PbHidd
1002
}
  0
LINE
  5
4BC
330
1F
100
AcDbEntity
  8
HIDDEN
100
AcDbLine
 10
-39.07963943481445
 20
-172.8890075683594
 30
0.0
 11
-39.09821701049805
 21
-173.0083160400391
 31
0.0
1001
DBPROPERTIES
1002
{
1000
PbHidd
1002
}
  0
LINE
  5
4BD
330
1F
100
AcDbEntity
  8
HIDDEN
100
AcDbLine
 10
-39.09821701049805
 20
-173.0083160400391
 30
0.0
 11
-39.11625671386719
 21
-173.1268920898438
 31
0.0
1001
DBPROPERTIES
1002
{
1000
PbHidd
1002
}
  0
LINE
  5
4BE
330
1F
100
AcDbEntity
  8
HIDDEN
100
AcDbLine
 10
-39.11625671386719
 20
-173.1268920898438
 30
0.0
 11
-39.13373947143555
 21
-173.2441864013672
 31
0.0
1001
DBPROPERTIES
1002
{
1000
PbHidd
1002
}
  0
LINE
  5
4BF
330
1F
100
AcDbEntity
  8
HIDDEN
100
AcDbLine
 10
-39.13373947143555
 20
-173.2441864013672
 30
0.0
 11
-39.15063858032227
 21
-173.3596649169922
 31
0.0
1001
DBPROPERTIES
1002
{
1000
PbHidd
1002
}
  0
LINE
  5
4C0
330
1F
100
AcDbEntity
  8
HIDDEN
100
AcDbLine
 10
-39.15063858032227
 20
-173.3596649169922
 30
0.0
 11
-39.16692733764648
 21
-173.4728393554688
 31
0.0
1001
DBPROPERTIES
1002
{
1000
PbHidd
1002
}
  0
LINE
  5
4C1
330
1F
100
AcDbEntity
  8
HIDDEN
100
AcDbLine
 10
-39.16692733764648
 20
-173.4728393554688
 30
0.0
 11
-39.18258285522461
 21
-173.5832214355469
 31
0.0
1001
DBPROPERTIES
1002
{
1000
PbHidd
1002
}
  0
LINE
  5
4C2
330
1F
100
AcDbEntity
  8
HIDDEN
100
AcDbLine
 10
-39.18258285522461
 20
-173.5832214355469
 30
0.0
 11
-39.19757080078125
 21
-173.6903381347656
 31
0.0
1001
DBPROPERTIES
1002
{
1000
PbHidd
1002
}
  0
LINE
  5
4C3
330
1F
100
AcDbEntity
  8
HIDDEN
100
AcDbLine
 10
-39.19757080078125
 20
-173.6903381347656
 30
0.0
 11
-39.21187210083008
 21
-173.7937774658203
 31
0.0
1001
DBPROPERTIES
1002
{
1000
PbHidd
1002
}
  0
LINE
  5
4C4
330
1F
100
AcDbEntity
  8
HIDDEN
100
AcDbLine
 10
-39.21187210083008
 20
-173.7937774658203
 30
0.0
 11
-39.2254638671875
 21
-173.8931427001953
 31
0.0
1001
DBPROPERTIES
1002
{
1000
PbHidd
1002
}
  0
LINE
  5
4C5
330
1F
100
AcDbEntity
  8
HIDDEN
100
AcDbLine
 10
-39.2254638671875
 20
-173.8931427001953
 30
0.0
 11
-39.2383918762207
 21
-173.9885864257812
 31
0.0
1001
DBPROPERTIES
1002
{
1000
PbHidd
1002
}
  0
LINE
  5
4C6
330
1F
100
AcDbEntity
  8
HIDDEN
100
AcDbLine
 10
-39.2383918762207
 20
-173.9885864257812
 30
0.0
 11
-39.25110244750977
 21
-174.083251953125
 31
0.0
1001
DBPROPERTIES
1002
{
1000
PbHidd
1002
}
  0
LINE
  5
4C7
330
1F
100
AcDbEntity
  8
HIDDEN
100
AcDbLine
 10
-39.25110244750977
 20
-174.083251953125
 30
0.0
 11
-39.26362609863281
 21
-174.1773223876953
 31
0.0
1001
DBPROPERTIES
1002
{
1000
PbHidd
1002
}
  0
LINE
  5
4C8
330
1F
100
AcDbEntity
  8
HIDDEN
100
AcDbLine
 10
-39.26362609863281
 20
-174.1773223876953
 30
0.0
 11
-39.27590560913086
 21
-174.2702789306641
 31
0.0
1001
DBPROPERTIES
1002
{
1000
PbHidd
1002
}
  0
LINE
  5
4C9
330
1F
100
AcDbEntity
  8
HIDDEN
100
AcDbLine
 10
-39.27590560913086
 20
-174.2702789306641
 30
0.0
 11
-39.28787612915039
 21
-174.3615875244141
 31
0.0
1001
DBPROPERTIES
1002
{
1000
PbHidd
1002
}
  0
LINE
  5
4CA
330
1F
100
AcDbEntity
  8
HIDDEN
100
AcDbLine
 10
-39.28787612915039
 20
-174.3615875244141
 30
0.0
 11
-39.29949188232422
 21
-174.4508056640625
 31
0.0
1001
DBPROPERTIES
1002
{
1000
PbHidd
1002
}
  0
LINE
  5
4CB
330
1F
100
AcDbEntity
  8
HIDDEN
100
AcDbLine
 10
-39.29949188232422
 20
-174.4508056640625
 30
0.0
 11
-39.31071472167969
 21
-174.5375366210938
 31
0.0
1001
DBPROPERTIES
1002
{
1000
PbHidd
1002
}
  0
LINE
  5
4CC
330
1F
100
AcDbEntity
  8
HIDDEN
100
AcDbLine
 10
-39.31071472167969
 20
-174.5375366210938
 30
0.0
 11
-39.32150268554688
 21
-174.6213989257812
 31
0.0
1001
DBPROPERTIES
1002
{
1000
PbHidd
1002
}
  0
LINE
  5
4CD
330
1F
100
AcDbEntity
  8
HIDDEN
100
AcDbLine
 10
-39.32150268554688
 20
-174.6213989257812
 30
0.0
 11
-39.33181381225586
 21
-174.7020263671875
 31
0.0
1001
DBPROPERTIES
1002
{
1000
PbHidd
1002
}
  0
LINE
  5
4CE
330
1F
100
AcDbEntity
  8
HIDDEN
100
AcDbLine
 10
-39.33181381225586
 20
-174.7020263671875
 30
0.0
 11
-39.34162902832031
 21
-174.7791442871094
 31
0.0
1001
DBPROPERTIES
1002
{
1000
PbHidd
1002
}
  0
LINE
  5
4CF
330
1F
100
AcDbEntity
  8
HIDDEN
100
AcDbLine
 10
-39.34162902832031
 20
-174.7791442871094
 30
0.0
 11
-39.35092163085938
 21
-174.8525390625
 31
0.0
1001
DBPROPERTIES
1002
{
1000
PbHidd
1002
}
  0
LINE
  5
4D0
330
1F
100
AcDbEntity
  8
HIDDEN
100
AcDbLine
 10
-39.35092163085938
 20
-174.8525390625
 30
0.0
 11
-39.35967254638672
 21
-174.9219207763672
 31
0.0
1001
DBPROPERTIES
1002
{
1000
PbHidd
1002
}
  0
LINE
  5
4D1
330
1F
100
AcDbEntity
  8
HIDDEN
100
AcDbLine
 10
-39.35967254638672
 20
-174.9219207763672
 30
0.0
 11
-39.36786651611328
 21
-174.9871063232422
 31
0.0
1001
DBPROPERTIES
1002
{
1000
PbHidd
1002
}
  0
LINE
  5
4D2
330
1F
100
AcDbEntity
  8
HIDDEN
100
AcDbLine
 10
-39.36786651611328
 20
-174.9871063232422
 30
0.0
 11
-39.37549209594727
 21
-175.0480346679688
 31
0.0
1001
DBPROPERTIES
1002
{
1000
PbHidd
1002
}
  0
LINE
  5
4D3
330
1F
100
AcDbEntity
  8
HIDDEN
100
AcDbLine
 10
-39.37549209594727
 20
-175.0480346679688
 30
0.0
 11
-39.38254547119141
 21
-175.1045684814453
 31
0.0
1001
DBPROPERTIES
1002
{
1000
PbHidd
1002
}
  0
LINE
  5
4D4
330
1F
100
AcDbEntity
  8
HIDDEN
100
AcDbLine
 10
-39.38254547119141
 20
-175.1045684814453
 30
0.0
 11
-39.38910675048828
 21
-175.1573028564453
 31
0.0
1001
DBPROPERTIES
1002
{
1000
PbHidd
1002
}
  0
LINE
  5
4D5
330
1F
100
AcDbEntity
  8
HIDDEN
100
AcDbLine
 10
-39.38910675048828
 20
-175.1573028564453
 30
0.0
 11
-39.39536666870117
 21
-175.2077331542969
 31
0.0
1001
DBPROPERTIES
1002
{
1000
PbHidd
1002
}
  0
LINE
  5
4D6
330
1F
100
AcDbEntity
  8
HIDDEN
100
AcDbLine
 10
-39.39536666870117
 20
-175.2077331542969
 30
0.0
 11
-39.40128707885742
 21
-175.2555847167969
 31
0.0
1001
DBPROPERTIES
1002
{
1000
PbHidd
1002
}
  0
LINE
  5
4D7
330
1F
100
AcDbEntity
  8
HIDDEN
100
AcDbLine
 10
-39.40128707885742
 20
-175.2555847167969
 30
0.0
 11
-39.40682983398438
 21
-175.3004608154297
 31
0.0
1001
DBPROPERTIES
1002
{
1000
PbHidd
1002
}
  0
LINE
  5
4D8
330
1F
100
AcDbEntity
  8
HIDDEN
100
AcDbLine
 10
-39.40682983398438
 20
-175.3004608154297
 30
0.0
 11
-39.41194915771484
 21
-175.3419952392578
 31
0.0
1001
DBPROPERTIES
1002
{
1000
PbHidd
1002
}
  0
LINE
  5
4D9
330
1F
100
AcDbEntity
  8
HIDDEN
100
AcDbLine
 10
-39.41194915771484
 20
-175.3419952392578
 30
0.0
 11
-39.41661834716797
 21
-175.3799743652344
 31
0.0
1001
DBPROPERTIES
1002
{
1000
PbHidd
1002
}
  0
LINE
  5
4DA
330
1F
100
AcDbEntity
  8
HIDDEN
100
AcDbLine
 10
-39.41661834716797
 20
-175.3799743652344
 30
0.0
 11
-39.42081832885742
 21
-175.4141693115234
 31
0.0
1001
DBPROPERTIES
1002
{
1000
PbHidd
1002
}
  0
LINE
  5
4DB
330
1F
100
AcDbEntity
  8
HIDDEN
100
AcDbLine
 10
-39.42081832885742
 20
-175.4141693115234
 30
0.0
 11
-39.42452239990234
 21
-175.4443664550781
 31
0.0
1001
DBPROPERTIES
1002
{
1000
PbHidd
1002
}
  0
LINE
  5
4DC
330
1F
100
AcDbEntity
  8
HIDDEN
100
AcDbLine
 10
-39.42452239990234
 20
-175.4443664550781
 30
0.0
 11
-39.42771530151367
 21
-175.470458984375
 31
0.0
1001
DBPROPERTIES
1002
{
1000
PbHidd
1002
}
  0
LINE
  5
4DD
330
1F
100
AcDbEntity
  8
HIDDEN
100
AcDbLine
 10
-39.42771530151367
 20
-175.470458984375
 30
0.0
 11
-39.43040084838867
 21
-175.4924163818359
 31
0.0
1001
DBPROPERTIES
1002
{
1000
PbHidd
1002
}
  0
LINE
  5
4DE
330
1F
100
AcDbEntity
  8
HIDDEN
100
AcDbLine
 10
-39.43040084838867
 20
-175.4924163818359
 30
0.0
 11
-39.43257141113281
 21
-175.5101928710938
 31
0.0
1001
DBPROPERTIES
1002
{
1000
PbHidd
1002
}
  0
LINE
  5
4DF
330
1F
100
AcDbEntity
  8
HIDDEN
100
AcDbLine
 10
-39.43257141113281
 20
-175.5101928710938
 30
0.0
 11
-39.43423080444336
 21
-175.5237731933594
 31
0.0
1001
DBPROPERTIES
1002
{
1000
PbHidd
1002
}
  0
LINE
  5
4E0
330
1F
100
AcDbEntity
  8
HIDDEN
100
AcDbLine
 10
-39.43423080444336
 20
-175.5237731933594
 30
0.0
 11
-39.43539047241211
 21
-175.5332794189453
 31
0.0
1001
DBPROPERTIES
1002
{
1000
PbHidd
1002
}
  0
LINE
  5
4E1
330
1F
100
AcDbEntity
  8
HIDDEN
100
AcDbLine
 10
-39.43539047241211
 20
-175.5332794189453
 30
0.0
 11
-39.43607330322266
 21
-175.5388641357422
 31
0.0
1001
DBPROPERTIES
1002
{
1000
PbHidd
1002
}
  0
LINE
  5
4E2
330
1F
100
AcDbEntity
  8
HIDDEN
100
AcDbLine
 10
-39.43607330322266
 20
-175.5388641357422
 30
0.0
 11
-39.43629455566406
 21
-175.5406799316406
 31
0.0
1001
DBPROPERTIES
1002
{
1000
PbHidd
1002
}
  0
LINE
  5
4E3
330
1F
100
AcDbEntity
  8
HIDDEN
100
AcDbLine
 10
-57.75
 20
-151.6
 30
0.0
 11
-53.75
 21
-151.6
 31
0.0
1001
DBPROPERTIES
1002
{
1000
PbHidd
1002
}
  0
ELLIPSE
  5
4E4
330
1F
100
AcDbEntity
  8
HIDDEN
100
AcDbEllipse
 10
-71.74213562373093
 20
-14.31999999999999
 30
0.0
 11
2.449212707644754E-16
 21
4.0
 31
0.0
210
0.0
220
0.0
230
1.0
 40
0.7071067811865476
 41
0.0010622085739314
 42
0.0013902388952066
1001
DBPROPERTIES
1002
{
1000
PbHidd
1002
}
  0
ELLIPSE
  5
4E5
330
1F
100
AcDbEntity
  8
THICK
100
AcDbEllipse
 10
-71.74213562373093
 20
-14.31999999999999
 30
0.0
 11
2.449212707644754E-16
 21
4.0
 31
0.0
210
0.0
220
0.0
230
1.0
 40
0.7071067811865476
 41
-0.0000087984844365
 42
0.0010622085739314
1001
DBPROPERTIES
1002
{
1000
PbThick
1002
}
  0
ELLIPSE
  5
4E6
330
1F
100
AcDbEntity
  8
THICK
100
AcDbEllipse
 10
-71.74213562373093
 20
-14.31999999999999
 30
0.0
 11
2.449212707644754E-16
 21
4.0
 31
0.0
210
0.0
220
0.0
230
1.0
 40
0.7071067811865476
 41
-0.0046284920059925
 42
-0.0000087984844365
1001
DBPROPERTIES
1002
{
1000
PbThick
1002
}
  0
ELLIPSE
  5
4E7
330
1F
100
AcDbEntity
  8
HIDDEN
100
AcDbEllipse
 10
-71.74213562373093
 20
-14.31999999999999
 30
0.0
 11
2.449212707644754E-16
 21
4.0
 31
0.0
210
0.0
220
0.0
230
1.0
 40
0.7071067811865476
 41
-1.570796326794896
 42
-0.0046284920059925
1001
DBPROPERTIES
1002
{
1000
PbHidd
1002
}
  0
ELLIPSE
  5
4E8
330
1F
100
AcDbEntity
  8
HIDDEN
100
AcDbEllipse
 10
-71.74999999999999
 20
-14.31999999999999
 30
0.0
 11
-2.449212707644755E-16
 21
-4.0
 31
0.0
210
0.0
220
0.0
230
1.0
 40
0.7071067811865476
 41
1.570670060948178
 42
3.140202414694506
1001
DBPROPERTIES
1002
{
1000
PbHidd
1002
}
  0
LINE
  5
4E9
330
1F
100
AcDbEntity
  8
HIDDEN
100
AcDbLine
 10
-73.0730209350586
 20
-10.69086360931396
 30
0.0
 11
-73.09756469726562
 21
-10.70617389678955
 31
0.0
1001
DBPROPERTIES
1002
{
1000
PbHidd
1002
}
  0
LINE
  5
4EA
330
1F
100
AcDbEntity
  8
HIDDEN
100
AcDbLine
 10
-73.09756469726562
 20
-10.70617389678955
 30
0.0
 11
-73.12197875976562
 21
-10.72176837921143
 31
0.0
1001
DBPROPERTIES
1002
{
1000
PbHidd
1002
}
  0
LINE
  5
4EB
330
1F
100
AcDbEntity
  8
HIDDEN
100
AcDbLine
 10
-73.12197875976562
 20
-10.72176837921143
 30
0.0
 11
-73.14625549316406
 21
-10.73764038085938
 31
0.0
1001
DBPROPERTIES
1002
{
1000
PbHidd
1002
}
  0
LINE
  5
4EC
330
1F
100
AcDbEntity
  8
HIDDEN
100
AcDbLine
 10
-73.14625549316406
 20
-10.73764038085938
 30
0.0
 11
-73.17039489746094
 21
-10.7537841796875
 31
0.0
1001
DBPROPERTIES
1002
{
1000
PbHidd
1002
}
  0
LINE
  5
4ED
330
1F
100
AcDbEntity
  8
HIDDEN
100
AcDbLine
 10
-73.17039489746094
 20
-10.7537841796875
 30
0.0
 11
-73.19438171386719
 21
-10.77019119262695
 31
0.0
1001
DBPROPERTIES
1002
{
1000
PbHidd
1002
}
  0
LINE
  5
4EE
330
1F
100
AcDbEntity
  8
HIDDEN
100
AcDbLine
 10
-73.19438171386719
 20
-10.77019119262695
 30
0.0
 11
-73.21820831298828
 21
-10.78685569763184
 31
0.0
1001
DBPROPERTIES
1002
{
1000
PbHidd
1002
}
  0
LINE
  5
4EF
330
1F
100
AcDbEntity
  8
THICK
100
AcDbLine
 10
-73.21820831298828
 20
-10.78685569763184
 30
0.0
 11
-73.38599395751953
 21
-10.91507530212402
 31
0.0
1001
DBPROPERTIES
1002
{
1000
PbThick
1002
}
  0
LINE
  5
4F0
330
1F
100
AcDbEntity
  8
THICK
100
AcDbLine
 10
-73.38599395751953
 20
-10.91507530212402
 30
0.0
 11
-73.5423583984375
 21
-11.05319881439209
 31
0.0
1001
DBPROPERTIES
1002
{
1000
PbThick
1002
}
  0
LINE
  5
4F1
330
1F
100
AcDbEntity
  8
THICK
100
AcDbLine
 10
-73.5423583984375
 20
-11.05319881439209
 30
0.0
 11
-73.68785095214844
 21
-11.20001792907715
 31
0.0
1001
DBPROPERTIES
1002
{
1000
PbThick
1002
}
  0
LINE
  5
4F2
330
1F
100
AcDbEntity
  8
THICK
100
AcDbLine
 10
-73.68785095214844
 20
-11.20001792907715
 30
0.0
 11
-73.83055877685547
 21
-11.36373615264893
 31
0.0
1001
DBPROPERTIES
1002
{
1000
PbThick
1002
}
  0
LINE
  5
4F3
330
1F
100
AcDbEntity
  8
THICK
100
AcDbLine
 10
-73.83055877685547
 20
-11.36373615264893
 30
0.0
 11
-73.9683837890625
 21
-11.54375457763672
 31
0.0
1001
DBPROPERTIES
1002
{
1000
PbThick
1002
}
  0
LINE
  5
4F4
330
1F
100
AcDbEntity
  8
THICK
100
AcDbLine
 10
-73.9683837890625
 20
-11.54375457763672
 30
0.0
 11
-74.09866333007812
 21
-11.73771286010742
 31
0.0
1001
DBPROPERTIES
1002
{
1000
PbThick
1002
}
  0
LINE
  5
4F5
330
1F
100
AcDbEntity
  8
THICK
100
AcDbLine
 10
-74.09866333007812
 20
-11.73771286010742
 30
0.0
 11
-74.21916961669922
 21
-11.94282341003418
 31
0.0
1001
DBPROPERTIES
1002
{
1000
PbThick
1002
}
  0
LINE
  5
4F6
330
1F
100
AcDbEntity
  8
THICK
100
AcDbLine
 10
-74.21916961669922
 20
-11.94282341003418
 30
0.0
 11
-74.32823944091797
 21
-12.15563106536865
 31
0.0
1001
DBPROPERTIES
1002
{
1000
PbThick
1002
}
  0
LINE
  5
4F7
330
1F
100
AcDbEntity
  8
THICK
100
AcDbLine
 10
-74.32823944091797
 20
-12.15563106536865
 30
0.0
 11
-74.42459106445312
 21
-12.37220859527588
 31
0.0
1001
DBPROPERTIES
1002
{
1000
PbThick
1002
}
  0
LINE
  5
4F8
330
1F
100
AcDbEntity
  8
THICK
100
AcDbLine
 10
-74.42459106445312
 20
-12.37220859527588
 30
0.0
 11
-74.50794982910156
 21
-12.58907794952393
 31
0.0
1001
DBPROPERTIES
1002
{
1000
PbThick
1002
}
  0
LINE
  5
4F9
330
1F
100
AcDbEntity
  8
THICK
100
AcDbLine
 10
-74.50794982910156
 20
-12.58907794952393
 30
0.0
 11
-74.58270263671875
 21
-12.81713771820068
 31
0.0
1001
DBPROPERTIES
1002
{
1000
PbThick
1002
}
  0
LINE
  5
4FA
330
1F
100
AcDbEntity
  8
THICK
100
AcDbLine
 10
-74.58270263671875
 20
-12.81713771820068
 30
0.0
 11
-74.64848327636719
 21
-13.0579891204834
 31
0.0
1001
DBPROPERTIES
1002
{
1000
PbThick
1002
}
  0
LINE
  5
4FB
330
1F
100
AcDbEntity
  8
THICK
100
AcDbLine
 10
-74.64848327636719
 20
-13.0579891204834
 30
0.0
 11
-74.70343780517578
 21
-13.30801582336426
 31
0.0
1001
DBPROPERTIES
1002
{
1000
PbThick
1002
}
  0
LINE
  5
4FC
330
1F
100
AcDbEntity
  8
THICK
100
AcDbLine
 10
-74.70343780517578
 20
-13.30801582336426
 30
0.0
 11
-74.74632263183594
 21
-13.56335163116455
 31
0.0
1001
DBPROPERTIES
1002
{
1000
PbThick
1002
}
  0
LINE
  5
4FD
330
1F
100
AcDbEntity
  8
THICK
100
AcDbLine
 10
-74.74632263183594
 20
-13.56335163116455
 30
0.0
 11
-74.77658081054688
 21
-13.81999397277832
 31
0.0
1001
DBPROPERTIES
1002
{
1000
PbThick
1002
}
  0
LINE
  5
4FE
330
1F
100
AcDbEntity
  8
THICK
100
AcDbLine
 10
-74.77658081054688
 20
-13.81999397277832
 30
0.0
 11
-74.79417419433594
 21
-14.07367610931396
 31
0.0
1001
DBPROPERTIES
1002
{
1000
PbThick
1002
}
  0
LINE
  5
4FF
330
1F
100
AcDbEntity
  8
THICK
100
AcDbLine
 10
-74.79417419433594
 20
-14.07367610931396
 30
0.0
 11
-74.79981231689453
 21
-14.31999969482422
 31
0.0
1001
DBPROPERTIES
1002
{
1000
PbThick
1002
}
  0
LINE
  5
500
330
1F
100
AcDbEntity
  8
HIDDEN
100
AcDbLine
 10
-71.88784790039062
 20
-10.3200044631958
 30
0.0
 11
-72.00590515136719
 21
-10.32388591766357
 31
0.0
1001
DBPROPERTIES
1002
{
1000
PbHidd
1002
}
  0
LINE
  5
501
330
1F
100
AcDbEntity
  8
HIDDEN
100
AcDbLine
 10
-72.00590515136719
 20
-10.32388591766357
 30
0.0
 11
-72.12733459472656
 21
-10.33516502380371
 31
0.0
1001
DBPROPERTIES
1002
{
1000
PbHidd
1002
}
  0
LINE
  5
502
330
1F
100
AcDbEntity
  8
HIDDEN
100
AcDbLine
 10
-72.12733459472656
 20
-10.33516502380371
 30
0.0
 11
-72.2508316040039
 21
-10.35408878326416
 31
0.0
1001
DBPROPERTIES
1002
{
1000
PbHidd
1002
}
  0
LINE
  5
503
330
1F
100
AcDbEntity
  8
HIDDEN
100
AcDbLine
 10
-72.2508316040039
 20
-10.35408878326416
 30
0.0
 11
-72.3750991821289
 21
-10.38090324401855
 31
0.0
1001
DBPROPERTIES
1002
{
1000
PbHidd
1002
}
  0
LINE
  5
504
330
1F
100
AcDbEntity
  8
HIDDEN
100
AcDbLine
 10
-72.3750991821289
 20
-10.38090324401855
 30
0.0
 11
-72.49884796142578
 21
-10.4157829284668
 31
0.0
1001
DBPROPERTIES
1002
{
1000
PbHidd
1002
}
  0
LINE
  5
505
330
1F
100
AcDbEntity
  8
HIDDEN
100
AcDbLine
 10
-72.49884796142578
 20
-10.4157829284668
 30
0.0
 11
-72.62084197998047
 21
-10.45851039886475
 31
0.0
1001
DBPROPERTIES
1002
{
1000
PbHidd
1002
}
  0
LINE
  5
506
330
1F
100
AcDbEntity
  8
HIDDEN
100
AcDbLine
 10
-72.62084197998047
 20
-10.45851039886475
 30
0.0
 11
-72.73995971679688
 21
-10.5080394744873
 31
0.0
1001
DBPROPERTIES
1002
{
1000
PbHidd
1002
}
  0
LINE
  5
507
330
1F
100
AcDbEntity
  8
HIDDEN
100
AcDbLine
 10
-72.73995971679688
 20
-10.5080394744873
 30
0.0
 11
-72.85507202148438
 21
-10.56348514556885
 31
0.0
1001
DBPROPERTIES
1002
{
1000
PbHidd
1002
}
  0
LINE
  5
508
330
1F
100
AcDbEntity
  8
HIDDEN
100
AcDbLine
 10
-72.85507202148438
 20
-10.56348514556885
 30
0.0
 11
-72.96503448486328
 21
-10.62391757965088
 31
0.0
1001
DBPROPERTIES
1002
{
1000
PbHidd
1002
}
  0
LINE
  5
509
330
1F
100
AcDbEntity
  8
HIDDEN
100
AcDbLine
 10
-72.96503448486328
 20
-10.62391757965088
 30
0.0
 11
-73.0730209350586
 21
-10.69086360931396
 31
0.0
1001
DBPROPERTIES
1002
{
1000
PbHidd
1002
}
  0
LINE
  5
50A
330
1F
100
AcDbEntity
  8
THICK
100
AcDbLine
 10
-71.89432525634766
 20
-10.32308387756348
 30
0.0
 11
-71.88894653320312
 21
-10.32255172729492
 31
0.0
1001
DBPROPERTIES
1002
{
1000
PbThick
1002
}
  0
LINE
  5
50B
330
1F
100
AcDbEntity
  8
THICK
100
AcDbLine
 10
-71.88894653320312
 20
-10.32255172729492
 30
0.0
 11
-71.88399505615234
 21
-10.32208061218262
 31
0.0
1001
DBPROPERTIES
1002
{
1000
PbThick
1002
}
  0
LINE
  5
50C
330
1F
100
AcDbEntity
  8
THICK
100
AcDbLine
 10
-71.88399505615234
 20
-10.32208061218262
 30
0.0
 11
-71.87950897216797
 21
-10.32167148590088
 31
0.0
1001
DBPROPERTIES
1002
{
1000
PbThick
1002
}
  0
LINE
  5
50D
330
1F
100
AcDbEntity
  8
THICK
100
AcDbLine
 10
-71.87950897216797
 20
-10.32167148590088
 30
0.0
 11
-71.8755111694336
 21
-10.32132148742676
 31
0.0
1001
DBPROPERTIES
1002
{
1000
PbThick
1002
}
  0
LINE
  5
50E
330
1F
100
AcDbEntity
  8
THICK
100
AcDbLine
 10
-71.8755111694336
 20
-10.32132148742676
 30
0.0
 11
-71.87203216552734
 21
-10.32102489471436
 31
0.0
1001
DBPROPERTIES
1002
{
1000
PbThick
1002
}
  0
LINE
  5
50F
330
1F
100
AcDbEntity
  8
THICK
100
AcDbLine
 10
-71.87203216552734
 20
-10.32102489471436
 30
0.0
 11
-71.86910247802734
 21
-10.32077789306641
 31
0.0
1001
DBPROPERTIES
1002
{
1000
PbThick
1002
}
  0
LINE
  5
510
330
1F
100
AcDbEntity
  8
THICK
100
AcDbLine
 10
-71.86910247802734
 20
-10.32077789306641
 30
0.0
 11
-71.86676025390625
 21
-10.32057285308838
 31
0.0
1001
DBPROPERTIES
1002
{
1000
PbThick
1002
}
  0
LINE
  5
511
330
1F
100
AcDbEntity
  8
THICK
100
AcDbLine
 10
-71.86676025390625
 20
-10.32057285308838
 30
0.0
 11
-71.86502838134766
 21
-10.32041454315186
 31
0.0
1001
DBPROPERTIES
1002
{
1000
PbThick
1002
}
  0
LINE
  5
512
330
1F
100
AcDbEntity
  8
THICK
100
AcDbLine
 10
-71.86502838134766
 20
-10.32041454315186
 30
0.0
 11
-71.86393737792969
 21
-10.32029056549072
 31
0.0
1001
DBPROPERTIES
1002
{
1000
PbThick
1002
}
  0
LINE
  5
513
330
1F
100
AcDbEntity
  8
THICK
100
AcDbLine
 10
-71.86393737792969
 20
-10.32029056549072
 30
0.0
 11
-71.863525390625
 21
-10.32019519805908
 31
0.0
1001
DBPROPERTIES
1002
{
1000
PbThick
1002
}
  0
LINE
  5
514
330
1F
100
AcDbEntity
  8
THICK
100
AcDbLine
 10
-71.863525390625
 20
-10.32019519805908
 30
0.0
 11
-71.8639144897461
 21
-10.32012271881104
 31
0.0
1001
DBPROPERTIES
1002
{
1000
PbThick
1002
}
  0
LINE
  5
515
330
1F
100
AcDbEntity
  8
THICK
100
AcDbLine
 10
-71.8639144897461
 20
-10.32012271881104
 30
0.0
 11
-71.86527252197266
 21
-10.32007026672363
 31
0.0
1001
DBPROPERTIES
1002
{
1000
PbThick
1002
}
  0
LINE
  5
516
330
1F
100
AcDbEntity
  8
THICK
100
AcDbLine
 10
-71.86527252197266
 20
-10.32007026672363
 30
0.0
 11
-71.8677749633789
 21
-10.32003688812256
 31
0.0
1001
DBPROPERTIES
1002
{
1000
PbThick
1002
}
  0
LINE
  5
517
330
1F
100
AcDbEntity
  8
THICK
100
AcDbLine
 10
-71.8677749633789
 20
-10.32003688812256
 30
0.0
 11
-71.87158966064453
 21
-10.32001781463623
 31
0.0
1001
DBPROPERTIES
1002
{
1000
PbThick
1002
}
  0
LINE
  5
518
330
1F
100
AcDbEntity
  8
HIDDEN
100
AcDbLine
 10
-71.7460708618164
 20
-10.32000350952148
 30
0.0
 11
-71.74639892578125
 21
-10.32000350952148
 31
0.0
1001
DBPROPERTIES
1002
{
1000
PbHidd
1002
}
  0
LINE
  5
519
330
1F
100
AcDbEntity
  8
HIDDEN
100
AcDbLine
 10
-71.74639892578125
 20
-10.32000350952148
 30
0.0
 11
-71.74674987792969
 21
-10.32000350952148
 31
0.0
1001
DBPROPERTIES
1002
{
1000
PbHidd
1002
}
  0
LINE
  5
51A
330
1F
100
AcDbEntity
  8
HIDDEN
100
AcDbLine
 10
-71.74674987792969
 20
-10.32000350952148
 30
0.0
 11
-71.74711608886719
 21
-10.3200044631958
 31
0.0
1001
DBPROPERTIES
1002
{
1000
PbHidd
1002
}
  0
LINE
  5
51B
330
1F
100
AcDbEntity
  8
HIDDEN
100
AcDbLine
 10
-71.74711608886719
 20
-10.3200044631958
 30
0.0
 11
-71.74750518798828
 21
-10.3200044631958
 31
0.0
1001
DBPROPERTIES
1002
{
1000
PbHidd
1002
}
  0
LINE
  5
51C
330
1F
100
AcDbEntity
  8
HIDDEN
100
AcDbLine
 10
-71.74750518798828
 20
-10.3200044631958
 30
0.0
 11
-71.74789428710938
 21
-10.3200044631958
 31
0.0
1001
DBPROPERTIES
1002
{
1000
PbHidd
1002
}
  0
LINE
  5
51D
330
1F
100
AcDbEntity
  8
HIDDEN
100
AcDbLine
 10
-71.74789428710938
 20
-10.3200044631958
 30
0.0
 11
-71.74832153320312
 21
-10.3200044631958
 31
0.0
1001
DBPROPERTIES
1002
{
1000
PbHidd
1002
}
  0
LINE
  5
51E
330
1F
100
AcDbEntity
  8
HIDDEN
100
AcDbLine
 10
-71.74832153320312
 20
-10.3200044631958
 30
0.0
 11
-71.74873352050781
 21
-10.3200044631958
 31
0.0
1001
DBPROPERTIES
1002
{
1000
PbHidd
1002
}
  0
LINE
  5
51F
330
1F
100
AcDbEntity
  8
HIDDEN
100
AcDbLine
 10
-71.74873352050781
 20
-10.3200044631958
 30
0.0
 11
-71.74916076660156
 21
-10.3200044631958
 31
0.0
1001
DBPROPERTIES
1002
{
1000
PbHidd
1002
}
  0
LINE
  5
520
330
1F
100
AcDbEntity
  8
HIDDEN
100
AcDbLine
 10
-71.74916076660156
 20
-10.3200044631958
 30
0.0
 11
-71.74958038330078
 21
-10.32000541687012
 31
0.0
1001
DBPROPERTIES
1002
{
1000
PbHidd
1002
}
  0
LINE
  5
521
330
1F
100
AcDbEntity
  8
HIDDEN
100
AcDbLine
 10
-71.74958038330078
 20
-10.32000541687012
 30
0.0
 11
-71.75
 21
-10.32000541687012
 31
0.0
1001
DBPROPERTIES
1002
{
1000
PbHidd
1002
}
  0
LINE
  5
522
330
1F
100
AcDbEntity
  8
THICK
100
AcDbLine
 10
-57.74999999999999
 20
-34.31999999999999
 30
0.0
 11
-54.92157287525379
 21
-34.31999999999999
 31
0.0
1001
DBPROPERTIES
1002
{
1000
PbThick
1002
}
  0
LINE
  5
523
330
1F
100
AcDbEntity
  8
THICK
100
AcDbLine
 10
-71.65196228027344
 20
-10.32240390777588
 30
0.0
 11
-71.66812133789062
 21
-10.32246971130371
 31
0.0
1001
DBPROPERTIES
1002
{
1000
PbThick
1002
}
  0
LINE
  5
524
330
1F
100
AcDbEntity
  8
THICK
100
AcDbLine
 10
-71.66812133789062
 20
-10.32246971130371
 30
0.0
 11
-71.68436431884766
 21
-10.32266902923584
 31
0.0
1001
DBPROPERTIES
1002
{
1000
PbThick
1002
}
  0
LINE
  5
525
330
1F
100
AcDbEntity
  8
THICK
100
AcDbLine
 10
-71.68436431884766
 20
-10.32266902923584
 30
0.0
 11
-71.70066833496094
 21
-10.32299613952637
 31
0.0
1001
DBPROPERTIES
1002
{
1000
PbThick
1002
}
  0
LINE
  5
526
330
1F
100
AcDbEntity
  8
THICK
100
AcDbLine
 10
-71.70066833496094
 20
-10.32299613952637
 30
0.0
 11
-71.71704864501953
 21
-10.32347297668457
 31
0.0
1001
DBPROPERTIES
1002
{
1000
PbThick
1002
}
  0
LINE
  5
527
330
1F
100
AcDbEntity
  8
THICK
100
AcDbLine
 10
-71.71704864501953
 20
-10.32347297668457
 30
0.0
 11
-71.73348999023438
 21
-10.32407855987549
 31
0.0
1001
DBPROPERTIES
1002
{
1000
PbThick
1002
}
  0
LINE
  5
528
330
1F
100
AcDbEntity
  8
THICK
100
AcDbLine
 10
-71.73348999023438
 20
-10.32407855987549
 30
0.0
 11
-71.75
 21
-10.32480430603027
 31
0.0
1001
DBPROPERTIES
1002
{
1000
PbThick
1002
}
  0
ELLIPSE
  5
529
330
1F
100
AcDbEntity
  8
THICK
100
AcDbEllipse
 10
-71.89213562373094
 20
-14.31999999999999
 30
0.0
 11
-2.449212707644755E-16
 21
-4.0
 31
0.0
210
0.0
220
0.0
230
1.0
 40
0.7071067811865475
 41
-3.141592653589793
 42
0.0
1001
DBPROPERTIES
1002
{
1000
PbThick
1002
}
  0
ELLIPSE
  5
52A
330
1F
100
AcDbEntity
  8
HIDDEN
100
AcDbEllipse
 10
-71.89213562373094
 20
-14.31999999999999
 30
0.0
 11
-2.446118233605692E-16
 21
-3.994946173471331
 31
0.0
210
0.0
220
0.0
230
1.0
 40
0.7071067811865475
 41
-2.710313803336871
 42
-0.431278850255064
1001
DBPROPERTIES
1002
{
1000
PbHidd
1002
}
  0
LINE
  5
52B
330
1F
100
AcDbEntity
  8
THICK
100
AcDbLine
 10
25.75
 20
-149.3
 30
0.0
 11
-25.75
 21
-149.3
 31
0.0
1001
DBPROPERTIES
1002
{
1000
PbThick
1002
}
  0
LINE
  5
52C
330
1F
100
AcDbEntity
  8
THICK
100
AcDbLine
 10
30.75
 20
-144.3
 30
0.0
 11
25.75
 21
-149.3
 31
0.0
1001
DBPROPERTIES
1002
{
1000
PbThick
1002
}
  0
LINE
  5
52D
330
1F
100
AcDbEntity
  8
THICK
100
AcDbLine
 10
30.75
 20
-144.3
 30
0.0
 11
-30.75
 21
-144.3
 31
0.0
1001
DBPROPERTIES
1002
{
1000
PbThick
1002
}
  0
LINE
  5
52E
330
1F
100
AcDbEntity
  8
THICK
100
AcDbLine
 10
-30.75
 20
-144.3
 30
0.0
 11
-20.75
 21
-154.3
 31
0.0
1001
DBPROPERTIES
1002
{
1000
PbThick
1002
}
  0
LINE
  5
52F
330
1F
100
AcDbEntity
  8
THICK
100
AcDbLine
 10
30.75
 20
-205.8
 30
0.0
 11
30.75
 21
-144.3
 31
0.0
1001
DBPROPERTIES
1002
{
1000
PbThick
1002
}
  0
LINE
  5
530
330
1F
100
AcDbEntity
  8
THICK
100
AcDbLine
 10
25.75
 20
-200.8
 30
0.0
 11
25.75
 21
-149.3
 31
0.0
1001
DBPROPERTIES
1002
{
1000
PbThick
1002
}
  0
LINE
  5
531
330
1F
100
AcDbEntity
  8
THICK
100
AcDbLine
 10
25.75
 20
-200.8
 30
0.0
 11
30.75
 21
-205.8
 31
0.0
1001
DBPROPERTIES
1002
{
1000
PbThick
1002
}
  0
LINE
  5
532
330
1F
100
AcDbEntity
  8
THICK
100
AcDbLine
 10
-25.75
 20
-200.8
 30
0.0
 11
-25.75
 21
-149.3
 31
0.0
1001
DBPROPERTIES
1002
{
1000
PbThick
1002
}
  0
LINE
  5
533
330
1F
100
AcDbEntity
  8
THICK
100
AcDbLine
 10
25.75
 20
-200.8
 30
0.0
 11
-25.75
 21
-200.8
 31
0.0
1001
DBPROPERTIES
1002
{
1000
PbThick
1002
}
  0
LINE
  5
534
330
1F
100
AcDbEntity
  8
THICK
100
AcDbLine
 10
-30.75
 20
-205.8
 30
0.0
 11
-25.75
 21
-200.8
 31
0.0
1001
DBPROPERTIES
1002
{
1000
PbThick
1002
}
  0
LINE
  5
535
330
1F
100
AcDbEntity
  8
THICK
100
AcDbLine
 10
30.75
 20
-205.8
 30
0.0
 11
-30.75
 21
-205.8
 31
0.0
1001
DBPROPERTIES
1002
{
1000
PbThick
1002
}
  0
LINE
  5
536
330
1F
100
AcDbEntity
  8
HIDDEN
100
AcDbLine
 10
30.75
 20
-205.8
 30
0.0
 11
30.75
 21
-205.8
 31
0.0
1001
DBPROPERTIES
1002
{
1000
PbHidd
1002
}
  0
LINE
  5
537
330
1F
100
AcDbEntity
  8
HIDDEN
100
AcDbLine
 10
30.75
 20
-144.3
 30
0.0
 11
30.75
 21
-144.3
 31
0.0
1001
DBPROPERTIES
1002
{
1000
PbHidd
1002
}
  0
LINE
  5
538
330
1F
100
AcDbEntity
  8
HIDDEN
100
AcDbLine
 10
30.75
 20
-156.0
 30
0.0
 11
30.75
 21
-156.0
 31
0.0
1001
DBPROPERTIES
1002
{
1000
PbHidd
1002
}
  0
LINE
  5
539
330
1F
100
AcDbEntity
  8
HIDDEN
100
AcDbLine
 10
-172.2
 20
-145.4
 30
0.0
 11
-0.0000000000000402
 21
-145.4
 31
0.0
1001
DBPROPERTIES
1002
{
1000
PbHidd
1002
}
  0
LINE
  5
53A
330
1F
100
AcDbEntity
  8
THICK
100
AcDbLine
 10
168.1
 20
-126.75
 30
0.0
 11
0.0000000000000025
 21
-126.75
 31
0.0
1001
DBPROPERTIES
1002
{
1000
PbThick
1002
}
  0
LINE
  5
53B
330
1F
100
AcDbEntity
  8
THICK
100
AcDbLine
 10
188.6
 20
-134.95
 30
0.0
 11
0.0000000000000038
 21
-134.95
 31
0.0
1001
DBPROPERTIES
1002
{
1000
PbThick
1002
}
  0
LINE
  5
53C
330
1F
100
AcDbEntity
  8
THICK
100
AcDbLine
 10
168.1
 20
-107.25
 30
0.0
 11
0.0000000000000037
 21
-107.25
 31
0.0
1001
DBPROPERTIES
1002
{
1000
PbThick
1002
}
  0
LINE
  5
53D
330
1F
100
AcDbEntity
  8
THICK
100
AcDbLine
 10
188.6
 20
-115.45
 30
0.0
 11
0.000000000000005
 21
-115.45
 31
0.0
1001
DBPROPERTIES
1002
{
1000
PbThick
1002
}
  0
LINE
  5
53E
330
1F
100
AcDbEntity
  8
THICK
100
AcDbLine
 10
168.1
 20
-87.75
 30
0.0
 11
0.0000000000000049
 21
-87.75
 31
0.0
1001
DBPROPERTIES
1002
{
1000
PbThick
1002
}
  0
LINE
  5
53F
330
1F
100
AcDbEntity
  8
THICK
100
AcDbLine
 10
188.6
 20
-95.94999999999999
 30
0.0
 11
0.0000000000000062
 21
-95.94999999999999
 31
0.0
1001
DBPROPERTIES
1002
{
1000
PbThick
1002
}
  0
LINE
  5
540
330
1F
100
AcDbEntity
  8
THICK
100
AcDbLine
 10
168.1
 20
-68.25
 30
0.0
 11
0.0000000000000061
 21
-68.25
 31
0.0
1001
DBPROPERTIES
1002
{
1000
PbThick
1002
}
  0
LINE
  5
541
330
1F
100
AcDbEntity
  8
THICK
100
AcDbLine
 10
188.6
 20
-76.44999999999999
 30
0.0
 11
0.0000000000000074
 21
-76.44999999999999
 31
0.0
1001
DBPROPERTIES
1002
{
1000
PbThick
1002
}
  0
LINE
  5
542
330
1F
100
AcDbEntity
  8
THICK
100
AcDbLine
 10
168.1
 20
-48.75
 30
0.0
 11
0.0000000000000073
 21
-48.75
 31
0.0
1001
DBPROPERTIES
1002
{
1000
PbThick
1002
}
  0
LINE
  5
543
330
1F
100
AcDbEntity
  8
THICK
100
AcDbLine
 10
188.6
 20
-56.94999999999999
 30
0.0
 11
0.0000000000000086
 21
-56.94999999999999
 31
0.0
1001
DBPROPERTIES
1002
{
1000
PbThick
1002
}
  0
LINE
  5
544
330
1F
100
AcDbEntity
  8
THICK
100
AcDbLine
 10
0.0000000000000126
 20
-39.0
 30
0.0
 11
205.0
 21
-39.0
 31
0.0
1001
DBPROPERTIES
1002
{
1000
PbThick
1002
}
  0
LINE
  5
545
330
1F
100
AcDbEntity
  8
THICK
100
AcDbLine
 10
0.0000000000000045
 20
-21.82499444855586
 30
0.0
 11
73.19999999999999
 21
-21.82499444855586
 31
0.0
1001
DBPROPERTIES
1002
{
1000
PbThick
1002
}
  0
LINE
  5
546
330
1F
100
AcDbEntity
  8
HIDDEN
100
AcDbLine
 10
73.19999999999999
 20
-21.82499444855586
 30
0.0
 11
0.0000000000000045
 21
-21.82499444855586
 31
0.0
1001
DBPROPERTIES
1002
{
1000
PbHidd
1002
}
  0
LINE
  5
547
330
1F
100
AcDbEntity
  8
THICK
100
AcDbLine
 10
0.0000000000000045
 20
-20.26499444855585
 30
0.0
 11
73.19999999999999
 21
-20.26499444855585
 31
0.0
1001
DBPROPERTIES
1002
{
1000
PbThick
1002
}
  0
LINE
  5
548
330
1F
100
AcDbEntity
  8
THICK
100
AcDbLine
 10
0.0000000000000025
 20
0.0
 30
0.0
 11
41.0
 21
0.0
 31
0.0
1001
DBPROPERTIES
1002
{
1000
PbThick
1002
}
  0
LINE
  5
549
330
1F
100
AcDbEntity
  8
THICK
100
AcDbLine
 10
-30.74999999999999
 20
-156.0
 30
0.0
 11
-53.13310762750032
 21
-156.0
 31
0.0
1001
DBPROPERTIES
1002
{
1000
PbThick
1002
}
  0
LINE
  5
54A
330
1F
100
AcDbEntity
  8
HIDDEN
100
AcDbLine
 10
-53.13310762750032
 20
-156.0
 30
0.0
 11
-61.3432193648546
 21
-156.0
 31
0.0
1001
DBPROPERTIES
1002
{
1000
PbHidd
1002
}
  0
LINE
  5
54B
330
1F
100
AcDbEntity
  8
THICK
100
AcDbLine
 10
-172.2
 20
-156.0
 30
0.0
 11
-61.3432193648546
 21
-156.0
 31
0.0
1001
DBPROPERTIES
1002
{
1000
PbThick
1002
}
  0
LINE
  5
54C
330
1F
100
AcDbEntity
  8
THICK
100
AcDbLine
 10
-99.50000000000001
 20
-216.2
 30
0.0
 11
-0.0000000000000071
 21
-216.2
 31
0.0
1001
DBPROPERTIES
1002
{
1000
PbThick
1002
}
  0
LINE
  5
54D
330
1F
100
AcDbEntity
  8
THICK
100
AcDbLine
 10
-99.50000000000001
 20
-228.3
 30
0.0
 11
-0.0000000000000079
 21
-228.3
 31
0.0
1001
DBPROPERTIES
1002
{
1000
PbThick
1002
}
  0
LINE
  5
54E
330
1F
100
AcDbEntity
  8
THICK
100
AcDbLine
 10
-95.20000000000002
 20
-232.6
 30
0.0
 11
95.19999999999999
 21
-232.6
 31
0.0
1001
DBPROPERTIES
1002
{
1000
PbThick
1002
}
  0
LINE
  5
54F
330
1F
100
AcDbEntity
  8
THICK
100
AcDbLine
 10
-0.0000000000000084
 20
-236.9
 30
0.0
 11
-99.50000000000001
 21
-236.9
 31
0.0
1001
DBPROPERTIES
1002
{
1000
PbThick
1002
}
  0
LINE
  5
550
330
1F
100
AcDbEntity
  8
THICK
100
AcDbLine
 10
-99.50000000000001
 20
-224.8
 30
0.0
 11
-0.0000000000000077
 21
-224.8
 31
0.0
1001
DBPROPERTIES
1002
{
1000
PbThick
1002
}
  0
LINE
  5
551
330
1F
100
AcDbEntity
  8
THICK
100
AcDbLine
 10
95.19999999999999
 20
-220.5
 30
0.0
 11
-95.20000000000002
 21
-220.5
 31
0.0
1001
DBPROPERTIES
1002
{
1000
PbThick
1002
}
  0
LINE
  5
552
330
1F
100
AcDbEntity
  8
THICK
100
AcDbLine
 10
99.49999999999999
 20
-242.0
 30
0.0
 11
99.49999999999999
 21
-236.8999938964844
 31
0.0
1001
DBPROPERTIES
1002
{
1000
PbThick
1002
}
  0
LINE
  5
553
330
1F
100
AcDbEntity
  8
THICK
100
AcDbLine
 10
99.49999999999999
 20
-228.3000030517578
 30
0.0
 11
99.49999999999999
 21
-224.8000030517578
 31
0.0
1001
DBPROPERTIES
1002
{
1000
PbThick
1002
}
  0
LINE
  5
554
330
1F
100
AcDbEntity
  8
THICK
100
AcDbLine
 10
99.49999999999999
 20
-216.1999969482422
 30
0.0
 11
99.49999999999999
 21
-156.0
 31
0.0
1001
DBPROPERTIES
1002
{
1000
PbThick
1002
}
  0
LINE
  5
555
330
1F
100
AcDbEntity
  8
THICK
100
AcDbLine
 10
172.2
 20
-156.0
 30
0.0
 11
172.2
 21
-145.3999938964844
 31
0.0
1001
DBPROPERTIES
1002
{
1000
PbThick
1002
}
  0
LINE
  5
556
330
1F
100
AcDbEntity
  8
THICK
100
AcDbLine
 10
164.0
 20
-48.75
 30
0.0
 11
164.0
 21
-39.0
 31
0.0
1001
DBPROPERTIES
1002
{
1000
PbThick
1002
}
  0
LINE
  5
557
330
1F
100
AcDbEntity
  8
THICK
100
AcDbLine
 10
-41.0
 20
0.0
 30
0.0
 11
-46.95825489333828
 21
-10.32000019970778
 31
0.0
1001
DBPROPERTIES
1002
{
1000
PbThick
1002
}
  0
LINE
  5
558
330
1F
100
AcDbEntity
  8
HIDDEN
100
AcDbLine
 10
-46.95825489333828
 20
-10.32000019970778
 30
0.0
 11
-51.57705678771187
 21
-18.31999975085823
 31
0.0
1001
DBPROPERTIES
1002
{
1000
PbHidd
1002
}
  0
LINE
  5
559
330
1F
100
AcDbEntity
  8
THICK
100
AcDbLine
 10
-51.57705678771187
 20
-18.31999975085823
 30
0.0
 11
-52.69999985257215
 21
-20.26499419320335
 31
0.0
1001
DBPROPERTIES
1002
{
1000
PbThick
1002
}
  0
LINE
  5
55A
330
1F
100
AcDbEntity
  8
THICK
100
AcDbLine
 10
-73.19999999999999
 20
-20.26499366760254
 30
0.0
 11
-73.19999999999999
 21
-21.82499504089355
 31
0.0
1001
DBPROPERTIES
1002
{
1000
PbThick
1002
}
  0
LINE
  5
55B
330
1F
100
AcDbEntity
  8
THICK
100
AcDbLine
 10
-73.1999970750981
 20
-21.82499406740862
 30
0.0
 11
-205.0
 21
-38.99999999999999
 31
0.0
1001
DBPROPERTIES
1002
{
1000
PbThick
1002
}
  0
LINE
  5
55C
330
1F
100
AcDbEntity
  8
THICK
100
AcDbLine
 10
164.0
 20
-68.25
 30
0.0
 11
164.0
 21
-56.95000076293945
 31
0.0
1001
DBPROPERTIES
1002
{
1000
PbThick
1002
}
  0
LINE
  5
55D
330
1F
100
AcDbEntity
  8
THICK
100
AcDbLine
 10
-168.1000052616514
 20
-48.75000210466055
 30
0.0
 11
-188.600005524734
 21
-56.95000220989357
 31
0.0
1001
DBPROPERTIES
1002
{
1000
PbThick
1002
}
  0
LINE
  5
55E
330
1F
100
AcDbEntity
  8
THICK
100
AcDbLine
 10
164.0
 20
-87.75
 30
0.0
 11
164.0
 21
-76.44999694824219
 31
0.0
1001
DBPROPERTIES
1002
{
1000
PbThick
1002
}
  0
LINE
  5
55F
330
1F
100
AcDbEntity
  8
THICK
100
AcDbLine
 10
-168.1000052616514
 20
-68.25000210466055
 30
0.0
 11
-188.6000042093211
 21
-76.45000168372843
 31
0.0
1001
DBPROPERTIES
1002
{
1000
PbThick
1002
}
  0
LINE
  5
560
330
1F
100
AcDbEntity
  8
THICK
100
AcDbLine
 10
164.0
 20
-107.25
 30
0.0
 11
164.0
 21
-95.94999694824219
 31
0.0
1001
DBPROPERTIES
1002
{
1000
PbThick
1002
}
  0
LINE
  5
561
330
1F
100
AcDbEntity
  8
THICK
100
AcDbLine
 10
-168.1000052616514
 20
-87.75000210466055
 30
0.0
 11
-188.6000042093211
 21
-95.95000168372843
 31
0.0
1001
DBPROPERTIES
1002
{
1000
PbThick
1002
}
  0
LINE
  5
562
330
1F
100
AcDbEntity
  8
THICK
100
AcDbLine
 10
164.0
 20
-126.75
 30
0.0
 11
164.0
 21
-115.4499969482422
 31
0.0
1001
DBPROPERTIES
1002
{
1000
PbThick
1002
}
  0
LINE
  5
563
330
1F
100
AcDbEntity
  8
THICK
100
AcDbLine
 10
-168.1000052616514
 20
-107.2500021046606
 30
0.0
 11
-188.6000042093211
 21
-115.4500016837284
 31
0.0
1001
DBPROPERTIES
1002
{
1000
PbThick
1002
}
  0
LINE
  5
564
330
1F
100
AcDbEntity
  8
THICK
100
AcDbLine
 10
-168.1000052616514
 20
-126.7500021046606
 30
0.0
 11
-188.6000042093211
 21
-134.9500016837284
 31
0.0
1001
DBPROPERTIES
1002
{
1000
PbThick
1002
}
  0
LINE
  5
565
330
1F
100
AcDbEntity
  8
THICK
100
AcDbLine
 10
164.0
 20
-140.3999938964844
 30
0.0
 11
164.0
 21
-134.9499969482422
 31
0.0
1001
DBPROPERTIES
1002
{
1000
PbThick
1002
}
  0
LINE
  5
566
330
1F
100
AcDbEntity
  8
HIDDEN
100
AcDbLine
 10
-62.75
 20
-133.591796875
 30
0.0
 11
-62.75
 21
-134.9499969482422
 31
0.0
1001
DBPROPERTIES
1002
{
1000
PbHidd
1002
}
  0
LINE
  5
567
330
1F
100
AcDbEntity
  8
HIDDEN
100
AcDbLine
 10
-62.74999999999999
 20
-114.091796875
 30
0.0
 11
-62.74999999999999
 21
-115.4499969482422
 31
0.0
1001
DBPROPERTIES
1002
{
1000
PbHidd
1002
}
  0
LINE
  5
568
330
1F
100
AcDbEntity
  8
HIDDEN
100
AcDbLine
 10
-62.74999999999999
 20
-94.591796875
 30
0.0
 11
-62.74999999999999
 21
-95.94999694824219
 31
0.0
1001
DBPROPERTIES
1002
{
1000
PbHidd
1002
}
  0
LINE
  5
569
330
1F
100
AcDbEntity
  8
HIDDEN
100
AcDbLine
 10
-62.74999999999999
 20
-75.091796875
 30
0.0
 11
-62.74999999999999
 21
-76.44999694824219
 31
0.0
1001
DBPROPERTIES
1002
{
1000
PbHidd
1002
}
  0
LINE
  5
56A
330
1F
100
AcDbEntity
  8
HIDDEN
100
AcDbLine
 10
-62.74999999999999
 20
-55.59179306030273
 30
0.0
 11
-62.74999999999999
 21
-56.95000076293945
 31
0.0
1001
DBPROPERTIES
1002
{
1000
PbHidd
1002
}
  0
LINE
  5
56B
330
1F
100
AcDbEntity
  8
HIDDEN
100
AcDbLine
 10
-62.74999999999999
 20
-36.42044067382812
 30
0.0
 11
-62.74999999999999
 21
-39.0
 31
0.0
1001
DBPROPERTIES
1002
{
1000
PbHidd
1002
}
  0
LINE
  5
56C
330
1F
100
AcDbEntity
  8
THICK
100
AcDbLine
 10
-61.74999999999999
 20
-34.31999969482422
 30
0.0
 11
-61.74999999999999
 21
-36.74538803100586
 31
0.0
1001
DBPROPERTIES
1002
{
1000
PbThick
1002
}
  0
LINE
  5
56D
330
1F
100
AcDbEntity
  8
HIDDEN
100
AcDbLine
 10
-61.74999999999999
 20
-36.74538803100586
 30
0.0
 11
-61.74999999999999
 21
-39.0
 31
0.0
1001
DBPROPERTIES
1002
{
1000
PbHidd
1002
}
  0
LINE
  5
56E
330
1F
100
AcDbEntity
  8
THICK
100
AcDbLine
 10
-61.74999999999999
 20
-39.0
 30
0.0
 11
-61.74999999999999
 21
-56.58930587768555
 31
0.0
1001
DBPROPERTIES
1002
{
1000
PbThick
1002
}
  0
LINE
  5
56F
330
1F
100
AcDbEntity
  8
HIDDEN
100
AcDbLine
 10
-61.74999999999999
 20
-56.58930587768555
 30
0.0
 11
-61.74999999999999
 21
-56.95000076293945
 31
0.0
1001
DBPROPERTIES
1002
{
1000
PbHidd
1002
}
  0
LINE
  5
570
330
1F
100
AcDbEntity
  8
THICK
100
AcDbLine
 10
-61.74999999999999
 20
-56.95000076293945
 30
0.0
 11
-61.74999999999999
 21
-76.08930206298828
 31
0.0
1001
DBPROPERTIES
1002
{
1000
PbThick
1002
}
  0
LINE
  5
571
330
1F
100
AcDbEntity
  8
HIDDEN
100
AcDbLine
 10
-61.74999999999999
 20
-76.08930206298828
 30
0.0
 11
-61.74999999999999
 21
-76.44999694824219
 31
0.0
1001
DBPROPERTIES
1002
{
1000
PbHidd
1002
}
  0
LINE
  5
572
330
1F
100
AcDbEntity
  8
THICK
100
AcDbLine
 10
-61.74999999999999
 20
-76.44999694824219
 30
0.0
 11
-61.74999999999999
 21
-95.58930206298828
 31
0.0
1001
DBPROPERTIES
1002
{
1000
PbThick
1002
}
  0
LINE
  5
573
330
1F
100
AcDbEntity
  8
HIDDEN
100
AcDbLine
 10
-61.74999999999999
 20
-95.58930206298828
 30
0.0
 11
-61.74999999999999
 21
-95.94999694824219
 31
0.0
1001
DBPROPERTIES
1002
{
1000
PbHidd
1002
}
  0
LINE
  5
574
330
1F
100
AcDbEntity
  8
THICK
100
AcDbLine
 10
-61.74999999999999
 20
-95.94999694824219
 30
0.0
 11
-61.74999999999999
 21
-115.0893020629883
 31
0.0
1001
DBPROPERTIES
1002
{
1000
PbThick
1002
}
  0
LINE
  5
575
330
1F
100
AcDbEntity
  8
HIDDEN
100
AcDbLine
 10
-61.74999999999999
 20
-115.0893020629883
 30
0.0
 11
-61.74999999999999
 21
-115.4499969482422
 31
0.0
1001
DBPROPERTIES
1002
{
1000
PbHidd
1002
}
  0
LINE
  5
576
330
1F
100
AcDbEntity
  8
THICK
100
AcDbLine
 10
-61.74999999999999
 20
-115.4499969482422
 30
0.0
 11
-61.74999999999999
 21
-134.5893096923828
 31
0.0
1001
DBPROPERTIES
1002
{
1000
PbThick
1002
}
  0
LINE
  5
577
330
1F
100
AcDbEntity
  8
HIDDEN
100
AcDbLine
 10
-61.74999999999999
 20
-134.5893096923828
 30
0.0
 11
-61.74999999999999
 21
-134.9499969482422
 31
0.0
1001
DBPROPERTIES
1002
{
1000
PbHidd
1002
}
  0
LINE
  5
578
330
1F
100
AcDbEntity
  8
THICK
100
AcDbLine
 10
-61.74999999999999
 20
-134.9499969482422
 30
0.0
 11
-61.75
 21
-151.6000061035156
 31
0.0
1001
DBPROPERTIES
1002
{
1000
PbThick
1002
}
  0
ARC
  5
579
330
1F
100
AcDbEntity
  8
THICK
100
AcDbCircle
 10
-71.74999999999999
 20
-14.31999999999999
 30
0.0
 40
4.0
100
AcDbArc
 50
89.99998127603165
 51
90.54904673110552
1001
DBPROPERTIES
1002
{
1000
PbThick
1002
}
  0
LINE
  5
57A
330
1F
100
AcDbEntity
  8
HIDDEN
100
AcDbLine
 10
-71.89213562011719
 20
-10.31999969482422
 30
0.0
 11
-71.88739776611328
 21
-10.32000064849854
 31
0.0
1001
DBPROPERTIES
1002
{
1000
PbHidd
1002
}
  0
LINE
  5
57B
330
1F
100
AcDbEntity
  8
HIDDEN
100
AcDbLine
 10
-71.88739776611328
 20
-10.32000064849854
 30
0.0
 11
-71.88414764404297
 21
-10.32000255584717
 31
0.0
1001
DBPROPERTIES
1002
{
1000
PbHidd
1002
}
  0
LINE
  5
57C
330
1F
100
AcDbEntity
  8
HIDDEN
100
AcDbLine
 10
-71.88414764404297
 20
-10.32000255584717
 30
0.0
 11
-71.88314056396484
 21
-10.32000255584717
 31
0.0
1001
DBPROPERTIES
1002
{
1000
PbHidd
1002
}
  0
LINE
  5
57D
330
1F
100
AcDbEntity
  8
HIDDEN
100
AcDbLine
 10
-71.88314056396484
 20
-10.32000255584717
 30
0.0
 11
-71.88212585449219
 21
-10.32000350952148
 31
0.0
1001
DBPROPERTIES
1002
{
1000
PbHidd
1002
}
  0
LINE
  5
57E
330
1F
100
AcDbEntity
  8
HIDDEN
100
AcDbLine
 10
-71.88212585449219
 20
-10.32000350952148
 30
0.0
 11
-71.87956237792969
 21
-10.32000541687012
 31
0.0
1001
DBPROPERTIES
1002
{
1000
PbHidd
1002
}
  0
LINE
  5
57F
330
1F
100
AcDbEntity
  8
HIDDEN
100
AcDbLine
 10
-71.87956237792969
 20
-10.32000541687012
 30
0.0
 11
-71.8759536743164
 21
-10.32000923156738
 31
0.0
1001
DBPROPERTIES
1002
{
1000
PbHidd
1002
}
  0
LINE
  5
580
330
1F
100
AcDbEntity
  8
THICK
100
AcDbLine
 10
-71.6123275756836
 20
-10.32279682159424
 30
0.0
 11
-70.39442443847656
 21
-10.40025997161865
 31
0.0
1001
DBPROPERTIES
1002
{
1000
PbThick
1002
}
  0
LINE
  5
581
330
1F
100
AcDbEntity
  8
THICK
100
AcDbLine
 10
-70.39442443847656
 20
-10.40025997161865
 30
0.0
 11
-69.17741394042969
 21
-10.58481216430664
 31
0.0
1001
DBPROPERTIES
1002
{
1000
PbThick
1002
}
  0
LINE
  5
582
330
1F
100
AcDbEntity
  8
THICK
100
AcDbLine
 10
-69.17741394042969
 20
-10.58481216430664
 30
0.0
 11
-67.78590393066406
 21
-10.9307165145874
 31
0.0
1001
DBPROPERTIES
1002
{
1000
PbThick
1002
}
  0
LINE
  5
583
330
1F
100
AcDbEntity
  8
THICK
100
AcDbLine
 10
-67.78590393066406
 20
-10.9307165145874
 30
0.0
 11
-66.40338134765625
 21
-11.42374515533447
 31
0.0
1001
DBPROPERTIES
1002
{
1000
PbThick
1002
}
  0
LINE
  5
584
330
1F
100
AcDbEntity
  8
THICK
100
AcDbLine
 10
-66.40338134765625
 20
-11.42374515533447
 30
0.0
 11
-65.66753387451172
 21
-11.7503833770752
 31
0.0
1001
DBPROPERTIES
1002
{
1000
PbThick
1002
}
  0
LINE
  5
585
330
1F
100
AcDbEntity
  8
THICK
100
AcDbLine
 10
-65.66753387451172
 20
-11.7503833770752
 30
0.0
 11
-64.9369125366211
 21
-12.12147235870361
 31
0.0
1001
DBPROPERTIES
1002
{
1000
PbThick
1002
}
  0
LINE
  5
586
330
1F
100
AcDbEntity
  8
THICK
100
AcDbLine
 10
-64.9369125366211
 20
-12.12147235870361
 30
0.0
 11
-64.21226501464844
 21
-12.5380687713623
 31
0.0
1001
DBPROPERTIES
1002
{
1000
PbThick
1002
}
  0
LINE
  5
587
330
1F
100
AcDbEntity
  8
THICK
100
AcDbLine
 10
-64.21226501464844
 20
-12.5380687713623
 30
0.0
 11
-63.4952507019043
 21
-13.00082111358643
 31
0.0
1001
DBPROPERTIES
1002
{
1000
PbThick
1002
}
  0
LINE
  5
588
330
1F
100
AcDbEntity
  8
THICK
100
AcDbLine
 10
-63.4952507019043
 20
-13.00082111358643
 30
0.0
 11
-62.29120635986328
 21
-13.90113830566406
 31
0.0
1001
DBPROPERTIES
1002
{
1000
PbThick
1002
}
  0
LINE
  5
589
330
1F
100
AcDbEntity
  8
THICK
100
AcDbLine
 10
-62.29120635986328
 20
-13.90113830566406
 30
0.0
 11
-61.30599594116211
 21
-14.76622486114502
 31
0.0
1001
DBPROPERTIES
1002
{
1000
PbThick
1002
}
  0
LINE
  5
58A
330
1F
100
AcDbEntity
  8
THICK
100
AcDbLine
 10
-61.30599594116211
 20
-14.76622486114502
 30
0.0
 11
-60.35223770141602
 21
-15.73059177398682
 31
0.0
1001
DBPROPERTIES
1002
{
1000
PbThick
1002
}
  0
LINE
  5
58B
330
1F
100
AcDbEntity
  8
THICK
100
AcDbLine
 10
-60.35223770141602
 20
-15.73059177398682
 30
0.0
 11
-59.38250350952148
 21
-16.86126136779785
 31
0.0
1001
DBPROPERTIES
1002
{
1000
PbThick
1002
}
  0
LINE
  5
58C
330
1F
100
AcDbEntity
  8
THICK
100
AcDbLine
 10
-59.38250350952148
 20
-16.86126136779785
 30
0.0
 11
-58.4638557434082
 21
-18.10108184814453
 31
0.0
1001
DBPROPERTIES
1002
{
1000
PbThick
1002
}
  0
LINE
  5
58D
330
1F
100
AcDbEntity
  8
THICK
100
AcDbLine
 10
-58.4638557434082
 20
-18.10108184814453
 30
0.0
 11
-57.60512924194336
 21
-19.44585800170898
 31
0.0
1001
DBPROPERTIES
1002
{
1000
PbThick
1002
}
  0
LINE
  5
58E
330
1F
100
AcDbEntity
  8
THICK
100
AcDbLine
 10
-57.60512924194336
 20
-19.44585800170898
 30
0.0
 11
-56.81474685668945
 21
-20.88997650146484
 31
0.0
1001
DBPROPERTIES
1002
{
1000
PbThick
1002
}
  0
LINE
  5
58F
330
1F
100
AcDbEntity
  8
THICK
100
AcDbLine
 10
-56.81474685668945
 20
-20.88997650146484
 30
0.0
 11
-56.36242294311523
 21
-21.83246803283691
 31
0.0
1001
DBPROPERTIES
1002
{
1000
PbThick
1002
}
  0
LINE
  5
590
330
1F
100
AcDbEntity
  8
THICK
100
AcDbLine
 10
-56.36242294311523
 20
-21.83246803283691
 30
0.0
 11
-55.94138336181641
 21
-22.80819511413574
 31
0.0
1001
DBPROPERTIES
1002
{
1000
PbThick
1002
}
  0
LINE
  5
591
330
1F
100
AcDbEntity
  8
THICK
100
AcDbLine
 10
-55.94138336181641
 20
-22.80819511413574
 30
0.0
 11
-55.44163131713867
 21
-24.12812805175781
 31
0.0
1001
DBPROPERTIES
1002
{
1000
PbThick
1002
}
  0
LINE
  5
592
330
1F
100
AcDbEntity
  8
THICK
100
AcDbLine
 10
-55.44163131713867
 20
-24.12812805175781
 30
0.0
 11
-55.00166320800781
 21
-25.49471855163574
 31
0.0
1001
DBPROPERTIES
1002
{
1000
PbThick
1002
}
  0
LINE
  5
593
330
1F
100
AcDbEntity
  8
THICK
100
AcDbLine
 10
-55.00166320800781
 20
-25.49471855163574
 30
0.0
 11
-54.62438201904297
 21
-26.90207862854004
 31
0.0
1001
DBPROPERTIES
1002
{
1000
PbThick
1002
}
  0
LINE
  5
594
330
1F
100
AcDbEntity
  8
THICK
100
AcDbLine
 10
-54.62438201904297
 20
-26.90207862854004
 30
0.0
 11
-54.31229782104492
 21
-28.34386253356934
 31
0.0
1001
DBPROPERTIES
1002
{
1000
PbThick
1002
}
  0
LINE
  5
595
330
1F
100
AcDbEntity
  8
THICK
100
AcDbLine
 10
-54.31229782104492
 20
-28.34386253356934
 30
0.0
 11
-54.06747817993164
 21
-29.81333541870117
 31
0.0
1001
DBPROPERTIES
1002
{
1000
PbThick
1002
}
  0
LINE
  5
596
330
1F
100
AcDbEntity
  8
THICK
100
AcDbLine
 10
-54.06747817993164
 20
-29.81333541870117
 30
0.0
 11
-53.89147567749023
 21
-31.3038158416748
 31
0.0
1001
DBPROPERTIES
1002
{
1000
PbThick
1002
}
  0
LINE
  5
597
330
1F
100
AcDbEntity
  8
THICK
100
AcDbLine
 10
-53.89147567749023
 20
-31.3038158416748
 30
0.0
 11
-53.78542709350586
 21
-32.80837249755859
 31
0.0
1001
DBPROPERTIES
1002
{
1000
PbThick
1002
}
  0
LINE
  5
598
330
1F
100
AcDbEntity
  8
THICK
100
AcDbLine
 10
-53.78542709350586
 20
-32.80837249755859
 30
0.0
 11
-53.75
 21
-34.31999969482422
 31
0.0
1001
DBPROPERTIES
1002
{
1000
PbThick
1002
}
  0
LINE
  5
599
330
1F
100
AcDbEntity
  8
HIDDEN
100
AcDbLine
 10
-77.6
 20
-18.31999999999999
 30
0.0
 11
-77.42890669539848
 21
-18.31999999999999
 31
0.0
1001
DBPROPERTIES
1002
{
1000
PbHidd
1002
}
  0
LINE
  5
59A
330
1F
100
AcDbEntity
  8
HIDDEN
100
AcDbLine
 10
-77.5999984741211
 20
-18.31999969482422
 30
0.0
 11
-77.32701110839844
 21
-18.3106746673584
 31
0.0
1001
DBPROPERTIES
1002
{
1000
PbHidd
1002
}
  0
LINE
  5
59B
330
1F
100
AcDbEntity
  8
HIDDEN
100
AcDbLine
 10
-77.32701110839844
 20
-18.3106746673584
 30
0.0
 11
-77.05532836914062
 21
-18.28274345397949
 31
0.0
1001
DBPROPERTIES
1002
{
1000
PbHidd
1002
}
  0
LINE
  5
59C
330
1F
100
AcDbEntity
  8
HIDDEN
100
AcDbLine
 10
-77.05532836914062
 20
-18.28274345397949
 30
0.0
 11
-76.78617858886719
 21
-18.23633575439453
 31
0.0
1001
DBPROPERTIES
1002
{
1000
PbHidd
1002
}
  0
LINE
  5
59D
330
1F
100
AcDbEntity
  8
HIDDEN
100
AcDbLine
 10
-76.78617858886719
 20
-18.23633575439453
 30
0.0
 11
-76.52081298828125
 21
-18.17166900634766
 31
0.0
1001
DBPROPERTIES
1002
{
1000
PbHidd
1002
}
  0
LINE
  5
59E
330
1F
100
AcDbEntity
  8
HIDDEN
100
AcDbLine
 10
-76.52081298828125
 20
-18.17166900634766
 30
0.0
 11
-76.26048278808594
 21
-18.08904457092285
 31
0.0
1001
DBPROPERTIES
1002
{
1000
PbHidd
1002
}
  0
LINE
  5
59F
330
1F
100
AcDbEntity
  8
HIDDEN
100
AcDbLine
 10
-76.26048278808594
 20
-18.08904457092285
 30
0.0
 11
-76.00639343261719
 21
-17.98884582519531
 31
0.0
1001
DBPROPERTIES
1002
{
1000
PbHidd
1002
}
  0
LINE
  5
5A0
330
1F
100
AcDbEntity
  8
HIDDEN
100
AcDbLine
 10
-76.00639343261719
 20
-17.98884582519531
 30
0.0
 11
-75.7597427368164
 21
-17.87154006958008
 31
0.0
1001
DBPROPERTIES
1002
{
1000
PbHidd
1002
}
  0
LINE
  5
5A1
330
1F
100
AcDbEntity
  8
HIDDEN
100
AcDbLine
 10
-75.7597427368164
 20
-17.87154006958008
 30
0.0
 11
-75.52166748046875
 21
-17.73767852783203
 31
0.0
1001
DBPROPERTIES
1002
{
1000
PbHidd
1002
}
  0
LINE
  5
5A2
330
1F
100
AcDbEntity
  8
HIDDEN
100
AcDbLine
 10
-75.52166748046875
 20
-17.73767852783203
 30
0.0
 11
-75.29328155517578
 21
-17.5878791809082
 31
0.0
1001
DBPROPERTIES
1002
{
1000
PbHidd
1002
}
  0
LINE
  5
5A3
330
1F
100
AcDbEntity
  8
HIDDEN
100
AcDbLine
 10
-75.29328155517578
 20
-17.5878791809082
 30
0.0
 11
-75.07564544677734
 21
-17.4228458404541
 31
0.0
1001
DBPROPERTIES
1002
{
1000
PbHidd
1002
}
  0
LINE
  5
5A4
330
1F
100
AcDbEntity
  8
HIDDEN
100
AcDbLine
 10
-75.07564544677734
 20
-17.4228458404541
 30
0.0
 11
-74.86978912353516
 21
-17.24334335327148
 31
0.0
1001
DBPROPERTIES
1002
{
1000
PbHidd
1002
}
  0
LINE
  5
5A5
330
1F
100
AcDbEntity
  8
HIDDEN
100
AcDbLine
 10
-74.86978912353516
 20
-17.24334335327148
 30
0.0
 11
-74.6766586303711
 21
-17.05021286010742
 31
0.0
1001
DBPROPERTIES
1002
{
1000
PbHidd
1002
}
  0
LINE
  5
5A6
330
1F
100
AcDbEntity
  8
HIDDEN
100
AcDbLine
 10
-74.6766586303711
 20
-17.05021286010742
 30
0.0
 11
-74.49715423583984
 21
-16.84435272216797
 31
0.0
1001
DBPROPERTIES
1002
{
1000
PbHidd
1002
}
  0
LINE
  5
5A7
330
1F
100
AcDbEntity
  8
HIDDEN
100
AcDbLine
 10
-74.49715423583984
 20
-16.84435272216797
 30
0.0
 11
-74.33212280273438
 21
-16.6267204284668
 31
0.0
1001
DBPROPERTIES
1002
{
1000
PbHidd
1002
}
  0
LINE
  5
5A8
330
1F
100
AcDbEntity
  8
HIDDEN
100
AcDbLine
 10
-74.33212280273438
 20
-16.6267204284668
 30
0.0
 11
-74.18231964111328
 21
-16.39833641052246
 31
0.0
1001
DBPROPERTIES
1002
{
1000
PbHidd
1002
}
  0
LINE
  5
5A9
330
1F
100
AcDbEntity
  8
HIDDEN
100
AcDbLine
 10
-74.18231964111328
 20
-16.39833641052246
 30
0.0
 11
-74.0484619140625
 21
-16.16025924682617
 31
0.0
1001
DBPROPERTIES
1002
{
1000
PbHidd
1002
}
  0
LINE
  5
5AA
330
1F
100
AcDbEntity
  8
HIDDEN
100
AcDbLine
 10
-74.0484619140625
 20
-16.16025924682617
 30
0.0
 11
-73.93115234375
 21
-15.91360473632812
 31
0.0
1001
DBPROPERTIES
1002
{
1000
PbHidd
1002
}
  0
LINE
  5
5AB
330
1F
100
AcDbEntity
  8
HIDDEN
100
AcDbLine
 10
-73.93115234375
 20
-15.91360473632812
 30
0.0
 11
-73.8309555053711
 21
-15.65951824188232
 31
0.0
1001
DBPROPERTIES
1002
{
1000
PbHidd
1002
}
  0
LINE
  5
5AC
330
1F
100
AcDbEntity
  8
HIDDEN
100
AcDbLine
 10
-73.8309555053711
 20
-15.65951824188232
 30
0.0
 11
-73.74832916259766
 21
-15.3991870880127
 31
0.0
1001
DBPROPERTIES
1002
{
1000
PbHidd
1002
}
  0
LINE
  5
5AD
330
1F
100
AcDbEntity
  8
HIDDEN
100
AcDbLine
 10
-73.74832916259766
 20
-15.3991870880127
 30
0.0
 11
-73.68366241455078
 21
-15.13382434844971
 31
0.0
1001
DBPROPERTIES
1002
{
1000
PbHidd
1002
}
  0
LINE
  5
5AE
330
1F
100
AcDbEntity
  8
HIDDEN
100
AcDbLine
 10
-73.68366241455078
 20
-15.13382434844971
 30
0.0
 11
-73.63725280761719
 21
-14.86466693878174
 31
0.0
1001
DBPROPERTIES
1002
{
1000
PbHidd
1002
}
  0
LINE
  5
5AF
330
1F
100
AcDbEntity
  8
HIDDEN
100
AcDbLine
 10
-73.63725280761719
 20
-14.86466693878174
 30
0.0
 11
-73.60932159423828
 21
-14.59296989440918
 31
0.0
1001
DBPROPERTIES
1002
{
1000
PbHidd
1002
}
  0
LINE
  5
5B0
330
1F
100
AcDbEntity
  8
HIDDEN
100
AcDbLine
 10
-73.60932159423828
 20
-14.59296989440918
 30
0.0
 11
-73.5999984741211
 21
-14.31999969482422
 31
0.0
1001
DBPROPERTIES
1002
{
1000
PbHidd
1002
}
  0
LINE
  5
5B1
330
1F
100
AcDbEntity
  8
THICK
100
AcDbLine
 10
-81.5999984741211
 20
-14.31999969482422
 30
0.0
 11
-81.5906753540039
 21
-14.59296989440918
 31
0.0
1001
DBPROPERTIES
1002
{
1000
PbThick
1002
}
  0
LINE
  5
5B2
330
1F
100
AcDbEntity
  8
THICK
100
AcDbLine
 10
-81.5906753540039
 20
-14.59296989440918
 30
0.0
 11
-81.562744140625
 21
-14.86466693878174
 31
0.0
1001
DBPROPERTIES
1002
{
1000
PbThick
1002
}
  0
LINE
  5
5B3
330
1F
100
AcDbEntity
  8
THICK
100
AcDbLine
 10
-81.562744140625
 20
-14.86466693878174
 30
0.0
 11
-81.5163345336914
 21
-15.13382434844971
 31
0.0
1001
DBPROPERTIES
1002
{
1000
PbThick
1002
}
  0
LINE
  5
5B4
330
1F
100
AcDbEntity
  8
THICK
100
AcDbLine
 10
-81.5163345336914
 20
-15.13382434844971
 30
0.0
 11
-81.45166778564453
 21
-15.3991870880127
 31
0.0
1001
DBPROPERTIES
1002
{
1000
PbThick
1002
}
  0
LINE
  5
5B5
330
1F
100
AcDbEntity
  8
THICK
100
AcDbLine
 10
-81.45166778564453
 20
-15.3991870880127
 30
0.0
 11
-81.3690414428711
 21
-15.65951824188232
 31
0.0
1001
DBPROPERTIES
1002
{
1000
PbThick
1002
}
  0
LINE
  5
5B6
330
1F
100
AcDbEntity
  8
THICK
100
AcDbLine
 10
-81.3690414428711
 20
-15.65951824188232
 30
0.0
 11
-81.26884460449219
 21
-15.91360473632812
 31
0.0
1001
DBPROPERTIES
1002
{
1000
PbThick
1002
}
  0
LINE
  5
5B7
330
1F
100
AcDbEntity
  8
THICK
100
AcDbLine
 10
-81.26884460449219
 20
-15.91360473632812
 30
0.0
 11
-81.15154266357422
 21
-16.16025924682617
 31
0.0
1001
DBPROPERTIES
1002
{
1000
PbThick
1002
}
  0
LINE
  5
5B8
330
1F
100
AcDbEntity
  8
THICK
100
AcDbLine
 10
-81.15154266357422
 20
-16.16025924682617
 30
0.0
 11
-81.0176773071289
 21
-16.39833641052246
 31
0.0
1001
DBPROPERTIES
1002
{
1000
PbThick
1002
}
  0
LINE
  5
5B9
330
1F
100
AcDbEntity
  8
THICK
100
AcDbLine
 10
-81.0176773071289
 20
-16.39833641052246
 30
0.0
 11
-80.86788177490234
 21
-16.6267204284668
 31
0.0
1001
DBPROPERTIES
1002
{
1000
PbThick
1002
}
  0
LINE
  5
5BA
330
1F
100
AcDbEntity
  8
THICK
100
AcDbLine
 10
-80.86788177490234
 20
-16.6267204284668
 30
0.0
 11
-80.70284271240234
 21
-16.84435272216797
 31
0.0
1001
DBPROPERTIES
1002
{
1000
PbThick
1002
}
  0
LINE
  5
5BB
330
1F
100
AcDbEntity
  8
THICK
100
AcDbLine
 10
-80.70284271240234
 20
-16.84435272216797
 30
0.0
 11
-80.52334594726562
 21
-17.05021286010742
 31
0.0
1001
DBPROPERTIES
1002
{
1000
PbThick
1002
}
  0
LINE
  5
5BC
330
1F
100
AcDbEntity
  8
THICK
100
AcDbLine
 10
-80.52334594726562
 20
-17.05021286010742
 30
0.0
 11
-80.33021545410156
 21
-17.24334335327148
 31
0.0
1001
DBPROPERTIES
1002
{
1000
PbThick
1002
}
  0
LINE
  5
5BD
330
1F
100
AcDbEntity
  8
THICK
100
AcDbLine
 10
-80.33021545410156
 20
-17.24334335327148
 30
0.0
 11
-80.12435150146484
 21
-17.4228458404541
 31
0.0
1001
DBPROPERTIES
1002
{
1000
PbThick
1002
}
  0
LINE
  5
5BE
330
1F
100
AcDbEntity
  8
THICK
100
AcDbLine
 10
-80.12435150146484
 20
-17.4228458404541
 30
0.0
 11
-79.90672302246094
 21
-17.5878791809082
 31
0.0
1001
DBPROPERTIES
1002
{
1000
PbThick
1002
}
  0
LINE
  5
5BF
330
1F
100
AcDbEntity
  8
THICK
100
AcDbLine
 10
-79.90672302246094
 20
-17.5878791809082
 30
0.0
 11
-79.67833709716797
 21
-17.73767852783203
 31
0.0
1001
DBPROPERTIES
1002
{
1000
PbThick
1002
}
  0
LINE
  5
5C0
330
1F
100
AcDbEntity
  8
THICK
100
AcDbLine
 10
-79.67833709716797
 20
-17.73767852783203
 30
0.0
 11
-79.44026184082031
 21
-17.87154006958008
 31
0.0
1001
DBPROPERTIES
1002
{
1000
PbThick
1002
}
  0
LINE
  5
5C1
330
1F
100
AcDbEntity
  8
THICK
100
AcDbLine
 10
-79.44026184082031
 20
-17.87154006958008
 30
0.0
 11
-79.193603515625
 21
-17.98884582519531
 31
0.0
1001
DBPROPERTIES
1002
{
1000
PbThick
1002
}
  0
LINE
  5
5C2
330
1F
100
AcDbEntity
  8
THICK
100
AcDbLine
 10
-79.193603515625
 20
-17.98884582519531
 30
0.0
 11
-78.93952178955078
 21
-18.08904457092285
 31
0.0
1001
DBPROPERTIES
1002
{
1000
PbThick
1002
}
  0
LINE
  5
5C3
330
1F
100
AcDbEntity
  8
THICK
100
AcDbLine
 10
-78.93952178955078
 20
-18.08904457092285
 30
0.0
 11
-78.67918395996094
 21
-18.17166900634766
 31
0.0
1001
DBPROPERTIES
1002
{
1000
PbThick
1002
}
  0
LINE
  5
5C4
330
1F
100
AcDbEntity
  8
THICK
100
AcDbLine
 10
-78.67918395996094
 20
-18.17166900634766
 30
0.0
 11
-78.41382598876953
 21
-18.23633575439453
 31
0.0
1001
DBPROPERTIES
1002
{
1000
PbThick
1002
}
  0
LINE
  5
5C5
330
1F
100
AcDbEntity
  8
THICK
100
AcDbLine
 10
-78.41382598876953
 20
-18.23633575439453
 30
0.0
 11
-78.14466094970703
 21
-18.28274345397949
 31
0.0
1001
DBPROPERTIES
1002
{
1000
PbThick
1002
}
  0
LINE
  5
5C6
330
1F
100
AcDbEntity
  8
THICK
100
AcDbLine
 10
-78.14466094970703
 20
-18.28274345397949
 30
0.0
 11
-77.8729476928711
 21
-18.3106746673584
 31
0.0
1001
DBPROPERTIES
1002
{
1000
PbThick
1002
}
  0
LINE
  5
5C7
330
1F
100
AcDbEntity
  8
THICK
100
AcDbLine
 10
-77.8729476928711
 20
-18.3106746673584
 30
0.0
 11
-77.5999984741211
 21
-18.31999969482422
 31
0.0
1001
DBPROPERTIES
1002
{
1000
PbThick
1002
}
  0
LINE
  5
5C8
330
1F
100
AcDbEntity
  8
THICK
100
AcDbLine
 10
-71.86798569861482
 20
-18.31999999999999
 30
0.0
 11
-71.86690817260467
 21
-18.31999999999999
 31
0.0
1001
DBPROPERTIES
1002
{
1000
PbThick
1002
}
  0
LINE
  5
5C9
330
1F
100
AcDbEntity
  8
HIDDEN
100
AcDbLine
 10
-71.8921189118076
 20
-18.31999999999999
 30
0.0
 11
-71.88783096178894
 21
-18.31999999999999
 31
0.0
1001
DBPROPERTIES
1002
{
1000
PbHidd
1002
}
  0
LINE
  5
5CA
330
1F
100
AcDbEntity
  8
THICK
100
AcDbLine
 10
-77.59999999999907
 20
-18.31999999999999
 30
0.0
 11
-71.8921189118076
 21
-18.31999999999999
 31
0.0
1001
DBPROPERTIES
1002
{
1000
PbThick
1002
}
  0
LINE
  5
5CB
330
1F
100
AcDbEntity
  8
THICK
100
AcDbLine
 10
-22.99740219116211
 20
-18.31999969482422
 30
0.0
 11
-58.31507873535156
 21
-18.31999969482422
 31
0.0
1001
DBPROPERTIES
1002
{
1000
PbThick
1002
}
  0
LINE
  5
5CC
330
1F
100
AcDbEntity
  8
HIDDEN
100
AcDbLine
 10
-58.31507873535156
 20
-18.31999969482422
 30
0.0
 11
-71.86672973632812
 21
-18.31999969482422
 31
0.0
1001
DBPROPERTIES
1002
{
1000
PbHidd
1002
}
  0
LINE
  5
5CD
330
1F
100
AcDbEntity
  8
THICK
100
AcDbLine
 10
-20.68301258350467
 20
-10.31999999999999
 30
0.0
 11
-71.74212821219717
 21
-10.31999999999999
 31
0.0
1001
DBPROPERTIES
1002
{
1000
PbThick
1002
}
  0
ARC
  5
5CE
330
1F
100
AcDbEntity
  8
THICK
100
AcDbCircle
 10
-38.75
 20
-171.6
 30
0.0
 40
4.0
100
AcDbArc
 50
260.1206793498661
 51
270.0000187239684
1001
DBPROPERTIES
1002
{
1000
PbThick
1002
}
  0
LINE
  5
5CF
330
1F
100
AcDbEntity
  8
HIDDEN
100
AcDbLine
 10
-77.42890669539848
 20
-10.31999999999999
 30
0.0
 11
-77.6
 21
-10.31999999999999
 31
0.0
1001
DBPROPERTIES
1002
{
1000
PbHidd
1002
}
  0
LINE
  5
5D0
330
1F
100
AcDbEntity
  8
THICK
100
AcDbLine
 10
-77.5999984741211
 20
-10.31999969482422
 30
0.0
 11
-77.8729476928711
 21
-10.32932472229004
 31
0.0
1001
DBPROPERTIES
1002
{
1000
PbThick
1002
}
  0
LINE
  5
5D1
330
1F
100
AcDbEntity
  8
THICK
100
AcDbLine
 10
-77.8729476928711
 20
-10.32932472229004
 30
0.0
 11
-78.14466094970703
 21
-10.35725593566895
 31
0.0
1001
DBPROPERTIES
1002
{
1000
PbThick
1002
}
  0
LINE
  5
5D2
330
1F
100
AcDbEntity
  8
THICK
100
AcDbLine
 10
-78.14466094970703
 20
-10.35725593566895
 30
0.0
 11
-78.41382598876953
 21
-10.40366363525391
 31
0.0
1001
DBPROPERTIES
1002
{
1000
PbThick
1002
}
  0
LINE
  5
5D3
330
1F
100
AcDbEntity
  8
THICK
100
AcDbLine
 10
-78.41382598876953
 20
-10.40366363525391
 30
0.0
 11
-78.67918395996094
 21
-10.46833038330078
 31
0.0
1001
DBPROPERTIES
1002
{
1000
PbThick
1002
}
  0
LINE
  5
5D4
330
1F
100
AcDbEntity
  8
THICK
100
AcDbLine
 10
-78.67918395996094
 20
-10.46833038330078
 30
0.0
 11
-78.93952178955078
 21
-10.55095672607422
 31
0.0
1001
DBPROPERTIES
1002
{
1000
PbThick
1002
}
  0
LINE
  5
5D5
330
1F
100
AcDbEntity
  8
THICK
100
AcDbLine
 10
-78.93952178955078
 20
-10.55095672607422
 30
0.0
 11
-79.193603515625
 21
-10.65115451812744
 31
0.0
1001
DBPROPERTIES
1002
{
1000
PbThick
1002
}
  0
LINE
  5
5D6
330
1F
100
AcDbEntity
  8
THICK
100
AcDbLine
 10
-79.193603515625
 20
-10.65115451812744
 30
0.0
 11
-79.44026184082031
 21
-10.76845932006836
 31
0.0
1001
DBPROPERTIES
1002
{
1000
PbThick
1002
}
  0
LINE
  5
5D7
330
1F
100
AcDbEntity
  8
THICK
100
AcDbLine
 10
-79.44026184082031
 20
-10.76845932006836
 30
0.0
 11
-79.67833709716797
 21
-10.90232276916504
 31
0.0
1001
DBPROPERTIES
1002
{
1000
PbThick
1002
}
  0
LINE
  5
5D8
330
1F
100
AcDbEntity
  8
THICK
100
AcDbLine
 10
-79.67833709716797
 20
-10.90232276916504
 30
0.0
 11
-79.90672302246094
 21
-11.05212020874023
 31
0.0
1001
DBPROPERTIES
1002
{
1000
PbThick
1002
}
  0
LINE
  5
5D9
330
1F
100
AcDbEntity
  8
THICK
100
AcDbLine
 10
-79.90672302246094
 20
-11.05212020874023
 30
0.0
 11
-80.12435150146484
 21
-11.21715450286865
 31
0.0
1001
DBPROPERTIES
1002
{
1000
PbThick
1002
}
  0
LINE
  5
5DA
330
1F
100
AcDbEntity
  8
THICK
100
AcDbLine
 10
-80.12435150146484
 20
-11.21715450286865
 30
0.0
 11
-80.33021545410156
 21
-11.39665603637695
 31
0.0
1001
DBPROPERTIES
1002
{
1000
PbThick
1002
}
  0
LINE
  5
5DB
330
1F
100
AcDbEntity
  8
THICK
100
AcDbLine
 10
-80.33021545410156
 20
-11.39665603637695
 30
0.0
 11
-80.52334594726562
 21
-11.58978748321533
 31
0.0
1001
DBPROPERTIES
1002
{
1000
PbThick
1002
}
  0
LINE
  5
5DC
330
1F
100
AcDbEntity
  8
THICK
100
AcDbLine
 10
-80.52334594726562
 20
-11.58978748321533
 30
0.0
 11
-80.70284271240234
 21
-11.7956485748291
 31
0.0
1001
DBPROPERTIES
1002
{
1000
PbThick
1002
}
  0
LINE
  5
5DD
330
1F
100
AcDbEntity
  8
THICK
100
AcDbLine
 10
-80.70284271240234
 20
-11.7956485748291
 30
0.0
 11
-80.86788177490234
 21
-12.01327896118164
 31
0.0
1001
DBPROPERTIES
1002
{
1000
PbThick
1002
}
  0
LINE
  5
5DE
330
1F
100
AcDbEntity
  8
THICK
100
AcDbLine
 10
-80.86788177490234
 20
-12.01327896118164
 30
0.0
 11
-81.0176773071289
 21
-12.24166393280029
 31
0.0
1001
DBPROPERTIES
1002
{
1000
PbThick
1002
}
  0
LINE
  5
5DF
330
1F
100
AcDbEntity
  8
THICK
100
AcDbLine
 10
-81.0176773071289
 20
-12.24166393280029
 30
0.0
 11
-81.15154266357422
 21
-12.47974014282227
 31
0.0
1001
DBPROPERTIES
1002
{
1000
PbThick
1002
}
  0
LINE
  5
5E0
330
1F
100
AcDbEntity
  8
THICK
100
AcDbLine
 10
-81.15154266357422
 20
-12.47974014282227
 30
0.0
 11
-81.26884460449219
 21
-12.72639560699463
 31
0.0
1001
DBPROPERTIES
1002
{
1000
PbThick
1002
}
  0
LINE
  5
5E1
330
1F
100
AcDbEntity
  8
THICK
100
AcDbLine
 10
-81.26884460449219
 20
-12.72639560699463
 30
0.0
 11
-81.3690414428711
 21
-12.98048114776611
 31
0.0
1001
DBPROPERTIES
1002
{
1000
PbThick
1002
}
  0
LINE
  5
5E2
330
1F
100
AcDbEntity
  8
THICK
100
AcDbLine
 10
-81.3690414428711
 20
-12.98048114776611
 30
0.0
 11
-81.45166778564453
 21
-13.24081325531006
 31
0.0
1001
DBPROPERTIES
1002
{
1000
PbThick
1002
}
  0
LINE
  5
5E3
330
1F
100
AcDbEntity
  8
THICK
100
AcDbLine
 10
-81.45166778564453
 20
-13.24081325531006
 30
0.0
 11
-81.5163345336914
 21
-13.50617599487305
 31
0.0
1001
DBPROPERTIES
1002
{
1000
PbThick
1002
}
  0
LINE
  5
5E4
330
1F
100
AcDbEntity
  8
THICK
100
AcDbLine
 10
-81.5163345336914
 20
-13.50617599487305
 30
0.0
 11
-81.562744140625
 21
-13.77533340454102
 31
0.0
1001
DBPROPERTIES
1002
{
1000
PbThick
1002
}
  0
LINE
  5
5E5
330
1F
100
AcDbEntity
  8
THICK
100
AcDbLine
 10
-81.562744140625
 20
-13.77533340454102
 30
0.0
 11
-81.5906753540039
 21
-14.04703044891357
 31
0.0
1001
DBPROPERTIES
1002
{
1000
PbThick
1002
}
  0
LINE
  5
5E6
330
1F
100
AcDbEntity
  8
THICK
100
AcDbLine
 10
-81.5906753540039
 20
-14.04703044891357
 30
0.0
 11
-81.5999984741211
 21
-14.31999969482422
 31
0.0
1001
DBPROPERTIES
1002
{
1000
PbThick
1002
}
  0
LINE
  5
5E7
330
1F
100
AcDbEntity
  8
HIDDEN
100
AcDbLine
 10
-73.5999984741211
 20
-14.31999969482422
 30
0.0
 11
-73.60932159423828
 21
-14.04703044891357
 31
0.0
1001
DBPROPERTIES
1002
{
1000
PbHidd
1002
}
  0
LINE
  5
5E8
330
1F
100
AcDbEntity
  8
HIDDEN
100
AcDbLine
 10
-73.60932159423828
 20
-14.04703044891357
 30
0.0
 11
-73.63725280761719
 21
-13.77533340454102
 31
0.0
1001
DBPROPERTIES
1002
{
1000
PbHidd
1002
}
  0
LINE
  5
5E9
330
1F
100
AcDbEntity
  8
HIDDEN
100
AcDbLine
 10
-73.63725280761719
 20
-13.77533340454102
 30
0.0
 11
-73.68366241455078
 21
-13.50617599487305
 31
0.0
1001
DBPROPERTIES
1002
{
1000
PbHidd
1002
}
  0
LINE
  5
5EA
330
1F
100
AcDbEntity
  8
HIDDEN
100
AcDbLine
 10
-73.68366241455078
 20
-13.50617599487305
 30
0.0
 11
-73.74832916259766
 21
-13.24081325531006
 31
0.0
1001
DBPROPERTIES
1002
{
1000
PbHidd
1002
}
  0
LINE
  5
5EB
330
1F
100
AcDbEntity
  8
HIDDEN
100
AcDbLine
 10
-73.74832916259766
 20
-13.24081325531006
 30
0.0
 11
-73.8309555053711
 21
-12.98048114776611
 31
0.0
1001
DBPROPERTIES
1002
{
1000
PbHidd
1002
}
  0
LINE
  5
5EC
330
1F
100
AcDbEntity
  8
HIDDEN
100
AcDbLine
 10
-73.8309555053711
 20
-12.98048114776611
 30
0.0
 11
-73.93115234375
 21
-12.72639560699463
 31
0.0
1001
DBPROPERTIES
1002
{
1000
PbHidd
1002
}
  0
LINE
  5
5ED
330
1F
100
AcDbEntity
  8
HIDDEN
100
AcDbLine
 10
-73.93115234375
 20
-12.72639560699463
 30
0.0
 11
-74.0484619140625
 21
-12.47974014282227
 31
0.0
1001
DBPROPERTIES
1002
{
1000
PbHidd
1002
}
  0
LINE
  5
5EE
330
1F
100
AcDbEntity
  8
HIDDEN
100
AcDbLine
 10
-74.0484619140625
 20
-12.47974014282227
 30
0.0
 11
-74.18231964111328
 21
-12.24166393280029
 31
0.0
1001
DBPROPERTIES
1002
{
1000
PbHidd
1002
}
  0
LINE
  5
5EF
330
1F
100
AcDbEntity
  8
HIDDEN
100
AcDbLine
 10
-74.18231964111328
 20
-12.24166393280029
 30
0.0
 11
-74.33212280273438
 21
-12.01327896118164
 31
0.0
1001
DBPROPERTIES
1002
{
1000
PbHidd
1002
}
  0
LINE
  5
5F0
330
1F
100
AcDbEntity
  8
HIDDEN
100
AcDbLine
 10
-74.33212280273438
 20
-12.01327896118164
 30
0.0
 11
-74.49715423583984
 21
-11.7956485748291
 31
0.0
1001
DBPROPERTIES
1002
{
1000
PbHidd
1002
}
  0
LINE
  5
5F1
330
1F
100
AcDbEntity
  8
HIDDEN
100
AcDbLine
 10
-74.49715423583984
 20
-11.7956485748291
 30
0.0
 11
-74.6766586303711
 21
-11.58978748321533
 31
0.0
1001
DBPROPERTIES
1002
{
1000
PbHidd
1002
}
  0
LINE
  5
5F2
330
1F
100
AcDbEntity
  8
HIDDEN
100
AcDbLine
 10
-74.6766586303711
 20
-11.58978748321533
 30
0.0
 11
-74.86978912353516
 21
-11.39665603637695
 31
0.0
1001
DBPROPERTIES
1002
{
1000
PbHidd
1002
}
  0
LINE
  5
5F3
330
1F
100
AcDbEntity
  8
HIDDEN
100
AcDbLine
 10
-74.86978912353516
 20
-11.39665603637695
 30
0.0
 11
-75.07564544677734
 21
-11.21715450286865
 31
0.0
1001
DBPROPERTIES
1002
{
1000
PbHidd
1002
}
  0
LINE
  5
5F4
330
1F
100
AcDbEntity
  8
HIDDEN
100
AcDbLine
 10
-75.07564544677734
 20
-11.21715450286865
 30
0.0
 11
-75.29328155517578
 21
-11.05212020874023
 31
0.0
1001
DBPROPERTIES
1002
{
1000
PbHidd
1002
}
  0
LINE
  5
5F5
330
1F
100
AcDbEntity
  8
HIDDEN
100
AcDbLine
 10
-75.29328155517578
 20
-11.05212020874023
 30
0.0
 11
-75.52166748046875
 21
-10.90232276916504
 31
0.0
1001
DBPROPERTIES
1002
{
1000
PbHidd
1002
}
  0
LINE
  5
5F6
330
1F
100
AcDbEntity
  8
HIDDEN
100
AcDbLine
 10
-75.52166748046875
 20
-10.90232276916504
 30
0.0
 11
-75.7597427368164
 21
-10.76845932006836
 31
0.0
1001
DBPROPERTIES
1002
{
1000
PbHidd
1002
}
  0
LINE
  5
5F7
330
1F
100
AcDbEntity
  8
HIDDEN
100
AcDbLine
 10
-75.7597427368164
 20
-10.76845932006836
 30
0.0
 11
-76.00639343261719
 21
-10.65115451812744
 31
0.0
1001
DBPROPERTIES
1002
{
1000
PbHidd
1002
}
  0
LINE
  5
5F8
330
1F
100
AcDbEntity
  8
HIDDEN
100
AcDbLine
 10
-76.00639343261719
 20
-10.65115451812744
 30
0.0
 11
-76.26048278808594
 21
-10.55095672607422
 31
0.0
1001
DBPROPERTIES
1002
{
1000
PbHidd
1002
}
  0
LINE
  5
5F9
330
1F
100
AcDbEntity
  8
HIDDEN
100
AcDbLine
 10
-76.26048278808594
 20
-10.55095672607422
 30
0.0
 11
-76.52081298828125
 21
-10.46833038330078
 31
0.0
1001
DBPROPERTIES
1002
{
1000
PbHidd
1002
}
  0
LINE
  5
5FA
330
1F
100
AcDbEntity
  8
HIDDEN
100
AcDbLine
 10
-76.52081298828125
 20
-10.46833038330078
 30
0.0
 11
-76.78617858886719
 21
-10.40366363525391
 31
0.0
1001
DBPROPERTIES
1002
{
1000
PbHidd
1002
}
  0
LINE
  5
5FB
330
1F
100
AcDbEntity
  8
HIDDEN
100
AcDbLine
 10
-76.78617858886719
 20
-10.40366363525391
 30
0.0
 11
-77.05532836914062
 21
-10.35725593566895
 31
0.0
1001
DBPROPERTIES
1002
{
1000
PbHidd
1002
}
  0
LINE
  5
5FC
330
1F
100
AcDbEntity
  8
HIDDEN
100
AcDbLine
 10
-77.05532836914062
 20
-10.35725593566895
 30
0.0
 11
-77.32701110839844
 21
-10.32932472229004
 31
0.0
1001
DBPROPERTIES
1002
{
1000
PbHidd
1002
}
  0
LINE
  5
5FD
330
1F
100
AcDbEntity
  8
HIDDEN
100
AcDbLine
 10
-77.32701110839844
 20
-10.32932472229004
 30
0.0
 11
-77.5999984741211
 21
-10.31999969482422
 31
0.0
1001
DBPROPERTIES
1002
{
1000
PbHidd
1002
}
  0
LINE
  5
5FE
330
1F
100
AcDbEntity
  8
THICK
100
AcDbLine
 10
-71.74213562373095
 20
-10.31999999999999
 30
0.0
 11
-71.7460909171378
 21
-10.31999999999999
 31
0.0
1001
DBPROPERTIES
1002
{
1000
PbThick
1002
}
  0
LINE
  5
5FF
330
1F
100
AcDbEntity
  8
THICK
100
AcDbLine
 10
-71.76995555076276
 20
-10.31999999999999
 30
0.0
 11
-71.87167170934445
 21
-10.31999999999999
 31
0.0
1001
DBPROPERTIES
1002
{
1000
PbThick
1002
}
  0
LINE
  5
600
330
1F
100
AcDbEntity
  8
THICK
100
AcDbLine
 10
-71.89222878835122
 20
-10.31999999999999
 30
0.0
 11
-77.59999999999907
 21
-10.31999999999999
 31
0.0
1001
DBPROPERTIES
1002
{
1000
PbThick
1002
}
  0
LINE
  5
601
330
1F
100
AcDbEntity
  8
THICK
100
AcDbLine
 10
-71.89213562011719
 20
-18.31999969482422
 30
0.0
 11
-71.30865478515625
 21
-18.3483829498291
 31
0.0
1001
DBPROPERTIES
1002
{
1000
PbThick
1002
}
  0
LINE
  5
602
330
1F
100
AcDbEntity
  8
THICK
100
AcDbLine
 10
-71.30865478515625
 20
-18.3483829498291
 30
0.0
 11
-70.71817779541016
 21
-18.43503761291504
 31
0.0
1001
DBPROPERTIES
1002
{
1000
PbThick
1002
}
  0
LINE
  5
603
330
1F
100
AcDbEntity
  8
THICK
100
AcDbLine
 10
-70.71817779541016
 20
-18.43503761291504
 30
0.0
 11
-70.0967788696289
 21
-18.58969116210938
 31
0.0
1001
DBPROPERTIES
1002
{
1000
PbThick
1002
}
  0
LINE
  5
604
330
1F
100
AcDbEntity
  8
THICK
100
AcDbLine
 10
-70.0967788696289
 20
-18.58969116210938
 30
0.0
 11
-69.45581817626953
 21
-18.81851387023926
 31
0.0
1001
DBPROPERTIES
1002
{
1000
PbThick
1002
}
  0
LINE
  5
605
330
1F
100
AcDbEntity
  8
THICK
100
AcDbLine
 10
-69.45581817626953
 20
-18.81851387023926
 30
0.0
 11
-69.10285186767578
 21
-18.97524070739746
 31
0.0
1001
DBPROPERTIES
1002
{
1000
PbThick
1002
}
  0
LINE
  5
606
330
1F
100
AcDbEntity
  8
THICK
100
AcDbLine
 10
-69.10285186767578
 20
-18.97524070739746
 30
0.0
 11
-68.74313354492188
 21
-19.15799903869629
 31
0.0
1001
DBPROPERTIES
1002
{
1000
PbThick
1002
}
  0
LINE
  5
607
330
1F
100
AcDbEntity
  8
THICK
100
AcDbLine
 10
-68.74313354492188
 20
-19.15799903869629
 30
0.0
 11
-68.37623596191406
 21
-19.36898422241211
 31
0.0
1001
DBPROPERTIES
1002
{
1000
PbThick
1002
}
  0
LINE
  5
608
330
1F
100
AcDbEntity
  8
THICK
100
AcDbLine
 10
-68.37623596191406
 20
-19.36898422241211
 30
0.0
 11
-68.00276947021484
 21
-19.61008071899414
 31
0.0
1001
DBPROPERTIES
1002
{
1000
PbThick
1002
}
  0
LINE
  5
609
330
1F
100
AcDbEntity
  8
THICK
100
AcDbLine
 10
-68.00276947021484
 20
-19.61008071899414
 30
0.0
 11
-67.3509292602539
 21
-20.09784507751465
 31
0.0
1001
DBPROPERTIES
1002
{
1000
PbThick
1002
}
  0
LINE
  5
60A
330
1F
100
AcDbEntity
  8
THICK
100
AcDbLine
 10
-67.3509292602539
 20
-20.09784507751465
 30
0.0
 11
-66.79283905029297
 21
-20.58812522888184
 31
0.0
1001
DBPROPERTIES
1002
{
1000
PbThick
1002
}
  0
LINE
  5
60B
330
1F
100
AcDbEntity
  8
THICK
100
AcDbLine
 10
-66.79283905029297
 20
-20.58812522888184
 30
0.0
 11
-66.23085021972656
 21
-21.15662956237793
 31
0.0
1001
DBPROPERTIES
1002
{
1000
PbThick
1002
}
  0
LINE
  5
60C
330
1F
100
AcDbEntity
  8
THICK
100
AcDbLine
 10
-66.23085021972656
 20
-21.15662956237793
 30
0.0
 11
-65.63709259033203
 21
-21.84926223754883
 31
0.0
1001
DBPROPERTIES
1002
{
1000
PbThick
1002
}
  0
LINE
  5
60D
330
1F
100
AcDbEntity
  8
THICK
100
AcDbLine
 10
-65.63709259033203
 20
-21.84926223754883
 30
0.0
 11
-65.05355072021484
 21
-22.63715553283691
 31
0.0
1001
DBPROPERTIES
1002
{
1000
PbThick
1002
}
  0
LINE
  5
60E
330
1F
100
AcDbEntity
  8
THICK
100
AcDbLine
 10
-65.05355072021484
 20
-22.63715553283691
 30
0.0
 11
-64.48970794677734
 21
-23.52047920227051
 31
0.0
1001
DBPROPERTIES
1002
{
1000
PbThick
1002
}
  0
LINE
  5
60F
330
1F
100
AcDbEntity
  8
THICK
100
AcDbLine
 10
-64.48970794677734
 20
-23.52047920227051
 30
0.0
 11
-63.9552116394043
 21
-24.49743461608887
 31
0.0
1001
DBPROPERTIES
1002
{
1000
PbThick
1002
}
  0
LINE
  5
610
330
1F
100
AcDbEntity
  8
THICK
100
AcDbLine
 10
-63.9552116394043
 20
-24.49743461608887
 30
0.0
 11
-63.64292526245117
 21
-25.14823150634766
 31
0.0
1001
DBPROPERTIES
1002
{
1000
PbThick
1002
}
  0
LINE
  5
611
330
1F
100
AcDbEntity
  8
THICK
100
AcDbLine
 10
-63.64292526245117
 20
-25.14823150634766
 30
0.0
 11
-63.34798812866211
 21
-25.8318042755127
 31
0.0
1001
DBPROPERTIES
1002
{
1000
PbThick
1002
}
  0
LINE
  5
612
330
1F
100
AcDbEntity
  8
THICK
100
AcDbLine
 10
-63.34798812866211
 20
-25.8318042755127
 30
0.0
 11
-62.9926643371582
 21
-26.77045822143555
 31
0.0
1001
DBPROPERTIES
1002
{
1000
PbThick
1002
}
  0
LINE
  5
613
330
1F
100
AcDbEntity
  8
THICK
100
AcDbLine
 10
-62.9926643371582
 20
-26.77045822143555
 30
0.0
 11
-62.67532348632812
 21
-27.75633811950684
 31
0.0
1001
DBPROPERTIES
1002
{
1000
PbThick
1002
}
  0
LINE
  5
614
330
1F
100
AcDbEntity
  8
THICK
100
AcDbLine
 10
-62.67532348632812
 20
-27.75633811950684
 30
0.0
 11
-62.39987182617188
 21
-28.78404235839844
 31
0.0
1001
DBPROPERTIES
1002
{
1000
PbThick
1002
}
  0
LINE
  5
615
330
1F
100
AcDbEntity
  8
THICK
100
AcDbLine
 10
-62.39987182617188
 20
-28.78404235839844
 30
0.0
 11
-62.16973876953125
 21
-29.8474063873291
 31
0.0
1001
DBPROPERTIES
1002
{
1000
PbThick
1002
}
  0
LINE
  5
616
330
1F
100
AcDbEntity
  8
THICK
100
AcDbLine
 10
-62.16973876953125
 20
-29.8474063873291
 30
0.0
 11
-61.98778533935547
 21
-30.93971824645996
 31
0.0
1001
DBPROPERTIES
1002
{
1000
PbThick
1002
}
  0
LINE
  5
617
330
1F
100
AcDbEntity
  8
THICK
100
AcDbLine
 10
-61.98778533935547
 20
-30.93971824645996
 30
0.0
 11
-61.85621643066406
 21
-32.05409240722656
 31
0.0
1001
DBPROPERTIES
1002
{
1000
PbThick
1002
}
  0
LINE
  5
618
330
1F
100
AcDbEntity
  8
THICK
100
AcDbLine
 10
-61.85621643066406
 20
-32.05409240722656
 30
0.0
 11
-61.77663421630859
 21
-33.18331146240234
 31
0.0
1001
DBPROPERTIES
1002
{
1000
PbThick
1002
}
  0
LINE
  5
619
330
1F
100
AcDbEntity
  8
THICK
100
AcDbLine
 10
-61.77663421630859
 20
-33.18331146240234
 30
0.0
 11
-61.75
 21
-34.31999969482422
 31
0.0
1001
DBPROPERTIES
1002
{
1000
PbThick
1002
}
  0
ARC
  5
61A
330
1F
100
AcDbEntity
  8
THICK
100
AcDbCircle
 10
-71.74999999999999
 20
-14.31999999999999
 30
0.0
 40
4.0
100
AcDbArc
 50
87.66036541539445
 51
89.99998127603165
1001
DBPROPERTIES
1002
{
1000
PbThick
1002
}
  0
LINE
  5
61B
330
1F
100
AcDbEntity
  8
HIDDEN
100
AcDbLine
 10
-71.58670806884766
 20
-10.32333469390869
 30
0.0
 11
-71.54167175292969
 21
-10.32542896270752
 31
0.0
1001
DBPROPERTIES
1002
{
1000
PbHidd
1002
}
  0
LINE
  5
61C
330
1F
100
AcDbEntity
  8
THICK
100
AcDbLine
 10
-53.75
 20
-34.31999969482422
 30
0.0
 11
-53.75
 21
-36.42250061035156
 31
0.0
1001
DBPROPERTIES
1002
{
1000
PbThick
1002
}
  0
LINE
  5
61D
330
1F
100
AcDbEntity
  8
HIDDEN
100
AcDbLine
 10
-53.75
 20
-36.42250061035156
 30
0.0
 11
-53.75
 21
-39.0
 31
0.0
1001
DBPROPERTIES
1002
{
1000
PbHidd
1002
}
  0
LINE
  5
61E
330
1F
100
AcDbEntity
  8
THICK
100
AcDbLine
 10
-53.75
 20
-39.0
 30
0.0
 11
-53.75
 21
-55.59816741943359
 31
0.0
1001
DBPROPERTIES
1002
{
1000
PbThick
1002
}
  0
LINE
  5
61F
330
1F
100
AcDbEntity
  8
HIDDEN
100
AcDbLine
 10
-53.75
 20
-55.59816741943359
 30
0.0
 11
-53.75
 21
-56.95000076293945
 31
0.0
1001
DBPROPERTIES
1002
{
1000
PbHidd
1002
}
  0
LINE
  5
620
330
1F
100
AcDbEntity
  8
THICK
100
AcDbLine
 10
-53.75
 20
-56.95000076293945
 30
0.0
 11
-53.75
 21
-75.0981674194336
 31
0.0
1001
DBPROPERTIES
1002
{
1000
PbThick
1002
}
  0
LINE
  5
621
330
1F
100
AcDbEntity
  8
HIDDEN
100
AcDbLine
 10
-53.75
 20
-75.0981674194336
 30
0.0
 11
-53.75
 21
-76.44999694824219
 31
0.0
1001
DBPROPERTIES
1002
{
1000
PbHidd
1002
}
  0
LINE
  5
622
330
1F
100
AcDbEntity
  8
THICK
100
AcDbLine
 10
-53.75
 20
-76.44999694824219
 30
0.0
 11
-53.75
 21
-94.5981674194336
 31
0.0
1001
DBPROPERTIES
1002
{
1000
PbThick
1002
}
  0
LINE
  5
623
330
1F
100
AcDbEntity
  8
HIDDEN
100
AcDbLine
 10
-53.75
 20
-94.5981674194336
 30
0.0
 11
-53.75
 21
-95.94999694824219
 31
0.0
1001
DBPROPERTIES
1002
{
1000
PbHidd
1002
}
  0
LINE
  5
624
330
1F
100
AcDbEntity
  8
THICK
100
AcDbLine
 10
-53.75
 20
-95.94999694824219
 30
0.0
 11
-53.75
 21
-114.0981674194336
 31
0.0
1001
DBPROPERTIES
1002
{
1000
PbThick
1002
}
  0
LINE
  5
625
330
1F
100
AcDbEntity
  8
HIDDEN
100
AcDbLine
 10
-53.75
 20
-114.0981674194336
 30
0.0
 11
-53.75
 21
-115.4499969482422
 31
0.0
1001
DBPROPERTIES
1002
{
1000
PbHidd
1002
}
  0
LINE
  5
626
330
1F
100
AcDbEntity
  8
THICK
100
AcDbLine
 10
-53.75
 20
-115.4499969482422
 30
0.0
 11
-53.75
 21
-133.5981597900391
 31
0.0
1001
DBPROPERTIES
1002
{
1000
PbThick
1002
}
  0
LINE
  5
627
330
1F
100
AcDbEntity
  8
HIDDEN
100
AcDbLine
 10
-53.75
 20
-133.5981597900391
 30
0.0
 11
-53.75
 21
-134.9499969482422
 31
0.0
1001
DBPROPERTIES
1002
{
1000
PbHidd
1002
}
  0
LINE
  5
628
330
1F
100
AcDbEntity
  8
THICK
100
AcDbLine
 10
-53.75
 20
-134.9499969482422
 30
0.0
 11
-53.75
 21
-151.6000061035156
 31
0.0
1001
DBPROPERTIES
1002
{
1000
PbThick
1002
}
  0
LINE
  5
629
330
1F
100
AcDbEntity
  8
HIDDEN
100
AcDbLine
 10
-52.75
 20
-36.01058578491211
 30
0.0
 11
-52.75
 21
-39.0
 31
0.0
1001
DBPROPERTIES
1002
{
1000
PbHidd
1002
}
  0
LINE
  5
62A
330
1F
100
AcDbEntity
  8
HIDDEN
100
AcDbLine
 10
-52.75
 20
-54.33373641967773
 30
0.0
 11
-52.75
 21
-56.95000076293945
 31
0.0
1001
DBPROPERTIES
1002
{
1000
PbHidd
1002
}
  0
LINE
  5
62B
330
1F
100
AcDbEntity
  8
HIDDEN
100
AcDbLine
 10
-52.75
 20
-73.833740234375
 30
0.0
 11
-52.75
 21
-76.44999694824219
 31
0.0
1001
DBPROPERTIES
1002
{
1000
PbHidd
1002
}
  0
LINE
  5
62C
330
1F
100
AcDbEntity
  8
HIDDEN
100
AcDbLine
 10
-52.75
 20
-93.333740234375
 30
0.0
 11
-52.75
 21
-95.94999694824219
 31
0.0
1001
DBPROPERTIES
1002
{
1000
PbHidd
1002
}
  0
LINE
  5
62D
330
1F
100
AcDbEntity
  8
HIDDEN
100
AcDbLine
 10
-52.75
 20
-112.833740234375
 30
0.0
 11
-52.75
 21
-115.4499969482422
 31
0.0
1001
DBPROPERTIES
1002
{
1000
PbHidd
1002
}
  0
LINE
  5
62E
330
1F
100
AcDbEntity
  8
HIDDEN
100
AcDbLine
 10
-52.75
 20
-132.333740234375
 30
0.0
 11
-52.75
 21
-134.9499969482422
 31
0.0
1001
DBPROPERTIES
1002
{
1000
PbHidd
1002
}
  0
LINE
  5
62F
330
1F
100
AcDbEntity
  8
THICK
100
AcDbLine
 10
-164.0
 20
-140.3999938964844
 30
0.0
 11
-164.0
 21
-134.9499969482422
 31
0.0
1001
DBPROPERTIES
1002
{
1000
PbThick
1002
}
  0
LINE
  5
630
330
1F
100
AcDbEntity
  8
THICK
100
AcDbLine
 10
188.6000042093211
 20
-134.9500016837284
 30
0.0
 11
168.1000052616514
 21
-126.7500021046606
 31
0.0
1001
DBPROPERTIES
1002
{
1000
PbThick
1002
}
  0
LINE
  5
631
330
1F
100
AcDbEntity
  8
THICK
100
AcDbLine
 10
188.6000042093211
 20
-115.4500016837284
 30
0.0
 11
168.1000052616514
 21
-107.2500021046606
 31
0.0
1001
DBPROPERTIES
1002
{
1000
PbThick
1002
}
  0
LINE
  5
632
330
1F
100
AcDbEntity
  8
THICK
100
AcDbLine
 10
-164.0
 20
-126.75
 30
0.0
 11
-164.0
 21
-115.4499969482422
 31
0.0
1001
DBPROPERTIES
1002
{
1000
PbThick
1002
}
  0
LINE
  5
633
330
1F
100
AcDbEntity
  8
THICK
100
AcDbLine
 10
188.6000042093211
 20
-95.95000168372843
 30
0.0
 11
168.1000052616514
 21
-87.75000210466055
 31
0.0
1001
DBPROPERTIES
1002
{
1000
PbThick
1002
}
  0
LINE
  5
634
330
1F
100
AcDbEntity
  8
THICK
100
AcDbLine
 10
-164.0
 20
-107.25
 30
0.0
 11
-164.0
 21
-95.94999694824219
 31
0.0
1001
DBPROPERTIES
1002
{
1000
PbThick
1002
}
  0
LINE
  5
635
330
1F
100
AcDbEntity
  8
THICK
100
AcDbLine
 10
188.6000042093211
 20
-76.45000168372843
 30
0.0
 11
168.1000052616514
 21
-68.25000210466055
 31
0.0
1001
DBPROPERTIES
1002
{
1000
PbThick
1002
}
  0
LINE
  5
636
330
1F
100
AcDbEntity
  8
THICK
100
AcDbLine
 10
-164.0
 20
-87.75
 30
0.0
 11
-164.0
 21
-76.44999694824219
 31
0.0
1001
DBPROPERTIES
1002
{
1000
PbThick
1002
}
  0
LINE
  5
637
330
1F
100
AcDbEntity
  8
THICK
100
AcDbLine
 10
188.600005524734
 20
-56.95000220989357
 30
0.0
 11
168.1000052616514
 21
-48.75000210466055
 31
0.0
1001
DBPROPERTIES
1002
{
1000
PbThick
1002
}
  0
LINE
  5
638
330
1F
100
AcDbEntity
  8
THICK
100
AcDbLine
 10
-164.0
 20
-68.25
 30
0.0
 11
-164.0
 21
-56.95000076293945
 31
0.0
1001
DBPROPERTIES
1002
{
1000
PbThick
1002
}
  0
LINE
  5
639
330
1F
100
AcDbEntity
  8
THICK
100
AcDbLine
 10
205.0
 20
-38.99999999999999
 30
0.0
 11
73.1999970750981
 21
-21.82499406740862
 31
0.0
1001
DBPROPERTIES
1002
{
1000
PbThick
1002
}
  0
LINE
  5
63A
330
1F
100
AcDbEntity
  8
THICK
100
AcDbLine
 10
73.19999694824219
 20
-20.26499366760254
 30
0.0
 11
73.19999694824219
 21
-21.82499504089355
 31
0.0
1001
DBPROPERTIES
1002
{
1000
PbThick
1002
}
  0
LINE
  5
63B
330
1F
100
AcDbEntity
  8
THICK
100
AcDbLine
 10
52.69999985257215
 20
-20.26499419320335
 30
0.0
 11
41.0
 21
0.0
 31
0.0
1001
DBPROPERTIES
1002
{
1000
PbThick
1002
}
  0
LINE
  5
63C
330
1F
100
AcDbEntity
  8
THICK
100
AcDbLine
 10
-164.0
 20
-48.75
 30
0.0
 11
-164.0
 21
-39.0
 31
0.0
1001
DBPROPERTIES
1002
{
1000
PbThick
1002
}
  0
LINE
  5
63D
330
1F
100
AcDbEntity
  8
THICK
100
AcDbLine
 10
-172.1999969482422
 20
-156.0
 30
0.0
 11
-172.1999969482422
 21
-145.3999938964844
 31
0.0
1001
DBPROPERTIES
1002
{
1000
PbThick
1002
}
  0
LINE
  5
63E
330
1F
100
AcDbEntity
  8
THICK
100
AcDbLine
 10
-99.5
 20
-216.1999969482422
 30
0.0
 11
-99.5
 21
-156.0
 31
0.0
1001
DBPROPERTIES
1002
{
1000
PbThick
1002
}
  0
LINE
  5
63F
330
1F
100
AcDbEntity
  8
THICK
100
AcDbLine
 10
-99.5
 20
-228.3000030517578
 30
0.0
 11
-99.5
 21
-224.8000030517578
 31
0.0
1001
DBPROPERTIES
1002
{
1000
PbThick
1002
}
  0
LINE
  5
640
330
1F
100
AcDbEntity
  8
THICK
100
AcDbLine
 10
-99.5
 20
-242.0
 30
0.0
 11
-99.5
 21
-236.8999938964844
 31
0.0
1001
DBPROPERTIES
1002
{
1000
PbThick
1002
}
  0
ENDSEC
  0
SECTION
  2
OBJECTS
  0
DICTIONARY
  5
C
330
0
100
AcDbDictionary
  3
ACAD_GROUP
350
D
  3
ACAD_LAYOUT
350
1A
  3
ACAD_MATERIAL
350
43
  3
ACAD_MLEADERSTYLE
350
6B
  3
ACAD_MLINESTYLE
350
17
  3
ACAD_PLOTSETTINGS
350
19
  3
ACAD_SCALELIST
350
47
  3
ACAD_VISUALSTYLE
350
2A
  3
ACDBVARIABLEDICTIONARY
350
641
1001
ACAD
1000
TREAT_AS_HARD
1070
     0
  0
DICTIONARY
  5
D
102
{ACAD_REACTORS
330
C
102
}
330
C
100
AcDbDictionary
1001
ACAD
1000
TREAT_AS_HARD
1070
     0
  0
DICTIONARY
  5
1A
102
{ACAD_REACTORS
330
C
102
}
330
C
100
AcDbDictionary
1001
ACAD
1000
TREAT_AS_HARD
1070
     0
  0
DICTIONARY
  5
43
102
{ACAD_REACTORS
330
C
102
}
330
C
100
AcDbDictionary
  3
BYBLOCK
350
45
  3
BYLAYER
350
44
  3
GLOBAL
350
46
1001
ACAD
1000
TREAT_AS_HARD
1070
     0
  0
DICTIONARY
  5
6B
102
{ACAD_REACTORS
330
C
102
}
330
C
100
AcDbDictionary
  3
STANDARD
350
6C
1001
ACAD
1000
TREAT_AS_HARD
1070
     0
  0
DICTIONARY
  5
17
102
{ACAD_REACTORS
330
C
102
}
330
C
100
AcDbDictionary
  3
STANDARD
350
18
1001
ACAD
1000
TREAT_AS_HARD
1070
     0
  0
DICTIONARY
  5
19
102
{ACAD_REACTORS
330
C
102
}
330
C
100
AcDbDictionary
1001
ACAD
1000
TREAT_AS_HARD
1070
     0
  0
DICTIONARY
  5
47
102
{ACAD_REACTORS
330
C
102
}
330
C
100
AcDbDictionary
  3
A0
350
48
  3
A1
350
49
  3
A2
350
4A
  3
A3
350
4B
  3
A4
350
4C
  3
A5
350
4D
  3
A6
350
4E
  3
A7
350
4F
  3
A8
350
50
  3
A9
350
51
  3
B0
350
52
  3
B1
350
53
  3
B2
350
54
  3
B3
350
55
  3
B4
350
56
  3
B5
350
57
  3
B6
350
58
  3
B7
350
59
  3
B8
350
5A
  3
B9
350
5B
  3
C0
350
5C
  3
C1
350
5D
  3
C2
350
5E
  3
C3
350
5F
  3
C4
350
60
  3
C5
350
61
  3
C6
350
62
  3
C7
350
63
  3
C8
350
64
  3
C9
350
65
  3
D0
350
66
  3
D1
350
67
  3
D2
350
68
1001
ACAD
1000
TREAT_AS_HARD
1070
     0
  0
DICTIONARY
  5
2A
102
{ACAD_REACTORS
330
C
102
}
330
C
100
AcDbDictionary
  3
2DWIREFRAME
350
2F
  3
BASIC
350
32
  3
BRIGHTEN
350
36
  3
COLORCHANGE
350
3A
  3
CONCEPTUAL
350
34
  3
DIM
350
35
  3
EDGECOLOROFF
350
3D
  3
FACEPATTERN
350
39
  3
FLAT
350
2B
  3
FLATWITHEDGES
350
2C
  3
GOURAUD
350
2D
  3
GOURAUDWITHEDGES
350
2E
  3
HIDDEN
350
31
  3
JITTEROFF
350
3B
  3
LINEPATTERN
350
38
  3
OVERHANGOFF
350
3C
  3
REALISTIC
350
33
  3
SHADED
350
42
  3
SHADED_WITH_EDGES
350
41
  3
SHADES_OF_GRAY
350
3E
  3
SKETCHY
350
3F
  3
THICKEN
350
37
  3
WIREFRAME
350
30
  3
X-RAY
350
40
1001
ACAD
1000
TREAT_AS_HARD
1070
     0
  0
DICTIONARY
  5
641
102
{ACAD_REACTORS
330
C
102
}
330
C
100
AcDbDictionary
  3
CANNOSCALE
350
64C
  3
CENTEREXE
350
648
  3
CENTERLTYPEFILE
350
649
  3
CMLEADERSTYLE
350
643
  3
CTABLESTYLE
350
642
  3
DIMASSOC
350
64A
  3
HIDETEXT
350
64B
  3
MSLTSCALE
350
64D
  3
PSOLHEIGHT
350
645
  3
PSOLWIDTH
350
644
1001
ACAD
1000
TREAT_AS_HARD
1070
     0
  0
MATERIAL
  5
45
102
{ACAD_REACTORS
330
43
102
}
102
{ACAD_XDICTIONARY
360
650
102
}
330
43
100
AcDbMaterial
  1
BYBLOCK
  0
MATERIAL
  5
44
102
{ACAD_REACTORS
330
43
102
}
102
{ACAD_XDICTIONARY
360
64E
102
}
330
43
100
AcDbMaterial
  1
BYLAYER
  0
MATERIAL
  5
46
102
{ACAD_REACTORS
330
43
102
}
102
{ACAD_XDICTIONARY
360
652
102
}
330
43
100
AcDbMaterial
  1
GLOBAL
  0
ACAD_PROXY_OBJECT
  5
6C
102
{ACAD_REACTORS
330
6B
102
}
330
6B
100
AcDbZombieObject
 90
      499
 91
      505
 93
      610
310
40901902A4063FBFFFFFE0000000000000020400000000000020404214DD185B99185C990000000000000104090141901A00000000000004100000000000000041025764000000000000039000
340
14
340
0
340
11
340
0
 94
        0
1001
ACAD_MLEADERVER
1070
     2
  0
MLINESTYLE
  5
18
102
{ACAD_REACTORS
330
17
102
}
330
17
100
AcDbMlineStyle
  2
Standard
 70
     0
  3

 62
   256
 51
90.0
 52
90.0
 71
     2
 49
0.5
 62
   256
  6
BYLAYER
 49
-0.5
 62
   256
  6
BYLAYER
  0
ACAD_PROXY_OBJECT
  5
48
102
{ACAD_REACTORS
330
47
102
}
330
47
100
AcDbZombieObject
 90
      499
 91
      503
 93
       41
310
903313A31580
  0
ACAD_PROXY_OBJECT
  5
49
102
{ACAD_REACTORS
330
47
102
}
330
47
100
AcDbZombieObject
 90
      499
 91
      503
 93
      105
310
903313A324000000000000004000
  0
ACAD_PROXY_OBJECT
  5
4A
102
{ACAD_REACTORS
330
47
102
}
330
47
100
AcDbZombieObject
 90
      499
 91
      503
 93
      105
310
903313A344000000000000104000
  0
ACAD_PROXY_OBJECT
  5
4B
102
{ACAD_REACTORS
330
47
102
}
330
47
100
AcDbZombieObject
 90
      499
 91
      503
 93
      105
310
903313A354000000000000144000
  0
ACAD_PROXY_OBJECT
  5
4C
102
{ACAD_REACTORS
330
47
102
}
330
47
100
AcDbZombieObject
 90
      499
 91
      503
 93
      105
310
903313A384000000000000204000
  0
ACAD_PROXY_OBJECT
  5
4D
102
{ACAD_REACTORS
330
47
102
}
330
47
100
AcDbZombieObject
 90
      499
 91
      503
 93
      113
310
904313A31304000000000000244000
  0
ACAD_PROXY_OBJECT
  5
4E
102
{ACAD_REACTORS
330
47
102
}
330
47
100
AcDbZombieObject
 90
      499
 91
      503
 93
      113
310
904313A31364000000000000304000
  0
ACAD_PROXY_OBJECT
  5
4F
102
{ACAD_REACTORS
330
47
102
}
330
47
100
AcDbZombieObject
 90
      499
 91
      503
 93
      113
310
904313A32304000000000000344000
  0
ACAD_PROXY_OBJECT
  5
50
102
{ACAD_REACTORS
330
47
102
}
330
47
100
AcDbZombieObject
 90
      499
 91
      503
 93
      113
310
904313A333040000000000003E4000
  0
ACAD_PROXY_OBJECT
  5
51
102
{ACAD_REACTORS
330
47
102
}
330
47
100
AcDbZombieObject
 90
      499
 91
      503
 93
      113
310
904313A34304000000000000444000
  0
ACAD_PROXY_OBJECT
  5
52
102
{ACAD_REACTORS
330
47
102
}
330
47
100
AcDbZombieObject
 90
      499
 91
      503
 93
      113
310
904313A35304000000000000494000
  0
ACAD_PROXY_OBJECT
  5
53
102
{ACAD_REACTORS
330
47
102
}
330
47
100
AcDbZombieObject
 90
      499
 91
      503
 93
      121
310
905313A3130304000000000000594000
  0
ACAD_PROXY_OBJECT
  5
54
102
{ACAD_REACTORS
330
47
102
}
330
47
100
AcDbZombieObject
 90
      499
 91
      503
 93
      105
310
903323A310000000000000010100
  0
ACAD_PROXY_OBJECT
  5
55
102
{ACAD_REACTORS
330
47
102
}
330
47
100
AcDbZombieObject
 90
      499
 91
      503
 93
      105
310
903343A310000000000000410100
  0
ACAD_PROXY_OBJECT
  5
56
102
{ACAD_REACTORS
330
47
102
}
330
47
100
AcDbZombieObject
 90
      499
 91
      503
 93
      105
310
903383A310000000000000810100
  0
ACAD_PROXY_OBJECT
  5
57
102
{ACAD_REACTORS
330
47
102
}
330
47
100
AcDbZombieObject
 90
      499
 91
      503
 93
      113
310
90431303A310000000000000910100
  0
ACAD_PROXY_OBJECT
  5
58
102
{ACAD_REACTORS
330
47
102
}
330
47
100
AcDbZombieObject
 90
      499
 91
      503
 93
      121
310
9053130303A310000000000001650100
  0
ACAD_PROXY_OBJECT
  5
59
102
{ACAD_REACTORS
330
47
102
}
330
47
100
AcDbZombieObject
 90
      499
 91
      503
 93
      257
310
90E312F31323822203D2031272D3022000000000000200FC000000000000284000
  0
ACAD_PROXY_OBJECT
  5
5A
102
{ACAD_REACTORS
330
47
102
}
330
47
100
AcDbZombieObject
 90
      499
 91
      503
 93
      249
310
90D312F363422203D2031272D3022000000000000240FC000000000000284000
  0
ACAD_PROXY_OBJECT
  5
5B
102
{ACAD_REACTORS
330
47
102
}
330
47
100
AcDbZombieObject
 90
      499
 91
      503
 93
      249
310
90D312F333222203D2031272D3022000000000000280FC000000000000284000
  0
ACAD_PROXY_OBJECT
  5
5C
102
{ACAD_REACTORS
330
47
102
}
330
47
100
AcDbZombieObject
 90
      499
 91
      503
 93
      249
310
90D312F313622203D2031272D30220000000000002C0FC000000000000284000
  0
ACAD_PROXY_OBJECT
  5
5D
102
{ACAD_REACTORS
330
47
102
}
330
47
100
AcDbZombieObject
 90
      499
 91
      503
 93
      249
310
90D332F333222203D2031272D30220000000000002E0FC000000000000284000
  0
ACAD_PROXY_OBJECT
  5
5E
102
{ACAD_REACTORS
330
47
102
}
330
47
100
AcDbZombieObject
 90
      499
 91
      503
 93
      241
310
90C312F3822203D2031272D3022000000000000300FC000000000000284000
  0
ACAD_PROXY_OBJECT
  5
5F
102
{ACAD_REACTORS
330
47
102
}
330
47
100
AcDbZombieObject
 90
      499
 91
      503
 93
      249
310
90D332F313622203D2031272D3022000000000000320FC000000000000284000
  0
ACAD_PROXY_OBJECT
  5
60
102
{ACAD_REACTORS
330
47
102
}
330
47
100
AcDbZombieObject
 90
      499
 91
      503
 93
      241
310
90C312F3422203D2031272D3022000000000000340FC000000000000284000
  0
ACAD_PROXY_OBJECT
  5
61
102
{ACAD_REACTORS
330
47
102
}
330
47
100
AcDbZombieObject
 90
      499
 91
      503
 93
      241
310
90C332F3822203D2031272D3022000000000000360FC000000000000284000
  0
ACAD_PROXY_OBJECT
  5
62
102
{ACAD_REACTORS
330
47
102
}
330
47
100
AcDbZombieObject
 90
      499
 91
      503
 93
      241
310
90C312F3222203D2031272D3022000000000000380FC000000000000284000
  0
ACAD_PROXY_OBJECT
  5
63
102
{ACAD_REACTORS
330
47
102
}
330
47
100
AcDbZombieObject
 90
      499
 91
      503
 93
      241
310
90C332F3422203D2031272D30220000000000003A0FC000000000000284000
  0
ACAD_PROXY_OBJECT
  5
64
102
{ACAD_REACTORS
330
47
102
}
330
47
100
AcDbZombieObject
 90
      499
 91
      503
 93
      161
310
90A3122203D2031272D30224000000000000284000
  0
ACAD_PROXY_OBJECT
  5
65
102
{ACAD_REACTORS
330
47
102
}
330
47
100
AcDbZombieObject
 90
      499
 91
      503
 93
      257
310
90E312D312F3222203D2031272D30220000000000003E0FC000000000000284000
  0
ACAD_PROXY_OBJECT
  5
66
102
{ACAD_REACTORS
330
47
102
}
330
47
100
AcDbZombieObject
 90
      499
 91
      503
 93
      225
310
90A3322203D2031272D302200000000000002100000000000000284000
  0
ACAD_PROXY_OBJECT
  5
67
102
{ACAD_REACTORS
330
47
102
}
330
47
100
AcDbZombieObject
 90
      499
 91
      503
 93
      225
310
90A3622203D2031272D302200000000000006100000000000000284000
  0
ACAD_PROXY_OBJECT
  5
68
102
{ACAD_REACTORS
330
47
102
}
330
47
100
AcDbZombieObject
 90
      499
 91
      503
 93
      249
310
90D31272D3022203D2031272D30220000000000000A100000000000000284000
  0
ACAD_PROXY_OBJECT
  5
2F
102
{ACAD_REACTORS
330
2A
102
}
330
2A
100
AcDbZombieObject
 90
      499
 91
      501
 93
      436
310
42CC9915DA5C99599C985B595049028333333333333E33F0000000000000F90107901411070040501600405405064090741402480A0340
1001
ACAD
1000
AcDbSavedByObjectVersion
1070
     0
  0
ACAD_PROXY_OBJECT
  5
32
102
{ACAD_REACTORS
330
2A
102
}
330
2A
100
AcDbZombieObject
 90
      499
 91
      501
 93
      388
310
4150985CDA58D07406404333333333333E33F0000000000000F90107A41107004050150841D405064090741402480A0350
1001
ACAD
1000
AcDbSavedByObjectVersion
1070
     0
  0
ACAD_PROXY_OBJECT
  5
36
102
{ACAD_REACTORS
330
2A
102
}
330
2A
100
AcDbZombieObject
 90
      499
 91
      501
 93
      428
310
42109C9A59DA1D195B90C409028333333333333E33F0000000000000F9010790141107004050150841D405064090741402480A029950
1001
ACAD
1000
AcDbSavedByObjectVersion
1070
     0
  0
ACAD_PROXY_OBJECT
  5
3A
102
{ACAD_REACTORS
330
2A
102
}
330
2A
100
AcDbZombieObject
 90
      499
 91
      501
 93
      452
310
42D0DBDB1BDC90DA185B99D95104090240C333333333333E33F0000000000000F90108901411070040501508421405064090741402480A0350
1001
ACAD
1000
AcDbSavedByObjectVersion
1070
     0
  0
ACAD_PROXY_OBJECT
  5
34
102
{ACAD_REACTORS
330
2A
102
}
330
2A
100
AcDbZombieObject
 90
      499
 91
      501
 93
      500
310
4290DBDB98D95C1D1D585B10940D028333333333333E33F0000000000000F90107902409070040501000000000018199010841D405064090740C02480A0340
1001
ACAD
1000
AcDbSavedByObjectVersion
1070
     0
  0
ACAD_PROXY_OBJECT
  5
35
102
{ACAD_REACTORS
330
2A
102
}
330
2A
100
AcDbZombieObject
 90
      499
 91
      501
 93
      412
310
40D11A5B50B409028333333333333E33F0000000000000F9010790141107004050150841D405064090741402480A02677FFFFFD0
1001
ACAD
1000
AcDbSavedByObjectVersion
1070
     0
  0
ACAD_PROXY_OBJECT
  5
3D
102
{ACAD_REACTORS
330
2A
102
}
330
2A
100
AcDbZombieObject
 90
      499
 91
      501
 93
      452
310
43115919D950DBDB1BDC93D999916409028333333333333E33F0000000000000F9010790141107004050150841D405064090741402480A0350
1001
ACAD
1000
AcDbSavedByObjectVersion
1070
     0
  0
ACAD_PROXY_OBJECT
  5
39
102
{ACAD_REACTORS
330
2A
102
}
330
2A
100
AcDbZombieObject
 90
      499
 91
      501
 93
      444
310
42D19858D95C185D1D195C9B90F409028333333333333E33F0000000000000F9010790141107004050150841D405064090741402480A0350
1001
ACAD
1000
AcDbSavedByObjectVersion
1070
     0
  0
ACAD_PROXY_OBJECT
  5
2B
102
{ACAD_REACTORS
330
2A
102
}
330
2A
100
AcDbZombieObject
 90
      499
 91
      501
 93
      380
310
41119B185D240901404333333333333E33F0000000000000F9010740A907004050150841D405064090741402480A1B50
1001
ACAD
1000
AcDbSavedByObjectVersion
1070
     0
  0
ACAD_PROXY_OBJECT
  5
2C
102
{ACAD_REACTORS
330
2A
102
}
330
2A
100
AcDbZombieObject
 90
      499
 91
      501
 93
      468
310
43519B185D15DA5D1A115919D95CD0140901404333333333333E33F0000000000000F90107409019070040501600405405064090741402480A1B50
1001
ACAD
1000
AcDbSavedByObjectVersion
1070
     0
  0
ACAD_PROXY_OBJECT
  5
2D
102
{ACAD_REACTORS
330
2A
102
}
330
2A
100
AcDbZombieObject
 90
      499
 91
      501
 93
      404
310
41D1DBDD5C985D5910240902404333333333333E33F0000000000000F9010740A9070040501641D405064090741402480A1B50
1001
ACAD
1000
AcDbSavedByObjectVersion
1070
     0
  0
ACAD_PROXY_OBJECT
  5
2E
102
{ACAD_REACTORS
330
2A
102
}
330
2A
100
AcDbZombieObject
 90
      499
 91
      501
 93
      492
310
4411DBDD5C985D5915DA5D1A115919D95CD0340902404333333333333E33F0000000000000F90107409019070040501600405405064090741402480A1B50
1001
ACAD
1000
AcDbSavedByObjectVersion
1070
     0
  0
ACAD_PROXY_OBJECT
  5
31
102
{ACAD_REACTORS
330
2A
102
}
330
2A
100
AcDbZombieObject
 90
      499
 91
      501
 93
      476
310
41921A5919195B90640502408333333333333E33F0000000000000F901079024090700405020000000000001110200405405064090740C02480A0340
1001
ACAD
1000
AcDbSavedByObjectVersion
1070
     0
  0
ACAD_PROXY_OBJECT
  5
3B
102
{ACAD_REACTORS
330
2A
102
}
330
2A
100
AcDbZombieObject
 90
      499
 91
      501
 93
      428
310
42529A5D1D195C93D999914409028333333333333E33F0000000000000F9010790141107004050150A41D405064090741402480A0350
1001
ACAD
1000
AcDbSavedByObjectVersion
1070
     0
  0
ACAD_PROXY_OBJECT
  5
38
102
{ACAD_REACTORS
330
2A
102
}
330
2A
100
AcDbZombieObject
 90
      499
 91
      501
 93
      444
310
42D31A5B995C185D1D195C9B90E409028333333333333E33F0000000000000F9010790141107004050750841D405064090741402483A0350
1001
ACAD
1000
AcDbSavedByObjectVersion
1070
     0
  0
ACAD_PROXY_OBJECT
  5
3C
102
{ACAD_REACTORS
330
2A
102
}
330
2A
100
AcDbZombieObject
 90
      499
 91
      501
 93
      444
310
42D3DD995C9A185B99D3D999915409028333333333333E33F0000000000000F9010790141107004050150941D405064090741402480A0350
1001
ACAD
1000
AcDbSavedByObjectVersion
1070
     0
  0
ACAD_PROXY_OBJECT
  5
33
102
{ACAD_REACTORS
330
2A
102
}
330
2A
100
AcDbZombieObject
 90
      499
 91
      501
 93
      428
310
425499585B1A5CDD1A58D08409038333333333333E33F0000000000000F9010740A907004050150800405405064090740C02480A1B40
1001
ACAD
1000
AcDbSavedByObjectVersion
1070
     0
  0
ACAD_PROXY_OBJECT
  5
42
102
{ACAD_REACTORS
330
2A
102
}
330
2A
100
AcDbZombieObject
 90
      499
 91
      501
 93
      420
310
4194DA1859195911B40902404333333333333E33F0000000000000F9010740A41107004050150800405405064090840C02480A0B40
1001
ACAD
1000
AcDbSavedByObjectVersion
1070
     0
  0
ACAD_PROXY_OBJECT
  5
41
102
{ACAD_REACTORS
330
2A
102
}
330
2A
100
AcDbZombieObject
 90
      499
 91
      501
 93
      516
310
4454DA18591959081DDA5D1A08195919D95CD1A40902404333333333333E33F0000000000000F901074090142907004050250800405405064090740C02480A0B40
1001
ACAD
1000
AcDbSavedByObjectVersion
1070
     0
  0
ACAD_PROXY_OBJECT
  5
3E
102
{ACAD_REACTORS
330
2A
102
}
330
2A
100
AcDbZombieObject
 90
      499
 91
      501
 93
      532
310
4394DA1859195CC81BD98811DC985E5174090240C333333333333E33F0000000000000F901079024090741D01000000000000111010841D405064090740C02480A0340
1001
ACAD
1000
AcDbSavedByObjectVersion
1070
     0
  0
ACAD_PROXY_OBJECT
  5
3F
102
{ACAD_REACTORS
330
2A
102
}
330
2A
100
AcDbZombieObject
 90
      499
 91
      501
 93
      476
310
41D4DAD95D18DA1E51840502408333333333333E33F0000000000000F901079024090741D01000000000000111010B41D405064090741802480A0340
1001
ACAD
1000
AcDbSavedByObjectVersion
1070
     0
  0
ACAD_PROXY_OBJECT
  5
37
102
{ACAD_REACTORS
330
2A
102
}
330
2A
100
AcDbZombieObject
 90
      499
 91
      501
 93
      412
310
41D51A1A58DAD95B90D409028333333333333E33F0000000000000F9010790141107004050150C41D405064090741402480A0350
1001
ACAD
1000
AcDbSavedByObjectVersion
1070
     0
  0
ACAD_PROXY_OBJECT
  5
30
102
{ACAD_REACTORS
330
2A
102
}
330
2A
100
AcDbZombieObject
 90
      499
 91
      501
 93
      420
310
4255DA5C99599C985B595059028333333333333E33F0000000000000F90107901411070040501600405405064090740C02480A0340
1001
ACAD
1000
AcDbSavedByObjectVersion
1070
     0
  0
ACAD_PROXY_OBJECT
  5
40
102
{ACAD_REACTORS
330
2A
102
}
330
2A
100
AcDbZombieObject
 90
      499
 91
      501
 93
      404
310
41560B54985E51940902404000000000000E03F0000000000000F9010740501907004050150841D405064090740C02480A1B40
1001
ACAD
1000
AcDbSavedByObjectVersion
1070
     0
  0
DICTIONARYVAR
  5
64C
102
{ACAD_REACTORS
330
641
102
}
330
641
100
DictionaryVariables
280
     0
  1
1:1
  0
DICTIONARYVAR
  5
648
102
{ACAD_REACTORS
330
641
102
}
330
641
100
DictionaryVariables
280
     0
  1
3.500000
  0
DICTIONARYVAR
  5
649
102
{ACAD_REACTORS
330
641
102
}
330
641
100
DictionaryVariables
280
     0
  1
acadiso.lin
  0
DICTIONARYVAR
  5
643
102
{ACAD_REACTORS
330
641
102
}
330
641
100
DictionaryVariables
280
     0
  1
Standard
  0
DICTIONARYVAR
  5
642
102
{ACAD_REACTORS
330
641
102
}
330
641
100
DictionaryVariables
280
     0
  1
Standard
  0
DICTIONARYVAR
  5
64A
102
{ACAD_REACTORS
330
641
102
}
330
641
100
DictionaryVariables
280
     0
  1
2
  0
DICTIONARYVAR
  5
64B
102
{ACAD_REACTORS
330
641
102
}
330
641
100
DictionaryVariables
280
     0
  1
1
  0
DICTIONARYVAR
  5
64D
102
{ACAD_REACTORS
330
641
102
}
330
641
100
DictionaryVariables
280
     0
  1
1
  0
DICTIONARYVAR
  5
645
102
{ACAD_REACTORS
330
641
102
}
330
641
100
DictionaryVariables
280
     0
  1
80.000000
  0
DICTIONARYVAR
  5
644
102
{ACAD_REACTORS
330
641
102
}
330
641
100
DictionaryVariables
280
     0
  1
5.000000
  0
DICTIONARY
  5
650
330
45
100
AcDbDictionary
  3
ACAD_XREC_ROUNDTRIP
360
651
1001
ACAD
1000
TREAT_AS_HARD
1070
     1
  0
DICTIONARY
  5
64E
330
44
100
AcDbDictionary
  3
ACAD_XREC_ROUNDTRIP
360
64F
1001
ACAD
1000
TREAT_AS_HARD
1070
     1
  0
DICTIONARY
  5
652
330
46
100
AcDbDictionary
  3
ACAD_XREC_ROUNDTRIP
360
653
1001
ACAD
1000
TREAT_AS_HARD
1070
     1
  0
XRECORD
  5
651
102
{ACAD_REACTORS
330
650
102
}
330
650
100
AcDbXrecord
102
MATERIAL
148
0.0
149
0.0
149
0.0
 93
        0
 94
      127
282
     0
 72
     1
 77
     1
171
     1
175
     1
179
     1
273
     0
  0
XRECORD
  5
64F
102
{ACAD_REACTORS
330
64E
102
}
330
64E
100
AcDbXrecord
102
MATERIAL
148
0.0
149
0.0
149
0.0
 93
        0
 94
      127
282
     0
 72
     1
 77
     1
171
     1
175
     1
179
     1
273
     0
  0
XRECORD
  5
653
102
{ACAD_REACTORS
330
652
102
}
330
652
100
AcDbXrecord
102
MATERIAL
148
0.0
149
0.0
149
0.0
 93
        0
 94
      127
282
     0
 72
     1
 77
     1
171
     1
175
     1
179
     1
273
     0
  0
ENDSEC
  0
EOF
