  0
SECTION
  2
HEADER
  9
$ACADVER
  1
AC1012
  9
$DWGCODEPAGE
  3
ansi_1252
  9
$INSBASE
 10
0.0
 20
0.0
 30
0.0
  9
$EXTMIN
 10
1.000000000000000E+20
 20
1.000000000000000E+20
 30
1.000000000000000E+20
  9
$EXTMAX
 10
-1.000000000000000E+20
 20
-1.000000000000000E+20
 30
-1.000000000000000E+20
  9
$LIMMIN
 10
0.0
 20
0.0
  9
$LIMMAX
 10
420.0
 20
297.0
  9
$ORTHOMODE
 70
     0
  9
$REGENMODE
 70
     1
  9
$FILLMODE
 70
     1
  9
$QTEXTMODE
 70
     0
  9
$MIRRTEXT
 70
     1
  9
$DRAGMODE
 70
     2
  9
$LTSCALE
 40
1.0
  9
$OSMODE
 70
    37
  9
$ATTMODE
 70
     1
  9
$TEXTSIZE
 40
2.5
  9
$TRACEWID
 40
1.0
  9
$TEXTSTYLE
  7
STANDARD
  9
$CLAYER
  8
0
  9
$CELTYPE
  6
BYLAYER
  9
$CECOLOR
 62
   256
  9
$CELTSCALE
 40
1.0
  9
$DELOBJ
 70
     1
  9
$DISPSILH
 70
     0
  9
$DIMSCALE
 40
1.0
  9
$DIMASZ
 40
2.5
  9
$DIMEXO
 40
0.625
  9
$DIMDLI
 40
3.75
  9
$DIMRND
 40
0.0
  9
$DIMDLE
 40
0.0
  9
$DIMEXE
 40
1.25
  9
$DIMTP
 40
0.0
  9
$DIMTM
 40
0.0
  9
$DIMTXT
 40
2.5
  9
$DIMCEN
 40
2.5
  9
$DIMTSZ
 40
0.0
  9
$DIMTOL
 70
     0
  9
$DIMLIM
 70
     0
  9
$DIMTIH
 70
     0
  9
$DIMTOH
 70
     0
  9
$DIMSE1
 70
     0
  9
$DIMSE2
 70
     0
  9
$DIMTAD
 70
     1
  9
$DIMZIN
 70
     8
  9
$DIMBLK
  1

  9
$DIMASO
 70
     1
  9
$DIMSHO
 70
     1
  9
$DIMPOST
  1

  9
$DIMAPOST
  1

  9
$DIMALT
 70
     0
  9
$DIMALTD
 70
     3
  9
$DIMALTF
 40
0.03937007874016
  9
$DIMLFAC
 40
1.0
  9
$DIMTOFL
 70
     1
  9
$DIMTVP
 40
0.0
  9
$DIMTIX
 70
     0
  9
$DIMSOXD
 70
     0
  9
$DIMSAH
 70
     0
  9
$DIMBLK1
  1

  9
$DIMBLK2
  1

  9
$DIMSTYLE
  2
ISO-25
  9
$DIMCLRD
 70
     0
  9
$DIMCLRE
 70
     0
  9
$DIMCLRT
 70
     0
  9
$DIMTFAC
 40
1.0
  9
$DIMGAP
 40
0.625
  9
$DIMJUST
 70
     0
  9
$DIMSD1
 70
     0
  9
$DIMSD2
 70
     0
  9
$DIMTOLJ
 70
     0
  9
$DIMTZIN
 70
     8
  9
$DIMALTZ
 70
     0
  9
$DIMALTTZ
 70
     0
  9
$DIMFIT
 70
     3
  9
$DIMUPT
 70
     0
  9
$DIMUNIT
 70
     2
  9
$DIMDEC
 70
     2
  9
$DIMTDEC
 70
     2
  9
$DIMALTU
 70
     2
  9
$DIMALTTD
 70
     3
  9
$DIMTXSTY
  7
STANDARD
  9
$DIMAUNIT
 70
     0
  9
$LUNITS
 70
     2
  9
$LUPREC
 70
     4
  9
$SKETCHINC
 40
1.0
  9
$FILLETRAD
 40
10.0
  9
$AUNITS
 70
     0
  9
$AUPREC
 70
     0
  9
$MENU
  1
.
  9
$ELEVATION
 40
0.0
  9
$PELEVATION
 40
0.0
  9
$THICKNESS
 40
0.0
  9
$LIMCHECK
 70
     0
  9
$CHAMFERA
 40
0.0
  9
$CHAMFERB
 40
0.0
  9
$CHAMFERC
 40
0.0
  9
$CHAMFERD
 40
0.0
  9
$SKPOLY
 70
     0
  9
$TDCREATE
 40
2457988.440900764
  9
$TDUPDATE
 40
2457988.440904548
  9
$TDINDWG
 40
0.0000000116
  9
$TDUSRTIMER
 40
0.0000000116
  9
$USRTIMER
 70
     1
  9
$ANGBASE
 50
0.0
  9
$ANGDIR
 70
     0
  9
$PDMODE
 70
     0
  9
$PDSIZE
 40
0.0
  9
$PLINEWID
 40
0.0
  9
$COORDS
 70
     1
  9
$SPLFRAME
 70
     0
  9
$SPLINETYPE
 70
     6
  9
$SPLINESEGS
 70
     8
  9
$ATTDIA
 70
     0
  9
$ATTREQ
 70
     1
  9
$HANDLING
 70
     1
  9
$HANDSEED
  5
655
  9
$SURFTAB1
 70
     6
  9
$SURFTAB2
 70
     6
  9
$SURFTYPE
 70
     6
  9
$SURFU
 70
     6
  9
$SURFV
 70
     6
  9
$UCSNAME
  2

  9
$UCSORG
 10
0.0
 20
0.0
 30
0.0
  9
$UCSXDIR
 10
1.0
 20
0.0
 30
0.0
  9
$UCSYDIR
 10
0.0
 20
1.0
 30
0.0
  9
$PUCSNAME
  2

  9
$PUCSORG
 10
0.0
 20
0.0
 30
0.0
  9
$PUCSXDIR
 10
1.0
 20
0.0
 30
0.0
  9
$PUCSYDIR
 10
0.0
 20
1.0
 30
0.0
  9
$USERI1
 70
     0
  9
$USERI2
 70
     0
  9
$USERI3
 70
     0
  9
$USERI4
 70
     0
  9
$USERI5
 70
     0
  9
$USERR1
 40
0.0
  9
$USERR2
 40
0.0
  9
$USERR3
 40
0.0
  9
$USERR4
 40
0.0
  9
$USERR5
 40
0.0
  9
$WORLDVIEW
 70
     1
  9
$SHADEDGE
 70
     3
  9
$SHADEDIF
 70
    70
  9
$TILEMODE
 70
     1
  9
$MAXACTVP
 70
    64
  9
$PINSBASE
 10
0.0
 20
0.0
 30
0.0
  9
$PLIMCHECK
 70
     0
  9
$PEXTMIN
 10
1.000000000000000E+20
 20
1.000000000000000E+20
 30
1.000000000000000E+20
  9
$PEXTMAX
 10
-1.000000000000000E+20
 20
-1.000000000000000E+20
 30
-1.000000000000000E+20
  9
$PLIMMIN
 10
0.0
 20
0.0
  9
$PLIMMAX
 10
420.0
 20
297.0
  9
$UNITMODE
 70
     0
  9
$VISRETAIN
 70
     1
  9
$PLINEGEN
 70
     0
  9
$PSLTSCALE
 70
     1
  9
$TREEDEPTH
 70
  3020
  9
$PICKSTYLE
 70
     1
  9
$CMLSTYLE
  2
STANDARD
  9
$CMLJUST
 70
     0
  9
$CMLSCALE
 40
20.0
  9
$SAVEIMAGES
 70
     1
  0
ENDSEC
  0
SECTION
  2
CLASSES
  0
CLASS
  1
ACDBDICTIONARYWDFLT
  2
AcDbDictionaryWithDefault
  3
ObjectDBX Classes
 90
    32768
280
     0
281
     0
  0
CLASS
  1
VISUALSTYLE
  2
AcDbVisualStyle
  3
ObjectDBX Classes
 90
     4095
280
     0
281
     0
  0
CLASS
  1
MATERIAL
  2
AcDbMaterial
  3
ObjectDBX Classes
 90
     1153
280
     0
281
     0
  0
CLASS
  1
SCALE
  2
AcDbScale
  3
ObjectDBX Classes
 90
     1153
280
     0
281
     0
  0
CLASS
  1
TABLESTYLE
  2
AcDbTableStyle
  3
ObjectDBX Classes
 90
     4095
280
     0
281
     0
  0
CLASS
  1
MLEADERSTYLE
  2
AcDbMLeaderStyle
  3
ACDB_MLEADERSTYLE_CLASS
 90
     4095
280
     0
281
     0
  0
CLASS
  1
SUN
  2
AcDbSun
  3
SCENEOE
 90
     1153
280
     0
281
     0
  0
CLASS
  1
DICTIONARYVAR
  2
AcDbDictionaryVar
  3
ObjectDBX Classes
 90
        0
280
     0
281
     0
  0
CLASS
  1
XRECORD
  2
AcDbXrecord
  3
ObjectDBX Classes
 90
    32768
280
     0
281
     0
  0
CLASS
  1
LWPOLYLINE
  2
AcDbPolyline
  3
ObjectDBX Classes
 90
    32768
280
     0
281
     1
  0
CLASS
  1
HATCH
  2
AcDbHatch
  3
ObjectDBX Classes
 90
    32768
280
     0
281
     1
  0
CLASS
  1
ACDBPLACEHOLDER
  2
AcDbPlaceHolder
  3
ObjectDBX Classes
 90
        0
280
     0
281
     0
  0
CLASS
  1
LAYOUT
  2
AcDbLayout
  3
ObjectDBX Classes
 90
        0
280
     0
281
     0
  0
ENDSEC
  0
SECTION
  2
TABLES
  0
TABLE
  2
VPORT
  5
8
330
0
100
AcDbSymbolTable
 70
     1
  0
VPORT
  5
29
330
8
100
AcDbSymbolTableRecord
100
AcDbViewportTableRecord
  2
*ACTIVE
 70
     0
 10
0.0
 20
0.0
 11
1.0
 21
1.0
 12
0.0000000000000568
 22
-114.5
 13
0.0
 23
0.0
 14
10.0
 24
10.0
 15
10.0
 25
10.0
 16
0.0
 26
0.0
 36
1.0
 17
0.0
 27
0.0
 37
0.0
 40
233.58
 41
1.790393013100436
 42
50.0
 43
0.0
 44
0.0
 50
0.0
 51
0.0
 71
     0
 72
   100
 73
     1
 74
     3
 75
     0
 76
     0
 77
     0
 78
     0
  0
ENDTAB
  0
TABLE
  2
LTYPE
  5
5
330
0
100
AcDbSymbolTable
 70
     1
  0
LTYPE
  5
14
330
5
100
AcDbSymbolTableRecord
100
AcDbLinetypeTableRecord
  2
BYBLOCK
 70
     0
  3

 72
    65
 73
     0
 40
0.0
  0
LTYPE
  5
15
330
5
100
AcDbSymbolTableRecord
100
AcDbLinetypeTableRecord
  2
BYLAYER
 70
     0
  3

 72
    65
 73
     0
 40
0.0
  0
LTYPE
  5
16
330
5
100
AcDbSymbolTableRecord
100
AcDbLinetypeTableRecord
  2
CONTINUOUS
 70
     0
  3
Solid line
 72
    65
 73
     0
 40
0.0
  0
ENDTAB
  0
TABLE
  2
LAYER
  5
2
330
0
100
AcDbSymbolTable
 70
     4
  0
LAYER
  5
10
330
2
100
AcDbSymbolTableRecord
100
AcDbLayerTableRecord
  2
0
 70
     0
 62
     7
  6
CONTINUOUS
  0
LAYER
  5
6E
330
2
100
AcDbSymbolTableRecord
100
AcDbLayerTableRecord
  2
THICK
 70
     0
 62
     7
  6
CONTINUOUS
  0
LAYER
  5
6F
330
2
100
AcDbSymbolTableRecord
100
AcDbLayerTableRecord
  2
HIDDEN
 70
     0
 62
     7
  6
CONTINUOUS
  0
LAYER
  5
70
330
2
100
AcDbSymbolTableRecord
100
AcDbLayerTableRecord
  2
HASHLINES
 70
     0
 62
     7
  6
CONTINUOUS
  0
ENDTAB
  0
TABLE
  2
STYLE
  5
3
330
0
100
AcDbSymbolTable
 70
     1
  0
STYLE
  5
11
330
3
100
AcDbSymbolTableRecord
100
AcDbTextStyleTableRecord
  2
STANDARD
 70
     0
 40
0.0
 41
1.0
 50
0.0
 71
     0
 42
2.5
  3
txt
  4

  0
ENDTAB
  0
TABLE
  2
VIEW
  5
6
330
0
100
AcDbSymbolTable
 70
     0
  0
ENDTAB
  0
TABLE
  2
UCS
  5
7
330
0
100
AcDbSymbolTable
 70
     0
  0
ENDTAB
  0
TABLE
  2
APPID
  5
9
330
0
100
AcDbSymbolTable
 70
     3
  0
APPID
  5
12
330
9
100
AcDbSymbolTableRecord
100
AcDbRegAppTableRecord
  2
ACAD
 70
     0
  0
APPID
  5
71
330
9
100
AcDbSymbolTableRecord
100
AcDbRegAppTableRecord
  2
DBPROPERTIES
 70
     0
  0
APPID
  5
654
330
9
100
AcDbSymbolTableRecord
100
AcDbRegAppTableRecord
  2
ACAD_MLEADERVER
 70
     0
  0
ENDTAB
  0
TABLE
  2
DIMSTYLE
  5
A
330
0
100
AcDbSymbolTable
 70
     1
  0
DIMSTYLE
105
27
330
A
100
AcDbSymbolTableRecord
100
AcDbDimStyleTableRecord
  2
ISO-25
 70
     0
  3

  4

  5

  6

  7

 40
1.0
 41
2.5
 42
0.625
 43
3.75
 44
1.25
 45
0.0
 46
0.0
 47
0.0
 48
0.0
140
2.5
141
2.5
142
0.0
143
0.03937007874016
144
1.0
145
0.0
146
1.0
147
0.625
 71
     0
 72
     0
 73
     0
 74
     0
 75
     0
 76
     0
 77
     1
 78
     8
170
     0
171
     3
172
     1
173
     0
174
     0
175
     0
176
     0
177
     0
178
     0
270
     2
271
     2
272
     2
273
     2
274
     3
340
11
275
     0
280
     0
281
     0
282
     0
283
     0
284
     8
285
     0
286
     0
287
     3
288
     0
  0
ENDTAB
  0
TABLE
  2
BLOCK_RECORD
  5
1
330
0
100
AcDbSymbolTable
 70
     0
  0
BLOCK_RECORD
  5
1F
330
1
100
AcDbSymbolTableRecord
100
AcDbBlockTableRecord
  2
*MODEL_SPACE
  0
BLOCK_RECORD
  5
1B
330
1
100
AcDbSymbolTableRecord
100
AcDbBlockTableRecord
  2
*PAPER_SPACE
  0
ENDTAB
  0
ENDSEC
  0
SECTION
  2
BLOCKS
  0
BLOCK
  5
20
330
1F
100
AcDbEntity
  8
0
100
AcDbBlockBegin
  2
*MODEL_SPACE
 70
     0
 10
0.0
 20
0.0
 30
0.0
  3
*MODEL_SPACE
  1

  0
ENDBLK
  5
21
330
1F
100
AcDbEntity
  8
0
100
AcDbBlockEnd
  0
BLOCK
  5
1C
330
1B
100
AcDbEntity
 67
     1
  8
0
100
AcDbBlockBegin
  2
*PAPER_SPACE
 70
     0
 10
0.0
 20
0.0
 30
0.0
  3
*PAPER_SPACE
  1

  0
ENDBLK
  5
1D
330
1B
100
AcDbEntity
 67
     1
  8
0
100
AcDbBlockEnd
  0
ENDSEC
  0
SECTION
  2
ENTITIES
  0
LINE
  5
72
330
1F
100
AcDbEntity
  8
THICK
100
AcDbLine
 10
79.49999999999999
 20
-229.0
 30
0.0
 11
0.0000000000000103
 21
-229.0
 31
0.0
1001
DBPROPERTIES
1002
{
1000
PbThick
1002
}
  0
LINE
  5
73
330
1F
100
AcDbEntity
  8
THICK
100
AcDbLine
 10
-79.50000000000001
 20
-229.0
 30
0.0
 11
-0.0000000000000092
 21
-229.0
 31
0.0
1001
DBPROPERTIES
1002
{
1000
PbThick
1002
}
  0
LINE
  5
74
330
1F
100
AcDbEntity
  8
THICK
100
AcDbLine
 10
79.49999999999999
 20
-223.25
 30
0.0
 11
-0.0000000000000088
 21
-223.25
 31
0.0
1001
DBPROPERTIES
1002
{
1000
PbThick
1002
}
  0
LINE
  5
75
330
1F
100
AcDbEntity
  8
HIDDEN
100
AcDbLine
 10
-0.0000000000000283
 20
-223.25
 30
0.0
 11
79.49999999999999
 21
-223.25
 31
0.0
1001
DBPROPERTIES
1002
{
1000
PbHidd
1002
}
  0
LINE
  5
76
330
1F
100
AcDbEntity
  8
HIDDEN
100
AcDbLine
 10
-75.20000000000002
 20
-207.5
 30
0.0
 11
75.19999999999999
 21
-207.5
 31
0.0
1001
DBPROPERTIES
1002
{
1000
PbHidd
1002
}
  0
LINE
  5
77
330
1F
100
AcDbEntity
  8
THICK
100
AcDbLine
 10
-79.5000015258789
 20
-203.1999984741211
 30
0.0
 11
-75.1999984741211
 21
-207.5000015258789
 31
0.0
1001
DBPROPERTIES
1002
{
1000
PbThick
1002
}
  0
LINE
  5
78
330
1F
100
AcDbEntity
  8
HIDDEN
100
AcDbLine
 10
-0.0000000000000076
 20
-203.2
 30
0.0
 11
-79.50000000000001
 21
-203.2
 31
0.0
1001
DBPROPERTIES
1002
{
1000
PbHidd
1002
}
  0
LINE
  5
79
330
1F
100
AcDbEntity
  8
HIDDEN
100
AcDbLine
 10
79.49999999999999
 20
-203.2
 30
0.0
 11
-0.0000000000000076
 21
-203.2
 31
0.0
1001
DBPROPERTIES
1002
{
1000
PbHidd
1002
}
  0
LINE
  5
7A
330
1F
100
AcDbEntity
  8
THICK
100
AcDbLine
 10
75.19999847412109
 20
-207.5000015258789
 30
0.0
 11
79.50000152587889
 21
-203.1999984741211
 31
0.0
1001
DBPROPERTIES
1002
{
1000
PbThick
1002
}
  0
LINE
  5
7B
330
1F
100
AcDbEntity
  8
THICK
100
AcDbLine
 10
-75.20000000000002
 20
-207.5
 30
0.0
 11
-75.20000000000002
 21
-211.8000030517578
 31
0.0
1001
DBPROPERTIES
1002
{
1000
PbThick
1002
}
  0
LINE
  5
7C
330
1F
100
AcDbEntity
  8
THICK
100
AcDbLine
 10
75.19999999999999
 20
-211.8000030517578
 30
0.0
 11
75.19999999999999
 21
-207.5
 31
0.0
1001
DBPROPERTIES
1002
{
1000
PbThick
1002
}
  0
LINE
  5
7D
330
1F
100
AcDbEntity
  8
THICK
100
AcDbLine
 10
79.49999999999999
 20
-211.8
 30
0.0
 11
-0.0000000000000081
 21
-211.8
 31
0.0
1001
DBPROPERTIES
1002
{
1000
PbThick
1002
}
  0
LINE
  5
7E
330
1F
100
AcDbEntity
  8
THICK
100
AcDbLine
 10
79.49999999999999
 20
-214.65
 30
0.0
 11
-0.0000000000000083
 21
-214.65
 31
0.0
1001
DBPROPERTIES
1002
{
1000
PbThick
1002
}
  0
LINE
  5
7F
330
1F
100
AcDbEntity
  8
HIDDEN
100
AcDbLine
 10
75.19999999999999
 20
-218.95
 30
0.0
 11
-75.20000000000002
 21
-218.95
 31
0.0
1001
DBPROPERTIES
1002
{
1000
PbHidd
1002
}
  0
LINE
  5
80
330
1F
100
AcDbEntity
  8
THICK
100
AcDbLine
 10
79.49999999999999
 20
-223.25
 30
0.0
 11
75.19999694824219
 21
-218.9499969482422
 31
0.0
1001
DBPROPERTIES
1002
{
1000
PbThick
1002
}
  0
LINE
  5
81
330
1F
100
AcDbEntity
  8
HIDDEN
100
AcDbLine
 10
-79.50000000000001
 20
-223.25
 30
0.0
 11
-0.0000000000000283
 21
-223.25
 31
0.0
1001
DBPROPERTIES
1002
{
1000
PbHidd
1002
}
  0
LINE
  5
82
330
1F
100
AcDbEntity
  8
THICK
100
AcDbLine
 10
-75.1999969482422
 20
-218.9499969482422
 30
0.0
 11
-79.5
 21
-223.25
 31
0.0
1001
DBPROPERTIES
1002
{
1000
PbThick
1002
}
  0
LINE
  5
83
330
1F
100
AcDbEntity
  8
THICK
100
AcDbLine
 10
75.19999999999999
 20
-218.9499969482422
 30
0.0
 11
75.19999999999999
 21
-214.6499938964844
 31
0.0
1001
DBPROPERTIES
1002
{
1000
PbThick
1002
}
  0
LINE
  5
84
330
1F
100
AcDbEntity
  8
THICK
100
AcDbLine
 10
-75.20000000000002
 20
-214.6499938964844
 30
0.0
 11
-75.20000000000002
 21
-218.9499969482422
 31
0.0
1001
DBPROPERTIES
1002
{
1000
PbThick
1002
}
  0
LINE
  5
85
330
1F
100
AcDbEntity
  8
THICK
100
AcDbLine
 10
-0.0000000000000076
 20
-203.2
 30
0.0
 11
79.49999999999999
 21
-203.2
 31
0.0
1001
DBPROPERTIES
1002
{
1000
PbThick
1002
}
  0
LINE
  5
86
330
1F
100
AcDbEntity
  8
THICK
100
AcDbLine
 10
30.75
 20
-143.0
 30
0.0
 11
172.2
 21
-143.0
 31
0.0
1001
DBPROPERTIES
1002
{
1000
PbThick
1002
}
  0
LINE
  5
87
330
1F
100
AcDbEntity
  8
HIDDEN
100
AcDbLine
 10
-0.0000000000000395
 20
-133.7
 30
0.0
 11
172.2
 21
-133.7
 31
0.0
1001
DBPROPERTIES
1002
{
1000
PbHidd
1002
}
  0
LINE
  5
88
330
1F
100
AcDbEntity
  8
THICK
100
AcDbLine
 10
172.2
 20
-133.7
 30
0.0
 11
30.75000000000001
 21
-133.7
 31
0.0
1001
DBPROPERTIES
1002
{
1000
PbThick
1002
}
  0
LINE
  5
89
330
1F
100
AcDbEntity
  8
THICK
100
AcDbLine
 10
-41.0
 20
0.0
 30
0.0
 11
-0.0000000000000075
 21
0.0
 31
0.0
1001
DBPROPERTIES
1002
{
1000
PbThick
1002
}
  0
LINE
  5
8A
330
1F
100
AcDbEntity
  8
HIDDEN
100
AcDbLine
 10
-24.52602767944336
 20
-11.46000003814697
 30
0.0
 11
-24.52407455444336
 21
-11.45325374603271
 31
0.0
1001
DBPROPERTIES
1002
{
1000
PbHidd
1002
}
  0
LINE
  5
8B
330
1F
100
AcDbEntity
  8
HIDDEN
100
AcDbLine
 10
-24.52407455444336
 20
-11.45325374603271
 30
0.0
 11
-24.5221118927002
 21
-11.44651126861572
 31
0.0
1001
DBPROPERTIES
1002
{
1000
PbHidd
1002
}
  0
LINE
  5
8C
330
1F
100
AcDbEntity
  8
HIDDEN
100
AcDbLine
 10
-24.5221118927002
 20
-11.44651126861572
 30
0.0
 11
-24.52014350891113
 21
-11.43977451324463
 31
0.0
1001
DBPROPERTIES
1002
{
1000
PbHidd
1002
}
  0
LINE
  5
8D
330
1F
100
AcDbEntity
  8
HIDDEN
100
AcDbLine
 10
-24.52014350891113
 20
-11.43977451324463
 30
0.0
 11
-24.51816558837891
 21
-11.4330415725708
 31
0.0
1001
DBPROPERTIES
1002
{
1000
PbHidd
1002
}
  0
LINE
  5
8E
330
1F
100
AcDbEntity
  8
HIDDEN
100
AcDbLine
 10
-24.51816558837891
 20
-11.4330415725708
 30
0.0
 11
-24.51618003845215
 21
-11.42631244659424
 31
0.0
1001
DBPROPERTIES
1002
{
1000
PbHidd
1002
}
  0
LINE
  5
8F
330
1F
100
AcDbEntity
  8
HIDDEN
100
AcDbLine
 10
-24.51618003845215
 20
-11.42631244659424
 30
0.0
 11
-24.51418495178223
 21
-11.41958808898926
 31
0.0
1001
DBPROPERTIES
1002
{
1000
PbHidd
1002
}
  0
LINE
  5
90
330
1F
100
AcDbEntity
  8
HIDDEN
100
AcDbLine
 10
-24.51418495178223
 20
-11.41958808898926
 30
0.0
 11
-24.44440650939941
 21
-11.20212936401367
 31
0.0
1001
DBPROPERTIES
1002
{
1000
PbHidd
1002
}
  0
LINE
  5
91
330
1F
100
AcDbEntity
  8
HIDDEN
100
AcDbLine
 10
-24.44440650939941
 20
-11.20212936401367
 30
0.0
 11
-24.3630542755127
 21
-10.98112678527832
 31
0.0
1001
DBPROPERTIES
1002
{
1000
PbHidd
1002
}
  0
LINE
  5
92
330
1F
100
AcDbEntity
  8
HIDDEN
100
AcDbLine
 10
-24.3630542755127
 20
-10.98112678527832
 30
0.0
 11
-24.27009773254395
 21
-10.75799655914307
 31
0.0
1001
DBPROPERTIES
1002
{
1000
PbHidd
1002
}
  0
LINE
  5
93
330
1F
100
AcDbEntity
  8
HIDDEN
100
AcDbLine
 10
-24.27009773254395
 20
-10.75799655914307
 30
0.0
 11
-24.16552734375
 21
-10.53415489196777
 31
0.0
1001
DBPROPERTIES
1002
{
1000
PbHidd
1002
}
  0
LINE
  5
94
330
1F
100
AcDbEntity
  8
HIDDEN
100
AcDbLine
 10
-24.16552734375
 20
-10.53415489196777
 30
0.0
 11
-24.04957962036133
 21
-10.31098079681396
 31
0.0
1001
DBPROPERTIES
1002
{
1000
PbHidd
1002
}
  0
LINE
  5
95
330
1F
100
AcDbEntity
  8
HIDDEN
100
AcDbLine
 10
-24.04957962036133
 20
-10.31098079681396
 30
0.0
 11
-23.92267417907715
 21
-10.0898265838623
 31
0.0
1001
DBPROPERTIES
1002
{
1000
PbHidd
1002
}
  0
LINE
  5
96
330
1F
100
AcDbEntity
  8
HIDDEN
100
AcDbLine
 10
-23.92267417907715
 20
-10.0898265838623
 30
0.0
 11
-23.78523254394531
 21
-9.872040748596191
 31
0.0
1001
DBPROPERTIES
1002
{
1000
PbHidd
1002
}
  0
LINE
  5
97
330
1F
100
AcDbEntity
  8
HIDDEN
100
AcDbLine
 10
-23.78523254394531
 20
-9.872040748596191
 30
0.0
 11
-23.63772583007812
 21
-9.65883731842041
 31
0.0
1001
DBPROPERTIES
1002
{
1000
PbHidd
1002
}
  0
LINE
  5
98
330
1F
100
AcDbEntity
  8
HIDDEN
100
AcDbLine
 10
-23.63772583007812
 20
-9.65883731842041
 30
0.0
 11
-23.48090934753418
 21
-9.451391220092773
 31
0.0
1001
DBPROPERTIES
1002
{
1000
PbHidd
1002
}
  0
LINE
  5
99
330
1F
100
AcDbEntity
  8
HIDDEN
100
AcDbLine
 10
-23.48090934753418
 20
-9.451391220092773
 30
0.0
 11
-23.31560134887695
 21
-9.250910758972168
 31
0.0
1001
DBPROPERTIES
1002
{
1000
PbHidd
1002
}
  0
LINE
  5
9A
330
1F
100
AcDbEntity
  8
HIDDEN
100
AcDbLine
 10
-23.31560134887695
 20
-9.250910758972168
 30
0.0
 11
-23.14265632629395
 21
-9.058584213256836
 31
0.0
1001
DBPROPERTIES
1002
{
1000
PbHidd
1002
}
  0
LINE
  5
9B
330
1F
100
AcDbEntity
  8
HIDDEN
100
AcDbLine
 10
-23.14265632629395
 20
-9.058584213256836
 30
0.0
 11
-22.96317291259766
 21
-8.875423431396484
 31
0.0
1001
DBPROPERTIES
1002
{
1000
PbHidd
1002
}
  0
LINE
  5
9C
330
1F
100
AcDbEntity
  8
HIDDEN
100
AcDbLine
 10
-22.96317291259766
 20
-8.875423431396484
 30
0.0
 11
-22.77837181091309
 21
-8.702352523803711
 31
0.0
1001
DBPROPERTIES
1002
{
1000
PbHidd
1002
}
  0
LINE
  5
9D
330
1F
100
AcDbEntity
  8
HIDDEN
100
AcDbLine
 10
-22.77837181091309
 20
-8.702352523803711
 30
0.0
 11
-22.58875274658203
 21
-8.539691925048828
 31
0.0
1001
DBPROPERTIES
1002
{
1000
PbHidd
1002
}
  0
LINE
  5
9E
330
1F
100
AcDbEntity
  8
HIDDEN
100
AcDbLine
 10
-22.58875274658203
 20
-8.539691925048828
 30
0.0
 11
-22.3891487121582
 21
-8.38342571258545
 31
0.0
1001
DBPROPERTIES
1002
{
1000
PbHidd
1002
}
  0
LINE
  5
9F
330
1F
100
AcDbEntity
  8
HIDDEN
100
AcDbLine
 10
-22.3891487121582
 20
-8.38342571258545
 30
0.0
 11
-22.1793384552002
 21
-8.234328269958496
 31
0.0
1001
DBPROPERTIES
1002
{
1000
PbHidd
1002
}
  0
LINE
  5
A0
330
1F
100
AcDbEntity
  8
HIDDEN
100
AcDbLine
 10
-22.1793384552002
 20
-8.234328269958496
 30
0.0
 11
-21.96062278747559
 21
-8.094480514526367
 31
0.0
1001
DBPROPERTIES
1002
{
1000
PbHidd
1002
}
  0
LINE
  5
A1
330
1F
100
AcDbEntity
  8
HIDDEN
100
AcDbLine
 10
-21.96062278747559
 20
-8.094480514526367
 30
0.0
 11
-21.73445129394531
 21
-7.965664863586426
 31
0.0
1001
DBPROPERTIES
1002
{
1000
PbHidd
1002
}
  0
LINE
  5
A2
330
1F
100
AcDbEntity
  8
HIDDEN
100
AcDbLine
 10
-21.73445129394531
 20
-7.965664863586426
 30
0.0
 11
-21.5024585723877
 21
-7.849319934844971
 31
0.0
1001
DBPROPERTIES
1002
{
1000
PbHidd
1002
}
  0
LINE
  5
A3
330
1F
100
AcDbEntity
  8
HIDDEN
100
AcDbLine
 10
-21.5024585723877
 20
-7.849319934844971
 30
0.0
 11
-21.26625442504883
 21
-7.746838092803955
 31
0.0
1001
DBPROPERTIES
1002
{
1000
PbHidd
1002
}
  0
LINE
  5
A4
330
1F
100
AcDbEntity
  8
HIDDEN
100
AcDbLine
 10
-21.26625442504883
 20
-7.746838092803955
 30
0.0
 11
-21.02739143371582
 21
-7.659184455871582
 31
0.0
1001
DBPROPERTIES
1002
{
1000
PbHidd
1002
}
  0
LINE
  5
A5
330
1F
100
AcDbEntity
  8
HIDDEN
100
AcDbLine
 10
-21.02739143371582
 20
-7.659184455871582
 30
0.0
 11
-20.78768730163574
 21
-7.587035179138184
 31
0.0
1001
DBPROPERTIES
1002
{
1000
PbHidd
1002
}
  0
LINE
  5
A6
330
1F
100
AcDbEntity
  8
HIDDEN
100
AcDbLine
 10
-20.78768730163574
 20
-7.587035179138184
 30
0.0
 11
-20.54900169372559
 21
-7.531039714813232
 31
0.0
1001
DBPROPERTIES
1002
{
1000
PbHidd
1002
}
  0
LINE
  5
A7
330
1F
100
AcDbEntity
  8
HIDDEN
100
AcDbLine
 10
-20.54900169372559
 20
-7.531039714813232
 30
0.0
 11
-20.31321334838867
 21
-7.491377353668213
 31
0.0
1001
DBPROPERTIES
1002
{
1000
PbHidd
1002
}
  0
LINE
  5
A8
330
1F
100
AcDbEntity
  8
HIDDEN
100
AcDbLine
 10
-20.31321334838867
 20
-7.491377353668213
 30
0.0
 11
-20.08222961425781
 21
-7.467806339263916
 31
0.0
1001
DBPROPERTIES
1002
{
1000
PbHidd
1002
}
  0
LINE
  5
A9
330
1F
100
AcDbEntity
  8
HIDDEN
100
AcDbLine
 10
-20.08222961425781
 20
-7.467806339263916
 30
0.0
 11
-19.85612678527832
 21
-7.460031509399414
 31
0.0
1001
DBPROPERTIES
1002
{
1000
PbHidd
1002
}
  0
LINE
  5
AA
330
1F
100
AcDbEntity
  8
THICK
100
AcDbLine
 10
-19.85612678527832
 20
-7.460031509399414
 30
0.0
 11
-19.63189888000488
 21
-7.467905044555664
 31
0.0
1001
DBPROPERTIES
1002
{
1000
PbThick
1002
}
  0
LINE
  5
AB
330
1F
100
AcDbEntity
  8
THICK
100
AcDbLine
 10
-19.63189888000488
 20
-7.467905044555664
 30
0.0
 11
-19.40900802612305
 21
-7.491908550262451
 31
0.0
1001
DBPROPERTIES
1002
{
1000
PbThick
1002
}
  0
LINE
  5
AC
330
1F
100
AcDbEntity
  8
THICK
100
AcDbLine
 10
-19.40900802612305
 20
-7.491908550262451
 30
0.0
 11
-19.1897029876709
 21
-7.532641410827637
 31
0.0
1001
DBPROPERTIES
1002
{
1000
PbThick
1002
}
  0
LINE
  5
AD
330
1F
100
AcDbEntity
  8
THICK
100
AcDbLine
 10
-19.1897029876709
 20
-7.532641410827637
 30
0.0
 11
-18.97601509094238
 21
-7.590079307556152
 31
0.0
1001
DBPROPERTIES
1002
{
1000
PbThick
1002
}
  0
LINE
  5
AE
330
1F
100
AcDbEntity
  8
THICK
100
AcDbLine
 10
-18.97601509094238
 20
-7.590079307556152
 30
0.0
 11
-18.76984786987305
 21
-7.663840293884277
 31
0.0
1001
DBPROPERTIES
1002
{
1000
PbThick
1002
}
  0
LINE
  5
AF
330
1F
100
AcDbEntity
  8
THICK
100
AcDbLine
 10
-18.76984786987305
 20
-7.663840293884277
 30
0.0
 11
-18.57298278808594
 21
-7.753500461578369
 31
0.0
1001
DBPROPERTIES
1002
{
1000
PbThick
1002
}
  0
LINE
  5
B0
330
1F
100
AcDbEntity
  8
THICK
100
AcDbLine
 10
-18.57298278808594
 20
-7.753500461578369
 30
0.0
 11
-18.38677024841309
 21
-7.858115196228027
 31
0.0
1001
DBPROPERTIES
1002
{
1000
PbThick
1002
}
  0
LINE
  5
B1
330
1F
100
AcDbEntity
  8
THICK
100
AcDbLine
 10
-18.38677024841309
 20
-7.858115196228027
 30
0.0
 11
-18.21257591247559
 21
-7.976413249969482
 31
0.0
1001
DBPROPERTIES
1002
{
1000
PbThick
1002
}
  0
LINE
  5
B2
330
1F
100
AcDbEntity
  8
THICK
100
AcDbLine
 10
-18.21257591247559
 20
-7.976413249969482
 30
0.0
 11
-18.05169296264648
 21
-8.107024192810059
 31
0.0
1001
DBPROPERTIES
1002
{
1000
PbThick
1002
}
  0
LINE
  5
B3
330
1F
100
AcDbEntity
  8
THICK
100
AcDbLine
 10
-18.05169296264648
 20
-8.107024192810059
 30
0.0
 11
-17.90491485595703
 21
-8.24803352355957
 31
0.0
1001
DBPROPERTIES
1002
{
1000
PbThick
1002
}
  0
LINE
  5
B4
330
1F
100
AcDbEntity
  8
THICK
100
AcDbLine
 10
-17.90491485595703
 20
-8.24803352355957
 30
0.0
 11
-17.77285575866699
 21
-8.397334098815918
 31
0.0
1001
DBPROPERTIES
1002
{
1000
PbThick
1002
}
  0
LINE
  5
B5
330
1F
100
AcDbEntity
  8
THICK
100
AcDbLine
 10
-17.77285575866699
 20
-8.397334098815918
 30
0.0
 11
-17.65376091003418
 21
-8.55592155456543
 31
0.0
1001
DBPROPERTIES
1002
{
1000
PbThick
1002
}
  0
LINE
  5
B6
330
1F
100
AcDbEntity
  8
THICK
100
AcDbLine
 10
-17.65376091003418
 20
-8.55592155456543
 30
0.0
 11
-17.54568672180176
 21
-8.72606086730957
 31
0.0
1001
DBPROPERTIES
1002
{
1000
PbThick
1002
}
  0
LINE
  5
B7
330
1F
100
AcDbEntity
  8
THICK
100
AcDbLine
 10
-17.54568672180176
 20
-8.72606086730957
 30
0.0
 11
-17.4495677947998
 21
-8.906787872314453
 31
0.0
1001
DBPROPERTIES
1002
{
1000
PbThick
1002
}
  0
LINE
  5
B8
330
1F
100
AcDbEntity
  8
THICK
100
AcDbLine
 10
-17.4495677947998
 20
-8.906787872314453
 30
0.0
 11
-17.36631393432617
 21
-9.09711742401123
 31
0.0
1001
DBPROPERTIES
1002
{
1000
PbThick
1002
}
  0
LINE
  5
B9
330
1F
100
AcDbEntity
  8
THICK
100
AcDbLine
 10
-17.36631393432617
 20
-9.09711742401123
 30
0.0
 11
-17.29646682739258
 21
-9.295867919921875
 31
0.0
1001
DBPROPERTIES
1002
{
1000
PbThick
1002
}
  0
LINE
  5
BA
330
1F
100
AcDbEntity
  8
THICK
100
AcDbLine
 10
-17.29646682739258
 20
-9.295867919921875
 30
0.0
 11
-17.24031448364258
 21
-9.501733779907227
 31
0.0
1001
DBPROPERTIES
1002
{
1000
PbThick
1002
}
  0
LINE
  5
BB
330
1F
100
AcDbEntity
  8
THICK
100
AcDbLine
 10
-17.24031448364258
 20
-9.501733779907227
 30
0.0
 11
-17.19813919067383
 21
-9.713411331176758
 31
0.0
1001
DBPROPERTIES
1002
{
1000
PbThick
1002
}
  0
LINE
  5
BC
330
1F
100
AcDbEntity
  8
THICK
100
AcDbLine
 10
-17.19813919067383
 20
-9.713411331176758
 30
0.0
 11
-17.16998672485352
 21
-9.929656982421875
 31
0.0
1001
DBPROPERTIES
1002
{
1000
PbThick
1002
}
  0
LINE
  5
BD
330
1F
100
AcDbEntity
  8
THICK
100
AcDbLine
 10
-17.16998672485352
 20
-9.929656982421875
 30
0.0
 11
-17.15556907653809
 21
-10.1490535736084
 31
0.0
1001
DBPROPERTIES
1002
{
1000
PbThick
1002
}
  0
LINE
  5
BE
330
1F
100
AcDbEntity
  8
THICK
100
AcDbLine
 10
-17.15556907653809
 20
-10.1490535736084
 30
0.0
 11
-17.15456581115723
 21
-10.3701286315918
 31
0.0
1001
DBPROPERTIES
1002
{
1000
PbThick
1002
}
  0
LINE
  5
BF
330
1F
100
AcDbEntity
  8
THICK
100
AcDbLine
 10
-17.15456581115723
 20
-10.3701286315918
 30
0.0
 11
-17.16657066345215
 21
-10.59139823913574
 31
0.0
1001
DBPROPERTIES
1002
{
1000
PbThick
1002
}
  0
LINE
  5
C0
330
1F
100
AcDbEntity
  8
THICK
100
AcDbLine
 10
-17.16657066345215
 20
-10.59139823913574
 30
0.0
 11
-17.19076919555664
 21
-10.8113317489624
 31
0.0
1001
DBPROPERTIES
1002
{
1000
PbThick
1002
}
  0
LINE
  5
C1
330
1F
100
AcDbEntity
  8
THICK
100
AcDbLine
 10
-17.19076919555664
 20
-10.8113317489624
 30
0.0
 11
-17.22622299194336
 21
-11.0283842086792
 31
0.0
1001
DBPROPERTIES
1002
{
1000
PbThick
1002
}
  0
LINE
  5
C2
330
1F
100
AcDbEntity
  8
THICK
100
AcDbLine
 10
-17.22622299194336
 20
-11.0283842086792
 30
0.0
 11
-17.27238273620605
 21
-11.24273872375488
 31
0.0
1001
DBPROPERTIES
1002
{
1000
PbThick
1002
}
  0
LINE
  5
C3
330
1F
100
AcDbEntity
  8
THICK
100
AcDbLine
 10
-17.27238273620605
 20
-11.24273872375488
 30
0.0
 11
-17.33030128479004
 21
-11.45999431610107
 31
0.0
1001
DBPROPERTIES
1002
{
1000
PbThick
1002
}
  0
LINE
  5
C4
330
1F
100
AcDbEntity
  8
THICK
100
AcDbLine
 10
-17.33030128479004
 20
-11.45999431610107
 30
0.0
 11
-17.40963745117188
 21
-11.70713901519775
 31
0.0
1001
DBPROPERTIES
1002
{
1000
PbThick
1002
}
  0
LINE
  5
C5
330
1F
100
AcDbEntity
  8
THICK
100
AcDbLine
 10
-17.40963745117188
 20
-11.70713901519775
 30
0.0
 11
-17.5040283203125
 21
-11.95574283599854
 31
0.0
1001
DBPROPERTIES
1002
{
1000
PbThick
1002
}
  0
LINE
  5
C6
330
1F
100
AcDbEntity
  8
THICK
100
AcDbLine
 10
-17.5040283203125
 20
-11.95574283599854
 30
0.0
 11
-17.6132926940918
 21
-12.20418834686279
 31
0.0
1001
DBPROPERTIES
1002
{
1000
PbThick
1002
}
  0
LINE
  5
C7
330
1F
100
AcDbEntity
  8
THICK
100
AcDbLine
 10
-17.6132926940918
 20
-12.20418834686279
 30
0.0
 11
-17.73687362670898
 21
-12.45093154907227
 31
0.0
1001
DBPROPERTIES
1002
{
1000
PbThick
1002
}
  0
LINE
  5
C8
330
1F
100
AcDbEntity
  8
THICK
100
AcDbLine
 10
-17.73687362670898
 20
-12.45093154907227
 30
0.0
 11
-17.87416076660156
 21
-12.69443988800049
 31
0.0
1001
DBPROPERTIES
1002
{
1000
PbThick
1002
}
  0
LINE
  5
C9
330
1F
100
AcDbEntity
  8
THICK
100
AcDbLine
 10
-17.87416076660156
 20
-12.69443988800049
 30
0.0
 11
-18.02452278137207
 21
-12.93327903747559
 31
0.0
1001
DBPROPERTIES
1002
{
1000
PbThick
1002
}
  0
LINE
  5
CA
330
1F
100
AcDbEntity
  8
THICK
100
AcDbLine
 10
-18.02452278137207
 20
-12.93327903747559
 30
0.0
 11
-18.18700790405273
 21
-13.16614627838135
 31
0.0
1001
DBPROPERTIES
1002
{
1000
PbThick
1002
}
  0
LINE
  5
CB
330
1F
100
AcDbEntity
  8
THICK
100
AcDbLine
 10
-18.18700790405273
 20
-13.16614627838135
 30
0.0
 11
-18.36053657531738
 21
-13.39169120788574
 31
0.0
1001
DBPROPERTIES
1002
{
1000
PbThick
1002
}
  0
LINE
  5
CC
330
1F
100
AcDbEntity
  8
THICK
100
AcDbLine
 10
-18.36053657531738
 20
-13.39169120788574
 30
0.0
 11
-18.54399490356445
 21
-13.60857772827148
 31
0.0
1001
DBPROPERTIES
1002
{
1000
PbThick
1002
}
  0
LINE
  5
CD
330
1F
100
AcDbEntity
  8
THICK
100
AcDbLine
 10
-18.54399490356445
 20
-13.60857772827148
 30
0.0
 11
-18.73600387573242
 21
-13.81563568115234
 31
0.0
1001
DBPROPERTIES
1002
{
1000
PbThick
1002
}
  0
LINE
  5
CE
330
1F
100
AcDbEntity
  8
THICK
100
AcDbLine
 10
-18.73600387573242
 20
-13.81563568115234
 30
0.0
 11
-18.93501853942871
 21
-14.01178741455078
 31
0.0
1001
DBPROPERTIES
1002
{
1000
PbThick
1002
}
  0
LINE
  5
CF
330
1F
100
AcDbEntity
  8
THICK
100
AcDbLine
 10
-18.93501853942871
 20
-14.01178741455078
 30
0.0
 11
-19.14069175720215
 21
-14.19699668884277
 31
0.0
1001
DBPROPERTIES
1002
{
1000
PbThick
1002
}
  0
LINE
  5
D0
330
1F
100
AcDbEntity
  8
THICK
100
AcDbLine
 10
-19.14069175720215
 20
-14.19699668884277
 30
0.0
 11
-19.35874938964844
 21
-14.37599754333496
 31
0.0
1001
DBPROPERTIES
1002
{
1000
PbThick
1002
}
  0
LINE
  5
D1
330
1F
100
AcDbEntity
  8
THICK
100
AcDbLine
 10
-19.35874938964844
 20
-14.37599754333496
 30
0.0
 11
-19.58894348144531
 21
-14.54750537872314
 31
0.0
1001
DBPROPERTIES
1002
{
1000
PbThick
1002
}
  0
LINE
  5
D2
330
1F
100
AcDbEntity
  8
THICK
100
AcDbLine
 10
-19.58894348144531
 20
-14.54750537872314
 30
0.0
 11
-19.82979393005371
 21
-14.70913696289062
 31
0.0
1001
DBPROPERTIES
1002
{
1000
PbThick
1002
}
  0
LINE
  5
D3
330
1F
100
AcDbEntity
  8
THICK
100
AcDbLine
 10
-19.82979393005371
 20
-14.70913696289062
 30
0.0
 11
-20.07961082458496
 21
-14.85882759094238
 31
0.0
1001
DBPROPERTIES
1002
{
1000
PbThick
1002
}
  0
LINE
  5
D4
330
1F
100
AcDbEntity
  8
THICK
100
AcDbLine
 10
-20.07961082458496
 20
-14.85882759094238
 30
0.0
 11
-20.33650207519531
 21
-14.99482250213623
 31
0.0
1001
DBPROPERTIES
1002
{
1000
PbThick
1002
}
  0
LINE
  5
D5
330
1F
100
AcDbEntity
  8
THICK
100
AcDbLine
 10
-20.33650207519531
 20
-14.99482250213623
 30
0.0
 11
-20.59860229492188
 21
-15.11541652679443
 31
0.0
1001
DBPROPERTIES
1002
{
1000
PbThick
1002
}
  0
LINE
  5
D6
330
1F
100
AcDbEntity
  8
THICK
100
AcDbLine
 10
-20.59860229492188
 20
-15.11541652679443
 30
0.0
 11
-20.86412620544434
 21
-15.21933937072754
 31
0.0
1001
DBPROPERTIES
1002
{
1000
PbThick
1002
}
  0
LINE
  5
D7
330
1F
100
AcDbEntity
  8
THICK
100
AcDbLine
 10
-20.86412620544434
 20
-15.21933937072754
 30
0.0
 11
-21.13094902038574
 21
-15.30556488037109
 31
0.0
1001
DBPROPERTIES
1002
{
1000
PbThick
1002
}
  0
LINE
  5
D8
330
1F
100
AcDbEntity
  8
THICK
100
AcDbLine
 10
-21.13094902038574
 20
-15.30556488037109
 30
0.0
 11
-21.39691162109375
 21
-15.37308502197266
 31
0.0
1001
DBPROPERTIES
1002
{
1000
PbThick
1002
}
  0
LINE
  5
D9
330
1F
100
AcDbEntity
  8
THICK
100
AcDbLine
 10
-21.39691162109375
 20
-15.37308502197266
 30
0.0
 11
-21.65984153747559
 21
-15.42136573791504
 31
0.0
1001
DBPROPERTIES
1002
{
1000
PbThick
1002
}
  0
LINE
  5
DA
330
1F
100
AcDbEntity
  8
THICK
100
AcDbLine
 10
-21.65984153747559
 20
-15.42136573791504
 30
0.0
 11
-21.91756820678711
 21
-15.4503345489502
 31
0.0
1001
DBPROPERTIES
1002
{
1000
PbThick
1002
}
  0
LINE
  5
DB
330
1F
100
AcDbEntity
  8
THICK
100
AcDbLine
 10
-21.91756820678711
 20
-15.4503345489502
 30
0.0
 11
-22.16907691955566
 21
-15.45996570587158
 31
0.0
1001
DBPROPERTIES
1002
{
1000
PbThick
1002
}
  0
LINE
  5
DC
330
1F
100
AcDbEntity
  8
HIDDEN
100
AcDbLine
 10
-22.16907691955566
 20
-15.45996570587158
 30
0.0
 11
-22.42305946350098
 21
-15.44970035552979
 31
0.0
1001
DBPROPERTIES
1002
{
1000
PbHidd
1002
}
  0
LINE
  5
DD
330
1F
100
AcDbEntity
  8
HIDDEN
100
AcDbLine
 10
-22.42305946350098
 20
-15.44970035552979
 30
0.0
 11
-22.67195510864258
 21
-15.41854667663574
 31
0.0
1001
DBPROPERTIES
1002
{
1000
PbHidd
1002
}
  0
LINE
  5
DE
330
1F
100
AcDbEntity
  8
HIDDEN
100
AcDbLine
 10
-22.67195510864258
 20
-15.41854667663574
 30
0.0
 11
-22.91291046142578
 21
-15.36598873138428
 31
0.0
1001
DBPROPERTIES
1002
{
1000
PbHidd
1002
}
  0
LINE
  5
DF
330
1F
100
AcDbEntity
  8
HIDDEN
100
AcDbLine
 10
-22.91291046142578
 20
-15.36598873138428
 30
0.0
 11
-23.14351844787598
 21
-15.29234790802002
 31
0.0
1001
DBPROPERTIES
1002
{
1000
PbHidd
1002
}
  0
LINE
  5
E0
330
1F
100
AcDbEntity
  8
HIDDEN
100
AcDbLine
 10
-23.14351844787598
 20
-15.29234790802002
 30
0.0
 11
-23.36161804199219
 21
-15.19841289520264
 31
0.0
1001
DBPROPERTIES
1002
{
1000
PbHidd
1002
}
  0
LINE
  5
E1
330
1F
100
AcDbEntity
  8
HIDDEN
100
AcDbLine
 10
-23.36161804199219
 20
-15.19841289520264
 30
0.0
 11
-23.56530570983887
 21
-15.08503437042236
 31
0.0
1001
DBPROPERTIES
1002
{
1000
PbHidd
1002
}
  0
LINE
  5
E2
330
1F
100
AcDbEntity
  8
HIDDEN
100
AcDbLine
 10
-23.56530570983887
 20
-15.08503437042236
 30
0.0
 11
-23.75335884094238
 21
-14.95372009277344
 31
0.0
1001
DBPROPERTIES
1002
{
1000
PbHidd
1002
}
  0
LINE
  5
E3
330
1F
100
AcDbEntity
  8
HIDDEN
100
AcDbLine
 10
-23.75335884094238
 20
-14.95372009277344
 30
0.0
 11
-23.92453765869141
 21
-14.8063383102417
 31
0.0
1001
DBPROPERTIES
1002
{
1000
PbHidd
1002
}
  0
LINE
  5
E4
330
1F
100
AcDbEntity
  8
HIDDEN
100
AcDbLine
 10
-23.92453765869141
 20
-14.8063383102417
 30
0.0
 11
-24.07779884338379
 21
-14.644944190979
 31
0.0
1001
DBPROPERTIES
1002
{
1000
PbHidd
1002
}
  0
LINE
  5
E5
330
1F
100
AcDbEntity
  8
HIDDEN
100
AcDbLine
 10
-24.07779884338379
 20
-14.644944190979
 30
0.0
 11
-24.21281814575195
 21
-14.47224521636963
 31
0.0
1001
DBPROPERTIES
1002
{
1000
PbHidd
1002
}
  0
LINE
  5
E6
330
1F
100
AcDbEntity
  8
HIDDEN
100
AcDbLine
 10
-24.21281814575195
 20
-14.47224521636963
 30
0.0
 11
-24.32951545715332
 21
-14.29092693328857
 31
0.0
1001
DBPROPERTIES
1002
{
1000
PbHidd
1002
}
  0
LINE
  5
E7
330
1F
100
AcDbEntity
  8
HIDDEN
100
AcDbLine
 10
-24.32951545715332
 20
-14.29092693328857
 30
0.0
 11
-24.43086242675781
 21
-14.09803485870361
 31
0.0
1001
DBPROPERTIES
1002
{
1000
PbHidd
1002
}
  0
LINE
  5
E8
330
1F
100
AcDbEntity
  8
HIDDEN
100
AcDbLine
 10
-24.43086242675781
 20
-14.09803485870361
 30
0.0
 11
-24.51771545410156
 21
-13.89238166809082
 31
0.0
1001
DBPROPERTIES
1002
{
1000
PbHidd
1002
}
  0
LINE
  5
E9
330
1F
100
AcDbEntity
  8
HIDDEN
100
AcDbLine
 10
-24.51771545410156
 20
-13.89238166809082
 30
0.0
 11
-24.58927917480469
 21
-13.67523097991943
 31
0.0
1001
DBPROPERTIES
1002
{
1000
PbHidd
1002
}
  0
LINE
  5
EA
330
1F
100
AcDbEntity
  8
HIDDEN
100
AcDbLine
 10
-24.58927917480469
 20
-13.67523097991943
 30
0.0
 11
-24.64492607116699
 21
-13.44792556762695
 31
0.0
1001
DBPROPERTIES
1002
{
1000
PbHidd
1002
}
  0
LINE
  5
EB
330
1F
100
AcDbEntity
  8
HIDDEN
100
AcDbLine
 10
-24.64492607116699
 20
-13.44792556762695
 30
0.0
 11
-24.68447875976562
 21
-13.2120304107666
 31
0.0
1001
DBPROPERTIES
1002
{
1000
PbHidd
1002
}
  0
LINE
  5
EC
330
1F
100
AcDbEntity
  8
HIDDEN
100
AcDbLine
 10
-24.68447875976562
 20
-13.2120304107666
 30
0.0
 11
-24.70782470703125
 21
-12.96915054321289
 31
0.0
1001
DBPROPERTIES
1002
{
1000
PbHidd
1002
}
  0
LINE
  5
ED
330
1F
100
AcDbEntity
  8
HIDDEN
100
AcDbLine
 10
-24.70782470703125
 20
-12.96915054321289
 30
0.0
 11
-24.7149658203125
 21
-12.72083187103271
 31
0.0
1001
DBPROPERTIES
1002
{
1000
PbHidd
1002
}
  0
LINE
  5
EE
330
1F
100
AcDbEntity
  8
HIDDEN
100
AcDbLine
 10
-24.7149658203125
 20
-12.72083187103271
 30
0.0
 11
-24.706298828125
 21
-12.46877098083496
 31
0.0
1001
DBPROPERTIES
1002
{
1000
PbHidd
1002
}
  0
LINE
  5
EF
330
1F
100
AcDbEntity
  8
HIDDEN
100
AcDbLine
 10
-24.706298828125
 20
-12.46877098083496
 30
0.0
 11
-24.68231201171875
 21
-12.21478462219238
 31
0.0
1001
DBPROPERTIES
1002
{
1000
PbHidd
1002
}
  0
LINE
  5
F0
330
1F
100
AcDbEntity
  8
HIDDEN
100
AcDbLine
 10
-24.68231201171875
 20
-12.21478462219238
 30
0.0
 11
-24.64357376098633
 21
-11.96070575714111
 31
0.0
1001
DBPROPERTIES
1002
{
1000
PbHidd
1002
}
  0
LINE
  5
F1
330
1F
100
AcDbEntity
  8
HIDDEN
100
AcDbLine
 10
-24.64357376098633
 20
-11.96070575714111
 30
0.0
 11
-24.59109306335449
 21
-11.70845985412598
 31
0.0
1001
DBPROPERTIES
1002
{
1000
PbHidd
1002
}
  0
LINE
  5
F2
330
1F
100
AcDbEntity
  8
HIDDEN
100
AcDbLine
 10
-24.59109306335449
 20
-11.70845985412598
 30
0.0
 11
-24.52602767944336
 21
-11.46000003814697
 31
0.0
1001
DBPROPERTIES
1002
{
1000
PbHidd
1002
}
  0
LINE
  5
F3
330
1F
100
AcDbEntity
  8
HIDDEN
100
AcDbLine
 10
0.0000000000000044
 20
-20.00624491117622
 30
0.0
 11
-72.225
 21
-20.00624491117622
 31
0.0
1001
DBPROPERTIES
1002
{
1000
PbHidd
1002
}
  0
LINE
  5
F4
330
1F
100
AcDbEntity
  8
THICK
100
AcDbLine
 10
-72.225
 20
-20.00624491117622
 30
0.0
 11
-64.8990117015007
 21
-20.00624491117622
 31
0.0
1001
DBPROPERTIES
1002
{
1000
PbThick
1002
}
  0
LINE
  5
F5
330
1F
100
AcDbEntity
  8
HIDDEN
100
AcDbLine
 10
-64.8990117015007
 20
-20.00624491117622
 30
0.0
 11
-55.91781216351325
 21
-20.00624491117622
 31
0.0
1001
DBPROPERTIES
1002
{
1000
PbHidd
1002
}
  0
LINE
  5
F6
330
1F
100
AcDbEntity
  8
THICK
100
AcDbLine
 10
-55.91781216351325
 20
-20.00624491117622
 30
0.0
 11
-0.0000000000000133
 21
-20.00624491117622
 31
0.0
1001
DBPROPERTIES
1002
{
1000
PbThick
1002
}
  0
LINE
  5
F7
330
1F
100
AcDbEntity
  8
THICK
100
AcDbLine
 10
-72.225
 20
-18.57624491117622
 30
0.0
 11
-65.98111695902583
 21
-18.57624491117622
 31
0.0
1001
DBPROPERTIES
1002
{
1000
PbThick
1002
}
  0
LINE
  5
F8
330
1F
100
AcDbEntity
  8
HIDDEN
100
AcDbLine
 10
-65.98111695902583
 20
-18.57624491117622
 30
0.0
 11
-56.54687366956006
 21
-18.57624491117622
 31
0.0
1001
DBPROPERTIES
1002
{
1000
PbHidd
1002
}
  0
LINE
  5
F9
330
1F
100
AcDbEntity
  8
THICK
100
AcDbLine
 10
-56.54687366956006
 20
-18.57624491117622
 30
0.0
 11
-0.0000000000000133
 21
-18.57624491117622
 31
0.0
1001
DBPROPERTIES
1002
{
1000
PbThick
1002
}
  0
LINE
  5
FA
330
1F
100
AcDbEntity
  8
THICK
100
AcDbLine
 10
-205.0
 20
-35.75
 30
0.0
 11
-0.0000000000000377
 21
-35.75
 31
0.0
1001
DBPROPERTIES
1002
{
1000
PbThick
1002
}
  0
LINE
  5
FB
330
1F
100
AcDbEntity
  8
THICK
100
AcDbLine
 10
-57.75
 20
-33.77254486083984
 30
0.0
 11
-58.03525543212891
 21
-33.78202056884766
 31
0.0
1001
DBPROPERTIES
1002
{
1000
PbThick
1002
}
  0
LINE
  5
FC
330
1F
100
AcDbEntity
  8
THICK
100
AcDbLine
 10
-58.03525543212891
 20
-33.78202056884766
 30
0.0
 11
-58.31822204589844
 21
-33.78965377807617
 31
0.0
1001
DBPROPERTIES
1002
{
1000
PbThick
1002
}
  0
LINE
  5
FD
330
1F
100
AcDbEntity
  8
THICK
100
AcDbLine
 10
-58.31822204589844
 20
-33.78965377807617
 30
0.0
 11
-58.59731674194336
 21
-33.79541015625
 31
0.0
1001
DBPROPERTIES
1002
{
1000
PbThick
1002
}
  0
LINE
  5
FE
330
1F
100
AcDbEntity
  8
THICK
100
AcDbLine
 10
-58.59731674194336
 20
-33.79541015625
 30
0.0
 11
-58.87101745605469
 21
-33.79932403564453
 31
0.0
1001
DBPROPERTIES
1002
{
1000
PbThick
1002
}
  0
LINE
  5
FF
330
1F
100
AcDbEntity
  8
THICK
100
AcDbLine
 10
-58.87101745605469
 20
-33.79932403564453
 30
0.0
 11
-59.1378173828125
 21
-33.80143737792969
 31
0.0
1001
DBPROPERTIES
1002
{
1000
PbThick
1002
}
  0
LINE
  5
100
330
1F
100
AcDbEntity
  8
THICK
100
AcDbLine
 10
-59.1378173828125
 20
-33.80143737792969
 30
0.0
 11
-59.3966178894043
 21
-33.80180358886719
 31
0.0
1001
DBPROPERTIES
1002
{
1000
PbThick
1002
}
  0
LINE
  5
101
330
1F
100
AcDbEntity
  8
THICK
100
AcDbLine
 10
-59.3966178894043
 20
-33.80180358886719
 30
0.0
 11
-59.65258407592773
 21
-33.80044174194336
 31
0.0
1001
DBPROPERTIES
1002
{
1000
PbThick
1002
}
  0
LINE
  5
102
330
1F
100
AcDbEntity
  8
THICK
100
AcDbLine
 10
-59.65258407592773
 20
-33.80044174194336
 30
0.0
 11
-59.90641403198242
 21
-33.79729843139648
 31
0.0
1001
DBPROPERTIES
1002
{
1000
PbThick
1002
}
  0
LINE
  5
103
330
1F
100
AcDbEntity
  8
THICK
100
AcDbLine
 10
-59.90641403198242
 20
-33.79729843139648
 30
0.0
 11
-60.15633392333984
 21
-33.79233169555664
 31
0.0
1001
DBPROPERTIES
1002
{
1000
PbThick
1002
}
  0
LINE
  5
104
330
1F
100
AcDbEntity
  8
THICK
100
AcDbLine
 10
-60.15633392333984
 20
-33.79233169555664
 30
0.0
 11
-60.40061187744141
 21
-33.78549957275391
 31
0.0
1001
DBPROPERTIES
1002
{
1000
PbThick
1002
}
  0
LINE
  5
105
330
1F
100
AcDbEntity
  8
THICK
100
AcDbLine
 10
-60.40061187744141
 20
-33.78549957275391
 30
0.0
 11
-60.63773345947266
 21
-33.77680206298828
 31
0.0
1001
DBPROPERTIES
1002
{
1000
PbThick
1002
}
  0
LINE
  5
106
330
1F
100
AcDbEntity
  8
THICK
100
AcDbLine
 10
-60.63773345947266
 20
-33.77680206298828
 30
0.0
 11
-60.86629867553711
 21
-33.76627731323242
 31
0.0
1001
DBPROPERTIES
1002
{
1000
PbThick
1002
}
  0
LINE
  5
107
330
1F
100
AcDbEntity
  8
THICK
100
AcDbLine
 10
-60.86629867553711
 20
-33.76627731323242
 30
0.0
 11
-61.08492279052734
 21
-33.75395965576172
 31
0.0
1001
DBPROPERTIES
1002
{
1000
PbThick
1002
}
  0
LINE
  5
108
330
1F
100
AcDbEntity
  8
THICK
100
AcDbLine
 10
-61.08492279052734
 20
-33.75395965576172
 30
0.0
 11
-61.29245758056641
 21
-33.73989486694336
 31
0.0
1001
DBPROPERTIES
1002
{
1000
PbThick
1002
}
  0
LINE
  5
109
330
1F
100
AcDbEntity
  8
THICK
100
AcDbLine
 10
-61.29245758056641
 20
-33.73989486694336
 30
0.0
 11
-61.48797988891602
 21
-33.72417068481445
 31
0.0
1001
DBPROPERTIES
1002
{
1000
PbThick
1002
}
  0
LINE
  5
10A
330
1F
100
AcDbEntity
  8
THICK
100
AcDbLine
 10
-61.48797988891602
 20
-33.72417068481445
 30
0.0
 11
-61.67054748535156
 21
-33.7068977355957
 31
0.0
1001
DBPROPERTIES
1002
{
1000
PbThick
1002
}
  0
LINE
  5
10B
330
1F
100
AcDbEntity
  8
THICK
100
AcDbLine
 10
-61.67054748535156
 20
-33.7068977355957
 30
0.0
 11
-61.8392219543457
 21
-33.68817520141602
 31
0.0
1001
DBPROPERTIES
1002
{
1000
PbThick
1002
}
  0
LINE
  5
10C
330
1F
100
AcDbEntity
  8
THICK
100
AcDbLine
 10
-61.8392219543457
 20
-33.68817520141602
 30
0.0
 11
-61.99341201782227
 21
-33.66815567016602
 31
0.0
1001
DBPROPERTIES
1002
{
1000
PbThick
1002
}
  0
LINE
  5
10D
330
1F
100
AcDbEntity
  8
THICK
100
AcDbLine
 10
-61.99341201782227
 20
-33.66815567016602
 30
0.0
 11
-62.13275146484375
 21
-33.64701461791992
 31
0.0
1001
DBPROPERTIES
1002
{
1000
PbThick
1002
}
  0
LINE
  5
10E
330
1F
100
AcDbEntity
  8
THICK
100
AcDbLine
 10
-62.13275146484375
 20
-33.64701461791992
 30
0.0
 11
-62.25690078735352
 21
-33.62491989135742
 31
0.0
1001
DBPROPERTIES
1002
{
1000
PbThick
1002
}
  0
LINE
  5
10F
330
1F
100
AcDbEntity
  8
THICK
100
AcDbLine
 10
-62.25690078735352
 20
-33.62491989135742
 30
0.0
 11
-62.36787033081055
 21
-33.60155487060547
 31
0.0
1001
DBPROPERTIES
1002
{
1000
PbThick
1002
}
  0
LINE
  5
110
330
1F
100
AcDbEntity
  8
THICK
100
AcDbLine
 10
-62.36787033081055
 20
-33.60155487060547
 30
0.0
 11
-62.46656036376953
 21
-33.5766716003418
 31
0.0
1001
DBPROPERTIES
1002
{
1000
PbThick
1002
}
  0
LINE
  5
111
330
1F
100
AcDbEntity
  8
THICK
100
AcDbLine
 10
-62.46656036376953
 20
-33.5766716003418
 30
0.0
 11
-62.55186462402344
 21
-33.55036926269531
 31
0.0
1001
DBPROPERTIES
1002
{
1000
PbThick
1002
}
  0
LINE
  5
112
330
1F
100
AcDbEntity
  8
THICK
100
AcDbLine
 10
-62.55186462402344
 20
-33.55036926269531
 30
0.0
 11
-62.62269592285156
 21
-33.52275466918945
 31
0.0
1001
DBPROPERTIES
1002
{
1000
PbThick
1002
}
  0
LINE
  5
113
330
1F
100
AcDbEntity
  8
THICK
100
AcDbLine
 10
-62.62269592285156
 20
-33.52275466918945
 30
0.0
 11
-62.67831420898438
 21
-33.49395370483398
 31
0.0
1001
DBPROPERTIES
1002
{
1000
PbThick
1002
}
  0
LINE
  5
114
330
1F
100
AcDbEntity
  8
THICK
100
AcDbLine
 10
-62.67831420898438
 20
-33.49395370483398
 30
0.0
 11
-62.71831130981445
 21
-33.46411514282227
 31
0.0
1001
DBPROPERTIES
1002
{
1000
PbThick
1002
}
  0
LINE
  5
115
330
1F
100
AcDbEntity
  8
THICK
100
AcDbLine
 10
-62.71831130981445
 20
-33.46411514282227
 30
0.0
 11
-62.74228668212891
 21
-33.43339157104492
 31
0.0
1001
DBPROPERTIES
1002
{
1000
PbThick
1002
}
  0
LINE
  5
116
330
1F
100
AcDbEntity
  8
THICK
100
AcDbLine
 10
-62.74228668212891
 20
-33.43339157104492
 30
0.0
 11
-62.74994277954102
 21
-33.40192413330078
 31
0.0
1001
DBPROPERTIES
1002
{
1000
PbThick
1002
}
  0
LINE
  5
117
330
1F
100
AcDbEntity
  8
THICK
100
AcDbLine
 10
-62.74994277954102
 20
-33.40192413330078
 30
0.0
 11
-62.7408561706543
 21
-33.36879730224609
 31
0.0
1001
DBPROPERTIES
1002
{
1000
PbThick
1002
}
  0
LINE
  5
118
330
1F
100
AcDbEntity
  8
THICK
100
AcDbLine
 10
-62.7408561706543
 20
-33.36879730224609
 30
0.0
 11
-62.71477127075195
 21
-33.33524322509766
 31
0.0
1001
DBPROPERTIES
1002
{
1000
PbThick
1002
}
  0
LINE
  5
119
330
1F
100
AcDbEntity
  8
THICK
100
AcDbLine
 10
-62.71477127075195
 20
-33.33524322509766
 30
0.0
 11
-62.67198181152344
 21
-33.30146789550781
 31
0.0
1001
DBPROPERTIES
1002
{
1000
PbThick
1002
}
  0
LINE
  5
11A
330
1F
100
AcDbEntity
  8
THICK
100
AcDbLine
 10
-62.67198181152344
 20
-33.30146789550781
 30
0.0
 11
-62.61314010620117
 21
-33.26767730712891
 31
0.0
1001
DBPROPERTIES
1002
{
1000
PbThick
1002
}
  0
LINE
  5
11B
330
1F
100
AcDbEntity
  8
THICK
100
AcDbLine
 10
-62.61314010620117
 20
-33.26767730712891
 30
0.0
 11
-62.5392951965332
 21
-33.23408889770508
 31
0.0
1001
DBPROPERTIES
1002
{
1000
PbThick
1002
}
  0
LINE
  5
11C
330
1F
100
AcDbEntity
  8
THICK
100
AcDbLine
 10
-62.5392951965332
 20
-33.23408889770508
 30
0.0
 11
-62.45153045654297
 21
-33.200927734375
 31
0.0
1001
DBPROPERTIES
1002
{
1000
PbThick
1002
}
  0
LINE
  5
11D
330
1F
100
AcDbEntity
  8
THICK
100
AcDbLine
 10
-62.45153045654297
 20
-33.200927734375
 30
0.0
 11
-62.36448669433594
 21
-33.17250061035156
 31
0.0
1001
DBPROPERTIES
1002
{
1000
PbThick
1002
}
  0
LINE
  5
11E
330
1F
100
AcDbEntity
  8
THICK
100
AcDbLine
 10
-62.36448669433594
 20
-33.17250061035156
 30
0.0
 11
-62.26529693603516
 21
-33.14371490478516
 31
0.0
1001
DBPROPERTIES
1002
{
1000
PbThick
1002
}
  0
LINE
  5
11F
330
1F
100
AcDbEntity
  8
THICK
100
AcDbLine
 10
-62.26529693603516
 20
-33.14371490478516
 30
0.0
 11
-62.15406799316406
 21
-33.11471557617188
 31
0.0
1001
DBPROPERTIES
1002
{
1000
PbThick
1002
}
  0
LINE
  5
120
330
1F
100
AcDbEntity
  8
THICK
100
AcDbLine
 10
-62.15406799316406
 20
-33.11471557617188
 30
0.0
 11
-62.03091430664062
 21
-33.08564758300781
 31
0.0
1001
DBPROPERTIES
1002
{
1000
PbThick
1002
}
  0
LINE
  5
121
330
1F
100
AcDbEntity
  8
THICK
100
AcDbLine
 10
-62.03091430664062
 20
-33.08564758300781
 30
0.0
 11
-61.89604949951172
 21
-33.05665969848633
 31
0.0
1001
DBPROPERTIES
1002
{
1000
PbThick
1002
}
  0
LINE
  5
122
330
1F
100
AcDbEntity
  8
THICK
100
AcDbLine
 10
-61.89604949951172
 20
-33.05665969848633
 30
0.0
 11
-61.74999618530273
 21
-33.02788543701172
 31
0.0
1001
DBPROPERTIES
1002
{
1000
PbThick
1002
}
  0
LINE
  5
123
330
1F
100
AcDbEntity
  8
HIDDEN
100
AcDbLine
 10
-61.74999618530273
 20
-33.02788543701172
 30
0.0
 11
-61.52310562133789
 21
-32.98743057250977
 31
0.0
1001
DBPROPERTIES
1002
{
1000
PbHidd
1002
}
  0
LINE
  5
124
330
1F
100
AcDbEntity
  8
HIDDEN
100
AcDbLine
 10
-61.52310562133789
 20
-32.98743057250977
 30
0.0
 11
-61.27619552612305
 21
-32.94807052612305
 31
0.0
1001
DBPROPERTIES
1002
{
1000
PbHidd
1002
}
  0
LINE
  5
125
330
1F
100
AcDbEntity
  8
HIDDEN
100
AcDbLine
 10
-61.27619552612305
 20
-32.94807052612305
 30
0.0
 11
-61.01145172119141
 21
-32.91013336181641
 31
0.0
1001
DBPROPERTIES
1002
{
1000
PbHidd
1002
}
  0
LINE
  5
126
330
1F
100
AcDbEntity
  8
HIDDEN
100
AcDbLine
 10
-61.01145172119141
 20
-32.91013336181641
 30
0.0
 11
-60.73156356811523
 21
-32.87395095825195
 31
0.0
1001
DBPROPERTIES
1002
{
1000
PbHidd
1002
}
  0
LINE
  5
127
330
1F
100
AcDbEntity
  8
HIDDEN
100
AcDbLine
 10
-60.73156356811523
 20
-32.87395095825195
 30
0.0
 11
-60.43939971923828
 21
-32.83985137939453
 31
0.0
1001
DBPROPERTIES
1002
{
1000
PbHidd
1002
}
  0
LINE
  5
128
330
1F
100
AcDbEntity
  8
HIDDEN
100
AcDbLine
 10
-60.43939971923828
 20
-32.83985137939453
 30
0.0
 11
-60.13844299316406
 21
-32.80807495117188
 31
0.0
1001
DBPROPERTIES
1002
{
1000
PbHidd
1002
}
  0
LINE
  5
129
330
1F
100
AcDbEntity
  8
HIDDEN
100
AcDbLine
 10
-60.13844299316406
 20
-32.80807495117188
 30
0.0
 11
-59.83159255981445
 21
-32.77879333496094
 31
0.0
1001
DBPROPERTIES
1002
{
1000
PbHidd
1002
}
  0
LINE
  5
12A
330
1F
100
AcDbEntity
  8
HIDDEN
100
AcDbLine
 10
-59.83159255981445
 20
-32.77879333496094
 30
0.0
 11
-59.51101303100586
 21
-32.75125122070312
 31
0.0
1001
DBPROPERTIES
1002
{
1000
PbHidd
1002
}
  0
LINE
  5
12B
330
1F
100
AcDbEntity
  8
HIDDEN
100
AcDbLine
 10
-59.51101303100586
 20
-32.75125122070312
 30
0.0
 11
-59.17584228515625
 21
-32.72549438476562
 31
0.0
1001
DBPROPERTIES
1002
{
1000
PbHidd
1002
}
  0
LINE
  5
12C
330
1F
100
AcDbEntity
  8
HIDDEN
100
AcDbLine
 10
-59.17584228515625
 20
-32.72549438476562
 30
0.0
 11
-58.8289794921875
 21
-32.70191192626953
 31
0.0
1001
DBPROPERTIES
1002
{
1000
PbHidd
1002
}
  0
LINE
  5
12D
330
1F
100
AcDbEntity
  8
HIDDEN
100
AcDbLine
 10
-58.8289794921875
 20
-32.70191192626953
 30
0.0
 11
-58.47354888916016
 21
-32.68082046508789
 31
0.0
1001
DBPROPERTIES
1002
{
1000
PbHidd
1002
}
  0
LINE
  5
12E
330
1F
100
AcDbEntity
  8
HIDDEN
100
AcDbLine
 10
-58.47354888916016
 20
-32.68082046508789
 30
0.0
 11
-58.11284255981445
 21
-32.6624641418457
 31
0.0
1001
DBPROPERTIES
1002
{
1000
PbHidd
1002
}
  0
LINE
  5
12F
330
1F
100
AcDbEntity
  8
HIDDEN
100
AcDbLine
 10
-58.11284255981445
 20
-32.6624641418457
 30
0.0
 11
-57.75
 21
-32.64706039428711
 31
0.0
1001
DBPROPERTIES
1002
{
1000
PbHidd
1002
}
  0
LINE
  5
130
330
1F
100
AcDbEntity
  8
HIDDEN
100
AcDbLine
 10
-57.75
 20
-32.64706039428711
 30
0.0
 11
-57.50026702880859
 21
-32.63821792602539
 31
0.0
1001
DBPROPERTIES
1002
{
1000
PbHidd
1002
}
  0
LINE
  5
131
330
1F
100
AcDbEntity
  8
HIDDEN
100
AcDbLine
 10
-57.50026702880859
 20
-32.63821792602539
 30
0.0
 11
-57.25212478637695
 21
-32.63085556030273
 31
0.0
1001
DBPROPERTIES
1002
{
1000
PbHidd
1002
}
  0
LINE
  5
132
330
1F
100
AcDbEntity
  8
HIDDEN
100
AcDbLine
 10
-57.25212478637695
 20
-32.63085556030273
 30
0.0
 11
-57.00668334960938
 21
-32.62499618530273
 31
0.0
1001
DBPROPERTIES
1002
{
1000
PbHidd
1002
}
  0
LINE
  5
133
330
1F
100
AcDbEntity
  8
HIDDEN
100
AcDbLine
 10
-57.00668334960938
 20
-32.62499618530273
 30
0.0
 11
-56.76502990722656
 21
-32.62064743041992
 31
0.0
1001
DBPROPERTIES
1002
{
1000
PbHidd
1002
}
  0
LINE
  5
134
330
1F
100
AcDbEntity
  8
HIDDEN
100
AcDbLine
 10
-56.76502990722656
 20
-32.62064743041992
 30
0.0
 11
-56.52821731567383
 21
-32.61777114868164
 31
0.0
1001
DBPROPERTIES
1002
{
1000
PbHidd
1002
}
  0
LINE
  5
135
330
1F
100
AcDbEntity
  8
HIDDEN
100
AcDbLine
 10
-56.52821731567383
 20
-32.61777114868164
 30
0.0
 11
-56.29729080200195
 21
-32.61632537841797
 31
0.0
1001
DBPROPERTIES
1002
{
1000
PbHidd
1002
}
  0
LINE
  5
136
330
1F
100
AcDbEntity
  8
HIDDEN
100
AcDbLine
 10
-56.29729080200195
 20
-32.61632537841797
 30
0.0
 11
-56.07244110107422
 21
-32.61627960205078
 31
0.0
1001
DBPROPERTIES
1002
{
1000
PbHidd
1002
}
  0
LINE
  5
137
330
1F
100
AcDbEntity
  8
HIDDEN
100
AcDbLine
 10
-56.07244110107422
 20
-32.61627960205078
 30
0.0
 11
-55.84891128540039
 21
-32.61763000488281
 31
0.0
1001
DBPROPERTIES
1002
{
1000
PbHidd
1002
}
  0
LINE
  5
138
330
1F
100
AcDbEntity
  8
HIDDEN
100
AcDbLine
 10
-55.84891128540039
 20
-32.61763000488281
 30
0.0
 11
-55.6268196105957
 21
-32.62041473388672
 31
0.0
1001
DBPROPERTIES
1002
{
1000
PbHidd
1002
}
  0
LINE
  5
139
330
1F
100
AcDbEntity
  8
HIDDEN
100
AcDbLine
 10
-55.6268196105957
 20
-32.62041473388672
 30
0.0
 11
-55.40740966796875
 21
-32.62466812133789
 31
0.0
1001
DBPROPERTIES
1002
{
1000
PbHidd
1002
}
  0
LINE
  5
13A
330
1F
100
AcDbEntity
  8
HIDDEN
100
AcDbLine
 10
-55.40740966796875
 20
-32.62466812133789
 30
0.0
 11
-55.19191741943359
 21
-32.63042449951172
 31
0.0
1001
DBPROPERTIES
1002
{
1000
PbHidd
1002
}
  0
LINE
  5
13B
330
1F
100
AcDbEntity
  8
HIDDEN
100
AcDbLine
 10
-55.19191741943359
 20
-32.63042449951172
 30
0.0
 11
-54.9814453125
 21
-32.63768768310547
 31
0.0
1001
DBPROPERTIES
1002
{
1000
PbHidd
1002
}
  0
LINE
  5
13C
330
1F
100
AcDbEntity
  8
HIDDEN
100
AcDbLine
 10
-54.9814453125
 20
-32.63768768310547
 30
0.0
 11
-54.77698516845703
 21
-32.64643478393555
 31
0.0
1001
DBPROPERTIES
1002
{
1000
PbHidd
1002
}
  0
LINE
  5
13D
330
1F
100
AcDbEntity
  8
HIDDEN
100
AcDbLine
 10
-54.77698516845703
 20
-32.64643478393555
 30
0.0
 11
-54.57952117919922
 21
-32.65663528442383
 31
0.0
1001
DBPROPERTIES
1002
{
1000
PbHidd
1002
}
  0
LINE
  5
13E
330
1F
100
AcDbEntity
  8
HIDDEN
100
AcDbLine
 10
-54.57952117919922
 20
-32.65663528442383
 30
0.0
 11
-54.38999557495117
 21
-32.66826629638672
 31
0.0
1001
DBPROPERTIES
1002
{
1000
PbHidd
1002
}
  0
LINE
  5
13F
330
1F
100
AcDbEntity
  8
HIDDEN
100
AcDbLine
 10
-54.38999557495117
 20
-32.66826629638672
 30
0.0
 11
-54.2091064453125
 21
-32.68127059936523
 31
0.0
1001
DBPROPERTIES
1002
{
1000
PbHidd
1002
}
  0
LINE
  5
140
330
1F
100
AcDbEntity
  8
HIDDEN
100
AcDbLine
 10
-54.2091064453125
 20
-32.68127059936523
 30
0.0
 11
-54.03752136230469
 21
-32.69557189941406
 31
0.0
1001
DBPROPERTIES
1002
{
1000
PbHidd
1002
}
  0
LINE
  5
141
330
1F
100
AcDbEntity
  8
HIDDEN
100
AcDbLine
 10
-54.03752136230469
 20
-32.69557189941406
 30
0.0
 11
-53.87591552734375
 21
-32.71109390258789
 31
0.0
1001
DBPROPERTIES
1002
{
1000
PbHidd
1002
}
  0
LINE
  5
142
330
1F
100
AcDbEntity
  8
HIDDEN
100
AcDbLine
 10
-53.87591552734375
 20
-32.71109390258789
 30
0.0
 11
-53.72494888305664
 21
-32.72774505615234
 31
0.0
1001
DBPROPERTIES
1002
{
1000
PbHidd
1002
}
  0
LINE
  5
143
330
1F
100
AcDbEntity
  8
HIDDEN
100
AcDbLine
 10
-53.72494888305664
 20
-32.72774505615234
 30
0.0
 11
-53.58503723144531
 21
-32.74541854858398
 31
0.0
1001
DBPROPERTIES
1002
{
1000
PbHidd
1002
}
  0
LINE
  5
144
330
1F
100
AcDbEntity
  8
HIDDEN
100
AcDbLine
 10
-53.58503723144531
 20
-32.74541854858398
 30
0.0
 11
-53.45644760131836
 21
-32.76398086547852
 31
0.0
1001
DBPROPERTIES
1002
{
1000
PbHidd
1002
}
  0
LINE
  5
145
330
1F
100
AcDbEntity
  8
HIDDEN
100
AcDbLine
 10
-53.45644760131836
 20
-32.76398086547852
 30
0.0
 11
-53.33944702148438
 21
-32.78329849243164
 31
0.0
1001
DBPROPERTIES
1002
{
1000
PbHidd
1002
}
  0
LINE
  5
146
330
1F
100
AcDbEntity
  8
HIDDEN
100
AcDbLine
 10
-53.33944702148438
 20
-32.78329849243164
 30
0.0
 11
-53.23316955566406
 21
-32.80346298217773
 31
0.0
1001
DBPROPERTIES
1002
{
1000
PbHidd
1002
}
  0
LINE
  5
147
330
1F
100
AcDbEntity
  8
HIDDEN
100
AcDbLine
 10
-53.23316955566406
 20
-32.80346298217773
 30
0.0
 11
-53.13570022583008
 21
-32.8248405456543
 31
0.0
1001
DBPROPERTIES
1002
{
1000
PbHidd
1002
}
  0
LINE
  5
148
330
1F
100
AcDbEntity
  8
HIDDEN
100
AcDbLine
 10
-53.13570022583008
 20
-32.8248405456543
 30
0.0
 11
-53.04775619506836
 21
-32.84738159179688
 31
0.0
1001
DBPROPERTIES
1002
{
1000
PbHidd
1002
}
  0
LINE
  5
149
330
1F
100
AcDbEntity
  8
HIDDEN
100
AcDbLine
 10
-53.04775619506836
 20
-32.84738159179688
 30
0.0
 11
-52.97014617919922
 21
-32.87099838256836
 31
0.0
1001
DBPROPERTIES
1002
{
1000
PbHidd
1002
}
  0
LINE
  5
14A
330
1F
100
AcDbEntity
  8
HIDDEN
100
AcDbLine
 10
-52.97014617919922
 20
-32.87099838256836
 30
0.0
 11
-52.90363693237305
 21
-32.8956184387207
 31
0.0
1001
DBPROPERTIES
1002
{
1000
PbHidd
1002
}
  0
LINE
  5
14B
330
1F
100
AcDbEntity
  8
HIDDEN
100
AcDbLine
 10
-52.90363693237305
 20
-32.8956184387207
 30
0.0
 11
-52.84866714477539
 21
-32.92113494873047
 31
0.0
1001
DBPROPERTIES
1002
{
1000
PbHidd
1002
}
  0
LINE
  5
14C
330
1F
100
AcDbEntity
  8
HIDDEN
100
AcDbLine
 10
-52.84866714477539
 20
-32.92113494873047
 30
0.0
 11
-52.80555725097656
 21
-32.94744110107422
 31
0.0
1001
DBPROPERTIES
1002
{
1000
PbHidd
1002
}
  0
LINE
  5
14D
330
1F
100
AcDbEntity
  8
HIDDEN
100
AcDbLine
 10
-52.80555725097656
 20
-32.94744110107422
 30
0.0
 11
-52.77463531494141
 21
-32.97442626953125
 31
0.0
1001
DBPROPERTIES
1002
{
1000
PbHidd
1002
}
  0
LINE
  5
14E
330
1F
100
AcDbEntity
  8
HIDDEN
100
AcDbLine
 10
-52.77463531494141
 20
-32.97442626953125
 30
0.0
 11
-52.75615310668945
 21
-33.00197982788086
 31
0.0
1001
DBPROPERTIES
1002
{
1000
PbHidd
1002
}
  0
LINE
  5
14F
330
1F
100
AcDbEntity
  8
HIDDEN
100
AcDbLine
 10
-52.75615310668945
 20
-33.00197982788086
 30
0.0
 11
-52.75008010864258
 21
-33.02999877929688
 31
0.0
1001
DBPROPERTIES
1002
{
1000
PbHidd
1002
}
  0
LINE
  5
150
330
1F
100
AcDbEntity
  8
THICK
100
AcDbLine
 10
-52.75008010864258
 20
-33.02999877929688
 30
0.0
 11
-52.75595092773438
 21
-33.05758666992188
 31
0.0
1001
DBPROPERTIES
1002
{
1000
PbThick
1002
}
  0
LINE
  5
151
330
1F
100
AcDbEntity
  8
THICK
100
AcDbLine
 10
-52.75595092773438
 20
-33.05758666992188
 30
0.0
 11
-52.77331924438477
 21
-33.08536911010742
 31
0.0
1001
DBPROPERTIES
1002
{
1000
PbThick
1002
}
  0
LINE
  5
152
330
1F
100
AcDbEntity
  8
THICK
100
AcDbLine
 10
-52.77331924438477
 20
-33.08536911010742
 30
0.0
 11
-52.8020133972168
 21
-33.11322402954102
 31
0.0
1001
DBPROPERTIES
1002
{
1000
PbThick
1002
}
  0
LINE
  5
153
330
1F
100
AcDbEntity
  8
THICK
100
AcDbLine
 10
-52.8020133972168
 20
-33.11322402954102
 30
0.0
 11
-52.84155654907227
 21
-33.14102554321289
 31
0.0
1001
DBPROPERTIES
1002
{
1000
PbThick
1002
}
  0
LINE
  5
154
330
1F
100
AcDbEntity
  8
THICK
100
AcDbLine
 10
-52.84155654907227
 20
-33.14102554321289
 30
0.0
 11
-52.89136123657227
 21
-33.16864395141602
 31
0.0
1001
DBPROPERTIES
1002
{
1000
PbThick
1002
}
  0
LINE
  5
155
330
1F
100
AcDbEntity
  8
THICK
100
AcDbLine
 10
-52.89136123657227
 20
-33.16864395141602
 30
0.0
 11
-52.95083618164062
 21
-33.19594573974609
 31
0.0
1001
DBPROPERTIES
1002
{
1000
PbThick
1002
}
  0
LINE
  5
156
330
1F
100
AcDbEntity
  8
THICK
100
AcDbLine
 10
-52.95083618164062
 20
-33.19594573974609
 30
0.0
 11
-53.02016830444336
 21
-33.22311019897461
 31
0.0
1001
DBPROPERTIES
1002
{
1000
PbThick
1002
}
  0
LINE
  5
157
330
1F
100
AcDbEntity
  8
THICK
100
AcDbLine
 10
-53.02016830444336
 20
-33.22311019897461
 30
0.0
 11
-53.10058975219727
 21
-33.25059127807617
 31
0.0
1001
DBPROPERTIES
1002
{
1000
PbThick
1002
}
  0
LINE
  5
158
330
1F
100
AcDbEntity
  8
THICK
100
AcDbLine
 10
-53.10058975219727
 20
-33.25059127807617
 30
0.0
 11
-53.19208908081055
 21
-33.27828979492188
 31
0.0
1001
DBPROPERTIES
1002
{
1000
PbThick
1002
}
  0
LINE
  5
159
330
1F
100
AcDbEntity
  8
THICK
100
AcDbLine
 10
-53.19208908081055
 20
-33.27828979492188
 30
0.0
 11
-53.29462432861328
 21
-33.30607604980469
 31
0.0
1001
DBPROPERTIES
1002
{
1000
PbThick
1002
}
  0
LINE
  5
15A
330
1F
100
AcDbEntity
  8
THICK
100
AcDbLine
 10
-53.29462432861328
 20
-33.30607604980469
 30
0.0
 11
-53.40813064575195
 21
-33.33383560180664
 31
0.0
1001
DBPROPERTIES
1002
{
1000
PbThick
1002
}
  0
LINE
  5
15B
330
1F
100
AcDbEntity
  8
THICK
100
AcDbLine
 10
-53.40813064575195
 20
-33.33383560180664
 30
0.0
 11
-53.53232192993164
 21
-33.36144638061523
 31
0.0
1001
DBPROPERTIES
1002
{
1000
PbThick
1002
}
  0
LINE
  5
15C
330
1F
100
AcDbEntity
  8
THICK
100
AcDbLine
 10
-53.53232192993164
 20
-33.36144638061523
 30
0.0
 11
-53.66676330566406
 21
-33.38879776000977
 31
0.0
1001
DBPROPERTIES
1002
{
1000
PbThick
1002
}
  0
LINE
  5
15D
330
1F
100
AcDbEntity
  8
THICK
100
AcDbLine
 10
-53.66676330566406
 20
-33.38879776000977
 30
0.0
 11
-53.81101608276367
 21
-33.41578674316406
 31
0.0
1001
DBPROPERTIES
1002
{
1000
PbThick
1002
}
  0
LINE
  5
15E
330
1F
100
AcDbEntity
  8
THICK
100
AcDbLine
 10
-53.81101608276367
 20
-33.41578674316406
 30
0.0
 11
-53.96463775634766
 21
-33.44229507446289
 31
0.0
1001
DBPROPERTIES
1002
{
1000
PbThick
1002
}
  0
LINE
  5
15F
330
1F
100
AcDbEntity
  8
THICK
100
AcDbLine
 10
-53.96463775634766
 20
-33.44229507446289
 30
0.0
 11
-54.12714767456055
 21
-33.46824264526367
 31
0.0
1001
DBPROPERTIES
1002
{
1000
PbThick
1002
}
  0
LINE
  5
160
330
1F
100
AcDbEntity
  8
THICK
100
AcDbLine
 10
-54.12714767456055
 20
-33.46824264526367
 30
0.0
 11
-54.29782104492188
 21
-33.49353408813477
 31
0.0
1001
DBPROPERTIES
1002
{
1000
PbThick
1002
}
  0
LINE
  5
161
330
1F
100
AcDbEntity
  8
THICK
100
AcDbLine
 10
-54.29782104492188
 20
-33.49353408813477
 30
0.0
 11
-54.47590637207031
 21
-33.5180778503418
 31
0.0
1001
DBPROPERTIES
1002
{
1000
PbThick
1002
}
  0
LINE
  5
162
330
1F
100
AcDbEntity
  8
THICK
100
AcDbLine
 10
-54.47590637207031
 20
-33.5180778503418
 30
0.0
 11
-54.66065216064453
 21
-33.54178619384766
 31
0.0
1001
DBPROPERTIES
1002
{
1000
PbThick
1002
}
  0
LINE
  5
163
330
1F
100
AcDbEntity
  8
THICK
100
AcDbLine
 10
-54.66065216064453
 20
-33.54178619384766
 30
0.0
 11
-54.85123062133789
 21
-33.56457138061523
 31
0.0
1001
DBPROPERTIES
1002
{
1000
PbThick
1002
}
  0
LINE
  5
164
330
1F
100
AcDbEntity
  8
THICK
100
AcDbLine
 10
-54.85123062133789
 20
-33.56457138061523
 30
0.0
 11
-55.046630859375
 21
-33.58637237548828
 31
0.0
1001
DBPROPERTIES
1002
{
1000
PbThick
1002
}
  0
LINE
  5
165
330
1F
100
AcDbEntity
  8
THICK
100
AcDbLine
 10
-55.046630859375
 20
-33.58637237548828
 30
0.0
 11
-55.24581527709961
 21
-33.60711669921875
 31
0.0
1001
DBPROPERTIES
1002
{
1000
PbThick
1002
}
  0
LINE
  5
166
330
1F
100
AcDbEntity
  8
THICK
100
AcDbLine
 10
-55.24581527709961
 20
-33.60711669921875
 30
0.0
 11
-55.44775390625
 21
-33.62675094604492
 31
0.0
1001
DBPROPERTIES
1002
{
1000
PbThick
1002
}
  0
LINE
  5
167
330
1F
100
AcDbEntity
  8
THICK
100
AcDbLine
 10
-55.44775390625
 20
-33.62675094604492
 30
0.0
 11
-55.65476608276367
 21
-33.64551162719727
 31
0.0
1001
DBPROPERTIES
1002
{
1000
PbThick
1002
}
  0
LINE
  5
168
330
1F
100
AcDbEntity
  8
THICK
100
AcDbLine
 10
-55.65476608276367
 20
-33.64551162719727
 30
0.0
 11
-55.86918640136719
 21
-33.66359710693359
 31
0.0
1001
DBPROPERTIES
1002
{
1000
PbThick
1002
}
  0
LINE
  5
169
330
1F
100
AcDbEntity
  8
THICK
100
AcDbLine
 10
-55.86918640136719
 20
-33.66359710693359
 30
0.0
 11
-56.09020233154297
 21
-33.6808967590332
 31
0.0
1001
DBPROPERTIES
1002
{
1000
PbThick
1002
}
  0
LINE
  5
16A
330
1F
100
AcDbEntity
  8
THICK
100
AcDbLine
 10
-56.09020233154297
 20
-33.6808967590332
 30
0.0
 11
-56.31701278686523
 21
-33.69730758666992
 31
0.0
1001
DBPROPERTIES
1002
{
1000
PbThick
1002
}
  0
LINE
  5
16B
330
1F
100
AcDbEntity
  8
THICK
100
AcDbLine
 10
-56.31701278686523
 20
-33.69730758666992
 30
0.0
 11
-56.54878616333008
 21
-33.71272659301758
 31
0.0
1001
DBPROPERTIES
1002
{
1000
PbThick
1002
}
  0
LINE
  5
16C
330
1F
100
AcDbEntity
  8
THICK
100
AcDbLine
 10
-56.54878616333008
 20
-33.71272659301758
 30
0.0
 11
-56.78462219238281
 21
-33.72707366943359
 31
0.0
1001
DBPROPERTIES
1002
{
1000
PbThick
1002
}
  0
LINE
  5
16D
330
1F
100
AcDbEntity
  8
THICK
100
AcDbLine
 10
-56.78462219238281
 20
-33.72707366943359
 30
0.0
 11
-57.02357482910156
 21
-33.74028778076172
 31
0.0
1001
DBPROPERTIES
1002
{
1000
PbThick
1002
}
  0
LINE
  5
16E
330
1F
100
AcDbEntity
  8
THICK
100
AcDbLine
 10
-57.02357482910156
 20
-33.74028778076172
 30
0.0
 11
-57.26471328735352
 21
-33.7523078918457
 31
0.0
1001
DBPROPERTIES
1002
{
1000
PbThick
1002
}
  0
LINE
  5
16F
330
1F
100
AcDbEntity
  8
THICK
100
AcDbLine
 10
-57.26471328735352
 20
-33.7523078918457
 30
0.0
 11
-57.50712585449219
 21
-33.76306915283203
 31
0.0
1001
DBPROPERTIES
1002
{
1000
PbThick
1002
}
  0
LINE
  5
170
330
1F
100
AcDbEntity
  8
THICK
100
AcDbLine
 10
-57.50712585449219
 20
-33.76306915283203
 30
0.0
 11
-57.75
 21
-33.77254486083984
 31
0.0
1001
DBPROPERTIES
1002
{
1000
PbThick
1002
}
  0
LINE
  5
171
330
1F
100
AcDbEntity
  8
THICK
100
AcDbLine
 10
-188.6
 20
-52.88749999999999
 30
0.0
 11
-0.0000000000000374
 21
-52.88749999999999
 31
0.0
1001
DBPROPERTIES
1002
{
1000
PbThick
1002
}
  0
LINE
  5
172
330
1F
100
AcDbEntity
  8
THICK
100
AcDbLine
 10
-168.1
 20
-44.6875
 30
0.0
 11
-61.74999991556724
 21
-44.6875
 31
0.0
1001
DBPROPERTIES
1002
{
1000
PbThick
1002
}
  0
LINE
  5
173
330
1F
100
AcDbEntity
  8
HIDDEN
100
AcDbLine
 10
-61.74999991556724
 20
-44.6875
 30
0.0
 11
-53.74999994423354
 21
-44.6875
 31
0.0
1001
DBPROPERTIES
1002
{
1000
PbHidd
1002
}
  0
LINE
  5
174
330
1F
100
AcDbEntity
  8
THICK
100
AcDbLine
 10
-53.74999994423354
 20
-44.6875
 30
0.0
 11
-0.0000000000000336
 21
-44.6875
 31
0.0
1001
DBPROPERTIES
1002
{
1000
PbThick
1002
}
  0
LINE
  5
175
330
1F
100
AcDbEntity
  8
THICK
100
AcDbLine
 10
-57.75000381469727
 20
-52.77674865722656
 30
0.0
 11
-58.04965591430664
 21
-52.81017684936523
 31
0.0
1001
DBPROPERTIES
1002
{
1000
PbThick
1002
}
  0
LINE
  5
176
330
1F
100
AcDbEntity
  8
THICK
100
AcDbLine
 10
-58.04965591430664
 20
-52.81017684936523
 30
0.0
 11
-58.34727096557617
 21
-52.83676528930664
 31
0.0
1001
DBPROPERTIES
1002
{
1000
PbThick
1002
}
  0
LINE
  5
177
330
1F
100
AcDbEntity
  8
THICK
100
AcDbLine
 10
-58.34727096557617
 20
-52.83676528930664
 30
0.0
 11
-58.64097595214844
 21
-52.85638046264648
 31
0.0
1001
DBPROPERTIES
1002
{
1000
PbThick
1002
}
  0
LINE
  5
178
330
1F
100
AcDbEntity
  8
THICK
100
AcDbLine
 10
-58.64097595214844
 20
-52.85638046264648
 30
0.0
 11
-58.928955078125
 21
-52.86912155151367
 31
0.0
1001
DBPROPERTIES
1002
{
1000
PbThick
1002
}
  0
LINE
  5
179
330
1F
100
AcDbEntity
  8
THICK
100
AcDbLine
 10
-58.928955078125
 20
-52.86912155151367
 30
0.0
 11
-59.20940780639648
 21
-52.87513732910156
 31
0.0
1001
DBPROPERTIES
1002
{
1000
PbThick
1002
}
  0
LINE
  5
17A
330
1F
100
AcDbEntity
  8
THICK
100
AcDbLine
 10
-59.20940780639648
 20
-52.87513732910156
 30
0.0
 11
-59.48218154907227
 21
-52.87457656860352
 31
0.0
1001
DBPROPERTIES
1002
{
1000
PbThick
1002
}
  0
LINE
  5
17B
330
1F
100
AcDbEntity
  8
THICK
100
AcDbLine
 10
-59.48218154907227
 20
-52.87457656860352
 30
0.0
 11
-59.75248718261719
 21
-52.86741638183594
 31
0.0
1001
DBPROPERTIES
1002
{
1000
PbThick
1002
}
  0
LINE
  5
17C
330
1F
100
AcDbEntity
  8
THICK
100
AcDbLine
 10
-59.75248718261719
 20
-52.86741638183594
 30
0.0
 11
-60.01911163330078
 21
-52.85351181030273
 31
0.0
1001
DBPROPERTIES
1002
{
1000
PbThick
1002
}
  0
LINE
  5
17D
330
1F
100
AcDbEntity
  8
THICK
100
AcDbLine
 10
-60.01911163330078
 20
-52.85351181030273
 30
0.0
 11
-60.28000640869141
 21
-52.83269882202148
 31
0.0
1001
DBPROPERTIES
1002
{
1000
PbThick
1002
}
  0
LINE
  5
17E
330
1F
100
AcDbEntity
  8
THICK
100
AcDbLine
 10
-60.28000640869141
 20
-52.83269882202148
 30
0.0
 11
-60.53326034545898
 21
-52.80492782592773
 31
0.0
1001
DBPROPERTIES
1002
{
1000
PbThick
1002
}
  0
LINE
  5
17F
330
1F
100
AcDbEntity
  8
THICK
100
AcDbLine
 10
-60.53326034545898
 20
-52.80492782592773
 30
0.0
 11
-60.77725601196289
 21
-52.77033996582031
 31
0.0
1001
DBPROPERTIES
1002
{
1000
PbThick
1002
}
  0
LINE
  5
180
330
1F
100
AcDbEntity
  8
THICK
100
AcDbLine
 10
-60.77725601196289
 20
-52.77033996582031
 30
0.0
 11
-61.01041412353516
 21
-52.72912979125977
 31
0.0
1001
DBPROPERTIES
1002
{
1000
PbThick
1002
}
  0
LINE
  5
181
330
1F
100
AcDbEntity
  8
THICK
100
AcDbLine
 10
-61.01041412353516
 20
-52.72912979125977
 30
0.0
 11
-61.23129272460938
 21
-52.68147659301758
 31
0.0
1001
DBPROPERTIES
1002
{
1000
PbThick
1002
}
  0
LINE
  5
182
330
1F
100
AcDbEntity
  8
THICK
100
AcDbLine
 10
-61.23129272460938
 20
-52.68147659301758
 30
0.0
 11
-61.43887329101562
 21
-52.62772369384766
 31
0.0
1001
DBPROPERTIES
1002
{
1000
PbThick
1002
}
  0
LINE
  5
183
330
1F
100
AcDbEntity
  8
THICK
100
AcDbLine
 10
-61.43887329101562
 20
-52.62772369384766
 30
0.0
 11
-61.63215637207031
 21
-52.56833648681641
 31
0.0
1001
DBPROPERTIES
1002
{
1000
PbThick
1002
}
  0
LINE
  5
184
330
1F
100
AcDbEntity
  8
THICK
100
AcDbLine
 10
-61.63215637207031
 20
-52.56833648681641
 30
0.0
 11
-61.81013870239258
 21
-52.50376510620117
 31
0.0
1001
DBPROPERTIES
1002
{
1000
PbThick
1002
}
  0
LINE
  5
185
330
1F
100
AcDbEntity
  8
THICK
100
AcDbLine
 10
-61.81013870239258
 20
-52.50376510620117
 30
0.0
 11
-61.97211074829102
 21
-52.43458557128906
 31
0.0
1001
DBPROPERTIES
1002
{
1000
PbThick
1002
}
  0
LINE
  5
186
330
1F
100
AcDbEntity
  8
THICK
100
AcDbLine
 10
-61.97211074829102
 20
-52.43458557128906
 30
0.0
 11
-62.11776351928711
 21
-52.36151123046875
 31
0.0
1001
DBPROPERTIES
1002
{
1000
PbThick
1002
}
  0
LINE
  5
187
330
1F
100
AcDbEntity
  8
THICK
100
AcDbLine
 10
-62.11776351928711
 20
-52.36151123046875
 30
0.0
 11
-62.246826171875
 21
-52.28527069091797
 31
0.0
1001
DBPROPERTIES
1002
{
1000
PbThick
1002
}
  0
LINE
  5
188
330
1F
100
AcDbEntity
  8
THICK
100
AcDbLine
 10
-62.246826171875
 20
-52.28527069091797
 30
0.0
 11
-62.36119842529297
 21
-52.20508193969727
 31
0.0
1001
DBPROPERTIES
1002
{
1000
PbThick
1002
}
  0
LINE
  5
189
330
1F
100
AcDbEntity
  8
THICK
100
AcDbLine
 10
-62.36119842529297
 20
-52.20508193969727
 30
0.0
 11
-62.46243667602539
 21
-52.11983871459961
 31
0.0
1001
DBPROPERTIES
1002
{
1000
PbThick
1002
}
  0
LINE
  5
18A
330
1F
100
AcDbEntity
  8
THICK
100
AcDbLine
 10
-62.46243667602539
 20
-52.11983871459961
 30
0.0
 11
-62.5495719909668
 21
-52.0299186706543
 31
0.0
1001
DBPROPERTIES
1002
{
1000
PbThick
1002
}
  0
LINE
  5
18B
330
1F
100
AcDbEntity
  8
THICK
100
AcDbLine
 10
-62.5495719909668
 20
-52.0299186706543
 30
0.0
 11
-62.62163543701172
 21
-51.93570709228516
 31
0.0
1001
DBPROPERTIES
1002
{
1000
PbThick
1002
}
  0
LINE
  5
18C
330
1F
100
AcDbEntity
  8
THICK
100
AcDbLine
 10
-62.62163543701172
 20
-51.93570709228516
 30
0.0
 11
-62.67798233032227
 21
-51.837646484375
 31
0.0
1001
DBPROPERTIES
1002
{
1000
PbThick
1002
}
  0
LINE
  5
18D
330
1F
100
AcDbEntity
  8
THICK
100
AcDbLine
 10
-62.67798233032227
 20
-51.837646484375
 30
0.0
 11
-62.71832275390625
 21
-51.73625564575195
 31
0.0
1001
DBPROPERTIES
1002
{
1000
PbThick
1002
}
  0
LINE
  5
18E
330
1F
100
AcDbEntity
  8
THICK
100
AcDbLine
 10
-62.71832275390625
 20
-51.73625564575195
 30
0.0
 11
-62.74237442016602
 21
-51.63206100463867
 31
0.0
1001
DBPROPERTIES
1002
{
1000
PbThick
1002
}
  0
LINE
  5
18F
330
1F
100
AcDbEntity
  8
THICK
100
AcDbLine
 10
-62.74237442016602
 20
-51.63206100463867
 30
0.0
 11
-62.74994659423828
 21
-51.52555465698242
 31
0.0
1001
DBPROPERTIES
1002
{
1000
PbThick
1002
}
  0
LINE
  5
190
330
1F
100
AcDbEntity
  8
THICK
100
AcDbLine
 10
-62.74994659423828
 20
-51.52555465698242
 30
0.0
 11
-62.74065780639648
 21
-51.4134521484375
 31
0.0
1001
DBPROPERTIES
1002
{
1000
PbThick
1002
}
  0
LINE
  5
191
330
1F
100
AcDbEntity
  8
THICK
100
AcDbLine
 10
-62.74065780639648
 20
-51.4134521484375
 30
0.0
 11
-62.71433258056641
 21
-51.30012893676758
 31
0.0
1001
DBPROPERTIES
1002
{
1000
PbThick
1002
}
  0
LINE
  5
192
330
1F
100
AcDbEntity
  8
THICK
100
AcDbLine
 10
-62.71433258056641
 20
-51.30012893676758
 30
0.0
 11
-62.6713752746582
 21
-51.18625640869141
 31
0.0
1001
DBPROPERTIES
1002
{
1000
PbThick
1002
}
  0
LINE
  5
193
330
1F
100
AcDbEntity
  8
THICK
100
AcDbLine
 10
-62.6713752746582
 20
-51.18625640869141
 30
0.0
 11
-62.61250305175781
 21
-51.07253265380859
 31
0.0
1001
DBPROPERTIES
1002
{
1000
PbThick
1002
}
  0
LINE
  5
194
330
1F
100
AcDbEntity
  8
THICK
100
AcDbLine
 10
-62.61250305175781
 20
-51.07253265380859
 30
0.0
 11
-62.53883743286133
 21
-50.95968627929688
 31
0.0
1001
DBPROPERTIES
1002
{
1000
PbThick
1002
}
  0
LINE
  5
195
330
1F
100
AcDbEntity
  8
THICK
100
AcDbLine
 10
-62.53883743286133
 20
-50.95968627929688
 30
0.0
 11
-62.45153045654297
 21
-50.84845352172852
 31
0.0
1001
DBPROPERTIES
1002
{
1000
PbThick
1002
}
  0
LINE
  5
196
330
1F
100
AcDbEntity
  8
THICK
100
AcDbLine
 10
-62.45153045654297
 20
-50.84845352172852
 30
0.0
 11
-62.36475372314453
 21
-50.75283813476562
 31
0.0
1001
DBPROPERTIES
1002
{
1000
PbThick
1002
}
  0
LINE
  5
197
330
1F
100
AcDbEntity
  8
THICK
100
AcDbLine
 10
-62.36475372314453
 20
-50.75283813476562
 30
0.0
 11
-62.26579666137695
 21
-50.65591430664062
 31
0.0
1001
DBPROPERTIES
1002
{
1000
PbThick
1002
}
  0
LINE
  5
198
330
1F
100
AcDbEntity
  8
THICK
100
AcDbLine
 10
-62.26579666137695
 20
-50.65591430664062
 30
0.0
 11
-62.15471267700195
 21
-50.55816650390625
 31
0.0
1001
DBPROPERTIES
1002
{
1000
PbThick
1002
}
  0
LINE
  5
199
330
1F
100
AcDbEntity
  8
THICK
100
AcDbLine
 10
-62.15471267700195
 20
-50.55816650390625
 30
0.0
 11
-62.03156661987305
 21
-50.4600715637207
 31
0.0
1001
DBPROPERTIES
1002
{
1000
PbThick
1002
}
  0
LINE
  5
19A
330
1F
100
AcDbEntity
  8
THICK
100
AcDbLine
 10
-62.03156661987305
 20
-50.4600715637207
 30
0.0
 11
-61.89651489257812
 21
-50.36210250854492
 31
0.0
1001
DBPROPERTIES
1002
{
1000
PbThick
1002
}
  0
LINE
  5
19B
330
1F
100
AcDbEntity
  8
THICK
100
AcDbLine
 10
-61.89651489257812
 20
-50.36210250854492
 30
0.0
 11
-61.75
 21
-50.26471328735352
 31
0.0
1001
DBPROPERTIES
1002
{
1000
PbThick
1002
}
  0
LINE
  5
19C
330
1F
100
AcDbEntity
  8
HIDDEN
100
AcDbLine
 10
-61.75
 20
-50.26471328735352
 30
0.0
 11
-61.5284538269043
 21
-50.13128662109375
 31
0.0
1001
DBPROPERTIES
1002
{
1000
PbHidd
1002
}
  0
LINE
  5
19D
330
1F
100
AcDbEntity
  8
HIDDEN
100
AcDbLine
 10
-61.5284538269043
 20
-50.13128662109375
 30
0.0
 11
-61.28707885742188
 21
-50.00101852416992
 31
0.0
1001
DBPROPERTIES
1002
{
1000
PbHidd
1002
}
  0
LINE
  5
19E
330
1F
100
AcDbEntity
  8
HIDDEN
100
AcDbLine
 10
-61.28707885742188
 20
-50.00101852416992
 30
0.0
 11
-61.02762603759766
 21
-49.87493515014648
 31
0.0
1001
DBPROPERTIES
1002
{
1000
PbHidd
1002
}
  0
LINE
  5
19F
330
1F
100
AcDbEntity
  8
HIDDEN
100
AcDbLine
 10
-61.02762603759766
 20
-49.87493515014648
 30
0.0
 11
-60.75234603881836
 21
-49.75408172607422
 31
0.0
1001
DBPROPERTIES
1002
{
1000
PbHidd
1002
}
  0
LINE
  5
1A0
330
1F
100
AcDbEntity
  8
HIDDEN
100
AcDbLine
 10
-60.75234603881836
 20
-49.75408172607422
 30
0.0
 11
-60.46359634399414
 21
-49.63948822021484
 31
0.0
1001
DBPROPERTIES
1002
{
1000
PbHidd
1002
}
  0
LINE
  5
1A1
330
1F
100
AcDbEntity
  8
HIDDEN
100
AcDbLine
 10
-60.46359634399414
 20
-49.63948822021484
 30
0.0
 11
-60.16428756713867
 21
-49.53200149536133
 31
0.0
1001
DBPROPERTIES
1002
{
1000
PbHidd
1002
}
  0
LINE
  5
1A2
330
1F
100
AcDbEntity
  8
HIDDEN
100
AcDbLine
 10
-60.16428756713867
 20
-49.53200149536133
 30
0.0
 11
-59.85756301879883
 21
-49.43239974975586
 31
0.0
1001
DBPROPERTIES
1002
{
1000
PbHidd
1002
}
  0
LINE
  5
1A3
330
1F
100
AcDbEntity
  8
HIDDEN
100
AcDbLine
 10
-59.85756301879883
 20
-49.43239974975586
 30
0.0
 11
-59.53815841674805
 21
-49.33900833129883
 31
0.0
1001
DBPROPERTIES
1002
{
1000
PbHidd
1002
}
  0
LINE
  5
1A4
330
1F
100
AcDbEntity
  8
HIDDEN
100
AcDbLine
 10
-59.53815841674805
 20
-49.33900833129883
 30
0.0
 11
-59.20165634155273
 21
-49.2509651184082
 31
0.0
1001
DBPROPERTIES
1002
{
1000
PbHidd
1002
}
  0
LINE
  5
1A5
330
1F
100
AcDbEntity
  8
HIDDEN
100
AcDbLine
 10
-59.20165634155273
 20
-49.2509651184082
 30
0.0
 11
-58.85114288330078
 21
-49.16984939575195
 31
0.0
1001
DBPROPERTIES
1002
{
1000
PbHidd
1002
}
  0
LINE
  5
1A6
330
1F
100
AcDbEntity
  8
HIDDEN
100
AcDbLine
 10
-58.85114288330078
 20
-49.16984939575195
 30
0.0
 11
-58.48996353149414
 21
-49.09698867797852
 31
0.0
1001
DBPROPERTIES
1002
{
1000
PbHidd
1002
}
  0
LINE
  5
1A7
330
1F
100
AcDbEntity
  8
HIDDEN
100
AcDbLine
 10
-58.48996353149414
 20
-49.09698867797852
 30
0.0
 11
-58.12174987792969
 21
-49.03340530395508
 31
0.0
1001
DBPROPERTIES
1002
{
1000
PbHidd
1002
}
  0
LINE
  5
1A8
330
1F
100
AcDbEntity
  8
HIDDEN
100
AcDbLine
 10
-58.12174987792969
 20
-49.03340530395508
 30
0.0
 11
-57.74999618530273
 21
-48.98003387451172
 31
0.0
1001
DBPROPERTIES
1002
{
1000
PbHidd
1002
}
  0
LINE
  5
1A9
330
1F
100
AcDbEntity
  8
HIDDEN
100
AcDbLine
 10
-57.74999618530273
 20
-48.98003387451172
 30
0.0
 11
-57.38882446289062
 21
-48.93845748901367
 31
0.0
1001
DBPROPERTIES
1002
{
1000
PbHidd
1002
}
  0
LINE
  5
1AA
330
1F
100
AcDbEntity
  8
HIDDEN
100
AcDbLine
 10
-57.38882446289062
 20
-48.93845748901367
 30
0.0
 11
-57.0311393737793
 21
-48.90736389160156
 31
0.0
1001
DBPROPERTIES
1002
{
1000
PbHidd
1002
}
  0
LINE
  5
1AB
330
1F
100
AcDbEntity
  8
HIDDEN
100
AcDbLine
 10
-57.0311393737793
 20
-48.90736389160156
 30
0.0
 11
-56.68043518066406
 21
-48.88693618774414
 31
0.0
1001
DBPROPERTIES
1002
{
1000
PbHidd
1002
}
  0
LINE
  5
1AC
330
1F
100
AcDbEntity
  8
HIDDEN
100
AcDbLine
 10
-56.68043518066406
 20
-48.88693618774414
 30
0.0
 11
-56.34010314941406
 21
-48.87691116333008
 31
0.0
1001
DBPROPERTIES
1002
{
1000
PbHidd
1002
}
  0
LINE
  5
1AD
330
1F
100
AcDbEntity
  8
HIDDEN
100
AcDbLine
 10
-56.34010314941406
 20
-48.87691116333008
 30
0.0
 11
-56.01151657104492
 21
-48.87697601318359
 31
0.0
1001
DBPROPERTIES
1002
{
1000
PbHidd
1002
}
  0
LINE
  5
1AE
330
1F
100
AcDbEntity
  8
HIDDEN
100
AcDbLine
 10
-56.01151657104492
 20
-48.87697601318359
 30
0.0
 11
-55.68657302856445
 21
-48.88713455200195
 31
0.0
1001
DBPROPERTIES
1002
{
1000
PbHidd
1002
}
  0
LINE
  5
1AF
330
1F
100
AcDbEntity
  8
HIDDEN
100
AcDbLine
 10
-55.68657302856445
 20
-48.88713455200195
 30
0.0
 11
-55.36724090576172
 21
-48.9077033996582
 31
0.0
1001
DBPROPERTIES
1002
{
1000
PbHidd
1002
}
  0
LINE
  5
1B0
330
1F
100
AcDbEntity
  8
HIDDEN
100
AcDbLine
 10
-55.36724090576172
 20
-48.9077033996582
 30
0.0
 11
-55.05730819702148
 21
-48.93893814086914
 31
0.0
1001
DBPROPERTIES
1002
{
1000
PbHidd
1002
}
  0
LINE
  5
1B1
330
1F
100
AcDbEntity
  8
HIDDEN
100
AcDbLine
 10
-55.05730819702148
 20
-48.93893814086914
 30
0.0
 11
-54.760009765625
 21
-48.98065185546875
 31
0.0
1001
DBPROPERTIES
1002
{
1000
PbHidd
1002
}
  0
LINE
  5
1B2
330
1F
100
AcDbEntity
  8
HIDDEN
100
AcDbLine
 10
-54.760009765625
 20
-48.98065185546875
 30
0.0
 11
-54.47835540771484
 21
-49.03247833251953
 31
0.0
1001
DBPROPERTIES
1002
{
1000
PbHidd
1002
}
  0
LINE
  5
1B3
330
1F
100
AcDbEntity
  8
HIDDEN
100
AcDbLine
 10
-54.47835540771484
 20
-49.03247833251953
 30
0.0
 11
-54.21484756469727
 21
-49.09394836425781
 31
0.0
1001
DBPROPERTIES
1002
{
1000
PbHidd
1002
}
  0
LINE
  5
1B4
330
1F
100
AcDbEntity
  8
HIDDEN
100
AcDbLine
 10
-54.21484756469727
 20
-49.09394836425781
 30
0.0
 11
-53.97142791748047
 21
-49.16422271728516
 31
0.0
1001
DBPROPERTIES
1002
{
1000
PbHidd
1002
}
  0
LINE
  5
1B5
330
1F
100
AcDbEntity
  8
HIDDEN
100
AcDbLine
 10
-53.97142791748047
 20
-49.16422271728516
 30
0.0
 11
-53.75001907348633
 21
-49.24235534667969
 31
0.0
1001
DBPROPERTIES
1002
{
1000
PbHidd
1002
}
  0
LINE
  5
1B6
330
1F
100
AcDbEntity
  8
THICK
100
AcDbLine
 10
-53.75001907348633
 20
-49.24235534667969
 30
0.0
 11
-53.54268646240234
 21
-49.3315544128418
 31
0.0
1001
DBPROPERTIES
1002
{
1000
PbThick
1002
}
  0
LINE
  5
1B7
330
1F
100
AcDbEntity
  8
THICK
100
AcDbLine
 10
-53.54268646240234
 20
-49.3315544128418
 30
0.0
 11
-53.3618278503418
 21
-49.42645263671875
 31
0.0
1001
DBPROPERTIES
1002
{
1000
PbThick
1002
}
  0
LINE
  5
1B8
330
1F
100
AcDbEntity
  8
THICK
100
AcDbLine
 10
-53.3618278503418
 20
-49.42645263671875
 30
0.0
 11
-53.20474624633789
 21
-49.5275993347168
 31
0.0
1001
DBPROPERTIES
1002
{
1000
PbThick
1002
}
  0
LINE
  5
1B9
330
1F
100
AcDbEntity
  8
THICK
100
AcDbLine
 10
-53.20474624633789
 20
-49.5275993347168
 30
0.0
 11
-53.06821441650391
 21
-49.63695907592773
 31
0.0
1001
DBPROPERTIES
1002
{
1000
PbThick
1002
}
  0
LINE
  5
1BA
330
1F
100
AcDbEntity
  8
THICK
100
AcDbLine
 10
-53.06821441650391
 20
-49.63695907592773
 30
0.0
 11
-52.95432281494141
 21
-49.75373077392578
 31
0.0
1001
DBPROPERTIES
1002
{
1000
PbThick
1002
}
  0
LINE
  5
1BB
330
1F
100
AcDbEntity
  8
THICK
100
AcDbLine
 10
-52.95432281494141
 20
-49.75373077392578
 30
0.0
 11
-52.86482620239258
 21
-49.87701416015625
 31
0.0
1001
DBPROPERTIES
1002
{
1000
PbThick
1002
}
  0
LINE
  5
1BC
330
1F
100
AcDbEntity
  8
THICK
100
AcDbLine
 10
-52.86482620239258
 20
-49.87701416015625
 30
0.0
 11
-52.80057525634766
 21
-50.00571823120117
 31
0.0
1001
DBPROPERTIES
1002
{
1000
PbThick
1002
}
  0
LINE
  5
1BD
330
1F
100
AcDbEntity
  8
THICK
100
AcDbLine
 10
-52.80057525634766
 20
-50.00571823120117
 30
0.0
 11
-52.76227569580078
 21
-50.13873291015625
 31
0.0
1001
DBPROPERTIES
1002
{
1000
PbThick
1002
}
  0
LINE
  5
1BE
330
1F
100
AcDbEntity
  8
THICK
100
AcDbLine
 10
-52.76227569580078
 20
-50.13873291015625
 30
0.0
 11
-52.75008392333984
 21
-50.27497482299805
 31
0.0
1001
DBPROPERTIES
1002
{
1000
PbThick
1002
}
  0
LINE
  5
1BF
330
1F
100
AcDbEntity
  8
THICK
100
AcDbLine
 10
-52.75008392333984
 20
-50.27497482299805
 30
0.0
 11
-52.76045608520508
 21
-50.39603424072266
 31
0.0
1001
DBPROPERTIES
1002
{
1000
PbThick
1002
}
  0
LINE
  5
1C0
330
1F
100
AcDbEntity
  8
THICK
100
AcDbLine
 10
-52.76045608520508
 20
-50.39603424072266
 30
0.0
 11
-52.79007339477539
 21
-50.51774597167969
 31
0.0
1001
DBPROPERTIES
1002
{
1000
PbThick
1002
}
  0
LINE
  5
1C1
330
1F
100
AcDbEntity
  8
THICK
100
AcDbLine
 10
-52.79007339477539
 20
-50.51774597167969
 30
0.0
 11
-52.83816146850586
 21
-50.63923263549805
 31
0.0
1001
DBPROPERTIES
1002
{
1000
PbThick
1002
}
  0
LINE
  5
1C2
330
1F
100
AcDbEntity
  8
THICK
100
AcDbLine
 10
-52.83816146850586
 20
-50.63923263549805
 30
0.0
 11
-52.90341949462891
 21
-50.75956726074219
 31
0.0
1001
DBPROPERTIES
1002
{
1000
PbThick
1002
}
  0
LINE
  5
1C3
330
1F
100
AcDbEntity
  8
THICK
100
AcDbLine
 10
-52.90341949462891
 20
-50.75956726074219
 30
0.0
 11
-52.98464202880859
 21
-50.87800979614258
 31
0.0
1001
DBPROPERTIES
1002
{
1000
PbThick
1002
}
  0
LINE
  5
1C4
330
1F
100
AcDbEntity
  8
THICK
100
AcDbLine
 10
-52.98464202880859
 20
-50.87800979614258
 30
0.0
 11
-53.08361053466797
 21
-50.99738311767578
 31
0.0
1001
DBPROPERTIES
1002
{
1000
PbThick
1002
}
  0
LINE
  5
1C5
330
1F
100
AcDbEntity
  8
THICK
100
AcDbLine
 10
-53.08361053466797
 20
-50.99738311767578
 30
0.0
 11
-53.20133209228516
 21
-51.11830902099609
 31
0.0
1001
DBPROPERTIES
1002
{
1000
PbThick
1002
}
  0
LINE
  5
1C6
330
1F
100
AcDbEntity
  8
THICK
100
AcDbLine
 10
-53.20133209228516
 20
-51.11830902099609
 30
0.0
 11
-53.33781051635742
 21
-51.23990249633789
 31
0.0
1001
DBPROPERTIES
1002
{
1000
PbThick
1002
}
  0
LINE
  5
1C7
330
1F
100
AcDbEntity
  8
THICK
100
AcDbLine
 10
-53.33781051635742
 20
-51.23990249633789
 30
0.0
 11
-53.49288940429688
 21
-51.36128234863281
 31
0.0
1001
DBPROPERTIES
1002
{
1000
PbThick
1002
}
  0
LINE
  5
1C8
330
1F
100
AcDbEntity
  8
THICK
100
AcDbLine
 10
-53.49288940429688
 20
-51.36128234863281
 30
0.0
 11
-53.66584777832031
 21
-51.48162460327148
 31
0.0
1001
DBPROPERTIES
1002
{
1000
PbThick
1002
}
  0
LINE
  5
1C9
330
1F
100
AcDbEntity
  8
THICK
100
AcDbLine
 10
-53.66584777832031
 20
-51.48162460327148
 30
0.0
 11
-53.85585403442383
 21
-51.6001091003418
 31
0.0
1001
DBPROPERTIES
1002
{
1000
PbThick
1002
}
  0
LINE
  5
1CA
330
1F
100
AcDbEntity
  8
THICK
100
AcDbLine
 10
-53.85585403442383
 20
-51.6001091003418
 30
0.0
 11
-54.06206130981445
 21
-51.71595001220703
 31
0.0
1001
DBPROPERTIES
1002
{
1000
PbThick
1002
}
  0
LINE
  5
1CB
330
1F
100
AcDbEntity
  8
THICK
100
AcDbLine
 10
-54.06206130981445
 20
-51.71595001220703
 30
0.0
 11
-54.28324508666992
 21
-51.8284912109375
 31
0.0
1001
DBPROPERTIES
1002
{
1000
PbThick
1002
}
  0
LINE
  5
1CC
330
1F
100
AcDbEntity
  8
THICK
100
AcDbLine
 10
-54.28324508666992
 20
-51.8284912109375
 30
0.0
 11
-54.51789093017578
 21
-51.93701934814453
 31
0.0
1001
DBPROPERTIES
1002
{
1000
PbThick
1002
}
  0
LINE
  5
1CD
330
1F
100
AcDbEntity
  8
THICK
100
AcDbLine
 10
-54.51789093017578
 20
-51.93701934814453
 30
0.0
 11
-54.76445388793945
 21
-52.04084396362305
 31
0.0
1001
DBPROPERTIES
1002
{
1000
PbThick
1002
}
  0
LINE
  5
1CE
330
1F
100
AcDbEntity
  8
THICK
100
AcDbLine
 10
-54.76445388793945
 20
-52.04084396362305
 30
0.0
 11
-55.02103424072266
 21
-52.13936614990234
 31
0.0
1001
DBPROPERTIES
1002
{
1000
PbThick
1002
}
  0
LINE
  5
1CF
330
1F
100
AcDbEntity
  8
THICK
100
AcDbLine
 10
-55.02103424072266
 20
-52.13936614990234
 30
0.0
 11
-55.28547668457031
 21
-52.23207473754883
 31
0.0
1001
DBPROPERTIES
1002
{
1000
PbThick
1002
}
  0
LINE
  5
1D0
330
1F
100
AcDbEntity
  8
THICK
100
AcDbLine
 10
-55.28547668457031
 20
-52.23207473754883
 30
0.0
 11
-55.55655670166016
 21
-52.31875228881836
 31
0.0
1001
DBPROPERTIES
1002
{
1000
PbThick
1002
}
  0
LINE
  5
1D1
330
1F
100
AcDbEntity
  8
THICK
100
AcDbLine
 10
-55.55655670166016
 20
-52.31875228881836
 30
0.0
 11
-55.84081268310547
 21
-52.40140533447266
 31
0.0
1001
DBPROPERTIES
1002
{
1000
PbThick
1002
}
  0
LINE
  5
1D2
330
1F
100
AcDbEntity
  8
THICK
100
AcDbLine
 10
-55.84081268310547
 20
-52.40140533447266
 30
0.0
 11
-56.13831329345703
 21
-52.47970962524414
 31
0.0
1001
DBPROPERTIES
1002
{
1000
PbThick
1002
}
  0
LINE
  5
1D3
330
1F
100
AcDbEntity
  8
THICK
100
AcDbLine
 10
-56.13831329345703
 20
-52.47970962524414
 30
0.0
 11
-56.44708251953125
 21
-52.55268859863281
 31
0.0
1001
DBPROPERTIES
1002
{
1000
PbThick
1002
}
  0
LINE
  5
1D4
330
1F
100
AcDbEntity
  8
THICK
100
AcDbLine
 10
-56.44708251953125
 20
-52.55268859863281
 30
0.0
 11
-56.76498413085938
 21
-52.61949157714844
 31
0.0
1001
DBPROPERTIES
1002
{
1000
PbThick
1002
}
  0
LINE
  5
1D5
330
1F
100
AcDbEntity
  8
THICK
100
AcDbLine
 10
-56.76498413085938
 20
-52.61949157714844
 30
0.0
 11
-57.08965301513672
 21
-52.67948913574219
 31
0.0
1001
DBPROPERTIES
1002
{
1000
PbThick
1002
}
  0
LINE
  5
1D6
330
1F
100
AcDbEntity
  8
THICK
100
AcDbLine
 10
-57.08965301513672
 20
-52.67948913574219
 30
0.0
 11
-57.4187126159668
 21
-52.73205947875977
 31
0.0
1001
DBPROPERTIES
1002
{
1000
PbThick
1002
}
  0
LINE
  5
1D7
330
1F
100
AcDbEntity
  8
THICK
100
AcDbLine
 10
-57.4187126159668
 20
-52.73205947875977
 30
0.0
 11
-57.75000381469727
 21
-52.77674865722656
 31
0.0
1001
DBPROPERTIES
1002
{
1000
PbThick
1002
}
  0
LINE
  5
1D8
330
1F
100
AcDbEntity
  8
THICK
100
AcDbLine
 10
-188.6
 20
-70.76249999999999
 30
0.0
 11
-0.0000000000000385
 21
-70.76249999999999
 31
0.0
1001
DBPROPERTIES
1002
{
1000
PbThick
1002
}
  0
LINE
  5
1D9
330
1F
100
AcDbEntity
  8
THICK
100
AcDbLine
 10
-168.1
 20
-62.5625
 30
0.0
 11
-61.74999991556739
 21
-62.5625
 31
0.0
1001
DBPROPERTIES
1002
{
1000
PbThick
1002
}
  0
LINE
  5
1DA
330
1F
100
AcDbEntity
  8
HIDDEN
100
AcDbLine
 10
-61.74999991556739
 20
-62.5625
 30
0.0
 11
-53.74999994369711
 21
-62.5625
 31
0.0
1001
DBPROPERTIES
1002
{
1000
PbHidd
1002
}
  0
LINE
  5
1DB
330
1F
100
AcDbEntity
  8
THICK
100
AcDbLine
 10
-53.74999994369711
 20
-62.5625
 30
0.0
 11
-0.0000000000000347
 21
-62.5625
 31
0.0
1001
DBPROPERTIES
1002
{
1000
PbThick
1002
}
  0
LINE
  5
1DC
330
1F
100
AcDbEntity
  8
THICK
100
AcDbLine
 10
-57.75000381469727
 20
-70.65174865722656
 30
0.0
 11
-58.04965591430664
 21
-70.68517303466797
 31
0.0
1001
DBPROPERTIES
1002
{
1000
PbThick
1002
}
  0
LINE
  5
1DD
330
1F
100
AcDbEntity
  8
THICK
100
AcDbLine
 10
-58.04965591430664
 20
-70.68517303466797
 30
0.0
 11
-58.34727096557617
 21
-70.71176147460938
 31
0.0
1001
DBPROPERTIES
1002
{
1000
PbThick
1002
}
  0
LINE
  5
1DE
330
1F
100
AcDbEntity
  8
THICK
100
AcDbLine
 10
-58.34727096557617
 20
-70.71176147460938
 30
0.0
 11
-58.64097595214844
 21
-70.73138427734375
 31
0.0
1001
DBPROPERTIES
1002
{
1000
PbThick
1002
}
  0
LINE
  5
1DF
330
1F
100
AcDbEntity
  8
THICK
100
AcDbLine
 10
-58.64097595214844
 20
-70.73138427734375
 30
0.0
 11
-58.928955078125
 21
-70.7441177368164
 31
0.0
1001
DBPROPERTIES
1002
{
1000
PbThick
1002
}
  0
LINE
  5
1E0
330
1F
100
AcDbEntity
  8
THICK
100
AcDbLine
 10
-58.928955078125
 20
-70.7441177368164
 30
0.0
 11
-59.20940780639648
 21
-70.75013732910156
 31
0.0
1001
DBPROPERTIES
1002
{
1000
PbThick
1002
}
  0
LINE
  5
1E1
330
1F
100
AcDbEntity
  8
THICK
100
AcDbLine
 10
-59.20940780639648
 20
-70.75013732910156
 30
0.0
 11
-59.48218154907227
 21
-70.74957275390625
 31
0.0
1001
DBPROPERTIES
1002
{
1000
PbThick
1002
}
  0
LINE
  5
1E2
330
1F
100
AcDbEntity
  8
THICK
100
AcDbLine
 10
-59.48218154907227
 20
-70.74957275390625
 30
0.0
 11
-59.75248718261719
 21
-70.74241638183594
 31
0.0
1001
DBPROPERTIES
1002
{
1000
PbThick
1002
}
  0
LINE
  5
1E3
330
1F
100
AcDbEntity
  8
THICK
100
AcDbLine
 10
-59.75248718261719
 20
-70.74241638183594
 30
0.0
 11
-60.01911163330078
 21
-70.72850799560547
 31
0.0
1001
DBPROPERTIES
1002
{
1000
PbThick
1002
}
  0
LINE
  5
1E4
330
1F
100
AcDbEntity
  8
THICK
100
AcDbLine
 10
-60.01911163330078
 20
-70.72850799560547
 30
0.0
 11
-60.28000640869141
 21
-70.70770263671875
 31
0.0
1001
DBPROPERTIES
1002
{
1000
PbThick
1002
}
  0
LINE
  5
1E5
330
1F
100
AcDbEntity
  8
THICK
100
AcDbLine
 10
-60.28000640869141
 20
-70.70770263671875
 30
0.0
 11
-60.53326034545898
 21
-70.67992401123047
 31
0.0
1001
DBPROPERTIES
1002
{
1000
PbThick
1002
}
  0
LINE
  5
1E6
330
1F
100
AcDbEntity
  8
THICK
100
AcDbLine
 10
-60.53326034545898
 20
-70.67992401123047
 30
0.0
 11
-60.77725601196289
 21
-70.64533996582031
 31
0.0
1001
DBPROPERTIES
1002
{
1000
PbThick
1002
}
  0
LINE
  5
1E7
330
1F
100
AcDbEntity
  8
THICK
100
AcDbLine
 10
-60.77725601196289
 20
-70.64533996582031
 30
0.0
 11
-61.01041412353516
 21
-70.6041259765625
 31
0.0
1001
DBPROPERTIES
1002
{
1000
PbThick
1002
}
  0
LINE
  5
1E8
330
1F
100
AcDbEntity
  8
THICK
100
AcDbLine
 10
-61.01041412353516
 20
-70.6041259765625
 30
0.0
 11
-61.23129272460938
 21
-70.55647277832031
 31
0.0
1001
DBPROPERTIES
1002
{
1000
PbThick
1002
}
  0
LINE
  5
1E9
330
1F
100
AcDbEntity
  8
THICK
100
AcDbLine
 10
-61.23129272460938
 20
-70.55647277832031
 30
0.0
 11
-61.43887329101562
 21
-70.50272369384766
 31
0.0
1001
DBPROPERTIES
1002
{
1000
PbThick
1002
}
  0
LINE
  5
1EA
330
1F
100
AcDbEntity
  8
THICK
100
AcDbLine
 10
-61.43887329101562
 20
-70.50272369384766
 30
0.0
 11
-61.63215637207031
 21
-70.4433364868164
 31
0.0
1001
DBPROPERTIES
1002
{
1000
PbThick
1002
}
  0
LINE
  5
1EB
330
1F
100
AcDbEntity
  8
THICK
100
AcDbLine
 10
-61.63215637207031
 20
-70.4433364868164
 30
0.0
 11
-61.81013870239258
 21
-70.3787612915039
 31
0.0
1001
DBPROPERTIES
1002
{
1000
PbThick
1002
}
  0
LINE
  5
1EC
330
1F
100
AcDbEntity
  8
THICK
100
AcDbLine
 10
-61.81013870239258
 20
-70.3787612915039
 30
0.0
 11
-61.97211074829102
 21
-70.30958557128906
 31
0.0
1001
DBPROPERTIES
1002
{
1000
PbThick
1002
}
  0
LINE
  5
1ED
330
1F
100
AcDbEntity
  8
THICK
100
AcDbLine
 10
-61.97211074829102
 20
-70.30958557128906
 30
0.0
 11
-62.11776351928711
 21
-70.23651123046875
 31
0.0
1001
DBPROPERTIES
1002
{
1000
PbThick
1002
}
  0
LINE
  5
1EE
330
1F
100
AcDbEntity
  8
THICK
100
AcDbLine
 10
-62.11776351928711
 20
-70.23651123046875
 30
0.0
 11
-62.246826171875
 21
-70.16027069091797
 31
0.0
1001
DBPROPERTIES
1002
{
1000
PbThick
1002
}
  0
LINE
  5
1EF
330
1F
100
AcDbEntity
  8
THICK
100
AcDbLine
 10
-62.246826171875
 20
-70.16027069091797
 30
0.0
 11
-62.36119842529297
 21
-70.080078125
 31
0.0
1001
DBPROPERTIES
1002
{
1000
PbThick
1002
}
  0
LINE
  5
1F0
330
1F
100
AcDbEntity
  8
THICK
100
AcDbLine
 10
-62.36119842529297
 20
-70.080078125
 30
0.0
 11
-62.46243667602539
 21
-69.99483489990234
 31
0.0
1001
DBPROPERTIES
1002
{
1000
PbThick
1002
}
  0
LINE
  5
1F1
330
1F
100
AcDbEntity
  8
THICK
100
AcDbLine
 10
-62.46243667602539
 20
-69.99483489990234
 30
0.0
 11
-62.5495719909668
 21
-69.90491485595703
 31
0.0
1001
DBPROPERTIES
1002
{
1000
PbThick
1002
}
  0
LINE
  5
1F2
330
1F
100
AcDbEntity
  8
THICK
100
AcDbLine
 10
-62.5495719909668
 20
-69.90491485595703
 30
0.0
 11
-62.62163543701172
 21
-69.81070709228516
 31
0.0
1001
DBPROPERTIES
1002
{
1000
PbThick
1002
}
  0
LINE
  5
1F3
330
1F
100
AcDbEntity
  8
THICK
100
AcDbLine
 10
-62.62163543701172
 20
-69.81070709228516
 30
0.0
 11
-62.67798233032227
 21
-69.712646484375
 31
0.0
1001
DBPROPERTIES
1002
{
1000
PbThick
1002
}
  0
LINE
  5
1F4
330
1F
100
AcDbEntity
  8
THICK
100
AcDbLine
 10
-62.67798233032227
 20
-69.712646484375
 30
0.0
 11
-62.71832275390625
 21
-69.61125946044922
 31
0.0
1001
DBPROPERTIES
1002
{
1000
PbThick
1002
}
  0
LINE
  5
1F5
330
1F
100
AcDbEntity
  8
THICK
100
AcDbLine
 10
-62.71832275390625
 20
-69.61125946044922
 30
0.0
 11
-62.74237442016602
 21
-69.5070571899414
 31
0.0
1001
DBPROPERTIES
1002
{
1000
PbThick
1002
}
  0
LINE
  5
1F6
330
1F
100
AcDbEntity
  8
THICK
100
AcDbLine
 10
-62.74237442016602
 20
-69.5070571899414
 30
0.0
 11
-62.74994659423828
 21
-69.40055084228516
 31
0.0
1001
DBPROPERTIES
1002
{
1000
PbThick
1002
}
  0
LINE
  5
1F7
330
1F
100
AcDbEntity
  8
THICK
100
AcDbLine
 10
-62.74994659423828
 20
-69.40055084228516
 30
0.0
 11
-62.74065780639648
 21
-69.2884521484375
 31
0.0
1001
DBPROPERTIES
1002
{
1000
PbThick
1002
}
  0
LINE
  5
1F8
330
1F
100
AcDbEntity
  8
THICK
100
AcDbLine
 10
-62.74065780639648
 20
-69.2884521484375
 30
0.0
 11
-62.71433258056641
 21
-69.17512512207031
 31
0.0
1001
DBPROPERTIES
1002
{
1000
PbThick
1002
}
  0
LINE
  5
1F9
330
1F
100
AcDbEntity
  8
THICK
100
AcDbLine
 10
-62.71433258056641
 20
-69.17512512207031
 30
0.0
 11
-62.6713752746582
 21
-69.0612564086914
 31
0.0
1001
DBPROPERTIES
1002
{
1000
PbThick
1002
}
  0
LINE
  5
1FA
330
1F
100
AcDbEntity
  8
THICK
100
AcDbLine
 10
-62.6713752746582
 20
-69.0612564086914
 30
0.0
 11
-62.61250305175781
 21
-68.9475326538086
 31
0.0
1001
DBPROPERTIES
1002
{
1000
PbThick
1002
}
  0
LINE
  5
1FB
330
1F
100
AcDbEntity
  8
THICK
100
AcDbLine
 10
-62.61250305175781
 20
-68.9475326538086
 30
0.0
 11
-62.53883743286133
 21
-68.83468627929688
 31
0.0
1001
DBPROPERTIES
1002
{
1000
PbThick
1002
}
  0
LINE
  5
1FC
330
1F
100
AcDbEntity
  8
THICK
100
AcDbLine
 10
-62.53883743286133
 20
-68.83468627929688
 30
0.0
 11
-62.45153045654297
 21
-68.72345733642578
 31
0.0
1001
DBPROPERTIES
1002
{
1000
PbThick
1002
}
  0
LINE
  5
1FD
330
1F
100
AcDbEntity
  8
THICK
100
AcDbLine
 10
-62.45153045654297
 20
-68.72345733642578
 30
0.0
 11
-62.36475372314453
 21
-68.62783813476562
 31
0.0
1001
DBPROPERTIES
1002
{
1000
PbThick
1002
}
  0
LINE
  5
1FE
330
1F
100
AcDbEntity
  8
THICK
100
AcDbLine
 10
-62.36475372314453
 20
-68.62783813476562
 30
0.0
 11
-62.26579666137695
 21
-68.53091430664062
 31
0.0
1001
DBPROPERTIES
1002
{
1000
PbThick
1002
}
  0
LINE
  5
1FF
330
1F
100
AcDbEntity
  8
THICK
100
AcDbLine
 10
-62.26579666137695
 20
-68.53091430664062
 30
0.0
 11
-62.15471267700195
 21
-68.43316650390625
 31
0.0
1001
DBPROPERTIES
1002
{
1000
PbThick
1002
}
  0
LINE
  5
200
330
1F
100
AcDbEntity
  8
THICK
100
AcDbLine
 10
-62.15471267700195
 20
-68.43316650390625
 30
0.0
 11
-62.03156661987305
 21
-68.33506774902344
 31
0.0
1001
DBPROPERTIES
1002
{
1000
PbThick
1002
}
  0
LINE
  5
201
330
1F
100
AcDbEntity
  8
THICK
100
AcDbLine
 10
-62.03156661987305
 20
-68.33506774902344
 30
0.0
 11
-61.89651489257812
 21
-68.23709869384766
 31
0.0
1001
DBPROPERTIES
1002
{
1000
PbThick
1002
}
  0
LINE
  5
202
330
1F
100
AcDbEntity
  8
THICK
100
AcDbLine
 10
-61.89651489257812
 20
-68.23709869384766
 30
0.0
 11
-61.75
 21
-68.13971710205078
 31
0.0
1001
DBPROPERTIES
1002
{
1000
PbThick
1002
}
  0
LINE
  5
203
330
1F
100
AcDbEntity
  8
HIDDEN
100
AcDbLine
 10
-61.75
 20
-68.13971710205078
 30
0.0
 11
-61.5284538269043
 21
-68.00628662109375
 31
0.0
1001
DBPROPERTIES
1002
{
1000
PbHidd
1002
}
  0
LINE
  5
204
330
1F
100
AcDbEntity
  8
HIDDEN
100
AcDbLine
 10
-61.5284538269043
 20
-68.00628662109375
 30
0.0
 11
-61.28707885742188
 21
-67.87602233886719
 31
0.0
1001
DBPROPERTIES
1002
{
1000
PbHidd
1002
}
  0
LINE
  5
205
330
1F
100
AcDbEntity
  8
HIDDEN
100
AcDbLine
 10
-61.28707885742188
 20
-67.87602233886719
 30
0.0
 11
-61.02762603759766
 21
-67.74993133544922
 31
0.0
1001
DBPROPERTIES
1002
{
1000
PbHidd
1002
}
  0
LINE
  5
206
330
1F
100
AcDbEntity
  8
HIDDEN
100
AcDbLine
 10
-61.02762603759766
 20
-67.74993133544922
 30
0.0
 11
-60.75234603881836
 21
-67.62908172607422
 31
0.0
1001
DBPROPERTIES
1002
{
1000
PbHidd
1002
}
  0
LINE
  5
207
330
1F
100
AcDbEntity
  8
HIDDEN
100
AcDbLine
 10
-60.75234603881836
 20
-67.62908172607422
 30
0.0
 11
-60.46359634399414
 21
-67.51448822021484
 31
0.0
1001
DBPROPERTIES
1002
{
1000
PbHidd
1002
}
  0
LINE
  5
208
330
1F
100
AcDbEntity
  8
HIDDEN
100
AcDbLine
 10
-60.46359634399414
 20
-67.51448822021484
 30
0.0
 11
-60.16428756713867
 21
-67.4070053100586
 31
0.0
1001
DBPROPERTIES
1002
{
1000
PbHidd
1002
}
  0
LINE
  5
209
330
1F
100
AcDbEntity
  8
HIDDEN
100
AcDbLine
 10
-60.16428756713867
 20
-67.4070053100586
 30
0.0
 11
-59.85756301879883
 21
-67.3073959350586
 31
0.0
1001
DBPROPERTIES
1002
{
1000
PbHidd
1002
}
  0
LINE
  5
20A
330
1F
100
AcDbEntity
  8
HIDDEN
100
AcDbLine
 10
-59.85756301879883
 20
-67.3073959350586
 30
0.0
 11
-59.53815841674805
 21
-67.21400451660156
 31
0.0
1001
DBPROPERTIES
1002
{
1000
PbHidd
1002
}
  0
LINE
  5
20B
330
1F
100
AcDbEntity
  8
HIDDEN
100
AcDbLine
 10
-59.53815841674805
 20
-67.21400451660156
 30
0.0
 11
-59.20165634155273
 21
-67.12596893310547
 31
0.0
1001
DBPROPERTIES
1002
{
1000
PbHidd
1002
}
  0
LINE
  5
20C
330
1F
100
AcDbEntity
  8
HIDDEN
100
AcDbLine
 10
-59.20165634155273
 20
-67.12596893310547
 30
0.0
 11
-58.85114288330078
 21
-67.04485321044922
 31
0.0
1001
DBPROPERTIES
1002
{
1000
PbHidd
1002
}
  0
LINE
  5
20D
330
1F
100
AcDbEntity
  8
HIDDEN
100
AcDbLine
 10
-58.85114288330078
 20
-67.04485321044922
 30
0.0
 11
-58.48996353149414
 21
-66.97198486328125
 31
0.0
1001
DBPROPERTIES
1002
{
1000
PbHidd
1002
}
  0
LINE
  5
20E
330
1F
100
AcDbEntity
  8
HIDDEN
100
AcDbLine
 10
-58.48996353149414
 20
-66.97198486328125
 30
0.0
 11
-58.12174987792969
 21
-66.90840911865234
 31
0.0
1001
DBPROPERTIES
1002
{
1000
PbHidd
1002
}
  0
LINE
  5
20F
330
1F
100
AcDbEntity
  8
HIDDEN
100
AcDbLine
 10
-58.12174987792969
 20
-66.90840911865234
 30
0.0
 11
-57.74999618530273
 21
-66.85503387451172
 31
0.0
1001
DBPROPERTIES
1002
{
1000
PbHidd
1002
}
  0
LINE
  5
210
330
1F
100
AcDbEntity
  8
HIDDEN
100
AcDbLine
 10
-57.74999618530273
 20
-66.85503387451172
 30
0.0
 11
-57.38882446289062
 21
-66.81346130371094
 31
0.0
1001
DBPROPERTIES
1002
{
1000
PbHidd
1002
}
  0
LINE
  5
211
330
1F
100
AcDbEntity
  8
HIDDEN
100
AcDbLine
 10
-57.38882446289062
 20
-66.81346130371094
 30
0.0
 11
-57.0311393737793
 21
-66.78236389160156
 31
0.0
1001
DBPROPERTIES
1002
{
1000
PbHidd
1002
}
  0
LINE
  5
212
330
1F
100
AcDbEntity
  8
HIDDEN
100
AcDbLine
 10
-57.0311393737793
 20
-66.78236389160156
 30
0.0
 11
-56.68043518066406
 21
-66.76193237304688
 31
0.0
1001
DBPROPERTIES
1002
{
1000
PbHidd
1002
}
  0
LINE
  5
213
330
1F
100
AcDbEntity
  8
HIDDEN
100
AcDbLine
 10
-56.68043518066406
 20
-66.76193237304688
 30
0.0
 11
-56.34010314941406
 21
-66.75190734863281
 31
0.0
1001
DBPROPERTIES
1002
{
1000
PbHidd
1002
}
  0
LINE
  5
214
330
1F
100
AcDbEntity
  8
HIDDEN
100
AcDbLine
 10
-56.34010314941406
 20
-66.75190734863281
 30
0.0
 11
-56.01151657104492
 21
-66.7519760131836
 31
0.0
1001
DBPROPERTIES
1002
{
1000
PbHidd
1002
}
  0
LINE
  5
215
330
1F
100
AcDbEntity
  8
HIDDEN
100
AcDbLine
 10
-56.01151657104492
 20
-66.7519760131836
 30
0.0
 11
-55.68657302856445
 21
-66.76213836669922
 31
0.0
1001
DBPROPERTIES
1002
{
1000
PbHidd
1002
}
  0
LINE
  5
216
330
1F
100
AcDbEntity
  8
HIDDEN
100
AcDbLine
 10
-55.68657302856445
 20
-66.76213836669922
 30
0.0
 11
-55.36723709106445
 21
-66.78270721435547
 31
0.0
1001
DBPROPERTIES
1002
{
1000
PbHidd
1002
}
  0
LINE
  5
217
330
1F
100
AcDbEntity
  8
HIDDEN
100
AcDbLine
 10
-55.36723709106445
 20
-66.78270721435547
 30
0.0
 11
-55.05730819702148
 21
-66.8139419555664
 31
0.0
1001
DBPROPERTIES
1002
{
1000
PbHidd
1002
}
  0
LINE
  5
218
330
1F
100
AcDbEntity
  8
HIDDEN
100
AcDbLine
 10
-55.05730819702148
 20
-66.8139419555664
 30
0.0
 11
-54.760009765625
 21
-66.85565185546875
 31
0.0
1001
DBPROPERTIES
1002
{
1000
PbHidd
1002
}
  0
LINE
  5
219
330
1F
100
AcDbEntity
  8
HIDDEN
100
AcDbLine
 10
-54.760009765625
 20
-66.85565185546875
 30
0.0
 11
-54.47835540771484
 21
-66.90747833251953
 31
0.0
1001
DBPROPERTIES
1002
{
1000
PbHidd
1002
}
  0
LINE
  5
21A
330
1F
100
AcDbEntity
  8
HIDDEN
100
AcDbLine
 10
-54.47835540771484
 20
-66.90747833251953
 30
0.0
 11
-54.21484756469727
 21
-66.96894836425781
 31
0.0
1001
DBPROPERTIES
1002
{
1000
PbHidd
1002
}
  0
LINE
  5
21B
330
1F
100
AcDbEntity
  8
HIDDEN
100
AcDbLine
 10
-54.21484756469727
 20
-66.96894836425781
 30
0.0
 11
-53.97142791748047
 21
-67.03922271728516
 31
0.0
1001
DBPROPERTIES
1002
{
1000
PbHidd
1002
}
  0
LINE
  5
21C
330
1F
100
AcDbEntity
  8
HIDDEN
100
AcDbLine
 10
-53.97142791748047
 20
-67.03922271728516
 30
0.0
 11
-53.75001907348633
 21
-67.11735534667969
 31
0.0
1001
DBPROPERTIES
1002
{
1000
PbHidd
1002
}
  0
LINE
  5
21D
330
1F
100
AcDbEntity
  8
THICK
100
AcDbLine
 10
-53.75001907348633
 20
-67.11735534667969
 30
0.0
 11
-53.54268646240234
 21
-67.20655059814453
 31
0.0
1001
DBPROPERTIES
1002
{
1000
PbThick
1002
}
  0
LINE
  5
21E
330
1F
100
AcDbEntity
  8
THICK
100
AcDbLine
 10
-53.54268646240234
 20
-67.20655059814453
 30
0.0
 11
-53.3618278503418
 21
-67.30145263671875
 31
0.0
1001
DBPROPERTIES
1002
{
1000
PbThick
1002
}
  0
LINE
  5
21F
330
1F
100
AcDbEntity
  8
THICK
100
AcDbLine
 10
-53.3618278503418
 20
-67.30145263671875
 30
0.0
 11
-53.20474624633789
 21
-67.40259552001953
 31
0.0
1001
DBPROPERTIES
1002
{
1000
PbThick
1002
}
  0
LINE
  5
220
330
1F
100
AcDbEntity
  8
THICK
100
AcDbLine
 10
-53.20474624633789
 20
-67.40259552001953
 30
0.0
 11
-53.06821441650391
 21
-67.511962890625
 31
0.0
1001
DBPROPERTIES
1002
{
1000
PbThick
1002
}
  0
LINE
  5
221
330
1F
100
AcDbEntity
  8
THICK
100
AcDbLine
 10
-53.06821441650391
 20
-67.511962890625
 30
0.0
 11
-52.95432281494141
 21
-67.62873077392578
 31
0.0
1001
DBPROPERTIES
1002
{
1000
PbThick
1002
}
  0
LINE
  5
222
330
1F
100
AcDbEntity
  8
THICK
100
AcDbLine
 10
-52.95432281494141
 20
-67.62873077392578
 30
0.0
 11
-52.86482620239258
 21
-67.75201416015625
 31
0.0
1001
DBPROPERTIES
1002
{
1000
PbThick
1002
}
  0
LINE
  5
223
330
1F
100
AcDbEntity
  8
THICK
100
AcDbLine
 10
-52.86482620239258
 20
-67.75201416015625
 30
0.0
 11
-52.80057525634766
 21
-67.8807144165039
 31
0.0
1001
DBPROPERTIES
1002
{
1000
PbThick
1002
}
  0
LINE
  5
224
330
1F
100
AcDbEntity
  8
THICK
100
AcDbLine
 10
-52.80057525634766
 20
-67.8807144165039
 30
0.0
 11
-52.76227569580078
 21
-68.01373291015625
 31
0.0
1001
DBPROPERTIES
1002
{
1000
PbThick
1002
}
  0
LINE
  5
225
330
1F
100
AcDbEntity
  8
THICK
100
AcDbLine
 10
-52.76227569580078
 20
-68.01373291015625
 30
0.0
 11
-52.75008392333984
 21
-68.14997100830078
 31
0.0
1001
DBPROPERTIES
1002
{
1000
PbThick
1002
}
  0
LINE
  5
226
330
1F
100
AcDbEntity
  8
THICK
100
AcDbLine
 10
-52.75008392333984
 20
-68.14997100830078
 30
0.0
 11
-52.76045608520508
 21
-68.27103424072266
 31
0.0
1001
DBPROPERTIES
1002
{
1000
PbThick
1002
}
  0
LINE
  5
227
330
1F
100
AcDbEntity
  8
THICK
100
AcDbLine
 10
-52.76045608520508
 20
-68.27103424072266
 30
0.0
 11
-52.79007339477539
 21
-68.39274597167969
 31
0.0
1001
DBPROPERTIES
1002
{
1000
PbThick
1002
}
  0
LINE
  5
228
330
1F
100
AcDbEntity
  8
THICK
100
AcDbLine
 10
-52.79007339477539
 20
-68.39274597167969
 30
0.0
 11
-52.83816146850586
 21
-68.51422882080078
 31
0.0
1001
DBPROPERTIES
1002
{
1000
PbThick
1002
}
  0
LINE
  5
229
330
1F
100
AcDbEntity
  8
THICK
100
AcDbLine
 10
-52.83816146850586
 20
-68.51422882080078
 30
0.0
 11
-52.90341949462891
 21
-68.63456726074219
 31
0.0
1001
DBPROPERTIES
1002
{
1000
PbThick
1002
}
  0
LINE
  5
22A
330
1F
100
AcDbEntity
  8
THICK
100
AcDbLine
 10
-52.90341949462891
 20
-68.63456726074219
 30
0.0
 11
-52.98464202880859
 21
-68.75301361083984
 31
0.0
1001
DBPROPERTIES
1002
{
1000
PbThick
1002
}
  0
LINE
  5
22B
330
1F
100
AcDbEntity
  8
THICK
100
AcDbLine
 10
-52.98464202880859
 20
-68.75301361083984
 30
0.0
 11
-53.08361053466797
 21
-68.87238311767578
 31
0.0
1001
DBPROPERTIES
1002
{
1000
PbThick
1002
}
  0
LINE
  5
22C
330
1F
100
AcDbEntity
  8
THICK
100
AcDbLine
 10
-53.08361053466797
 20
-68.87238311767578
 30
0.0
 11
-53.20133209228516
 21
-68.9933090209961
 31
0.0
1001
DBPROPERTIES
1002
{
1000
PbThick
1002
}
  0
LINE
  5
22D
330
1F
100
AcDbEntity
  8
THICK
100
AcDbLine
 10
-53.20133209228516
 20
-68.9933090209961
 30
0.0
 11
-53.33781051635742
 21
-69.11489868164062
 31
0.0
1001
DBPROPERTIES
1002
{
1000
PbThick
1002
}
  0
LINE
  5
22E
330
1F
100
AcDbEntity
  8
THICK
100
AcDbLine
 10
-53.33781051635742
 20
-69.11489868164062
 30
0.0
 11
-53.49288940429688
 21
-69.23628234863281
 31
0.0
1001
DBPROPERTIES
1002
{
1000
PbThick
1002
}
  0
LINE
  5
22F
330
1F
100
AcDbEntity
  8
THICK
100
AcDbLine
 10
-53.49288940429688
 20
-69.23628234863281
 30
0.0
 11
-53.66584777832031
 21
-69.35662841796875
 31
0.0
1001
DBPROPERTIES
1002
{
1000
PbThick
1002
}
  0
LINE
  5
230
330
1F
100
AcDbEntity
  8
THICK
100
AcDbLine
 10
-53.66584777832031
 20
-69.35662841796875
 30
0.0
 11
-53.85585403442383
 21
-69.47510528564453
 31
0.0
1001
DBPROPERTIES
1002
{
1000
PbThick
1002
}
  0
LINE
  5
231
330
1F
100
AcDbEntity
  8
THICK
100
AcDbLine
 10
-53.85585403442383
 20
-69.47510528564453
 30
0.0
 11
-54.06206130981445
 21
-69.59095001220703
 31
0.0
1001
DBPROPERTIES
1002
{
1000
PbThick
1002
}
  0
LINE
  5
232
330
1F
100
AcDbEntity
  8
THICK
100
AcDbLine
 10
-54.06206130981445
 20
-69.59095001220703
 30
0.0
 11
-54.28324508666992
 21
-69.7034912109375
 31
0.0
1001
DBPROPERTIES
1002
{
1000
PbThick
1002
}
  0
LINE
  5
233
330
1F
100
AcDbEntity
  8
THICK
100
AcDbLine
 10
-54.28324508666992
 20
-69.7034912109375
 30
0.0
 11
-54.51789093017578
 21
-69.81201934814453
 31
0.0
1001
DBPROPERTIES
1002
{
1000
PbThick
1002
}
  0
LINE
  5
234
330
1F
100
AcDbEntity
  8
THICK
100
AcDbLine
 10
-54.51789093017578
 20
-69.81201934814453
 30
0.0
 11
-54.76445388793945
 21
-69.91584014892578
 31
0.0
1001
DBPROPERTIES
1002
{
1000
PbThick
1002
}
  0
LINE
  5
235
330
1F
100
AcDbEntity
  8
THICK
100
AcDbLine
 10
-54.76445388793945
 20
-69.91584014892578
 30
0.0
 11
-55.02103424072266
 21
-70.01436614990234
 31
0.0
1001
DBPROPERTIES
1002
{
1000
PbThick
1002
}
  0
LINE
  5
236
330
1F
100
AcDbEntity
  8
THICK
100
AcDbLine
 10
-55.02103424072266
 20
-70.01436614990234
 30
0.0
 11
-55.28547668457031
 21
-70.1070785522461
 31
0.0
1001
DBPROPERTIES
1002
{
1000
PbThick
1002
}
  0
LINE
  5
237
330
1F
100
AcDbEntity
  8
THICK
100
AcDbLine
 10
-55.28547668457031
 20
-70.1070785522461
 30
0.0
 11
-55.55655670166016
 21
-70.19375610351562
 31
0.0
1001
DBPROPERTIES
1002
{
1000
PbThick
1002
}
  0
LINE
  5
238
330
1F
100
AcDbEntity
  8
THICK
100
AcDbLine
 10
-55.55655670166016
 20
-70.19375610351562
 30
0.0
 11
-55.84081268310547
 21
-70.27640533447266
 31
0.0
1001
DBPROPERTIES
1002
{
1000
PbThick
1002
}
  0
LINE
  5
239
330
1F
100
AcDbEntity
  8
THICK
100
AcDbLine
 10
-55.84081268310547
 20
-70.27640533447266
 30
0.0
 11
-56.13831329345703
 21
-70.35470581054688
 31
0.0
1001
DBPROPERTIES
1002
{
1000
PbThick
1002
}
  0
LINE
  5
23A
330
1F
100
AcDbEntity
  8
THICK
100
AcDbLine
 10
-56.13831329345703
 20
-70.35470581054688
 30
0.0
 11
-56.44708251953125
 21
-70.42768859863281
 31
0.0
1001
DBPROPERTIES
1002
{
1000
PbThick
1002
}
  0
LINE
  5
23B
330
1F
100
AcDbEntity
  8
THICK
100
AcDbLine
 10
-56.44708251953125
 20
-70.42768859863281
 30
0.0
 11
-56.76498413085938
 21
-70.49449157714844
 31
0.0
1001
DBPROPERTIES
1002
{
1000
PbThick
1002
}
  0
LINE
  5
23C
330
1F
100
AcDbEntity
  8
THICK
100
AcDbLine
 10
-56.76498413085938
 20
-70.49449157714844
 30
0.0
 11
-57.08965301513672
 21
-70.55448913574219
 31
0.0
1001
DBPROPERTIES
1002
{
1000
PbThick
1002
}
  0
LINE
  5
23D
330
1F
100
AcDbEntity
  8
THICK
100
AcDbLine
 10
-57.08965301513672
 20
-70.55448913574219
 30
0.0
 11
-57.4187126159668
 21
-70.6070556640625
 31
0.0
1001
DBPROPERTIES
1002
{
1000
PbThick
1002
}
  0
LINE
  5
23E
330
1F
100
AcDbEntity
  8
THICK
100
AcDbLine
 10
-57.4187126159668
 20
-70.6070556640625
 30
0.0
 11
-57.75000381469727
 21
-70.65174865722656
 31
0.0
1001
DBPROPERTIES
1002
{
1000
PbThick
1002
}
  0
LINE
  5
23F
330
1F
100
AcDbEntity
  8
THICK
100
AcDbLine
 10
-188.6
 20
-88.63749999999999
 30
0.0
 11
-0.0000000000000396
 21
-88.63749999999999
 31
0.0
1001
DBPROPERTIES
1002
{
1000
PbThick
1002
}
  0
LINE
  5
240
330
1F
100
AcDbEntity
  8
THICK
100
AcDbLine
 10
-168.1
 20
-80.4375
 30
0.0
 11
-61.74999991556739
 21
-80.4375
 31
0.0
1001
DBPROPERTIES
1002
{
1000
PbThick
1002
}
  0
LINE
  5
241
330
1F
100
AcDbEntity
  8
HIDDEN
100
AcDbLine
 10
-61.74999991556739
 20
-80.4375
 30
0.0
 11
-53.74999994316067
 21
-80.4375
 31
0.0
1001
DBPROPERTIES
1002
{
1000
PbHidd
1002
}
  0
LINE
  5
242
330
1F
100
AcDbEntity
  8
THICK
100
AcDbLine
 10
-53.74999994316067
 20
-80.4375
 30
0.0
 11
-0.0000000000000358
 21
-80.4375
 31
0.0
1001
DBPROPERTIES
1002
{
1000
PbThick
1002
}
  0
LINE
  5
243
330
1F
100
AcDbEntity
  8
THICK
100
AcDbLine
 10
-57.75000381469727
 20
-88.52674865722656
 30
0.0
 11
-58.04965591430664
 21
-88.56017303466797
 31
0.0
1001
DBPROPERTIES
1002
{
1000
PbThick
1002
}
  0
LINE
  5
244
330
1F
100
AcDbEntity
  8
THICK
100
AcDbLine
 10
-58.04965591430664
 20
-88.56017303466797
 30
0.0
 11
-58.34727096557617
 21
-88.58676147460938
 31
0.0
1001
DBPROPERTIES
1002
{
1000
PbThick
1002
}
  0
LINE
  5
245
330
1F
100
AcDbEntity
  8
THICK
100
AcDbLine
 10
-58.34727096557617
 20
-88.58676147460938
 30
0.0
 11
-58.64097595214844
 21
-88.60638427734375
 31
0.0
1001
DBPROPERTIES
1002
{
1000
PbThick
1002
}
  0
LINE
  5
246
330
1F
100
AcDbEntity
  8
THICK
100
AcDbLine
 10
-58.64097595214844
 20
-88.60638427734375
 30
0.0
 11
-58.928955078125
 21
-88.6191177368164
 31
0.0
1001
DBPROPERTIES
1002
{
1000
PbThick
1002
}
  0
LINE
  5
247
330
1F
100
AcDbEntity
  8
THICK
100
AcDbLine
 10
-58.928955078125
 20
-88.6191177368164
 30
0.0
 11
-59.20940780639648
 21
-88.62513732910156
 31
0.0
1001
DBPROPERTIES
1002
{
1000
PbThick
1002
}
  0
LINE
  5
248
330
1F
100
AcDbEntity
  8
THICK
100
AcDbLine
 10
-59.20940780639648
 20
-88.62513732910156
 30
0.0
 11
-59.48218154907227
 21
-88.62457275390625
 31
0.0
1001
DBPROPERTIES
1002
{
1000
PbThick
1002
}
  0
LINE
  5
249
330
1F
100
AcDbEntity
  8
THICK
100
AcDbLine
 10
-59.48218154907227
 20
-88.62457275390625
 30
0.0
 11
-59.75248718261719
 21
-88.61741638183594
 31
0.0
1001
DBPROPERTIES
1002
{
1000
PbThick
1002
}
  0
LINE
  5
24A
330
1F
100
AcDbEntity
  8
THICK
100
AcDbLine
 10
-59.75248718261719
 20
-88.61741638183594
 30
0.0
 11
-60.01911163330078
 21
-88.60350799560547
 31
0.0
1001
DBPROPERTIES
1002
{
1000
PbThick
1002
}
  0
LINE
  5
24B
330
1F
100
AcDbEntity
  8
THICK
100
AcDbLine
 10
-60.01911163330078
 20
-88.60350799560547
 30
0.0
 11
-60.28000640869141
 21
-88.58270263671875
 31
0.0
1001
DBPROPERTIES
1002
{
1000
PbThick
1002
}
  0
LINE
  5
24C
330
1F
100
AcDbEntity
  8
THICK
100
AcDbLine
 10
-60.28000640869141
 20
-88.58270263671875
 30
0.0
 11
-60.53326034545898
 21
-88.55492401123047
 31
0.0
1001
DBPROPERTIES
1002
{
1000
PbThick
1002
}
  0
LINE
  5
24D
330
1F
100
AcDbEntity
  8
THICK
100
AcDbLine
 10
-60.53326034545898
 20
-88.55492401123047
 30
0.0
 11
-60.77725601196289
 21
-88.52033996582031
 31
0.0
1001
DBPROPERTIES
1002
{
1000
PbThick
1002
}
  0
LINE
  5
24E
330
1F
100
AcDbEntity
  8
THICK
100
AcDbLine
 10
-60.77725601196289
 20
-88.52033996582031
 30
0.0
 11
-61.01041412353516
 21
-88.4791259765625
 31
0.0
1001
DBPROPERTIES
1002
{
1000
PbThick
1002
}
  0
LINE
  5
24F
330
1F
100
AcDbEntity
  8
THICK
100
AcDbLine
 10
-61.01041412353516
 20
-88.4791259765625
 30
0.0
 11
-61.23129272460938
 21
-88.43147277832031
 31
0.0
1001
DBPROPERTIES
1002
{
1000
PbThick
1002
}
  0
LINE
  5
250
330
1F
100
AcDbEntity
  8
THICK
100
AcDbLine
 10
-61.23129272460938
 20
-88.43147277832031
 30
0.0
 11
-61.43887329101562
 21
-88.37772369384766
 31
0.0
1001
DBPROPERTIES
1002
{
1000
PbThick
1002
}
  0
LINE
  5
251
330
1F
100
AcDbEntity
  8
THICK
100
AcDbLine
 10
-61.43887329101562
 20
-88.37772369384766
 30
0.0
 11
-61.63215637207031
 21
-88.3183364868164
 31
0.0
1001
DBPROPERTIES
1002
{
1000
PbThick
1002
}
  0
LINE
  5
252
330
1F
100
AcDbEntity
  8
THICK
100
AcDbLine
 10
-61.63215637207031
 20
-88.3183364868164
 30
0.0
 11
-61.81013870239258
 21
-88.2537612915039
 31
0.0
1001
DBPROPERTIES
1002
{
1000
PbThick
1002
}
  0
LINE
  5
253
330
1F
100
AcDbEntity
  8
THICK
100
AcDbLine
 10
-61.81013870239258
 20
-88.2537612915039
 30
0.0
 11
-61.97211074829102
 21
-88.18458557128906
 31
0.0
1001
DBPROPERTIES
1002
{
1000
PbThick
1002
}
  0
LINE
  5
254
330
1F
100
AcDbEntity
  8
THICK
100
AcDbLine
 10
-61.97211074829102
 20
-88.18458557128906
 30
0.0
 11
-62.11776351928711
 21
-88.11151123046875
 31
0.0
1001
DBPROPERTIES
1002
{
1000
PbThick
1002
}
  0
LINE
  5
255
330
1F
100
AcDbEntity
  8
THICK
100
AcDbLine
 10
-62.11776351928711
 20
-88.11151123046875
 30
0.0
 11
-62.246826171875
 21
-88.03527069091797
 31
0.0
1001
DBPROPERTIES
1002
{
1000
PbThick
1002
}
  0
LINE
  5
256
330
1F
100
AcDbEntity
  8
THICK
100
AcDbLine
 10
-62.246826171875
 20
-88.03527069091797
 30
0.0
 11
-62.36119842529297
 21
-87.955078125
 31
0.0
1001
DBPROPERTIES
1002
{
1000
PbThick
1002
}
  0
LINE
  5
257
330
1F
100
AcDbEntity
  8
THICK
100
AcDbLine
 10
-62.36119842529297
 20
-87.955078125
 30
0.0
 11
-62.46243667602539
 21
-87.86983489990234
 31
0.0
1001
DBPROPERTIES
1002
{
1000
PbThick
1002
}
  0
LINE
  5
258
330
1F
100
AcDbEntity
  8
THICK
100
AcDbLine
 10
-62.46243667602539
 20
-87.86983489990234
 30
0.0
 11
-62.5495719909668
 21
-87.77991485595703
 31
0.0
1001
DBPROPERTIES
1002
{
1000
PbThick
1002
}
  0
LINE
  5
259
330
1F
100
AcDbEntity
  8
THICK
100
AcDbLine
 10
-62.5495719909668
 20
-87.77991485595703
 30
0.0
 11
-62.62163543701172
 21
-87.68570709228516
 31
0.0
1001
DBPROPERTIES
1002
{
1000
PbThick
1002
}
  0
LINE
  5
25A
330
1F
100
AcDbEntity
  8
THICK
100
AcDbLine
 10
-62.62163543701172
 20
-87.68570709228516
 30
0.0
 11
-62.67798233032227
 21
-87.587646484375
 31
0.0
1001
DBPROPERTIES
1002
{
1000
PbThick
1002
}
  0
LINE
  5
25B
330
1F
100
AcDbEntity
  8
THICK
100
AcDbLine
 10
-62.67798233032227
 20
-87.587646484375
 30
0.0
 11
-62.71832275390625
 21
-87.48625946044922
 31
0.0
1001
DBPROPERTIES
1002
{
1000
PbThick
1002
}
  0
LINE
  5
25C
330
1F
100
AcDbEntity
  8
THICK
100
AcDbLine
 10
-62.71832275390625
 20
-87.48625946044922
 30
0.0
 11
-62.74237442016602
 21
-87.3820571899414
 31
0.0
1001
DBPROPERTIES
1002
{
1000
PbThick
1002
}
  0
LINE
  5
25D
330
1F
100
AcDbEntity
  8
THICK
100
AcDbLine
 10
-62.74237442016602
 20
-87.3820571899414
 30
0.0
 11
-62.74994659423828
 21
-87.27555084228516
 31
0.0
1001
DBPROPERTIES
1002
{
1000
PbThick
1002
}
  0
LINE
  5
25E
330
1F
100
AcDbEntity
  8
THICK
100
AcDbLine
 10
-62.74994659423828
 20
-87.27555084228516
 30
0.0
 11
-62.74065780639648
 21
-87.1634521484375
 31
0.0
1001
DBPROPERTIES
1002
{
1000
PbThick
1002
}
  0
LINE
  5
25F
330
1F
100
AcDbEntity
  8
THICK
100
AcDbLine
 10
-62.74065780639648
 20
-87.1634521484375
 30
0.0
 11
-62.71433258056641
 21
-87.05012512207031
 31
0.0
1001
DBPROPERTIES
1002
{
1000
PbThick
1002
}
  0
LINE
  5
260
330
1F
100
AcDbEntity
  8
THICK
100
AcDbLine
 10
-62.71433258056641
 20
-87.05012512207031
 30
0.0
 11
-62.6713752746582
 21
-86.9362564086914
 31
0.0
1001
DBPROPERTIES
1002
{
1000
PbThick
1002
}
  0
LINE
  5
261
330
1F
100
AcDbEntity
  8
THICK
100
AcDbLine
 10
-62.6713752746582
 20
-86.9362564086914
 30
0.0
 11
-62.61250305175781
 21
-86.8225326538086
 31
0.0
1001
DBPROPERTIES
1002
{
1000
PbThick
1002
}
  0
LINE
  5
262
330
1F
100
AcDbEntity
  8
THICK
100
AcDbLine
 10
-62.61250305175781
 20
-86.8225326538086
 30
0.0
 11
-62.53883743286133
 21
-86.70968627929688
 31
0.0
1001
DBPROPERTIES
1002
{
1000
PbThick
1002
}
  0
LINE
  5
263
330
1F
100
AcDbEntity
  8
THICK
100
AcDbLine
 10
-62.53883743286133
 20
-86.70968627929688
 30
0.0
 11
-62.45153045654297
 21
-86.59845733642578
 31
0.0
1001
DBPROPERTIES
1002
{
1000
PbThick
1002
}
  0
LINE
  5
264
330
1F
100
AcDbEntity
  8
THICK
100
AcDbLine
 10
-62.45153045654297
 20
-86.59845733642578
 30
0.0
 11
-62.36475372314453
 21
-86.50283813476562
 31
0.0
1001
DBPROPERTIES
1002
{
1000
PbThick
1002
}
  0
LINE
  5
265
330
1F
100
AcDbEntity
  8
THICK
100
AcDbLine
 10
-62.36475372314453
 20
-86.50283813476562
 30
0.0
 11
-62.26579666137695
 21
-86.40591430664062
 31
0.0
1001
DBPROPERTIES
1002
{
1000
PbThick
1002
}
  0
LINE
  5
266
330
1F
100
AcDbEntity
  8
THICK
100
AcDbLine
 10
-62.26579666137695
 20
-86.40591430664062
 30
0.0
 11
-62.15471267700195
 21
-86.30816650390625
 31
0.0
1001
DBPROPERTIES
1002
{
1000
PbThick
1002
}
  0
LINE
  5
267
330
1F
100
AcDbEntity
  8
THICK
100
AcDbLine
 10
-62.15471267700195
 20
-86.30816650390625
 30
0.0
 11
-62.03156661987305
 21
-86.21006774902344
 31
0.0
1001
DBPROPERTIES
1002
{
1000
PbThick
1002
}
  0
LINE
  5
268
330
1F
100
AcDbEntity
  8
THICK
100
AcDbLine
 10
-62.03156661987305
 20
-86.21006774902344
 30
0.0
 11
-61.89651489257812
 21
-86.11209869384766
 31
0.0
1001
DBPROPERTIES
1002
{
1000
PbThick
1002
}
  0
LINE
  5
269
330
1F
100
AcDbEntity
  8
THICK
100
AcDbLine
 10
-61.89651489257812
 20
-86.11209869384766
 30
0.0
 11
-61.75
 21
-86.01471710205078
 31
0.0
1001
DBPROPERTIES
1002
{
1000
PbThick
1002
}
  0
LINE
  5
26A
330
1F
100
AcDbEntity
  8
HIDDEN
100
AcDbLine
 10
-61.75
 20
-86.01471710205078
 30
0.0
 11
-61.5284538269043
 21
-85.88128662109375
 31
0.0
1001
DBPROPERTIES
1002
{
1000
PbHidd
1002
}
  0
LINE
  5
26B
330
1F
100
AcDbEntity
  8
HIDDEN
100
AcDbLine
 10
-61.5284538269043
 20
-85.88128662109375
 30
0.0
 11
-61.28707885742188
 21
-85.75102233886719
 31
0.0
1001
DBPROPERTIES
1002
{
1000
PbHidd
1002
}
  0
LINE
  5
26C
330
1F
100
AcDbEntity
  8
HIDDEN
100
AcDbLine
 10
-61.28707885742188
 20
-85.75102233886719
 30
0.0
 11
-61.02762603759766
 21
-85.62493133544922
 31
0.0
1001
DBPROPERTIES
1002
{
1000
PbHidd
1002
}
  0
LINE
  5
26D
330
1F
100
AcDbEntity
  8
HIDDEN
100
AcDbLine
 10
-61.02762603759766
 20
-85.62493133544922
 30
0.0
 11
-60.75234603881836
 21
-85.50408172607422
 31
0.0
1001
DBPROPERTIES
1002
{
1000
PbHidd
1002
}
  0
LINE
  5
26E
330
1F
100
AcDbEntity
  8
HIDDEN
100
AcDbLine
 10
-60.75234603881836
 20
-85.50408172607422
 30
0.0
 11
-60.46359634399414
 21
-85.38948822021484
 31
0.0
1001
DBPROPERTIES
1002
{
1000
PbHidd
1002
}
  0
LINE
  5
26F
330
1F
100
AcDbEntity
  8
HIDDEN
100
AcDbLine
 10
-60.46359634399414
 20
-85.38948822021484
 30
0.0
 11
-60.16428756713867
 21
-85.2820053100586
 31
0.0
1001
DBPROPERTIES
1002
{
1000
PbHidd
1002
}
  0
LINE
  5
270
330
1F
100
AcDbEntity
  8
HIDDEN
100
AcDbLine
 10
-60.16428756713867
 20
-85.2820053100586
 30
0.0
 11
-59.85756301879883
 21
-85.1823959350586
 31
0.0
1001
DBPROPERTIES
1002
{
1000
PbHidd
1002
}
  0
LINE
  5
271
330
1F
100
AcDbEntity
  8
HIDDEN
100
AcDbLine
 10
-59.85756301879883
 20
-85.1823959350586
 30
0.0
 11
-59.53815841674805
 21
-85.08900451660156
 31
0.0
1001
DBPROPERTIES
1002
{
1000
PbHidd
1002
}
  0
LINE
  5
272
330
1F
100
AcDbEntity
  8
HIDDEN
100
AcDbLine
 10
-59.53815841674805
 20
-85.08900451660156
 30
0.0
 11
-59.20165634155273
 21
-85.00096893310547
 31
0.0
1001
DBPROPERTIES
1002
{
1000
PbHidd
1002
}
  0
LINE
  5
273
330
1F
100
AcDbEntity
  8
HIDDEN
100
AcDbLine
 10
-59.20165634155273
 20
-85.00096893310547
 30
0.0
 11
-58.85114288330078
 21
-84.91985321044922
 31
0.0
1001
DBPROPERTIES
1002
{
1000
PbHidd
1002
}
  0
LINE
  5
274
330
1F
100
AcDbEntity
  8
HIDDEN
100
AcDbLine
 10
-58.85114288330078
 20
-84.91985321044922
 30
0.0
 11
-58.48996353149414
 21
-84.84698486328125
 31
0.0
1001
DBPROPERTIES
1002
{
1000
PbHidd
1002
}
  0
LINE
  5
275
330
1F
100
AcDbEntity
  8
HIDDEN
100
AcDbLine
 10
-58.48996353149414
 20
-84.84698486328125
 30
0.0
 11
-58.12174987792969
 21
-84.78340911865234
 31
0.0
1001
DBPROPERTIES
1002
{
1000
PbHidd
1002
}
  0
LINE
  5
276
330
1F
100
AcDbEntity
  8
HIDDEN
100
AcDbLine
 10
-58.12174987792969
 20
-84.78340911865234
 30
0.0
 11
-57.74999618530273
 21
-84.73003387451172
 31
0.0
1001
DBPROPERTIES
1002
{
1000
PbHidd
1002
}
  0
LINE
  5
277
330
1F
100
AcDbEntity
  8
HIDDEN
100
AcDbLine
 10
-57.74999618530273
 20
-84.73003387451172
 30
0.0
 11
-57.38882446289062
 21
-84.68846130371094
 31
0.0
1001
DBPROPERTIES
1002
{
1000
PbHidd
1002
}
  0
LINE
  5
278
330
1F
100
AcDbEntity
  8
HIDDEN
100
AcDbLine
 10
-57.38882446289062
 20
-84.68846130371094
 30
0.0
 11
-57.0311393737793
 21
-84.65736389160156
 31
0.0
1001
DBPROPERTIES
1002
{
1000
PbHidd
1002
}
  0
LINE
  5
279
330
1F
100
AcDbEntity
  8
HIDDEN
100
AcDbLine
 10
-57.0311393737793
 20
-84.65736389160156
 30
0.0
 11
-56.68043518066406
 21
-84.63693237304688
 31
0.0
1001
DBPROPERTIES
1002
{
1000
PbHidd
1002
}
  0
LINE
  5
27A
330
1F
100
AcDbEntity
  8
HIDDEN
100
AcDbLine
 10
-56.68043518066406
 20
-84.63693237304688
 30
0.0
 11
-56.34010314941406
 21
-84.62690734863281
 31
0.0
1001
DBPROPERTIES
1002
{
1000
PbHidd
1002
}
  0
LINE
  5
27B
330
1F
100
AcDbEntity
  8
HIDDEN
100
AcDbLine
 10
-56.34010314941406
 20
-84.62690734863281
 30
0.0
 11
-56.01151657104492
 21
-84.6269760131836
 31
0.0
1001
DBPROPERTIES
1002
{
1000
PbHidd
1002
}
  0
LINE
  5
27C
330
1F
100
AcDbEntity
  8
HIDDEN
100
AcDbLine
 10
-56.01151657104492
 20
-84.6269760131836
 30
0.0
 11
-55.68657302856445
 21
-84.63713836669922
 31
0.0
1001
DBPROPERTIES
1002
{
1000
PbHidd
1002
}
  0
LINE
  5
27D
330
1F
100
AcDbEntity
  8
HIDDEN
100
AcDbLine
 10
-55.68657302856445
 20
-84.63713836669922
 30
0.0
 11
-55.36723709106445
 21
-84.65770721435547
 31
0.0
1001
DBPROPERTIES
1002
{
1000
PbHidd
1002
}
  0
LINE
  5
27E
330
1F
100
AcDbEntity
  8
HIDDEN
100
AcDbLine
 10
-55.36723709106445
 20
-84.65770721435547
 30
0.0
 11
-55.05730819702148
 21
-84.6889419555664
 31
0.0
1001
DBPROPERTIES
1002
{
1000
PbHidd
1002
}
  0
LINE
  5
27F
330
1F
100
AcDbEntity
  8
HIDDEN
100
AcDbLine
 10
-55.05730819702148
 20
-84.6889419555664
 30
0.0
 11
-54.760009765625
 21
-84.73065185546875
 31
0.0
1001
DBPROPERTIES
1002
{
1000
PbHidd
1002
}
  0
LINE
  5
280
330
1F
100
AcDbEntity
  8
HIDDEN
100
AcDbLine
 10
-54.760009765625
 20
-84.73065185546875
 30
0.0
 11
-54.47835540771484
 21
-84.78247833251953
 31
0.0
1001
DBPROPERTIES
1002
{
1000
PbHidd
1002
}
  0
LINE
  5
281
330
1F
100
AcDbEntity
  8
HIDDEN
100
AcDbLine
 10
-54.47835540771484
 20
-84.78247833251953
 30
0.0
 11
-54.21484756469727
 21
-84.84394836425781
 31
0.0
1001
DBPROPERTIES
1002
{
1000
PbHidd
1002
}
  0
LINE
  5
282
330
1F
100
AcDbEntity
  8
HIDDEN
100
AcDbLine
 10
-54.21484756469727
 20
-84.84394836425781
 30
0.0
 11
-53.97142791748047
 21
-84.91422271728516
 31
0.0
1001
DBPROPERTIES
1002
{
1000
PbHidd
1002
}
  0
LINE
  5
283
330
1F
100
AcDbEntity
  8
HIDDEN
100
AcDbLine
 10
-53.97142791748047
 20
-84.91422271728516
 30
0.0
 11
-53.75001907348633
 21
-84.99235534667969
 31
0.0
1001
DBPROPERTIES
1002
{
1000
PbHidd
1002
}
  0
LINE
  5
284
330
1F
100
AcDbEntity
  8
THICK
100
AcDbLine
 10
-53.75001907348633
 20
-84.99235534667969
 30
0.0
 11
-53.54268646240234
 21
-85.08155059814453
 31
0.0
1001
DBPROPERTIES
1002
{
1000
PbThick
1002
}
  0
LINE
  5
285
330
1F
100
AcDbEntity
  8
THICK
100
AcDbLine
 10
-53.54268646240234
 20
-85.08155059814453
 30
0.0
 11
-53.3618278503418
 21
-85.17645263671875
 31
0.0
1001
DBPROPERTIES
1002
{
1000
PbThick
1002
}
  0
LINE
  5
286
330
1F
100
AcDbEntity
  8
THICK
100
AcDbLine
 10
-53.3618278503418
 20
-85.17645263671875
 30
0.0
 11
-53.20474624633789
 21
-85.27759552001953
 31
0.0
1001
DBPROPERTIES
1002
{
1000
PbThick
1002
}
  0
LINE
  5
287
330
1F
100
AcDbEntity
  8
THICK
100
AcDbLine
 10
-53.20474624633789
 20
-85.27759552001953
 30
0.0
 11
-53.06821441650391
 21
-85.386962890625
 31
0.0
1001
DBPROPERTIES
1002
{
1000
PbThick
1002
}
  0
LINE
  5
288
330
1F
100
AcDbEntity
  8
THICK
100
AcDbLine
 10
-53.06821441650391
 20
-85.386962890625
 30
0.0
 11
-52.95432281494141
 21
-85.50373077392578
 31
0.0
1001
DBPROPERTIES
1002
{
1000
PbThick
1002
}
  0
LINE
  5
289
330
1F
100
AcDbEntity
  8
THICK
100
AcDbLine
 10
-52.95432281494141
 20
-85.50373077392578
 30
0.0
 11
-52.86482620239258
 21
-85.62701416015625
 31
0.0
1001
DBPROPERTIES
1002
{
1000
PbThick
1002
}
  0
LINE
  5
28A
330
1F
100
AcDbEntity
  8
THICK
100
AcDbLine
 10
-52.86482620239258
 20
-85.62701416015625
 30
0.0
 11
-52.80057525634766
 21
-85.7557144165039
 31
0.0
1001
DBPROPERTIES
1002
{
1000
PbThick
1002
}
  0
LINE
  5
28B
330
1F
100
AcDbEntity
  8
THICK
100
AcDbLine
 10
-52.80057525634766
 20
-85.7557144165039
 30
0.0
 11
-52.76227569580078
 21
-85.88873291015625
 31
0.0
1001
DBPROPERTIES
1002
{
1000
PbThick
1002
}
  0
LINE
  5
28C
330
1F
100
AcDbEntity
  8
THICK
100
AcDbLine
 10
-52.76227569580078
 20
-85.88873291015625
 30
0.0
 11
-52.75008392333984
 21
-86.02497100830078
 31
0.0
1001
DBPROPERTIES
1002
{
1000
PbThick
1002
}
  0
LINE
  5
28D
330
1F
100
AcDbEntity
  8
THICK
100
AcDbLine
 10
-52.75008392333984
 20
-86.02497100830078
 30
0.0
 11
-52.76045608520508
 21
-86.14603424072266
 31
0.0
1001
DBPROPERTIES
1002
{
1000
PbThick
1002
}
  0
LINE
  5
28E
330
1F
100
AcDbEntity
  8
THICK
100
AcDbLine
 10
-52.76045608520508
 20
-86.14603424072266
 30
0.0
 11
-52.79007339477539
 21
-86.26774597167969
 31
0.0
1001
DBPROPERTIES
1002
{
1000
PbThick
1002
}
  0
LINE
  5
28F
330
1F
100
AcDbEntity
  8
THICK
100
AcDbLine
 10
-52.79007339477539
 20
-86.26774597167969
 30
0.0
 11
-52.83816146850586
 21
-86.38922882080078
 31
0.0
1001
DBPROPERTIES
1002
{
1000
PbThick
1002
}
  0
LINE
  5
290
330
1F
100
AcDbEntity
  8
THICK
100
AcDbLine
 10
-52.83816146850586
 20
-86.38922882080078
 30
0.0
 11
-52.90341949462891
 21
-86.50956726074219
 31
0.0
1001
DBPROPERTIES
1002
{
1000
PbThick
1002
}
  0
LINE
  5
291
330
1F
100
AcDbEntity
  8
THICK
100
AcDbLine
 10
-52.90341949462891
 20
-86.50956726074219
 30
0.0
 11
-52.98464202880859
 21
-86.62801361083984
 31
0.0
1001
DBPROPERTIES
1002
{
1000
PbThick
1002
}
  0
LINE
  5
292
330
1F
100
AcDbEntity
  8
THICK
100
AcDbLine
 10
-52.98464202880859
 20
-86.62801361083984
 30
0.0
 11
-53.08361053466797
 21
-86.74738311767578
 31
0.0
1001
DBPROPERTIES
1002
{
1000
PbThick
1002
}
  0
LINE
  5
293
330
1F
100
AcDbEntity
  8
THICK
100
AcDbLine
 10
-53.08361053466797
 20
-86.74738311767578
 30
0.0
 11
-53.20133209228516
 21
-86.8683090209961
 31
0.0
1001
DBPROPERTIES
1002
{
1000
PbThick
1002
}
  0
LINE
  5
294
330
1F
100
AcDbEntity
  8
THICK
100
AcDbLine
 10
-53.20133209228516
 20
-86.8683090209961
 30
0.0
 11
-53.33781051635742
 21
-86.98989868164062
 31
0.0
1001
DBPROPERTIES
1002
{
1000
PbThick
1002
}
  0
LINE
  5
295
330
1F
100
AcDbEntity
  8
THICK
100
AcDbLine
 10
-53.33781051635742
 20
-86.98989868164062
 30
0.0
 11
-53.49288940429688
 21
-87.11128234863281
 31
0.0
1001
DBPROPERTIES
1002
{
1000
PbThick
1002
}
  0
LINE
  5
296
330
1F
100
AcDbEntity
  8
THICK
100
AcDbLine
 10
-53.49288940429688
 20
-87.11128234863281
 30
0.0
 11
-53.66584777832031
 21
-87.23162841796875
 31
0.0
1001
DBPROPERTIES
1002
{
1000
PbThick
1002
}
  0
LINE
  5
297
330
1F
100
AcDbEntity
  8
THICK
100
AcDbLine
 10
-53.66584777832031
 20
-87.23162841796875
 30
0.0
 11
-53.85585403442383
 21
-87.35010528564453
 31
0.0
1001
DBPROPERTIES
1002
{
1000
PbThick
1002
}
  0
LINE
  5
298
330
1F
100
AcDbEntity
  8
THICK
100
AcDbLine
 10
-53.85585403442383
 20
-87.35010528564453
 30
0.0
 11
-54.06206130981445
 21
-87.46595001220703
 31
0.0
1001
DBPROPERTIES
1002
{
1000
PbThick
1002
}
  0
LINE
  5
299
330
1F
100
AcDbEntity
  8
THICK
100
AcDbLine
 10
-54.06206130981445
 20
-87.46595001220703
 30
0.0
 11
-54.28324508666992
 21
-87.5784912109375
 31
0.0
1001
DBPROPERTIES
1002
{
1000
PbThick
1002
}
  0
LINE
  5
29A
330
1F
100
AcDbEntity
  8
THICK
100
AcDbLine
 10
-54.28324508666992
 20
-87.5784912109375
 30
0.0
 11
-54.51789093017578
 21
-87.68701934814453
 31
0.0
1001
DBPROPERTIES
1002
{
1000
PbThick
1002
}
  0
LINE
  5
29B
330
1F
100
AcDbEntity
  8
THICK
100
AcDbLine
 10
-54.51789093017578
 20
-87.68701934814453
 30
0.0
 11
-54.76445388793945
 21
-87.79084014892578
 31
0.0
1001
DBPROPERTIES
1002
{
1000
PbThick
1002
}
  0
LINE
  5
29C
330
1F
100
AcDbEntity
  8
THICK
100
AcDbLine
 10
-54.76445388793945
 20
-87.79084014892578
 30
0.0
 11
-55.02103424072266
 21
-87.88936614990234
 31
0.0
1001
DBPROPERTIES
1002
{
1000
PbThick
1002
}
  0
LINE
  5
29D
330
1F
100
AcDbEntity
  8
THICK
100
AcDbLine
 10
-55.02103424072266
 20
-87.88936614990234
 30
0.0
 11
-55.28547668457031
 21
-87.9820785522461
 31
0.0
1001
DBPROPERTIES
1002
{
1000
PbThick
1002
}
  0
LINE
  5
29E
330
1F
100
AcDbEntity
  8
THICK
100
AcDbLine
 10
-55.28547668457031
 20
-87.9820785522461
 30
0.0
 11
-55.55655670166016
 21
-88.06875610351562
 31
0.0
1001
DBPROPERTIES
1002
{
1000
PbThick
1002
}
  0
LINE
  5
29F
330
1F
100
AcDbEntity
  8
THICK
100
AcDbLine
 10
-55.55655670166016
 20
-88.06875610351562
 30
0.0
 11
-55.84081268310547
 21
-88.15140533447266
 31
0.0
1001
DBPROPERTIES
1002
{
1000
PbThick
1002
}
  0
LINE
  5
2A0
330
1F
100
AcDbEntity
  8
THICK
100
AcDbLine
 10
-55.84081268310547
 20
-88.15140533447266
 30
0.0
 11
-56.13831329345703
 21
-88.22970581054688
 31
0.0
1001
DBPROPERTIES
1002
{
1000
PbThick
1002
}
  0
LINE
  5
2A1
330
1F
100
AcDbEntity
  8
THICK
100
AcDbLine
 10
-56.13831329345703
 20
-88.22970581054688
 30
0.0
 11
-56.44708251953125
 21
-88.30268859863281
 31
0.0
1001
DBPROPERTIES
1002
{
1000
PbThick
1002
}
  0
LINE
  5
2A2
330
1F
100
AcDbEntity
  8
THICK
100
AcDbLine
 10
-56.44708251953125
 20
-88.30268859863281
 30
0.0
 11
-56.76498413085938
 21
-88.36949157714844
 31
0.0
1001
DBPROPERTIES
1002
{
1000
PbThick
1002
}
  0
LINE
  5
2A3
330
1F
100
AcDbEntity
  8
THICK
100
AcDbLine
 10
-56.76498413085938
 20
-88.36949157714844
 30
0.0
 11
-57.08965301513672
 21
-88.42948913574219
 31
0.0
1001
DBPROPERTIES
1002
{
1000
PbThick
1002
}
  0
LINE
  5
2A4
330
1F
100
AcDbEntity
  8
THICK
100
AcDbLine
 10
-57.08965301513672
 20
-88.42948913574219
 30
0.0
 11
-57.4187126159668
 21
-88.4820556640625
 31
0.0
1001
DBPROPERTIES
1002
{
1000
PbThick
1002
}
  0
LINE
  5
2A5
330
1F
100
AcDbEntity
  8
THICK
100
AcDbLine
 10
-57.4187126159668
 20
-88.4820556640625
 30
0.0
 11
-57.75000381469727
 21
-88.52674865722656
 31
0.0
1001
DBPROPERTIES
1002
{
1000
PbThick
1002
}
  0
LINE
  5
2A6
330
1F
100
AcDbEntity
  8
THICK
100
AcDbLine
 10
-188.6
 20
-106.5125
 30
0.0
 11
-0.0000000000000407
 21
-106.5125
 31
0.0
1001
DBPROPERTIES
1002
{
1000
PbThick
1002
}
  0
LINE
  5
2A7
330
1F
100
AcDbEntity
  8
THICK
100
AcDbLine
 10
-168.1
 20
-98.3125
 30
0.0
 11
-61.74999991556753
 21
-98.3125
 31
0.0
1001
DBPROPERTIES
1002
{
1000
PbThick
1002
}
  0
LINE
  5
2A8
330
1F
100
AcDbEntity
  8
HIDDEN
100
AcDbLine
 10
-61.74999991556753
 20
-98.3125
 30
0.0
 11
-53.74999994262438
 21
-98.3125
 31
0.0
1001
DBPROPERTIES
1002
{
1000
PbHidd
1002
}
  0
LINE
  5
2A9
330
1F
100
AcDbEntity
  8
THICK
100
AcDbLine
 10
-53.74999994262438
 20
-98.3125
 30
0.0
 11
-0.0000000000000369
 21
-98.3125
 31
0.0
1001
DBPROPERTIES
1002
{
1000
PbThick
1002
}
  0
LINE
  5
2AA
330
1F
100
AcDbEntity
  8
THICK
100
AcDbLine
 10
-57.75000381469727
 20
-106.4017486572266
 30
0.0
 11
-58.04965591430664
 21
-106.435173034668
 31
0.0
1001
DBPROPERTIES
1002
{
1000
PbThick
1002
}
  0
LINE
  5
2AB
330
1F
100
AcDbEntity
  8
THICK
100
AcDbLine
 10
-58.04965591430664
 20
-106.435173034668
 30
0.0
 11
-58.34727096557617
 21
-106.4617614746094
 31
0.0
1001
DBPROPERTIES
1002
{
1000
PbThick
1002
}
  0
LINE
  5
2AC
330
1F
100
AcDbEntity
  8
THICK
100
AcDbLine
 10
-58.34727096557617
 20
-106.4617614746094
 30
0.0
 11
-58.64097595214844
 21
-106.4813842773438
 31
0.0
1001
DBPROPERTIES
1002
{
1000
PbThick
1002
}
  0
LINE
  5
2AD
330
1F
100
AcDbEntity
  8
THICK
100
AcDbLine
 10
-58.64097595214844
 20
-106.4813842773438
 30
0.0
 11
-58.928955078125
 21
-106.4941177368164
 31
0.0
1001
DBPROPERTIES
1002
{
1000
PbThick
1002
}
  0
LINE
  5
2AE
330
1F
100
AcDbEntity
  8
THICK
100
AcDbLine
 10
-58.928955078125
 20
-106.4941177368164
 30
0.0
 11
-59.20940780639648
 21
-106.5001373291016
 31
0.0
1001
DBPROPERTIES
1002
{
1000
PbThick
1002
}
  0
LINE
  5
2AF
330
1F
100
AcDbEntity
  8
THICK
100
AcDbLine
 10
-59.20940780639648
 20
-106.5001373291016
 30
0.0
 11
-59.48218154907227
 21
-106.4995727539062
 31
0.0
1001
DBPROPERTIES
1002
{
1000
PbThick
1002
}
  0
LINE
  5
2B0
330
1F
100
AcDbEntity
  8
THICK
100
AcDbLine
 10
-59.48218154907227
 20
-106.4995727539062
 30
0.0
 11
-59.75248718261719
 21
-106.4924163818359
 31
0.0
1001
DBPROPERTIES
1002
{
1000
PbThick
1002
}
  0
LINE
  5
2B1
330
1F
100
AcDbEntity
  8
THICK
100
AcDbLine
 10
-59.75248718261719
 20
-106.4924163818359
 30
0.0
 11
-60.01911163330078
 21
-106.4785079956055
 31
0.0
1001
DBPROPERTIES
1002
{
1000
PbThick
1002
}
  0
LINE
  5
2B2
330
1F
100
AcDbEntity
  8
THICK
100
AcDbLine
 10
-60.01911163330078
 20
-106.4785079956055
 30
0.0
 11
-60.28000640869141
 21
-106.4577026367188
 31
0.0
1001
DBPROPERTIES
1002
{
1000
PbThick
1002
}
  0
LINE
  5
2B3
330
1F
100
AcDbEntity
  8
THICK
100
AcDbLine
 10
-60.28000640869141
 20
-106.4577026367188
 30
0.0
 11
-60.53326034545898
 21
-106.4299240112305
 31
0.0
1001
DBPROPERTIES
1002
{
1000
PbThick
1002
}
  0
LINE
  5
2B4
330
1F
100
AcDbEntity
  8
THICK
100
AcDbLine
 10
-60.53326034545898
 20
-106.4299240112305
 30
0.0
 11
-60.77725601196289
 21
-106.3953399658203
 31
0.0
1001
DBPROPERTIES
1002
{
1000
PbThick
1002
}
  0
LINE
  5
2B5
330
1F
100
AcDbEntity
  8
THICK
100
AcDbLine
 10
-60.77725601196289
 20
-106.3953399658203
 30
0.0
 11
-61.01041412353516
 21
-106.3541259765625
 31
0.0
1001
DBPROPERTIES
1002
{
1000
PbThick
1002
}
  0
LINE
  5
2B6
330
1F
100
AcDbEntity
  8
THICK
100
AcDbLine
 10
-61.01041412353516
 20
-106.3541259765625
 30
0.0
 11
-61.23129272460938
 21
-106.3064727783203
 31
0.0
1001
DBPROPERTIES
1002
{
1000
PbThick
1002
}
  0
LINE
  5
2B7
330
1F
100
AcDbEntity
  8
THICK
100
AcDbLine
 10
-61.23129272460938
 20
-106.3064727783203
 30
0.0
 11
-61.43887329101562
 21
-106.2527236938477
 31
0.0
1001
DBPROPERTIES
1002
{
1000
PbThick
1002
}
  0
LINE
  5
2B8
330
1F
100
AcDbEntity
  8
THICK
100
AcDbLine
 10
-61.43887329101562
 20
-106.2527236938477
 30
0.0
 11
-61.63215637207031
 21
-106.1933364868164
 31
0.0
1001
DBPROPERTIES
1002
{
1000
PbThick
1002
}
  0
LINE
  5
2B9
330
1F
100
AcDbEntity
  8
THICK
100
AcDbLine
 10
-61.63215637207031
 20
-106.1933364868164
 30
0.0
 11
-61.81013870239258
 21
-106.1287612915039
 31
0.0
1001
DBPROPERTIES
1002
{
1000
PbThick
1002
}
  0
LINE
  5
2BA
330
1F
100
AcDbEntity
  8
THICK
100
AcDbLine
 10
-61.81013870239258
 20
-106.1287612915039
 30
0.0
 11
-61.97211074829102
 21
-106.0595855712891
 31
0.0
1001
DBPROPERTIES
1002
{
1000
PbThick
1002
}
  0
LINE
  5
2BB
330
1F
100
AcDbEntity
  8
THICK
100
AcDbLine
 10
-61.97211074829102
 20
-106.0595855712891
 30
0.0
 11
-62.11776351928711
 21
-105.9865112304688
 31
0.0
1001
DBPROPERTIES
1002
{
1000
PbThick
1002
}
  0
LINE
  5
2BC
330
1F
100
AcDbEntity
  8
THICK
100
AcDbLine
 10
-62.11776351928711
 20
-105.9865112304688
 30
0.0
 11
-62.246826171875
 21
-105.910270690918
 31
0.0
1001
DBPROPERTIES
1002
{
1000
PbThick
1002
}
  0
LINE
  5
2BD
330
1F
100
AcDbEntity
  8
THICK
100
AcDbLine
 10
-62.246826171875
 20
-105.910270690918
 30
0.0
 11
-62.36119842529297
 21
-105.830078125
 31
0.0
1001
DBPROPERTIES
1002
{
1000
PbThick
1002
}
  0
LINE
  5
2BE
330
1F
100
AcDbEntity
  8
THICK
100
AcDbLine
 10
-62.36119842529297
 20
-105.830078125
 30
0.0
 11
-62.46243667602539
 21
-105.7448348999023
 31
0.0
1001
DBPROPERTIES
1002
{
1000
PbThick
1002
}
  0
LINE
  5
2BF
330
1F
100
AcDbEntity
  8
THICK
100
AcDbLine
 10
-62.46243667602539
 20
-105.7448348999023
 30
0.0
 11
-62.5495719909668
 21
-105.654914855957
 31
0.0
1001
DBPROPERTIES
1002
{
1000
PbThick
1002
}
  0
LINE
  5
2C0
330
1F
100
AcDbEntity
  8
THICK
100
AcDbLine
 10
-62.5495719909668
 20
-105.654914855957
 30
0.0
 11
-62.62163543701172
 21
-105.5607070922852
 31
0.0
1001
DBPROPERTIES
1002
{
1000
PbThick
1002
}
  0
LINE
  5
2C1
330
1F
100
AcDbEntity
  8
THICK
100
AcDbLine
 10
-62.62163543701172
 20
-105.5607070922852
 30
0.0
 11
-62.67798233032227
 21
-105.462646484375
 31
0.0
1001
DBPROPERTIES
1002
{
1000
PbThick
1002
}
  0
LINE
  5
2C2
330
1F
100
AcDbEntity
  8
THICK
100
AcDbLine
 10
-62.67798233032227
 20
-105.462646484375
 30
0.0
 11
-62.71832275390625
 21
-105.3612594604492
 31
0.0
1001
DBPROPERTIES
1002
{
1000
PbThick
1002
}
  0
LINE
  5
2C3
330
1F
100
AcDbEntity
  8
THICK
100
AcDbLine
 10
-62.71832275390625
 20
-105.3612594604492
 30
0.0
 11
-62.74237442016602
 21
-105.2570571899414
 31
0.0
1001
DBPROPERTIES
1002
{
1000
PbThick
1002
}
  0
LINE
  5
2C4
330
1F
100
AcDbEntity
  8
THICK
100
AcDbLine
 10
-62.74237442016602
 20
-105.2570571899414
 30
0.0
 11
-62.74994659423828
 21
-105.1505508422852
 31
0.0
1001
DBPROPERTIES
1002
{
1000
PbThick
1002
}
  0
LINE
  5
2C5
330
1F
100
AcDbEntity
  8
THICK
100
AcDbLine
 10
-62.74994659423828
 20
-105.1505508422852
 30
0.0
 11
-62.74065780639648
 21
-105.0384521484375
 31
0.0
1001
DBPROPERTIES
1002
{
1000
PbThick
1002
}
  0
LINE
  5
2C6
330
1F
100
AcDbEntity
  8
THICK
100
AcDbLine
 10
-62.74065780639648
 20
-105.0384521484375
 30
0.0
 11
-62.71433258056641
 21
-104.9251251220703
 31
0.0
1001
DBPROPERTIES
1002
{
1000
PbThick
1002
}
  0
LINE
  5
2C7
330
1F
100
AcDbEntity
  8
THICK
100
AcDbLine
 10
-62.71433258056641
 20
-104.9251251220703
 30
0.0
 11
-62.6713752746582
 21
-104.8112564086914
 31
0.0
1001
DBPROPERTIES
1002
{
1000
PbThick
1002
}
  0
LINE
  5
2C8
330
1F
100
AcDbEntity
  8
THICK
100
AcDbLine
 10
-62.6713752746582
 20
-104.8112564086914
 30
0.0
 11
-62.61250305175781
 21
-104.6975326538086
 31
0.0
1001
DBPROPERTIES
1002
{
1000
PbThick
1002
}
  0
LINE
  5
2C9
330
1F
100
AcDbEntity
  8
THICK
100
AcDbLine
 10
-62.61250305175781
 20
-104.6975326538086
 30
0.0
 11
-62.53883743286133
 21
-104.5846862792969
 31
0.0
1001
DBPROPERTIES
1002
{
1000
PbThick
1002
}
  0
LINE
  5
2CA
330
1F
100
AcDbEntity
  8
THICK
100
AcDbLine
 10
-62.53883743286133
 20
-104.5846862792969
 30
0.0
 11
-62.45153045654297
 21
-104.4734573364258
 31
0.0
1001
DBPROPERTIES
1002
{
1000
PbThick
1002
}
  0
LINE
  5
2CB
330
1F
100
AcDbEntity
  8
THICK
100
AcDbLine
 10
-62.45153045654297
 20
-104.4734573364258
 30
0.0
 11
-62.36475372314453
 21
-104.3778381347656
 31
0.0
1001
DBPROPERTIES
1002
{
1000
PbThick
1002
}
  0
LINE
  5
2CC
330
1F
100
AcDbEntity
  8
THICK
100
AcDbLine
 10
-62.36475372314453
 20
-104.3778381347656
 30
0.0
 11
-62.26579666137695
 21
-104.2809143066406
 31
0.0
1001
DBPROPERTIES
1002
{
1000
PbThick
1002
}
  0
LINE
  5
2CD
330
1F
100
AcDbEntity
  8
THICK
100
AcDbLine
 10
-62.26579666137695
 20
-104.2809143066406
 30
0.0
 11
-62.15471267700195
 21
-104.1831665039062
 31
0.0
1001
DBPROPERTIES
1002
{
1000
PbThick
1002
}
  0
LINE
  5
2CE
330
1F
100
AcDbEntity
  8
THICK
100
AcDbLine
 10
-62.15471267700195
 20
-104.1831665039062
 30
0.0
 11
-62.03156661987305
 21
-104.0850677490234
 31
0.0
1001
DBPROPERTIES
1002
{
1000
PbThick
1002
}
  0
LINE
  5
2CF
330
1F
100
AcDbEntity
  8
THICK
100
AcDbLine
 10
-62.03156661987305
 20
-104.0850677490234
 30
0.0
 11
-61.89651489257812
 21
-103.9870986938477
 31
0.0
1001
DBPROPERTIES
1002
{
1000
PbThick
1002
}
  0
LINE
  5
2D0
330
1F
100
AcDbEntity
  8
THICK
100
AcDbLine
 10
-61.89651489257812
 20
-103.9870986938477
 30
0.0
 11
-61.75
 21
-103.8897171020508
 31
0.0
1001
DBPROPERTIES
1002
{
1000
PbThick
1002
}
  0
LINE
  5
2D1
330
1F
100
AcDbEntity
  8
HIDDEN
100
AcDbLine
 10
-61.75
 20
-103.8897171020508
 30
0.0
 11
-61.5284538269043
 21
-103.7562866210938
 31
0.0
1001
DBPROPERTIES
1002
{
1000
PbHidd
1002
}
  0
LINE
  5
2D2
330
1F
100
AcDbEntity
  8
HIDDEN
100
AcDbLine
 10
-61.5284538269043
 20
-103.7562866210938
 30
0.0
 11
-61.28707885742188
 21
-103.6260223388672
 31
0.0
1001
DBPROPERTIES
1002
{
1000
PbHidd
1002
}
  0
LINE
  5
2D3
330
1F
100
AcDbEntity
  8
HIDDEN
100
AcDbLine
 10
-61.28707885742188
 20
-103.6260223388672
 30
0.0
 11
-61.02762603759766
 21
-103.4999313354492
 31
0.0
1001
DBPROPERTIES
1002
{
1000
PbHidd
1002
}
  0
LINE
  5
2D4
330
1F
100
AcDbEntity
  8
HIDDEN
100
AcDbLine
 10
-61.02762603759766
 20
-103.4999313354492
 30
0.0
 11
-60.75234603881836
 21
-103.3790817260742
 31
0.0
1001
DBPROPERTIES
1002
{
1000
PbHidd
1002
}
  0
LINE
  5
2D5
330
1F
100
AcDbEntity
  8
HIDDEN
100
AcDbLine
 10
-60.75234603881836
 20
-103.3790817260742
 30
0.0
 11
-60.46359634399414
 21
-103.2644882202148
 31
0.0
1001
DBPROPERTIES
1002
{
1000
PbHidd
1002
}
  0
LINE
  5
2D6
330
1F
100
AcDbEntity
  8
HIDDEN
100
AcDbLine
 10
-60.46359634399414
 20
-103.2644882202148
 30
0.0
 11
-60.16428756713867
 21
-103.1570053100586
 31
0.0
1001
DBPROPERTIES
1002
{
1000
PbHidd
1002
}
  0
LINE
  5
2D7
330
1F
100
AcDbEntity
  8
HIDDEN
100
AcDbLine
 10
-60.16428756713867
 20
-103.1570053100586
 30
0.0
 11
-59.85756301879883
 21
-103.0573959350586
 31
0.0
1001
DBPROPERTIES
1002
{
1000
PbHidd
1002
}
  0
LINE
  5
2D8
330
1F
100
AcDbEntity
  8
HIDDEN
100
AcDbLine
 10
-59.85756301879883
 20
-103.0573959350586
 30
0.0
 11
-59.53815841674805
 21
-102.9640045166016
 31
0.0
1001
DBPROPERTIES
1002
{
1000
PbHidd
1002
}
  0
LINE
  5
2D9
330
1F
100
AcDbEntity
  8
HIDDEN
100
AcDbLine
 10
-59.53815841674805
 20
-102.9640045166016
 30
0.0
 11
-59.20165634155273
 21
-102.8759689331055
 31
0.0
1001
DBPROPERTIES
1002
{
1000
PbHidd
1002
}
  0
LINE
  5
2DA
330
1F
100
AcDbEntity
  8
HIDDEN
100
AcDbLine
 10
-59.20165634155273
 20
-102.8759689331055
 30
0.0
 11
-58.85114288330078
 21
-102.7948532104492
 31
0.0
1001
DBPROPERTIES
1002
{
1000
PbHidd
1002
}
  0
LINE
  5
2DB
330
1F
100
AcDbEntity
  8
HIDDEN
100
AcDbLine
 10
-58.85114288330078
 20
-102.7948532104492
 30
0.0
 11
-58.48996353149414
 21
-102.7219848632812
 31
0.0
1001
DBPROPERTIES
1002
{
1000
PbHidd
1002
}
  0
LINE
  5
2DC
330
1F
100
AcDbEntity
  8
HIDDEN
100
AcDbLine
 10
-58.48996353149414
 20
-102.7219848632812
 30
0.0
 11
-58.12174987792969
 21
-102.6584091186523
 31
0.0
1001
DBPROPERTIES
1002
{
1000
PbHidd
1002
}
  0
LINE
  5
2DD
330
1F
100
AcDbEntity
  8
HIDDEN
100
AcDbLine
 10
-58.12174987792969
 20
-102.6584091186523
 30
0.0
 11
-57.74999618530273
 21
-102.6050338745117
 31
0.0
1001
DBPROPERTIES
1002
{
1000
PbHidd
1002
}
  0
LINE
  5
2DE
330
1F
100
AcDbEntity
  8
HIDDEN
100
AcDbLine
 10
-57.74999618530273
 20
-102.6050338745117
 30
0.0
 11
-57.38882446289062
 21
-102.5634613037109
 31
0.0
1001
DBPROPERTIES
1002
{
1000
PbHidd
1002
}
  0
LINE
  5
2DF
330
1F
100
AcDbEntity
  8
HIDDEN
100
AcDbLine
 10
-57.38882446289062
 20
-102.5634613037109
 30
0.0
 11
-57.0311393737793
 21
-102.5323638916016
 31
0.0
1001
DBPROPERTIES
1002
{
1000
PbHidd
1002
}
  0
LINE
  5
2E0
330
1F
100
AcDbEntity
  8
HIDDEN
100
AcDbLine
 10
-57.0311393737793
 20
-102.5323638916016
 30
0.0
 11
-56.68043518066406
 21
-102.5119323730469
 31
0.0
1001
DBPROPERTIES
1002
{
1000
PbHidd
1002
}
  0
LINE
  5
2E1
330
1F
100
AcDbEntity
  8
HIDDEN
100
AcDbLine
 10
-56.68043518066406
 20
-102.5119323730469
 30
0.0
 11
-56.34010314941406
 21
-102.5019073486328
 31
0.0
1001
DBPROPERTIES
1002
{
1000
PbHidd
1002
}
  0
LINE
  5
2E2
330
1F
100
AcDbEntity
  8
HIDDEN
100
AcDbLine
 10
-56.34010314941406
 20
-102.5019073486328
 30
0.0
 11
-56.01151657104492
 21
-102.5019760131836
 31
0.0
1001
DBPROPERTIES
1002
{
1000
PbHidd
1002
}
  0
LINE
  5
2E3
330
1F
100
AcDbEntity
  8
HIDDEN
100
AcDbLine
 10
-56.01151657104492
 20
-102.5019760131836
 30
0.0
 11
-55.68657302856445
 21
-102.5121383666992
 31
0.0
1001
DBPROPERTIES
1002
{
1000
PbHidd
1002
}
  0
LINE
  5
2E4
330
1F
100
AcDbEntity
  8
HIDDEN
100
AcDbLine
 10
-55.68657302856445
 20
-102.5121383666992
 30
0.0
 11
-55.36723709106445
 21
-102.5327072143555
 31
0.0
1001
DBPROPERTIES
1002
{
1000
PbHidd
1002
}
  0
LINE
  5
2E5
330
1F
100
AcDbEntity
  8
HIDDEN
100
AcDbLine
 10
-55.36723709106445
 20
-102.5327072143555
 30
0.0
 11
-55.05730819702148
 21
-102.5639419555664
 31
0.0
1001
DBPROPERTIES
1002
{
1000
PbHidd
1002
}
  0
LINE
  5
2E6
330
1F
100
AcDbEntity
  8
HIDDEN
100
AcDbLine
 10
-55.05730819702148
 20
-102.5639419555664
 30
0.0
 11
-54.760009765625
 21
-102.6056518554688
 31
0.0
1001
DBPROPERTIES
1002
{
1000
PbHidd
1002
}
  0
LINE
  5
2E7
330
1F
100
AcDbEntity
  8
HIDDEN
100
AcDbLine
 10
-54.760009765625
 20
-102.6056518554688
 30
0.0
 11
-54.47835540771484
 21
-102.6574783325195
 31
0.0
1001
DBPROPERTIES
1002
{
1000
PbHidd
1002
}
  0
LINE
  5
2E8
330
1F
100
AcDbEntity
  8
HIDDEN
100
AcDbLine
 10
-54.47835540771484
 20
-102.6574783325195
 30
0.0
 11
-54.21484756469727
 21
-102.7189483642578
 31
0.0
1001
DBPROPERTIES
1002
{
1000
PbHidd
1002
}
  0
LINE
  5
2E9
330
1F
100
AcDbEntity
  8
HIDDEN
100
AcDbLine
 10
-54.21484756469727
 20
-102.7189483642578
 30
0.0
 11
-53.97142791748047
 21
-102.7892227172852
 31
0.0
1001
DBPROPERTIES
1002
{
1000
PbHidd
1002
}
  0
LINE
  5
2EA
330
1F
100
AcDbEntity
  8
HIDDEN
100
AcDbLine
 10
-53.97142791748047
 20
-102.7892227172852
 30
0.0
 11
-53.75001907348633
 21
-102.8673553466797
 31
0.0
1001
DBPROPERTIES
1002
{
1000
PbHidd
1002
}
  0
LINE
  5
2EB
330
1F
100
AcDbEntity
  8
THICK
100
AcDbLine
 10
-53.75001907348633
 20
-102.8673553466797
 30
0.0
 11
-53.54268646240234
 21
-102.9565505981445
 31
0.0
1001
DBPROPERTIES
1002
{
1000
PbThick
1002
}
  0
LINE
  5
2EC
330
1F
100
AcDbEntity
  8
THICK
100
AcDbLine
 10
-53.54268646240234
 20
-102.9565505981445
 30
0.0
 11
-53.3618278503418
 21
-103.0514526367188
 31
0.0
1001
DBPROPERTIES
1002
{
1000
PbThick
1002
}
  0
LINE
  5
2ED
330
1F
100
AcDbEntity
  8
THICK
100
AcDbLine
 10
-53.3618278503418
 20
-103.0514526367188
 30
0.0
 11
-53.20474624633789
 21
-103.1525955200195
 31
0.0
1001
DBPROPERTIES
1002
{
1000
PbThick
1002
}
  0
LINE
  5
2EE
330
1F
100
AcDbEntity
  8
THICK
100
AcDbLine
 10
-53.20474624633789
 20
-103.1525955200195
 30
0.0
 11
-53.06821441650391
 21
-103.261962890625
 31
0.0
1001
DBPROPERTIES
1002
{
1000
PbThick
1002
}
  0
LINE
  5
2EF
330
1F
100
AcDbEntity
  8
THICK
100
AcDbLine
 10
-53.06821441650391
 20
-103.261962890625
 30
0.0
 11
-52.95432281494141
 21
-103.3787307739258
 31
0.0
1001
DBPROPERTIES
1002
{
1000
PbThick
1002
}
  0
LINE
  5
2F0
330
1F
100
AcDbEntity
  8
THICK
100
AcDbLine
 10
-52.95432281494141
 20
-103.3787307739258
 30
0.0
 11
-52.86482620239258
 21
-103.5020141601562
 31
0.0
1001
DBPROPERTIES
1002
{
1000
PbThick
1002
}
  0
LINE
  5
2F1
330
1F
100
AcDbEntity
  8
THICK
100
AcDbLine
 10
-52.86482620239258
 20
-103.5020141601562
 30
0.0
 11
-52.80057525634766
 21
-103.6307144165039
 31
0.0
1001
DBPROPERTIES
1002
{
1000
PbThick
1002
}
  0
LINE
  5
2F2
330
1F
100
AcDbEntity
  8
THICK
100
AcDbLine
 10
-52.80057525634766
 20
-103.6307144165039
 30
0.0
 11
-52.76227569580078
 21
-103.7637329101562
 31
0.0
1001
DBPROPERTIES
1002
{
1000
PbThick
1002
}
  0
LINE
  5
2F3
330
1F
100
AcDbEntity
  8
THICK
100
AcDbLine
 10
-52.76227569580078
 20
-103.7637329101562
 30
0.0
 11
-52.75008392333984
 21
-103.8999710083008
 31
0.0
1001
DBPROPERTIES
1002
{
1000
PbThick
1002
}
  0
LINE
  5
2F4
330
1F
100
AcDbEntity
  8
THICK
100
AcDbLine
 10
-52.75008392333984
 20
-103.8999710083008
 30
0.0
 11
-52.76045608520508
 21
-104.0210342407227
 31
0.0
1001
DBPROPERTIES
1002
{
1000
PbThick
1002
}
  0
LINE
  5
2F5
330
1F
100
AcDbEntity
  8
THICK
100
AcDbLine
 10
-52.76045608520508
 20
-104.0210342407227
 30
0.0
 11
-52.79007339477539
 21
-104.1427459716797
 31
0.0
1001
DBPROPERTIES
1002
{
1000
PbThick
1002
}
  0
LINE
  5
2F6
330
1F
100
AcDbEntity
  8
THICK
100
AcDbLine
 10
-52.79007339477539
 20
-104.1427459716797
 30
0.0
 11
-52.83816146850586
 21
-104.2642288208008
 31
0.0
1001
DBPROPERTIES
1002
{
1000
PbThick
1002
}
  0
LINE
  5
2F7
330
1F
100
AcDbEntity
  8
THICK
100
AcDbLine
 10
-52.83816146850586
 20
-104.2642288208008
 30
0.0
 11
-52.90341949462891
 21
-104.3845672607422
 31
0.0
1001
DBPROPERTIES
1002
{
1000
PbThick
1002
}
  0
LINE
  5
2F8
330
1F
100
AcDbEntity
  8
THICK
100
AcDbLine
 10
-52.90341949462891
 20
-104.3845672607422
 30
0.0
 11
-52.98464202880859
 21
-104.5030136108398
 31
0.0
1001
DBPROPERTIES
1002
{
1000
PbThick
1002
}
  0
LINE
  5
2F9
330
1F
100
AcDbEntity
  8
THICK
100
AcDbLine
 10
-52.98464202880859
 20
-104.5030136108398
 30
0.0
 11
-53.08361053466797
 21
-104.6223831176758
 31
0.0
1001
DBPROPERTIES
1002
{
1000
PbThick
1002
}
  0
LINE
  5
2FA
330
1F
100
AcDbEntity
  8
THICK
100
AcDbLine
 10
-53.08361053466797
 20
-104.6223831176758
 30
0.0
 11
-53.20133209228516
 21
-104.7433090209961
 31
0.0
1001
DBPROPERTIES
1002
{
1000
PbThick
1002
}
  0
LINE
  5
2FB
330
1F
100
AcDbEntity
  8
THICK
100
AcDbLine
 10
-53.20133209228516
 20
-104.7433090209961
 30
0.0
 11
-53.33781051635742
 21
-104.8648986816406
 31
0.0
1001
DBPROPERTIES
1002
{
1000
PbThick
1002
}
  0
LINE
  5
2FC
330
1F
100
AcDbEntity
  8
THICK
100
AcDbLine
 10
-53.33781051635742
 20
-104.8648986816406
 30
0.0
 11
-53.49288940429688
 21
-104.9862823486328
 31
0.0
1001
DBPROPERTIES
1002
{
1000
PbThick
1002
}
  0
LINE
  5
2FD
330
1F
100
AcDbEntity
  8
THICK
100
AcDbLine
 10
-53.49288940429688
 20
-104.9862823486328
 30
0.0
 11
-53.66584777832031
 21
-105.1066284179688
 31
0.0
1001
DBPROPERTIES
1002
{
1000
PbThick
1002
}
  0
LINE
  5
2FE
330
1F
100
AcDbEntity
  8
THICK
100
AcDbLine
 10
-53.66584777832031
 20
-105.1066284179688
 30
0.0
 11
-53.85585403442383
 21
-105.2251052856445
 31
0.0
1001
DBPROPERTIES
1002
{
1000
PbThick
1002
}
  0
LINE
  5
2FF
330
1F
100
AcDbEntity
  8
THICK
100
AcDbLine
 10
-53.85585403442383
 20
-105.2251052856445
 30
0.0
 11
-54.06206130981445
 21
-105.340950012207
 31
0.0
1001
DBPROPERTIES
1002
{
1000
PbThick
1002
}
  0
LINE
  5
300
330
1F
100
AcDbEntity
  8
THICK
100
AcDbLine
 10
-54.06206130981445
 20
-105.340950012207
 30
0.0
 11
-54.28324508666992
 21
-105.4534912109375
 31
0.0
1001
DBPROPERTIES
1002
{
1000
PbThick
1002
}
  0
LINE
  5
301
330
1F
100
AcDbEntity
  8
THICK
100
AcDbLine
 10
-54.28324508666992
 20
-105.4534912109375
 30
0.0
 11
-54.51789093017578
 21
-105.5620193481445
 31
0.0
1001
DBPROPERTIES
1002
{
1000
PbThick
1002
}
  0
LINE
  5
302
330
1F
100
AcDbEntity
  8
THICK
100
AcDbLine
 10
-54.51789093017578
 20
-105.5620193481445
 30
0.0
 11
-54.76445388793945
 21
-105.6658401489258
 31
0.0
1001
DBPROPERTIES
1002
{
1000
PbThick
1002
}
  0
LINE
  5
303
330
1F
100
AcDbEntity
  8
THICK
100
AcDbLine
 10
-54.76445388793945
 20
-105.6658401489258
 30
0.0
 11
-55.02103424072266
 21
-105.7643661499023
 31
0.0
1001
DBPROPERTIES
1002
{
1000
PbThick
1002
}
  0
LINE
  5
304
330
1F
100
AcDbEntity
  8
THICK
100
AcDbLine
 10
-55.02103424072266
 20
-105.7643661499023
 30
0.0
 11
-55.28547668457031
 21
-105.8570785522461
 31
0.0
1001
DBPROPERTIES
1002
{
1000
PbThick
1002
}
  0
LINE
  5
305
330
1F
100
AcDbEntity
  8
THICK
100
AcDbLine
 10
-55.28547668457031
 20
-105.8570785522461
 30
0.0
 11
-55.55655670166016
 21
-105.9437561035156
 31
0.0
1001
DBPROPERTIES
1002
{
1000
PbThick
1002
}
  0
LINE
  5
306
330
1F
100
AcDbEntity
  8
THICK
100
AcDbLine
 10
-55.55655670166016
 20
-105.9437561035156
 30
0.0
 11
-55.84081268310547
 21
-106.0264053344727
 31
0.0
1001
DBPROPERTIES
1002
{
1000
PbThick
1002
}
  0
LINE
  5
307
330
1F
100
AcDbEntity
  8
THICK
100
AcDbLine
 10
-55.84081268310547
 20
-106.0264053344727
 30
0.0
 11
-56.13831329345703
 21
-106.1047058105469
 31
0.0
1001
DBPROPERTIES
1002
{
1000
PbThick
1002
}
  0
LINE
  5
308
330
1F
100
AcDbEntity
  8
THICK
100
AcDbLine
 10
-56.13831329345703
 20
-106.1047058105469
 30
0.0
 11
-56.44708251953125
 21
-106.1776885986328
 31
0.0
1001
DBPROPERTIES
1002
{
1000
PbThick
1002
}
  0
LINE
  5
309
330
1F
100
AcDbEntity
  8
THICK
100
AcDbLine
 10
-56.44708251953125
 20
-106.1776885986328
 30
0.0
 11
-56.76498413085938
 21
-106.2444915771484
 31
0.0
1001
DBPROPERTIES
1002
{
1000
PbThick
1002
}
  0
LINE
  5
30A
330
1F
100
AcDbEntity
  8
THICK
100
AcDbLine
 10
-56.76498413085938
 20
-106.2444915771484
 30
0.0
 11
-57.08965301513672
 21
-106.3044891357422
 31
0.0
1001
DBPROPERTIES
1002
{
1000
PbThick
1002
}
  0
LINE
  5
30B
330
1F
100
AcDbEntity
  8
THICK
100
AcDbLine
 10
-57.08965301513672
 20
-106.3044891357422
 30
0.0
 11
-57.4187126159668
 21
-106.3570556640625
 31
0.0
1001
DBPROPERTIES
1002
{
1000
PbThick
1002
}
  0
LINE
  5
30C
330
1F
100
AcDbEntity
  8
THICK
100
AcDbLine
 10
-57.4187126159668
 20
-106.3570556640625
 30
0.0
 11
-57.75000381469727
 21
-106.4017486572266
 31
0.0
1001
DBPROPERTIES
1002
{
1000
PbThick
1002
}
  0
LINE
  5
30D
330
1F
100
AcDbEntity
  8
THICK
100
AcDbLine
 10
-188.6
 20
-124.3875
 30
0.0
 11
-0.0000000000000418
 21
-124.3875
 31
0.0
1001
DBPROPERTIES
1002
{
1000
PbThick
1002
}
  0
LINE
  5
30E
330
1F
100
AcDbEntity
  8
THICK
100
AcDbLine
 10
-168.1
 20
-116.1875
 30
0.0
 11
-61.74999991556754
 21
-116.1875
 31
0.0
1001
DBPROPERTIES
1002
{
1000
PbThick
1002
}
  0
LINE
  5
30F
330
1F
100
AcDbEntity
  8
HIDDEN
100
AcDbLine
 10
-61.74999991556754
 20
-116.1875
 30
0.0
 11
-53.74999994208796
 21
-116.1875
 31
0.0
1001
DBPROPERTIES
1002
{
1000
PbHidd
1002
}
  0
LINE
  5
310
330
1F
100
AcDbEntity
  8
THICK
100
AcDbLine
 10
-53.74999994208796
 20
-116.1875
 30
0.0
 11
-0.000000000000038
 21
-116.1875
 31
0.0
1001
DBPROPERTIES
1002
{
1000
PbThick
1002
}
  0
LINE
  5
311
330
1F
100
AcDbEntity
  8
THICK
100
AcDbLine
 10
-57.75000381469727
 20
-124.2767486572266
 30
0.0
 11
-58.04965591430664
 21
-124.310173034668
 31
0.0
1001
DBPROPERTIES
1002
{
1000
PbThick
1002
}
  0
LINE
  5
312
330
1F
100
AcDbEntity
  8
THICK
100
AcDbLine
 10
-58.04965591430664
 20
-124.310173034668
 30
0.0
 11
-58.34727096557617
 21
-124.3367614746094
 31
0.0
1001
DBPROPERTIES
1002
{
1000
PbThick
1002
}
  0
LINE
  5
313
330
1F
100
AcDbEntity
  8
THICK
100
AcDbLine
 10
-58.34727096557617
 20
-124.3367614746094
 30
0.0
 11
-58.64097595214844
 21
-124.3563842773438
 31
0.0
1001
DBPROPERTIES
1002
{
1000
PbThick
1002
}
  0
LINE
  5
314
330
1F
100
AcDbEntity
  8
THICK
100
AcDbLine
 10
-58.64097595214844
 20
-124.3563842773438
 30
0.0
 11
-58.928955078125
 21
-124.3691177368164
 31
0.0
1001
DBPROPERTIES
1002
{
1000
PbThick
1002
}
  0
LINE
  5
315
330
1F
100
AcDbEntity
  8
THICK
100
AcDbLine
 10
-58.928955078125
 20
-124.3691177368164
 30
0.0
 11
-59.20940780639648
 21
-124.3751373291016
 31
0.0
1001
DBPROPERTIES
1002
{
1000
PbThick
1002
}
  0
LINE
  5
316
330
1F
100
AcDbEntity
  8
THICK
100
AcDbLine
 10
-59.20940780639648
 20
-124.3751373291016
 30
0.0
 11
-59.48218154907227
 21
-124.3745727539062
 31
0.0
1001
DBPROPERTIES
1002
{
1000
PbThick
1002
}
  0
LINE
  5
317
330
1F
100
AcDbEntity
  8
THICK
100
AcDbLine
 10
-59.48218154907227
 20
-124.3745727539062
 30
0.0
 11
-59.75248718261719
 21
-124.3674163818359
 31
0.0
1001
DBPROPERTIES
1002
{
1000
PbThick
1002
}
  0
LINE
  5
318
330
1F
100
AcDbEntity
  8
THICK
100
AcDbLine
 10
-59.75248718261719
 20
-124.3674163818359
 30
0.0
 11
-60.01911163330078
 21
-124.3535079956055
 31
0.0
1001
DBPROPERTIES
1002
{
1000
PbThick
1002
}
  0
LINE
  5
319
330
1F
100
AcDbEntity
  8
THICK
100
AcDbLine
 10
-60.01911163330078
 20
-124.3535079956055
 30
0.0
 11
-60.28000640869141
 21
-124.3327026367188
 31
0.0
1001
DBPROPERTIES
1002
{
1000
PbThick
1002
}
  0
LINE
  5
31A
330
1F
100
AcDbEntity
  8
THICK
100
AcDbLine
 10
-60.28000640869141
 20
-124.3327026367188
 30
0.0
 11
-60.53326034545898
 21
-124.3049240112305
 31
0.0
1001
DBPROPERTIES
1002
{
1000
PbThick
1002
}
  0
LINE
  5
31B
330
1F
100
AcDbEntity
  8
THICK
100
AcDbLine
 10
-60.53326034545898
 20
-124.3049240112305
 30
0.0
 11
-60.77725601196289
 21
-124.2703399658203
 31
0.0
1001
DBPROPERTIES
1002
{
1000
PbThick
1002
}
  0
LINE
  5
31C
330
1F
100
AcDbEntity
  8
THICK
100
AcDbLine
 10
-60.77725601196289
 20
-124.2703399658203
 30
0.0
 11
-61.01041412353516
 21
-124.2291259765625
 31
0.0
1001
DBPROPERTIES
1002
{
1000
PbThick
1002
}
  0
LINE
  5
31D
330
1F
100
AcDbEntity
  8
THICK
100
AcDbLine
 10
-61.01041412353516
 20
-124.2291259765625
 30
0.0
 11
-61.23129272460938
 21
-124.1814727783203
 31
0.0
1001
DBPROPERTIES
1002
{
1000
PbThick
1002
}
  0
LINE
  5
31E
330
1F
100
AcDbEntity
  8
THICK
100
AcDbLine
 10
-61.23129272460938
 20
-124.1814727783203
 30
0.0
 11
-61.43887329101562
 21
-124.1277236938477
 31
0.0
1001
DBPROPERTIES
1002
{
1000
PbThick
1002
}
  0
LINE
  5
31F
330
1F
100
AcDbEntity
  8
THICK
100
AcDbLine
 10
-61.43887329101562
 20
-124.1277236938477
 30
0.0
 11
-61.63215637207031
 21
-124.0683364868164
 31
0.0
1001
DBPROPERTIES
1002
{
1000
PbThick
1002
}
  0
LINE
  5
320
330
1F
100
AcDbEntity
  8
THICK
100
AcDbLine
 10
-61.63215637207031
 20
-124.0683364868164
 30
0.0
 11
-61.81013870239258
 21
-124.0037612915039
 31
0.0
1001
DBPROPERTIES
1002
{
1000
PbThick
1002
}
  0
LINE
  5
321
330
1F
100
AcDbEntity
  8
THICK
100
AcDbLine
 10
-61.81013870239258
 20
-124.0037612915039
 30
0.0
 11
-61.97211074829102
 21
-123.9345855712891
 31
0.0
1001
DBPROPERTIES
1002
{
1000
PbThick
1002
}
  0
LINE
  5
322
330
1F
100
AcDbEntity
  8
THICK
100
AcDbLine
 10
-61.97211074829102
 20
-123.9345855712891
 30
0.0
 11
-62.11776351928711
 21
-123.8615112304688
 31
0.0
1001
DBPROPERTIES
1002
{
1000
PbThick
1002
}
  0
LINE
  5
323
330
1F
100
AcDbEntity
  8
THICK
100
AcDbLine
 10
-62.11776351928711
 20
-123.8615112304688
 30
0.0
 11
-62.246826171875
 21
-123.785270690918
 31
0.0
1001
DBPROPERTIES
1002
{
1000
PbThick
1002
}
  0
LINE
  5
324
330
1F
100
AcDbEntity
  8
THICK
100
AcDbLine
 10
-62.246826171875
 20
-123.785270690918
 30
0.0
 11
-62.36119842529297
 21
-123.705078125
 31
0.0
1001
DBPROPERTIES
1002
{
1000
PbThick
1002
}
  0
LINE
  5
325
330
1F
100
AcDbEntity
  8
THICK
100
AcDbLine
 10
-62.36119842529297
 20
-123.705078125
 30
0.0
 11
-62.46243667602539
 21
-123.6198348999023
 31
0.0
1001
DBPROPERTIES
1002
{
1000
PbThick
1002
}
  0
LINE
  5
326
330
1F
100
AcDbEntity
  8
THICK
100
AcDbLine
 10
-62.46243667602539
 20
-123.6198348999023
 30
0.0
 11
-62.5495719909668
 21
-123.529914855957
 31
0.0
1001
DBPROPERTIES
1002
{
1000
PbThick
1002
}
  0
LINE
  5
327
330
1F
100
AcDbEntity
  8
THICK
100
AcDbLine
 10
-62.5495719909668
 20
-123.529914855957
 30
0.0
 11
-62.62163543701172
 21
-123.4357070922852
 31
0.0
1001
DBPROPERTIES
1002
{
1000
PbThick
1002
}
  0
LINE
  5
328
330
1F
100
AcDbEntity
  8
THICK
100
AcDbLine
 10
-62.62163543701172
 20
-123.4357070922852
 30
0.0
 11
-62.67798233032227
 21
-123.337646484375
 31
0.0
1001
DBPROPERTIES
1002
{
1000
PbThick
1002
}
  0
LINE
  5
329
330
1F
100
AcDbEntity
  8
THICK
100
AcDbLine
 10
-62.67798233032227
 20
-123.337646484375
 30
0.0
 11
-62.71832275390625
 21
-123.2362594604492
 31
0.0
1001
DBPROPERTIES
1002
{
1000
PbThick
1002
}
  0
LINE
  5
32A
330
1F
100
AcDbEntity
  8
THICK
100
AcDbLine
 10
-62.71832275390625
 20
-123.2362594604492
 30
0.0
 11
-62.74237442016602
 21
-123.1320571899414
 31
0.0
1001
DBPROPERTIES
1002
{
1000
PbThick
1002
}
  0
LINE
  5
32B
330
1F
100
AcDbEntity
  8
THICK
100
AcDbLine
 10
-62.74237442016602
 20
-123.1320571899414
 30
0.0
 11
-62.74994659423828
 21
-123.0255508422852
 31
0.0
1001
DBPROPERTIES
1002
{
1000
PbThick
1002
}
  0
LINE
  5
32C
330
1F
100
AcDbEntity
  8
THICK
100
AcDbLine
 10
-62.74994659423828
 20
-123.0255508422852
 30
0.0
 11
-62.74065780639648
 21
-122.9134521484375
 31
0.0
1001
DBPROPERTIES
1002
{
1000
PbThick
1002
}
  0
LINE
  5
32D
330
1F
100
AcDbEntity
  8
THICK
100
AcDbLine
 10
-62.74065780639648
 20
-122.9134521484375
 30
0.0
 11
-62.71433258056641
 21
-122.8001251220703
 31
0.0
1001
DBPROPERTIES
1002
{
1000
PbThick
1002
}
  0
LINE
  5
32E
330
1F
100
AcDbEntity
  8
THICK
100
AcDbLine
 10
-62.71433258056641
 20
-122.8001251220703
 30
0.0
 11
-62.6713752746582
 21
-122.6862564086914
 31
0.0
1001
DBPROPERTIES
1002
{
1000
PbThick
1002
}
  0
LINE
  5
32F
330
1F
100
AcDbEntity
  8
THICK
100
AcDbLine
 10
-62.6713752746582
 20
-122.6862564086914
 30
0.0
 11
-62.61250305175781
 21
-122.5725326538086
 31
0.0
1001
DBPROPERTIES
1002
{
1000
PbThick
1002
}
  0
LINE
  5
330
330
1F
100
AcDbEntity
  8
THICK
100
AcDbLine
 10
-62.61250305175781
 20
-122.5725326538086
 30
0.0
 11
-62.53883743286133
 21
-122.4596862792969
 31
0.0
1001
DBPROPERTIES
1002
{
1000
PbThick
1002
}
  0
LINE
  5
331
330
1F
100
AcDbEntity
  8
THICK
100
AcDbLine
 10
-62.53883743286133
 20
-122.4596862792969
 30
0.0
 11
-62.45153045654297
 21
-122.3484573364258
 31
0.0
1001
DBPROPERTIES
1002
{
1000
PbThick
1002
}
  0
LINE
  5
332
330
1F
100
AcDbEntity
  8
THICK
100
AcDbLine
 10
-62.45153045654297
 20
-122.3484573364258
 30
0.0
 11
-62.36475372314453
 21
-122.2528381347656
 31
0.0
1001
DBPROPERTIES
1002
{
1000
PbThick
1002
}
  0
LINE
  5
333
330
1F
100
AcDbEntity
  8
THICK
100
AcDbLine
 10
-62.36475372314453
 20
-122.2528381347656
 30
0.0
 11
-62.26579666137695
 21
-122.1559143066406
 31
0.0
1001
DBPROPERTIES
1002
{
1000
PbThick
1002
}
  0
LINE
  5
334
330
1F
100
AcDbEntity
  8
THICK
100
AcDbLine
 10
-62.26579666137695
 20
-122.1559143066406
 30
0.0
 11
-62.15471267700195
 21
-122.0581665039062
 31
0.0
1001
DBPROPERTIES
1002
{
1000
PbThick
1002
}
  0
LINE
  5
335
330
1F
100
AcDbEntity
  8
THICK
100
AcDbLine
 10
-62.15471267700195
 20
-122.0581665039062
 30
0.0
 11
-62.03156661987305
 21
-121.9600677490234
 31
0.0
1001
DBPROPERTIES
1002
{
1000
PbThick
1002
}
  0
LINE
  5
336
330
1F
100
AcDbEntity
  8
THICK
100
AcDbLine
 10
-62.03156661987305
 20
-121.9600677490234
 30
0.0
 11
-61.89651489257812
 21
-121.8620986938477
 31
0.0
1001
DBPROPERTIES
1002
{
1000
PbThick
1002
}
  0
LINE
  5
337
330
1F
100
AcDbEntity
  8
THICK
100
AcDbLine
 10
-61.89651489257812
 20
-121.8620986938477
 30
0.0
 11
-61.75
 21
-121.7647171020508
 31
0.0
1001
DBPROPERTIES
1002
{
1000
PbThick
1002
}
  0
LINE
  5
338
330
1F
100
AcDbEntity
  8
HIDDEN
100
AcDbLine
 10
-61.75
 20
-121.7647171020508
 30
0.0
 11
-61.5284538269043
 21
-121.6312866210938
 31
0.0
1001
DBPROPERTIES
1002
{
1000
PbHidd
1002
}
  0
LINE
  5
339
330
1F
100
AcDbEntity
  8
HIDDEN
100
AcDbLine
 10
-61.5284538269043
 20
-121.6312866210938
 30
0.0
 11
-61.28707885742188
 21
-121.5010223388672
 31
0.0
1001
DBPROPERTIES
1002
{
1000
PbHidd
1002
}
  0
LINE
  5
33A
330
1F
100
AcDbEntity
  8
HIDDEN
100
AcDbLine
 10
-61.28707885742188
 20
-121.5010223388672
 30
0.0
 11
-61.02762603759766
 21
-121.3749313354492
 31
0.0
1001
DBPROPERTIES
1002
{
1000
PbHidd
1002
}
  0
LINE
  5
33B
330
1F
100
AcDbEntity
  8
HIDDEN
100
AcDbLine
 10
-61.02762603759766
 20
-121.3749313354492
 30
0.0
 11
-60.75234603881836
 21
-121.2540817260742
 31
0.0
1001
DBPROPERTIES
1002
{
1000
PbHidd
1002
}
  0
LINE
  5
33C
330
1F
100
AcDbEntity
  8
HIDDEN
100
AcDbLine
 10
-60.75234603881836
 20
-121.2540817260742
 30
0.0
 11
-60.46359634399414
 21
-121.1394882202148
 31
0.0
1001
DBPROPERTIES
1002
{
1000
PbHidd
1002
}
  0
LINE
  5
33D
330
1F
100
AcDbEntity
  8
HIDDEN
100
AcDbLine
 10
-60.46359634399414
 20
-121.1394882202148
 30
0.0
 11
-60.16428756713867
 21
-121.0320053100586
 31
0.0
1001
DBPROPERTIES
1002
{
1000
PbHidd
1002
}
  0
LINE
  5
33E
330
1F
100
AcDbEntity
  8
HIDDEN
100
AcDbLine
 10
-60.16428756713867
 20
-121.0320053100586
 30
0.0
 11
-59.85756301879883
 21
-120.9323959350586
 31
0.0
1001
DBPROPERTIES
1002
{
1000
PbHidd
1002
}
  0
LINE
  5
33F
330
1F
100
AcDbEntity
  8
HIDDEN
100
AcDbLine
 10
-59.85756301879883
 20
-120.9323959350586
 30
0.0
 11
-59.53815841674805
 21
-120.8390045166016
 31
0.0
1001
DBPROPERTIES
1002
{
1000
PbHidd
1002
}
  0
LINE
  5
340
330
1F
100
AcDbEntity
  8
HIDDEN
100
AcDbLine
 10
-59.53815841674805
 20
-120.8390045166016
 30
0.0
 11
-59.20165634155273
 21
-120.7509689331055
 31
0.0
1001
DBPROPERTIES
1002
{
1000
PbHidd
1002
}
  0
LINE
  5
341
330
1F
100
AcDbEntity
  8
HIDDEN
100
AcDbLine
 10
-59.20165634155273
 20
-120.7509689331055
 30
0.0
 11
-58.85114288330078
 21
-120.6698532104492
 31
0.0
1001
DBPROPERTIES
1002
{
1000
PbHidd
1002
}
  0
LINE
  5
342
330
1F
100
AcDbEntity
  8
HIDDEN
100
AcDbLine
 10
-58.85114288330078
 20
-120.6698532104492
 30
0.0
 11
-58.48996353149414
 21
-120.5969848632812
 31
0.0
1001
DBPROPERTIES
1002
{
1000
PbHidd
1002
}
  0
LINE
  5
343
330
1F
100
AcDbEntity
  8
HIDDEN
100
AcDbLine
 10
-58.48996353149414
 20
-120.5969848632812
 30
0.0
 11
-58.12174987792969
 21
-120.5334091186523
 31
0.0
1001
DBPROPERTIES
1002
{
1000
PbHidd
1002
}
  0
LINE
  5
344
330
1F
100
AcDbEntity
  8
HIDDEN
100
AcDbLine
 10
-58.12174987792969
 20
-120.5334091186523
 30
0.0
 11
-57.74999618530273
 21
-120.4800338745117
 31
0.0
1001
DBPROPERTIES
1002
{
1000
PbHidd
1002
}
  0
LINE
  5
345
330
1F
100
AcDbEntity
  8
HIDDEN
100
AcDbLine
 10
-57.74999618530273
 20
-120.4800338745117
 30
0.0
 11
-57.38882446289062
 21
-120.4384613037109
 31
0.0
1001
DBPROPERTIES
1002
{
1000
PbHidd
1002
}
  0
LINE
  5
346
330
1F
100
AcDbEntity
  8
HIDDEN
100
AcDbLine
 10
-57.38882446289062
 20
-120.4384613037109
 30
0.0
 11
-57.0311393737793
 21
-120.4073638916016
 31
0.0
1001
DBPROPERTIES
1002
{
1000
PbHidd
1002
}
  0
LINE
  5
347
330
1F
100
AcDbEntity
  8
HIDDEN
100
AcDbLine
 10
-57.0311393737793
 20
-120.4073638916016
 30
0.0
 11
-56.68043518066406
 21
-120.3869323730469
 31
0.0
1001
DBPROPERTIES
1002
{
1000
PbHidd
1002
}
  0
LINE
  5
348
330
1F
100
AcDbEntity
  8
HIDDEN
100
AcDbLine
 10
-56.68043518066406
 20
-120.3869323730469
 30
0.0
 11
-56.34010314941406
 21
-120.3769073486328
 31
0.0
1001
DBPROPERTIES
1002
{
1000
PbHidd
1002
}
  0
LINE
  5
349
330
1F
100
AcDbEntity
  8
HIDDEN
100
AcDbLine
 10
-56.34010314941406
 20
-120.3769073486328
 30
0.0
 11
-56.01151657104492
 21
-120.3769760131836
 31
0.0
1001
DBPROPERTIES
1002
{
1000
PbHidd
1002
}
  0
LINE
  5
34A
330
1F
100
AcDbEntity
  8
HIDDEN
100
AcDbLine
 10
-56.01151657104492
 20
-120.3769760131836
 30
0.0
 11
-55.68657302856445
 21
-120.3871383666992
 31
0.0
1001
DBPROPERTIES
1002
{
1000
PbHidd
1002
}
  0
LINE
  5
34B
330
1F
100
AcDbEntity
  8
HIDDEN
100
AcDbLine
 10
-55.68657302856445
 20
-120.3871383666992
 30
0.0
 11
-55.36723709106445
 21
-120.4077072143555
 31
0.0
1001
DBPROPERTIES
1002
{
1000
PbHidd
1002
}
  0
LINE
  5
34C
330
1F
100
AcDbEntity
  8
HIDDEN
100
AcDbLine
 10
-55.36723709106445
 20
-120.4077072143555
 30
0.0
 11
-55.05730819702148
 21
-120.4389419555664
 31
0.0
1001
DBPROPERTIES
1002
{
1000
PbHidd
1002
}
  0
LINE
  5
34D
330
1F
100
AcDbEntity
  8
HIDDEN
100
AcDbLine
 10
-55.05730819702148
 20
-120.4389419555664
 30
0.0
 11
-54.760009765625
 21
-120.4806518554688
 31
0.0
1001
DBPROPERTIES
1002
{
1000
PbHidd
1002
}
  0
LINE
  5
34E
330
1F
100
AcDbEntity
  8
HIDDEN
100
AcDbLine
 10
-54.760009765625
 20
-120.4806518554688
 30
0.0
 11
-54.47835540771484
 21
-120.5324783325195
 31
0.0
1001
DBPROPERTIES
1002
{
1000
PbHidd
1002
}
  0
LINE
  5
34F
330
1F
100
AcDbEntity
  8
HIDDEN
100
AcDbLine
 10
-54.47835540771484
 20
-120.5324783325195
 30
0.0
 11
-54.21484756469727
 21
-120.5939483642578
 31
0.0
1001
DBPROPERTIES
1002
{
1000
PbHidd
1002
}
  0
LINE
  5
350
330
1F
100
AcDbEntity
  8
HIDDEN
100
AcDbLine
 10
-54.21484756469727
 20
-120.5939483642578
 30
0.0
 11
-53.97142791748047
 21
-120.6642227172852
 31
0.0
1001
DBPROPERTIES
1002
{
1000
PbHidd
1002
}
  0
LINE
  5
351
330
1F
100
AcDbEntity
  8
HIDDEN
100
AcDbLine
 10
-53.97142791748047
 20
-120.6642227172852
 30
0.0
 11
-53.75001907348633
 21
-120.7423553466797
 31
0.0
1001
DBPROPERTIES
1002
{
1000
PbHidd
1002
}
  0
LINE
  5
352
330
1F
100
AcDbEntity
  8
THICK
100
AcDbLine
 10
-53.75001907348633
 20
-120.7423553466797
 30
0.0
 11
-53.54268646240234
 21
-120.8315505981445
 31
0.0
1001
DBPROPERTIES
1002
{
1000
PbThick
1002
}
  0
LINE
  5
353
330
1F
100
AcDbEntity
  8
THICK
100
AcDbLine
 10
-53.54268646240234
 20
-120.8315505981445
 30
0.0
 11
-53.3618278503418
 21
-120.9264526367188
 31
0.0
1001
DBPROPERTIES
1002
{
1000
PbThick
1002
}
  0
LINE
  5
354
330
1F
100
AcDbEntity
  8
THICK
100
AcDbLine
 10
-53.3618278503418
 20
-120.9264526367188
 30
0.0
 11
-53.20474624633789
 21
-121.0275955200195
 31
0.0
1001
DBPROPERTIES
1002
{
1000
PbThick
1002
}
  0
LINE
  5
355
330
1F
100
AcDbEntity
  8
THICK
100
AcDbLine
 10
-53.20474624633789
 20
-121.0275955200195
 30
0.0
 11
-53.06821441650391
 21
-121.136962890625
 31
0.0
1001
DBPROPERTIES
1002
{
1000
PbThick
1002
}
  0
LINE
  5
356
330
1F
100
AcDbEntity
  8
THICK
100
AcDbLine
 10
-53.06821441650391
 20
-121.136962890625
 30
0.0
 11
-52.95432281494141
 21
-121.2537307739258
 31
0.0
1001
DBPROPERTIES
1002
{
1000
PbThick
1002
}
  0
LINE
  5
357
330
1F
100
AcDbEntity
  8
THICK
100
AcDbLine
 10
-52.95432281494141
 20
-121.2537307739258
 30
0.0
 11
-52.86482620239258
 21
-121.3770141601562
 31
0.0
1001
DBPROPERTIES
1002
{
1000
PbThick
1002
}
  0
LINE
  5
358
330
1F
100
AcDbEntity
  8
THICK
100
AcDbLine
 10
-52.86482620239258
 20
-121.3770141601562
 30
0.0
 11
-52.80057525634766
 21
-121.5057144165039
 31
0.0
1001
DBPROPERTIES
1002
{
1000
PbThick
1002
}
  0
LINE
  5
359
330
1F
100
AcDbEntity
  8
THICK
100
AcDbLine
 10
-52.80057525634766
 20
-121.5057144165039
 30
0.0
 11
-52.76227569580078
 21
-121.6387329101562
 31
0.0
1001
DBPROPERTIES
1002
{
1000
PbThick
1002
}
  0
LINE
  5
35A
330
1F
100
AcDbEntity
  8
THICK
100
AcDbLine
 10
-52.76227569580078
 20
-121.6387329101562
 30
0.0
 11
-52.75008392333984
 21
-121.7749710083008
 31
0.0
1001
DBPROPERTIES
1002
{
1000
PbThick
1002
}
  0
LINE
  5
35B
330
1F
100
AcDbEntity
  8
THICK
100
AcDbLine
 10
-52.75008392333984
 20
-121.7749710083008
 30
0.0
 11
-52.76045608520508
 21
-121.8960342407227
 31
0.0
1001
DBPROPERTIES
1002
{
1000
PbThick
1002
}
  0
LINE
  5
35C
330
1F
100
AcDbEntity
  8
THICK
100
AcDbLine
 10
-52.76045608520508
 20
-121.8960342407227
 30
0.0
 11
-52.79007339477539
 21
-122.0177459716797
 31
0.0
1001
DBPROPERTIES
1002
{
1000
PbThick
1002
}
  0
LINE
  5
35D
330
1F
100
AcDbEntity
  8
THICK
100
AcDbLine
 10
-52.79007339477539
 20
-122.0177459716797
 30
0.0
 11
-52.83816146850586
 21
-122.1392288208008
 31
0.0
1001
DBPROPERTIES
1002
{
1000
PbThick
1002
}
  0
LINE
  5
35E
330
1F
100
AcDbEntity
  8
THICK
100
AcDbLine
 10
-52.83816146850586
 20
-122.1392288208008
 30
0.0
 11
-52.90341949462891
 21
-122.2595672607422
 31
0.0
1001
DBPROPERTIES
1002
{
1000
PbThick
1002
}
  0
LINE
  5
35F
330
1F
100
AcDbEntity
  8
THICK
100
AcDbLine
 10
-52.90341949462891
 20
-122.2595672607422
 30
0.0
 11
-52.98464202880859
 21
-122.3780136108398
 31
0.0
1001
DBPROPERTIES
1002
{
1000
PbThick
1002
}
  0
LINE
  5
360
330
1F
100
AcDbEntity
  8
THICK
100
AcDbLine
 10
-52.98464202880859
 20
-122.3780136108398
 30
0.0
 11
-53.08361053466797
 21
-122.4973831176758
 31
0.0
1001
DBPROPERTIES
1002
{
1000
PbThick
1002
}
  0
LINE
  5
361
330
1F
100
AcDbEntity
  8
THICK
100
AcDbLine
 10
-53.08361053466797
 20
-122.4973831176758
 30
0.0
 11
-53.20133209228516
 21
-122.6183090209961
 31
0.0
1001
DBPROPERTIES
1002
{
1000
PbThick
1002
}
  0
LINE
  5
362
330
1F
100
AcDbEntity
  8
THICK
100
AcDbLine
 10
-53.20133209228516
 20
-122.6183090209961
 30
0.0
 11
-53.33781051635742
 21
-122.7398986816406
 31
0.0
1001
DBPROPERTIES
1002
{
1000
PbThick
1002
}
  0
LINE
  5
363
330
1F
100
AcDbEntity
  8
THICK
100
AcDbLine
 10
-53.33781051635742
 20
-122.7398986816406
 30
0.0
 11
-53.49288940429688
 21
-122.8612823486328
 31
0.0
1001
DBPROPERTIES
1002
{
1000
PbThick
1002
}
  0
LINE
  5
364
330
1F
100
AcDbEntity
  8
THICK
100
AcDbLine
 10
-53.49288940429688
 20
-122.8612823486328
 30
0.0
 11
-53.66584777832031
 21
-122.9816284179688
 31
0.0
1001
DBPROPERTIES
1002
{
1000
PbThick
1002
}
  0
LINE
  5
365
330
1F
100
AcDbEntity
  8
THICK
100
AcDbLine
 10
-53.66584777832031
 20
-122.9816284179688
 30
0.0
 11
-53.85585403442383
 21
-123.1001052856445
 31
0.0
1001
DBPROPERTIES
1002
{
1000
PbThick
1002
}
  0
LINE
  5
366
330
1F
100
AcDbEntity
  8
THICK
100
AcDbLine
 10
-53.85585403442383
 20
-123.1001052856445
 30
0.0
 11
-54.06206130981445
 21
-123.215950012207
 31
0.0
1001
DBPROPERTIES
1002
{
1000
PbThick
1002
}
  0
LINE
  5
367
330
1F
100
AcDbEntity
  8
THICK
100
AcDbLine
 10
-54.06206130981445
 20
-123.215950012207
 30
0.0
 11
-54.28324508666992
 21
-123.3284912109375
 31
0.0
1001
DBPROPERTIES
1002
{
1000
PbThick
1002
}
  0
LINE
  5
368
330
1F
100
AcDbEntity
  8
THICK
100
AcDbLine
 10
-54.28324508666992
 20
-123.3284912109375
 30
0.0
 11
-54.51789093017578
 21
-123.4370193481445
 31
0.0
1001
DBPROPERTIES
1002
{
1000
PbThick
1002
}
  0
LINE
  5
369
330
1F
100
AcDbEntity
  8
THICK
100
AcDbLine
 10
-54.51789093017578
 20
-123.4370193481445
 30
0.0
 11
-54.76445388793945
 21
-123.5408401489258
 31
0.0
1001
DBPROPERTIES
1002
{
1000
PbThick
1002
}
  0
LINE
  5
36A
330
1F
100
AcDbEntity
  8
THICK
100
AcDbLine
 10
-54.76445388793945
 20
-123.5408401489258
 30
0.0
 11
-55.02103424072266
 21
-123.6393661499023
 31
0.0
1001
DBPROPERTIES
1002
{
1000
PbThick
1002
}
  0
LINE
  5
36B
330
1F
100
AcDbEntity
  8
THICK
100
AcDbLine
 10
-55.02103424072266
 20
-123.6393661499023
 30
0.0
 11
-55.28547668457031
 21
-123.7320785522461
 31
0.0
1001
DBPROPERTIES
1002
{
1000
PbThick
1002
}
  0
LINE
  5
36C
330
1F
100
AcDbEntity
  8
THICK
100
AcDbLine
 10
-55.28547668457031
 20
-123.7320785522461
 30
0.0
 11
-55.55655670166016
 21
-123.8187561035156
 31
0.0
1001
DBPROPERTIES
1002
{
1000
PbThick
1002
}
  0
LINE
  5
36D
330
1F
100
AcDbEntity
  8
THICK
100
AcDbLine
 10
-55.55655670166016
 20
-123.8187561035156
 30
0.0
 11
-55.84081268310547
 21
-123.9014053344727
 31
0.0
1001
DBPROPERTIES
1002
{
1000
PbThick
1002
}
  0
LINE
  5
36E
330
1F
100
AcDbEntity
  8
THICK
100
AcDbLine
 10
-55.84081268310547
 20
-123.9014053344727
 30
0.0
 11
-56.13831329345703
 21
-123.9797058105469
 31
0.0
1001
DBPROPERTIES
1002
{
1000
PbThick
1002
}
  0
LINE
  5
36F
330
1F
100
AcDbEntity
  8
THICK
100
AcDbLine
 10
-56.13831329345703
 20
-123.9797058105469
 30
0.0
 11
-56.44708251953125
 21
-124.0526885986328
 31
0.0
1001
DBPROPERTIES
1002
{
1000
PbThick
1002
}
  0
LINE
  5
370
330
1F
100
AcDbEntity
  8
THICK
100
AcDbLine
 10
-56.44708251953125
 20
-124.0526885986328
 30
0.0
 11
-56.76498413085938
 21
-124.1194915771484
 31
0.0
1001
DBPROPERTIES
1002
{
1000
PbThick
1002
}
  0
LINE
  5
371
330
1F
100
AcDbEntity
  8
THICK
100
AcDbLine
 10
-56.76498413085938
 20
-124.1194915771484
 30
0.0
 11
-57.08965301513672
 21
-124.1794891357422
 31
0.0
1001
DBPROPERTIES
1002
{
1000
PbThick
1002
}
  0
LINE
  5
372
330
1F
100
AcDbEntity
  8
THICK
100
AcDbLine
 10
-57.08965301513672
 20
-124.1794891357422
 30
0.0
 11
-57.4187126159668
 21
-124.2320556640625
 31
0.0
1001
DBPROPERTIES
1002
{
1000
PbThick
1002
}
  0
LINE
  5
373
330
1F
100
AcDbEntity
  8
THICK
100
AcDbLine
 10
-57.4187126159668
 20
-124.2320556640625
 30
0.0
 11
-57.75000381469727
 21
-124.2767486572266
 31
0.0
1001
DBPROPERTIES
1002
{
1000
PbThick
1002
}
  0
LINE
  5
374
330
1F
100
AcDbEntity
  8
THICK
100
AcDbLine
 10
-167.2
 20
-128.7
 30
0.0
 11
-61.74999992695052
 21
-128.7
 31
0.0
1001
DBPROPERTIES
1002
{
1000
PbThick
1002
}
  0
LINE
  5
375
330
1F
100
AcDbEntity
  8
HIDDEN
100
AcDbLine
 10
-61.74999992695052
 20
-128.7
 30
0.0
 11
-53.74999994692553
 21
-128.7
 31
0.0
1001
DBPROPERTIES
1002
{
1000
PbHidd
1002
}
  0
LINE
  5
376
330
1F
100
AcDbEntity
  8
THICK
100
AcDbLine
 10
-53.74999994692553
 20
-128.7
 30
0.0
 11
-0.0000000000000386
 21
-128.7
 31
0.0
1001
DBPROPERTIES
1002
{
1000
PbThick
1002
}
  0
ARC
  5
377
330
1F
100
AcDbEntity
  8
THICK
100
AcDbCircle
 10
-167.2
 20
-133.7
 30
0.0
 40
5.0
100
AcDbArc
 50
89.99998127603165
 51
179.9999625520633
1001
DBPROPERTIES
1002
{
1000
PbThick
1002
}
  0
LINE
  5
378
330
1F
100
AcDbEntity
  8
THICK
100
AcDbLine
 10
-30.74999999999999
 20
-133.7
 30
0.0
 11
-53.74999998606685
 21
-133.7
 31
0.0
1001
DBPROPERTIES
1002
{
1000
PbThick
1002
}
  0
LINE
  5
379
330
1F
100
AcDbEntity
  8
HIDDEN
100
AcDbLine
 10
-53.74999998606685
 20
-133.7
 30
0.0
 11
-61.74999995238585
 21
-133.7
 31
0.0
1001
DBPROPERTIES
1002
{
1000
PbHidd
1002
}
  0
LINE
  5
37A
330
1F
100
AcDbEntity
  8
THICK
100
AcDbLine
 10
-61.74999995238585
 20
-133.7
 30
0.0
 11
-172.2
 21
-133.7
 31
0.0
1001
DBPROPERTIES
1002
{
1000
PbThick
1002
}
  0
ARC
  5
37B
330
1F
100
AcDbEntity
  8
THICK
100
AcDbCircle
 10
167.2
 20
-133.7
 30
0.0
 40
5.0
100
AcDbArc
 50
0.0000572957795131
 51
90.00003857181116
1001
DBPROPERTIES
1002
{
1000
PbThick
1002
}
  0
LINE
  5
37C
330
1F
100
AcDbEntity
  8
THICK
100
AcDbLine
 10
0.0000000000000024
 20
-128.7
 30
0.0
 11
167.2
 21
-128.7
 31
0.0
1001
DBPROPERTIES
1002
{
1000
PbThick
1002
}
  0
LINE
  5
37D
330
1F
100
AcDbEntity
  8
THICK
100
AcDbLine
 10
-61.74999999999999
 20
-137.3
 30
0.0
 11
-57.74999999999999
 21
-137.3
 31
0.0
1001
DBPROPERTIES
1002
{
1000
PbThick
1002
}
  0
LINE
  5
37E
330
1F
100
AcDbEntity
  8
HIDDEN
100
AcDbLine
 10
-60.57842712474618
 20
-31.46000000000001
 30
0.0
 11
-61.74999999999999
 21
-31.46000000000001
 31
0.0
1001
DBPROPERTIES
1002
{
1000
PbHidd
1002
}
  0
LINE
  5
37F
330
1F
100
AcDbEntity
  8
THICK
100
AcDbLine
 10
-61.74999999999947
 20
-31.46000000000001
 30
0.0
 11
-57.74999999999999
 21
-31.46000000000001
 31
0.0
1001
DBPROPERTIES
1002
{
1000
PbThick
1002
}
  0
LINE
  5
380
330
1F
100
AcDbEntity
  8
HIDDEN
100
AcDbLine
 10
-57.74999999999999
 20
-31.46000000000001
 30
0.0
 11
-60.57842712474618
 21
-31.46000000000001
 31
0.0
1001
DBPROPERTIES
1002
{
1000
PbHidd
1002
}
  0
LINE
  5
381
330
1F
100
AcDbEntity
  8
HIDDEN
100
AcDbLine
 10
-61.74999999999999
 20
-137.3
 30
0.0
 11
-57.74999999999999
 21
-137.3
 31
0.0
1001
DBPROPERTIES
1002
{
1000
PbHidd
1002
}
  0
LINE
  5
382
330
1F
100
AcDbEntity
  8
HIDDEN
100
AcDbLine
 10
-71.75
 20
-7.460005283355713
 30
0.0
 11
-71.75650787353516
 21
-7.460012912750244
 31
0.0
1001
DBPROPERTIES
1002
{
1000
PbHidd
1002
}
  0
LINE
  5
383
330
1F
100
AcDbEntity
  8
HIDDEN
100
AcDbLine
 10
-71.75650787353516
 20
-7.460012912750244
 30
0.0
 11
-71.7632064819336
 21
-7.460028648376465
 31
0.0
1001
DBPROPERTIES
1002
{
1000
PbHidd
1002
}
  0
LINE
  5
384
330
1F
100
AcDbEntity
  8
HIDDEN
100
AcDbLine
 10
-71.7632064819336
 20
-7.460028648376465
 30
0.0
 11
-71.76961517333984
 21
-7.460053443908691
 31
0.0
1001
DBPROPERTIES
1002
{
1000
PbHidd
1002
}
  0
LINE
  5
385
330
1F
100
AcDbEntity
  8
HIDDEN
100
AcDbLine
 10
-71.76961517333984
 20
-7.460053443908691
 30
0.0
 11
-71.77619934082031
 21
-7.460088729858398
 31
0.0
1001
DBPROPERTIES
1002
{
1000
PbHidd
1002
}
  0
LINE
  5
386
330
1F
100
AcDbEntity
  8
HIDDEN
100
AcDbLine
 10
-71.77619934082031
 20
-7.460088729858398
 30
0.0
 11
-71.7824478149414
 21
-7.460132122039795
 31
0.0
1001
DBPROPERTIES
1002
{
1000
PbHidd
1002
}
  0
LINE
  5
387
330
1F
100
AcDbEntity
  8
HIDDEN
100
AcDbLine
 10
-71.7824478149414
 20
-7.460132122039795
 30
0.0
 11
-71.78840637207031
 21
-7.460185527801514
 31
0.0
1001
DBPROPERTIES
1002
{
1000
PbHidd
1002
}
  0
LINE
  5
388
330
1F
100
AcDbEntity
  8
THICK
100
AcDbLine
 10
-71.78840637207031
 20
-7.460185527801514
 30
0.0
 11
-71.79399871826172
 21
-7.460245609283447
 31
0.0
1001
DBPROPERTIES
1002
{
1000
PbThick
1002
}
  0
LINE
  5
389
330
1F
100
AcDbEntity
  8
THICK
100
AcDbLine
 10
-71.79399871826172
 20
-7.460245609283447
 30
0.0
 11
-71.7996597290039
 21
-7.460316181182861
 31
0.0
1001
DBPROPERTIES
1002
{
1000
PbThick
1002
}
  0
LINE
  5
38A
330
1F
100
AcDbEntity
  8
THICK
100
AcDbLine
 10
-71.7996597290039
 20
-7.460316181182861
 30
0.0
 11
-71.80532836914062
 21
-7.460395812988281
 31
0.0
1001
DBPROPERTIES
1002
{
1000
PbThick
1002
}
  0
LINE
  5
38B
330
1F
100
AcDbEntity
  8
THICK
100
AcDbLine
 10
-71.80532836914062
 20
-7.460395812988281
 30
0.0
 11
-71.81095886230469
 21
-7.460484027862549
 31
0.0
1001
DBPROPERTIES
1002
{
1000
PbThick
1002
}
  0
LINE
  5
38C
330
1F
100
AcDbEntity
  8
THICK
100
AcDbLine
 10
-71.81095886230469
 20
-7.460484027862549
 30
0.0
 11
-71.8165054321289
 21
-7.460579872131348
 31
0.0
1001
DBPROPERTIES
1002
{
1000
PbThick
1002
}
  0
LINE
  5
38D
330
1F
100
AcDbEntity
  8
THICK
100
AcDbLine
 10
-71.8165054321289
 20
-7.460579872131348
 30
0.0
 11
-71.82190704345703
 21
-7.46068286895752
 31
0.0
1001
DBPROPERTIES
1002
{
1000
PbThick
1002
}
  0
LINE
  5
38E
330
1F
100
AcDbEntity
  8
THICK
100
AcDbLine
 10
-71.82190704345703
 20
-7.46068286895752
 30
0.0
 11
-71.82711791992188
 21
-7.460792064666748
 31
0.0
1001
DBPROPERTIES
1002
{
1000
PbThick
1002
}
  0
LINE
  5
38F
330
1F
100
AcDbEntity
  8
THICK
100
AcDbLine
 10
-71.82711791992188
 20
-7.460792064666748
 30
0.0
 11
-71.83214569091797
 21
-7.460906982421875
 31
0.0
1001
DBPROPERTIES
1002
{
1000
PbThick
1002
}
  0
LINE
  5
390
330
1F
100
AcDbEntity
  8
THICK
100
AcDbLine
 10
-71.83214569091797
 20
-7.460906982421875
 30
0.0
 11
-71.83719635009766
 21
-7.461031913757324
 31
0.0
1001
DBPROPERTIES
1002
{
1000
PbThick
1002
}
  0
LINE
  5
391
330
1F
100
AcDbEntity
  8
THICK
100
AcDbLine
 10
-71.83719635009766
 20
-7.461031913757324
 30
0.0
 11
-71.84227752685547
 21
-7.461167335510254
 31
0.0
1001
DBPROPERTIES
1002
{
1000
PbThick
1002
}
  0
LINE
  5
392
330
1F
100
AcDbEntity
  8
THICK
100
AcDbLine
 10
-71.84227752685547
 20
-7.461167335510254
 30
0.0
 11
-71.84739685058594
 21
-7.461312770843506
 31
0.0
1001
DBPROPERTIES
1002
{
1000
PbThick
1002
}
  0
LINE
  5
393
330
1F
100
AcDbEntity
  8
THICK
100
AcDbLine
 10
-71.84739685058594
 20
-7.461312770843506
 30
0.0
 11
-71.85254669189453
 21
-7.46146821975708
 31
0.0
1001
DBPROPERTIES
1002
{
1000
PbThick
1002
}
  0
LINE
  5
394
330
1F
100
AcDbEntity
  8
THICK
100
AcDbLine
 10
-71.85254669189453
 20
-7.46146821975708
 30
0.0
 11
-71.85771942138672
 21
-7.461634159088135
 31
0.0
1001
DBPROPERTIES
1002
{
1000
PbThick
1002
}
  0
LINE
  5
395
330
1F
100
AcDbEntity
  8
THICK
100
AcDbLine
 10
-71.85771942138672
 20
-7.461634159088135
 30
0.0
 11
-71.8629150390625
 21
-7.46181058883667
 31
0.0
1001
DBPROPERTIES
1002
{
1000
PbThick
1002
}
  0
LINE
  5
396
330
1F
100
AcDbEntity
  8
THICK
100
AcDbLine
 10
-71.8629150390625
 20
-7.46181058883667
 30
0.0
 11
-71.86812591552734
 21
-7.461997032165527
 31
0.0
1001
DBPROPERTIES
1002
{
1000
PbThick
1002
}
  0
LINE
  5
397
330
1F
100
AcDbEntity
  8
THICK
100
AcDbLine
 10
-71.86812591552734
 20
-7.461997032165527
 30
0.0
 11
-71.87335968017578
 21
-7.462193965911865
 31
0.0
1001
DBPROPERTIES
1002
{
1000
PbThick
1002
}
  0
LINE
  5
398
330
1F
100
AcDbEntity
  8
THICK
100
AcDbLine
 10
-71.87335968017578
 20
-7.462193965911865
 30
0.0
 11
-71.87859344482422
 21
-7.462400913238525
 31
0.0
1001
DBPROPERTIES
1002
{
1000
PbThick
1002
}
  0
LINE
  5
399
330
1F
100
AcDbEntity
  8
THICK
100
AcDbLine
 10
-71.87859344482422
 20
-7.462400913238525
 30
0.0
 11
-71.88383483886719
 21
-7.462618350982666
 31
0.0
1001
DBPROPERTIES
1002
{
1000
PbThick
1002
}
  0
LINE
  5
39A
330
1F
100
AcDbEntity
  8
THICK
100
AcDbLine
 10
-71.88383483886719
 20
-7.462618350982666
 30
0.0
 11
-71.88908386230469
 21
-7.462846279144287
 31
0.0
1001
DBPROPERTIES
1002
{
1000
PbThick
1002
}
  0
LINE
  5
39B
330
1F
100
AcDbEntity
  8
THICK
100
AcDbLine
 10
-71.88908386230469
 20
-7.462846279144287
 30
0.0
 11
-71.89432525634766
 21
-7.46308422088623
 31
0.0
1001
DBPROPERTIES
1002
{
1000
PbThick
1002
}
  0
LINE
  5
39C
330
1F
100
AcDbEntity
  8
THICK
100
AcDbLine
 10
-71.75
 20
-7.464804649353027
 30
0.0
 11
-71.88961791992188
 21
-7.4765305519104
 31
0.0
1001
DBPROPERTIES
1002
{
1000
PbThick
1002
}
  0
LINE
  5
39D
330
1F
100
AcDbEntity
  8
THICK
100
AcDbLine
 10
-71.88961791992188
 20
-7.4765305519104
 30
0.0
 11
-72.03193664550781
 21
-7.498543739318848
 31
0.0
1001
DBPROPERTIES
1002
{
1000
PbThick
1002
}
  0
LINE
  5
39E
330
1F
100
AcDbEntity
  8
THICK
100
AcDbLine
 10
-72.03193664550781
 20
-7.498543739318848
 30
0.0
 11
-72.17547607421875
 21
-7.531208992004395
 31
0.0
1001
DBPROPERTIES
1002
{
1000
PbThick
1002
}
  0
LINE
  5
39F
330
1F
100
AcDbEntity
  8
THICK
100
AcDbLine
 10
-72.17547607421875
 20
-7.531208992004395
 30
0.0
 11
-72.31876373291016
 21
-7.574457168579102
 31
0.0
1001
DBPROPERTIES
1002
{
1000
PbThick
1002
}
  0
LINE
  5
3A0
330
1F
100
AcDbEntity
  8
THICK
100
AcDbLine
 10
-72.31876373291016
 20
-7.574457168579102
 30
0.0
 11
-72.46038818359375
 21
-7.628050804138184
 31
0.0
1001
DBPROPERTIES
1002
{
1000
PbThick
1002
}
  0
LINE
  5
3A1
330
1F
100
AcDbEntity
  8
THICK
100
AcDbLine
 10
-72.46038818359375
 20
-7.628050804138184
 30
0.0
 11
-72.5990219116211
 21
-7.691256523132324
 31
0.0
1001
DBPROPERTIES
1002
{
1000
PbThick
1002
}
  0
LINE
  5
3A2
330
1F
100
AcDbEntity
  8
THICK
100
AcDbLine
 10
-72.5990219116211
 20
-7.691256523132324
 30
0.0
 11
-72.73332214355469
 21
-7.763177394866943
 31
0.0
1001
DBPROPERTIES
1002
{
1000
PbThick
1002
}
  0
LINE
  5
3A3
330
1F
100
AcDbEntity
  8
THICK
100
AcDbLine
 10
-72.73332214355469
 20
-7.763177394866943
 30
0.0
 11
-72.86205291748047
 21
-7.842475891113281
 31
0.0
1001
DBPROPERTIES
1002
{
1000
PbThick
1002
}
  0
LINE
  5
3A4
330
1F
100
AcDbEntity
  8
THICK
100
AcDbLine
 10
-72.86205291748047
 20
-7.842475891113281
 30
0.0
 11
-72.9848403930664
 21
-7.928164958953857
 31
0.0
1001
DBPROPERTIES
1002
{
1000
PbThick
1002
}
  0
LINE
  5
3A5
330
1F
100
AcDbEntity
  8
THICK
100
AcDbLine
 10
-72.9848403930664
 20
-7.928164958953857
 30
0.0
 11
-73.10724639892578
 21
-8.024081230163574
 31
0.0
1001
DBPROPERTIES
1002
{
1000
PbThick
1002
}
  0
LINE
  5
3A6
330
1F
100
AcDbEntity
  8
THICK
100
AcDbLine
 10
-73.10724639892578
 20
-8.024081230163574
 30
0.0
 11
-73.22931671142578
 21
-8.130929946899414
 31
0.0
1001
DBPROPERTIES
1002
{
1000
PbThick
1002
}
  0
LINE
  5
3A7
330
1F
100
AcDbEntity
  8
THICK
100
AcDbLine
 10
-73.22931671142578
 20
-8.130929946899414
 30
0.0
 11
-73.34952545166016
 21
-8.248196601867676
 31
0.0
1001
DBPROPERTIES
1002
{
1000
PbThick
1002
}
  0
LINE
  5
3A8
330
1F
100
AcDbEntity
  8
THICK
100
AcDbLine
 10
-73.34952545166016
 20
-8.248196601867676
 30
0.0
 11
-73.46654510498047
 21
-8.374939918518066
 31
0.0
1001
DBPROPERTIES
1002
{
1000
PbThick
1002
}
  0
LINE
  5
3A9
330
1F
100
AcDbEntity
  8
THICK
100
AcDbLine
 10
-73.46654510498047
 20
-8.374939918518066
 30
0.0
 11
-73.5791244506836
 21
-8.510115623474121
 31
0.0
1001
DBPROPERTIES
1002
{
1000
PbThick
1002
}
  0
LINE
  5
3AA
330
1F
100
AcDbEntity
  8
THICK
100
AcDbLine
 10
-73.5791244506836
 20
-8.510115623474121
 30
0.0
 11
-73.6862564086914
 21
-8.652341842651367
 31
0.0
1001
DBPROPERTIES
1002
{
1000
PbThick
1002
}
  0
LINE
  5
3AB
330
1F
100
AcDbEntity
  8
THICK
100
AcDbLine
 10
-73.6862564086914
 20
-8.652341842651367
 30
0.0
 11
-73.7869873046875
 21
-8.800004959106445
 31
0.0
1001
DBPROPERTIES
1002
{
1000
PbThick
1002
}
  0
LINE
  5
3AC
330
1F
100
AcDbEntity
  8
THICK
100
AcDbLine
 10
-73.7869873046875
 20
-8.800004959106445
 30
0.0
 11
-73.88054656982422
 21
-8.951255798339844
 31
0.0
1001
DBPROPERTIES
1002
{
1000
PbThick
1002
}
  0
LINE
  5
3AD
330
1F
100
AcDbEntity
  8
THICK
100
AcDbLine
 10
-73.88054656982422
 20
-8.951255798339844
 30
0.0
 11
-73.9664077758789
 21
-9.104048728942871
 31
0.0
1001
DBPROPERTIES
1002
{
1000
PbThick
1002
}
  0
LINE
  5
3AE
330
1F
100
AcDbEntity
  8
THICK
100
AcDbLine
 10
-73.9664077758789
 20
-9.104048728942871
 30
0.0
 11
-74.04779052734375
 21
-9.263763427734375
 31
0.0
1001
DBPROPERTIES
1002
{
1000
PbThick
1002
}
  0
LINE
  5
3AF
330
1F
100
AcDbEntity
  8
THICK
100
AcDbLine
 10
-74.04779052734375
 20
-9.263763427734375
 30
0.0
 11
-74.12596130371094
 21
-9.433672904968262
 31
0.0
1001
DBPROPERTIES
1002
{
1000
PbThick
1002
}
  0
LINE
  5
3B0
330
1F
100
AcDbEntity
  8
THICK
100
AcDbLine
 10
-74.12596130371094
 20
-9.433672904968262
 30
0.0
 11
-74.19953918457031
 21
-9.61216926574707
 31
0.0
1001
DBPROPERTIES
1002
{
1000
PbThick
1002
}
  0
LINE
  5
3B1
330
1F
100
AcDbEntity
  8
THICK
100
AcDbLine
 10
-74.19953918457031
 20
-9.61216926574707
 30
0.0
 11
-74.26744842529297
 21
-9.79736328125
 31
0.0
1001
DBPROPERTIES
1002
{
1000
PbThick
1002
}
  0
LINE
  5
3B2
330
1F
100
AcDbEntity
  8
THICK
100
AcDbLine
 10
-74.26744842529297
 20
-9.79736328125
 30
0.0
 11
-74.32880401611328
 21
-9.987277030944824
 31
0.0
1001
DBPROPERTIES
1002
{
1000
PbThick
1002
}
  0
LINE
  5
3B3
330
1F
100
AcDbEntity
  8
THICK
100
AcDbLine
 10
-74.32880401611328
 20
-9.987277030944824
 30
0.0
 11
-74.3830337524414
 21
-10.17976570129395
 31
0.0
1001
DBPROPERTIES
1002
{
1000
PbThick
1002
}
  0
LINE
  5
3B4
330
1F
100
AcDbEntity
  8
THICK
100
AcDbLine
 10
-74.3830337524414
 20
-10.17976570129395
 30
0.0
 11
-74.42977905273438
 21
-10.37248706817627
 31
0.0
1001
DBPROPERTIES
1002
{
1000
PbThick
1002
}
  0
LINE
  5
3B5
330
1F
100
AcDbEntity
  8
THICK
100
AcDbLine
 10
-74.42977905273438
 20
-10.37248706817627
 30
0.0
 11
-74.4689712524414
 21
-10.56297397613525
 31
0.0
1001
DBPROPERTIES
1002
{
1000
PbThick
1002
}
  0
LINE
  5
3B6
330
1F
100
AcDbEntity
  8
THICK
100
AcDbLine
 10
-74.4689712524414
 20
-10.56297397613525
 30
0.0
 11
-74.5014419555664
 21
-10.75279521942139
 31
0.0
1001
DBPROPERTIES
1002
{
1000
PbThick
1002
}
  0
LINE
  5
3B7
330
1F
100
AcDbEntity
  8
THICK
100
AcDbLine
 10
-74.5014419555664
 20
-10.75279521942139
 30
0.0
 11
-74.52937316894531
 21
-10.95650959014893
 31
0.0
1001
DBPROPERTIES
1002
{
1000
PbThick
1002
}
  0
LINE
  5
3B8
330
1F
100
AcDbEntity
  8
THICK
100
AcDbLine
 10
-74.52937316894531
 20
-10.95650959014893
 30
0.0
 11
-74.55072784423828
 21
-11.1603364944458
 31
0.0
1001
DBPROPERTIES
1002
{
1000
PbThick
1002
}
  0
LINE
  5
3B9
330
1F
100
AcDbEntity
  8
THICK
100
AcDbLine
 10
-74.55072784423828
 20
-11.1603364944458
 30
0.0
 11
-74.56670379638672
 21
-11.36008262634277
 31
0.0
1001
DBPROPERTIES
1002
{
1000
PbThick
1002
}
  0
LINE
  5
3BA
330
1F
100
AcDbEntity
  8
THICK
100
AcDbLine
 10
-74.56670379638672
 20
-11.36008262634277
 30
0.0
 11
-74.58671569824219
 21
-11.36733818054199
 31
0.0
1001
DBPROPERTIES
1002
{
1000
PbThick
1002
}
  0
LINE
  5
3BB
330
1F
100
AcDbEntity
  8
THICK
100
AcDbLine
 10
-74.58671569824219
 20
-11.36733818054199
 30
0.0
 11
-74.58605194091797
 21
-11.16719818115234
 31
0.0
1001
DBPROPERTIES
1002
{
1000
PbThick
1002
}
  0
LINE
  5
3BC
330
1F
100
AcDbEntity
  8
THICK
100
AcDbLine
 10
-74.58605194091797
 20
-11.16719818115234
 30
0.0
 11
-74.57563781738281
 21
-10.96356678009033
 31
0.0
1001
DBPROPERTIES
1002
{
1000
PbThick
1002
}
  0
LINE
  5
3BD
330
1F
100
AcDbEntity
  8
THICK
100
AcDbLine
 10
-74.57563781738281
 20
-10.96356678009033
 30
0.0
 11
-74.55670928955078
 21
-10.75940036773682
 31
0.0
1001
DBPROPERTIES
1002
{
1000
PbThick
1002
}
  0
LINE
  5
3BE
330
1F
100
AcDbEntity
  8
THICK
100
AcDbLine
 10
-74.55670928955078
 20
-10.75940036773682
 30
0.0
 11
-74.53160858154297
 21
-10.56912136077881
 31
0.0
1001
DBPROPERTIES
1002
{
1000
PbThick
1002
}
  0
LINE
  5
3BF
330
1F
100
AcDbEntity
  8
THICK
100
AcDbLine
 10
-74.53160858154297
 20
-10.56912136077881
 30
0.0
 11
-74.49923706054688
 21
-10.3786735534668
 31
0.0
1001
DBPROPERTIES
1002
{
1000
PbThick
1002
}
  0
LINE
  5
3C0
330
1F
100
AcDbEntity
  8
THICK
100
AcDbLine
 10
-74.49923706054688
 20
-10.3786735534668
 30
0.0
 11
-74.45890808105469
 21
-10.18590354919434
 31
0.0
1001
DBPROPERTIES
1002
{
1000
PbThick
1002
}
  0
LINE
  5
3C1
330
1F
100
AcDbEntity
  8
THICK
100
AcDbLine
 10
-74.45890808105469
 20
-10.18590354919434
 30
0.0
 11
-74.41071319580078
 21
-9.993280410766602
 31
0.0
1001
DBPROPERTIES
1002
{
1000
PbThick
1002
}
  0
LINE
  5
3C2
330
1F
100
AcDbEntity
  8
THICK
100
AcDbLine
 10
-74.41071319580078
 20
-9.993280410766602
 30
0.0
 11
-74.35499572753906
 21
-9.803154945373535
 31
0.0
1001
DBPROPERTIES
1002
{
1000
PbThick
1002
}
  0
LINE
  5
3C3
330
1F
100
AcDbEntity
  8
THICK
100
AcDbLine
 10
-74.35499572753906
 20
-9.803154945373535
 30
0.0
 11
-74.2923355102539
 21
-9.61767864227295
 31
0.0
1001
DBPROPERTIES
1002
{
1000
PbThick
1002
}
  0
LINE
  5
3C4
330
1F
100
AcDbEntity
  8
THICK
100
AcDbLine
 10
-74.2923355102539
 20
-9.61767864227295
 30
0.0
 11
-74.2236099243164
 21
-9.438830375671387
 31
0.0
1001
DBPROPERTIES
1002
{
1000
PbThick
1002
}
  0
LINE
  5
3C5
330
1F
100
AcDbEntity
  8
THICK
100
AcDbLine
 10
-74.2236099243164
 20
-9.438830375671387
 30
0.0
 11
-74.1498794555664
 21
-9.268509864807129
 31
0.0
1001
DBPROPERTIES
1002
{
1000
PbThick
1002
}
  0
LINE
  5
3C6
330
1F
100
AcDbEntity
  8
THICK
100
AcDbLine
 10
-74.1498794555664
 20
-9.268509864807129
 30
0.0
 11
-74.07252502441406
 21
-9.108331680297852
 31
0.0
1001
DBPROPERTIES
1002
{
1000
PbThick
1002
}
  0
LINE
  5
3C7
330
1F
100
AcDbEntity
  8
THICK
100
AcDbLine
 10
-74.07252502441406
 20
-9.108331680297852
 30
0.0
 11
-73.99059295654297
 21
-8.955413818359375
 31
0.0
1001
DBPROPERTIES
1002
{
1000
PbThick
1002
}
  0
LINE
  5
3C8
330
1F
100
AcDbEntity
  8
THICK
100
AcDbLine
 10
-73.99059295654297
 20
-8.955413818359375
 30
0.0
 11
-73.9008560180664
 21
-8.804019927978516
 31
0.0
1001
DBPROPERTIES
1002
{
1000
PbThick
1002
}
  0
LINE
  5
3C9
330
1F
100
AcDbEntity
  8
THICK
100
AcDbLine
 10
-73.9008560180664
 20
-8.804019927978516
 30
0.0
 11
-73.80377197265625
 21
-8.656139373779297
 31
0.0
1001
DBPROPERTIES
1002
{
1000
PbThick
1002
}
  0
LINE
  5
3CA
330
1F
100
AcDbEntity
  8
THICK
100
AcDbLine
 10
-73.80377197265625
 20
-8.656139373779297
 30
0.0
 11
-73.70008087158203
 21
-8.513635635375977
 31
0.0
1001
DBPROPERTIES
1002
{
1000
PbThick
1002
}
  0
LINE
  5
3CB
330
1F
100
AcDbEntity
  8
THICK
100
AcDbLine
 10
-73.70008087158203
 20
-8.513635635375977
 30
0.0
 11
-73.5906982421875
 21
-8.378127098083496
 31
0.0
1001
DBPROPERTIES
1002
{
1000
PbThick
1002
}
  0
LINE
  5
3CC
330
1F
100
AcDbEntity
  8
THICK
100
AcDbLine
 10
-73.5906982421875
 20
-8.378127098083496
 30
0.0
 11
-73.47660064697266
 21
-8.251009941101074
 31
0.0
1001
DBPROPERTIES
1002
{
1000
PbThick
1002
}
  0
LINE
  5
3CD
330
1F
100
AcDbEntity
  8
THICK
100
AcDbLine
 10
-73.47660064697266
 20
-8.251009941101074
 30
0.0
 11
-73.35903930664062
 21
-8.133336067199707
 31
0.0
1001
DBPROPERTIES
1002
{
1000
PbThick
1002
}
  0
LINE
  5
3CE
330
1F
100
AcDbEntity
  8
THICK
100
AcDbLine
 10
-73.35903930664062
 20
-8.133336067199707
 30
0.0
 11
-73.23930358886719
 21
-8.026055335998535
 31
0.0
1001
DBPROPERTIES
1002
{
1000
PbThick
1002
}
  0
LINE
  5
3CF
330
1F
100
AcDbEntity
  8
THICK
100
AcDbLine
 10
-73.23930358886719
 20
-8.026055335998535
 30
0.0
 11
-73.1189193725586
 21
-7.929696083068848
 31
0.0
1001
DBPROPERTIES
1002
{
1000
PbThick
1002
}
  0
LINE
  5
3D0
330
1F
100
AcDbEntity
  8
THICK
100
AcDbLine
 10
-73.1189193725586
 20
-7.929696083068848
 30
0.0
 11
-72.9980697631836
 21
-7.843684673309326
 31
0.0
1001
DBPROPERTIES
1002
{
1000
PbThick
1002
}
  0
LINE
  5
3D1
330
1F
100
AcDbEntity
  8
THICK
100
AcDbLine
 10
-72.9980697631836
 20
-7.843684673309326
 30
0.0
 11
-72.87123107910156
 21
-7.764118194580078
 31
0.0
1001
DBPROPERTIES
1002
{
1000
PbThick
1002
}
  0
LINE
  5
3D2
330
1F
100
AcDbEntity
  8
THICK
100
AcDbLine
 10
-72.87123107910156
 20
-7.764118194580078
 30
0.0
 11
-72.73861694335938
 21
-7.691873550415039
 31
0.0
1001
DBPROPERTIES
1002
{
1000
PbThick
1002
}
  0
LINE
  5
3D3
330
1F
100
AcDbEntity
  8
THICK
100
AcDbLine
 10
-72.73861694335938
 20
-7.691873550415039
 30
0.0
 11
-72.60142517089844
 21
-7.628307819366455
 31
0.0
1001
DBPROPERTIES
1002
{
1000
PbThick
1002
}
  0
LINE
  5
3D4
330
1F
100
AcDbEntity
  8
THICK
100
AcDbLine
 10
-72.60142517089844
 20
-7.628307819366455
 30
0.0
 11
-72.46099853515625
 21
-7.574325084686279
 31
0.0
1001
DBPROPERTIES
1002
{
1000
PbThick
1002
}
  0
LINE
  5
3D5
330
1F
100
AcDbEntity
  8
THICK
100
AcDbLine
 10
-72.46099853515625
 20
-7.574325084686279
 30
0.0
 11
-72.31864166259766
 21
-7.530672073364258
 31
0.0
1001
DBPROPERTIES
1002
{
1000
PbThick
1002
}
  0
LINE
  5
3D6
330
1F
100
AcDbEntity
  8
THICK
100
AcDbLine
 10
-72.31864166259766
 20
-7.530672073364258
 30
0.0
 11
-72.1757583618164
 21
-7.49760103225708
 31
0.0
1001
DBPROPERTIES
1002
{
1000
PbThick
1002
}
  0
LINE
  5
3D7
330
1F
100
AcDbEntity
  8
THICK
100
AcDbLine
 10
-72.1757583618164
 20
-7.49760103225708
 30
0.0
 11
-72.03382110595703
 21
-7.475186824798584
 31
0.0
1001
DBPROPERTIES
1002
{
1000
PbThick
1002
}
  0
LINE
  5
3D8
330
1F
100
AcDbEntity
  8
THICK
100
AcDbLine
 10
-72.03382110595703
 20
-7.475186824798584
 30
0.0
 11
-71.89432525634766
 21
-7.46308422088623
 31
0.0
1001
DBPROPERTIES
1002
{
1000
PbThick
1002
}
  0
ELLIPSE
  5
3D9
330
1F
100
AcDbEntity
  8
HIDDEN
100
AcDbEllipse
 10
-71.89213562373094
 20
-11.45999999999998
 30
0.0
 11
-2.449212707644755E-16
 21
-4.0
 31
0.0
210
0.0
220
0.0
230
1.0
 40
0.7071067811865475
 41
3.14007618381146
 42
3.141592653589793
1001
DBPROPERTIES
1002
{
1000
PbHidd
1002
}
  0
LINE
  5
3DA
330
1F
100
AcDbEntity
  8
THICK
100
AcDbLine
 10
-71.87158966064453
 20
-7.460017681121826
 30
0.0
 11
-71.89213562011719
 21
-7.460000038146973
 31
0.0
1001
DBPROPERTIES
1002
{
1000
PbThick
1002
}
  0
LINE
  5
3DB
330
1F
100
AcDbEntity
  8
THICK
100
AcDbLine
 10
-71.87158966064453
 20
-7.460017681121826
 30
0.0
 11
-71.87224578857422
 21
-7.460015773773193
 31
0.0
1001
DBPROPERTIES
1002
{
1000
PbThick
1002
}
  0
LINE
  5
3DC
330
1F
100
AcDbEntity
  8
THICK
100
AcDbLine
 10
-71.87224578857422
 20
-7.460015773773193
 30
0.0
 11
-71.8729248046875
 21
-7.460013866424561
 31
0.0
1001
DBPROPERTIES
1002
{
1000
PbThick
1002
}
  0
LINE
  5
3DD
330
1F
100
AcDbEntity
  8
THICK
100
AcDbLine
 10
-71.8729248046875
 20
-7.460013866424561
 30
0.0
 11
-71.8736343383789
 21
-7.460012435913086
 31
0.0
1001
DBPROPERTIES
1002
{
1000
PbThick
1002
}
  0
LINE
  5
3DE
330
1F
100
AcDbEntity
  8
THICK
100
AcDbLine
 10
-71.8736343383789
 20
-7.460012435913086
 30
0.0
 11
-71.87437438964844
 21
-7.46001148223877
 31
0.0
1001
DBPROPERTIES
1002
{
1000
PbThick
1002
}
  0
LINE
  5
3DF
330
1F
100
AcDbEntity
  8
THICK
100
AcDbLine
 10
-71.87437438964844
 20
-7.46001148223877
 30
0.0
 11
-71.87515258789062
 21
-7.460010051727295
 31
0.0
1001
DBPROPERTIES
1002
{
1000
PbThick
1002
}
  0
LINE
  5
3E0
330
1F
100
AcDbEntity
  8
THICK
100
AcDbLine
 10
-71.87515258789062
 20
-7.460010051727295
 30
0.0
 11
-71.8759536743164
 21
-7.460009098052979
 31
0.0
1001
DBPROPERTIES
1002
{
1000
PbThick
1002
}
  0
LINE
  5
3E1
330
1F
100
AcDbEntity
  8
HIDDEN
100
AcDbLine
 10
-68.92156982421875
 20
-11.46050548553467
 30
0.0
 11
-68.90960693359375
 21
-11.27827167510986
 31
0.0
1001
DBPROPERTIES
1002
{
1000
PbHidd
1002
}
  0
LINE
  5
3E2
330
1F
100
AcDbEntity
  8
HIDDEN
100
AcDbLine
 10
-68.90960693359375
 20
-11.27827167510986
 30
0.0
 11
-68.91136932373047
 21
-11.0982141494751
 31
0.0
1001
DBPROPERTIES
1002
{
1000
PbHidd
1002
}
  0
LINE
  5
3E3
330
1F
100
AcDbEntity
  8
HIDDEN
100
AcDbLine
 10
-68.91136932373047
 20
-11.0982141494751
 30
0.0
 11
-68.92074584960938
 21
-10.91013336181641
 31
0.0
1001
DBPROPERTIES
1002
{
1000
PbHidd
1002
}
  0
LINE
  5
3E4
330
1F
100
AcDbEntity
  8
HIDDEN
100
AcDbLine
 10
-68.92074584960938
 20
-10.91013336181641
 30
0.0
 11
-68.93688201904297
 21
-10.72554111480713
 31
0.0
1001
DBPROPERTIES
1002
{
1000
PbHidd
1002
}
  0
LINE
  5
3E5
330
1F
100
AcDbEntity
  8
HIDDEN
100
AcDbLine
 10
-68.93688201904297
 20
-10.72554111480713
 30
0.0
 11
-68.95809173583984
 21
-10.55294704437256
 31
0.0
1001
DBPROPERTIES
1002
{
1000
PbHidd
1002
}
  0
LINE
  5
3E6
330
1F
100
AcDbEntity
  8
HIDDEN
100
AcDbLine
 10
-68.95809173583984
 20
-10.55294704437256
 30
0.0
 11
-68.98555755615234
 21
-10.3787260055542
 31
0.0
1001
DBPROPERTIES
1002
{
1000
PbHidd
1002
}
  0
LINE
  5
3E7
330
1F
100
AcDbEntity
  8
HIDDEN
100
AcDbLine
 10
-68.98555755615234
 20
-10.3787260055542
 30
0.0
 11
-69.0196533203125
 21
-10.20256996154785
 31
0.0
1001
DBPROPERTIES
1002
{
1000
PbHidd
1002
}
  0
LINE
  5
3E8
330
1F
100
AcDbEntity
  8
HIDDEN
100
AcDbLine
 10
-69.0196533203125
 20
-10.20256996154785
 30
0.0
 11
-69.06034088134766
 21
-10.02637004852295
 31
0.0
1001
DBPROPERTIES
1002
{
1000
PbHidd
1002
}
  0
LINE
  5
3E9
330
1F
100
AcDbEntity
  8
HIDDEN
100
AcDbLine
 10
-69.06034088134766
 20
-10.02637004852295
 30
0.0
 11
-69.10740661621094
 21
-9.851936340332031
 31
0.0
1001
DBPROPERTIES
1002
{
1000
PbHidd
1002
}
  0
LINE
  5
3EA
330
1F
100
AcDbEntity
  8
HIDDEN
100
AcDbLine
 10
-69.10740661621094
 20
-9.851936340332031
 30
0.0
 11
-69.16047668457031
 21
-9.68095588684082
 31
0.0
1001
DBPROPERTIES
1002
{
1000
PbHidd
1002
}
  0
LINE
  5
3EB
330
1F
100
AcDbEntity
  8
HIDDEN
100
AcDbLine
 10
-69.16047668457031
 20
-9.68095588684082
 30
0.0
 11
-69.21894836425781
 21
-9.5149564743042
 31
0.0
1001
DBPROPERTIES
1002
{
1000
PbHidd
1002
}
  0
LINE
  5
3EC
330
1F
100
AcDbEntity
  8
HIDDEN
100
AcDbLine
 10
-69.21894836425781
 20
-9.5149564743042
 30
0.0
 11
-69.28211212158203
 21
-9.355436325073242
 31
0.0
1001
DBPROPERTIES
1002
{
1000
PbHidd
1002
}
  0
LINE
  5
3ED
330
1F
100
AcDbEntity
  8
HIDDEN
100
AcDbLine
 10
-69.28211212158203
 20
-9.355436325073242
 30
0.0
 11
-69.34902954101562
 21
-9.203728675842285
 31
0.0
1001
DBPROPERTIES
1002
{
1000
PbHidd
1002
}
  0
LINE
  5
3EE
330
1F
100
AcDbEntity
  8
HIDDEN
100
AcDbLine
 10
-69.34902954101562
 20
-9.203728675842285
 30
0.0
 11
-69.41870880126953
 21
-9.060835838317871
 31
0.0
1001
DBPROPERTIES
1002
{
1000
PbHidd
1002
}
  0
LINE
  5
3EF
330
1F
100
AcDbEntity
  8
HIDDEN
100
AcDbLine
 10
-69.41870880126953
 20
-9.060835838317871
 30
0.0
 11
-69.49362182617188
 21
-8.921327590942383
 31
0.0
1001
DBPROPERTIES
1002
{
1000
PbHidd
1002
}
  0
LINE
  5
3F0
330
1F
100
AcDbEntity
  8
HIDDEN
100
AcDbLine
 10
-69.49362182617188
 20
-8.921327590942383
 30
0.0
 11
-69.57503509521484
 21
-8.783398628234863
 31
0.0
1001
DBPROPERTIES
1002
{
1000
PbHidd
1002
}
  0
LINE
  5
3F1
330
1F
100
AcDbEntity
  8
HIDDEN
100
AcDbLine
 10
-69.57503509521484
 20
-8.783398628234863
 30
0.0
 11
-69.66255950927734
 21
-8.648661613464355
 31
0.0
1001
DBPROPERTIES
1002
{
1000
PbHidd
1002
}
  0
LINE
  5
3F2
330
1F
100
AcDbEntity
  8
HIDDEN
100
AcDbLine
 10
-69.66255950927734
 20
-8.648661613464355
 30
0.0
 11
-69.7556381225586
 21
-8.518507957458496
 31
0.0
1001
DBPROPERTIES
1002
{
1000
PbHidd
1002
}
  0
LINE
  5
3F3
330
1F
100
AcDbEntity
  8
HIDDEN
100
AcDbLine
 10
-69.7556381225586
 20
-8.518507957458496
 30
0.0
 11
-69.85357666015625
 21
-8.394169807434082
 31
0.0
1001
DBPROPERTIES
1002
{
1000
PbHidd
1002
}
  0
LINE
  5
3F4
330
1F
100
AcDbEntity
  8
HIDDEN
100
AcDbLine
 10
-69.85357666015625
 20
-8.394169807434082
 30
0.0
 11
-69.95565032958984
 21
-8.27674388885498
 31
0.0
1001
DBPROPERTIES
1002
{
1000
PbHidd
1002
}
  0
LINE
  5
3F5
330
1F
100
AcDbEntity
  8
HIDDEN
100
AcDbLine
 10
-69.95565032958984
 20
-8.27674388885498
 30
0.0
 11
-70.06095123291016
 21
-8.167043685913086
 31
0.0
1001
DBPROPERTIES
1002
{
1000
PbHidd
1002
}
  0
LINE
  5
3F6
330
1F
100
AcDbEntity
  8
HIDDEN
100
AcDbLine
 10
-70.06095123291016
 20
-8.167043685913086
 30
0.0
 11
-70.16850280761719
 21
-8.065835952758789
 31
0.0
1001
DBPROPERTIES
1002
{
1000
PbHidd
1002
}
  0
LINE
  5
3F7
330
1F
100
AcDbEntity
  8
HIDDEN
100
AcDbLine
 10
-70.16850280761719
 20
-8.065835952758789
 30
0.0
 11
-70.27720642089844
 21
-7.973634719848633
 31
0.0
1001
DBPROPERTIES
1002
{
1000
PbHidd
1002
}
  0
LINE
  5
3F8
330
1F
100
AcDbEntity
  8
HIDDEN
100
AcDbLine
 10
-70.27720642089844
 20
-7.973634719848633
 30
0.0
 11
-70.3858642578125
 21
-7.890734672546387
 31
0.0
1001
DBPROPERTIES
1002
{
1000
PbHidd
1002
}
  0
LINE
  5
3F9
330
1F
100
AcDbEntity
  8
HIDDEN
100
AcDbLine
 10
-70.3858642578125
 20
-7.890734672546387
 30
0.0
 11
-70.49722290039062
 21
-7.81477165222168
 31
0.0
1001
DBPROPERTIES
1002
{
1000
PbHidd
1002
}
  0
LINE
  5
3FA
330
1F
100
AcDbEntity
  8
HIDDEN
100
AcDbLine
 10
-70.49722290039062
 20
-7.81477165222168
 30
0.0
 11
-70.61408996582031
 21
-7.74411153793335
 31
0.0
1001
DBPROPERTIES
1002
{
1000
PbHidd
1002
}
  0
LINE
  5
3FB
330
1F
100
AcDbEntity
  8
HIDDEN
100
AcDbLine
 10
-70.61408996582031
 20
-7.74411153793335
 30
0.0
 11
-70.73558807373047
 21
-7.679945468902588
 31
0.0
1001
DBPROPERTIES
1002
{
1000
PbHidd
1002
}
  0
LINE
  5
3FC
330
1F
100
AcDbEntity
  8
HIDDEN
100
AcDbLine
 10
-70.73558807373047
 20
-7.679945468902588
 30
0.0
 11
-70.86079406738281
 21
-7.623213291168213
 31
0.0
1001
DBPROPERTIES
1002
{
1000
PbHidd
1002
}
  0
LINE
  5
3FD
330
1F
100
AcDbEntity
  8
HIDDEN
100
AcDbLine
 10
-70.86079406738281
 20
-7.623213291168213
 30
0.0
 11
-70.98869323730469
 21
-7.574575901031494
 31
0.0
1001
DBPROPERTIES
1002
{
1000
PbHidd
1002
}
  0
LINE
  5
3FE
330
1F
100
AcDbEntity
  8
HIDDEN
100
AcDbLine
 10
-70.98869323730469
 20
-7.574575901031494
 30
0.0
 11
-71.1182861328125
 21
-7.534595489501953
 31
0.0
1001
DBPROPERTIES
1002
{
1000
PbHidd
1002
}
  0
LINE
  5
3FF
330
1F
100
AcDbEntity
  8
HIDDEN
100
AcDbLine
 10
-71.1182861328125
 20
-7.534595489501953
 30
0.0
 11
-71.2485122680664
 21
-7.50345516204834
 31
0.0
1001
DBPROPERTIES
1002
{
1000
PbHidd
1002
}
  0
LINE
  5
400
330
1F
100
AcDbEntity
  8
HIDDEN
100
AcDbLine
 10
-71.2485122680664
 20
-7.50345516204834
 30
0.0
 11
-71.37824249267578
 21
-7.48122501373291
 31
0.0
1001
DBPROPERTIES
1002
{
1000
PbHidd
1002
}
  0
LINE
  5
401
330
1F
100
AcDbEntity
  8
HIDDEN
100
AcDbLine
 10
-71.37824249267578
 20
-7.48122501373291
 30
0.0
 11
-71.50633239746094
 21
-7.467738628387451
 31
0.0
1001
DBPROPERTIES
1002
{
1000
PbHidd
1002
}
  0
LINE
  5
402
330
1F
100
AcDbEntity
  8
HIDDEN
100
AcDbLine
 10
-71.50633239746094
 20
-7.467738628387451
 30
0.0
 11
-71.52437591552734
 21
-7.466501712799072
 31
0.0
1001
DBPROPERTIES
1002
{
1000
PbHidd
1002
}
  0
LINE
  5
403
330
1F
100
AcDbEntity
  8
HIDDEN
100
AcDbLine
 10
-71.52437591552734
 20
-7.466501712799072
 30
0.0
 11
-71.5423583984375
 21
-7.46543025970459
 31
0.0
1001
DBPROPERTIES
1002
{
1000
PbHidd
1002
}
  0
LINE
  5
404
330
1F
100
AcDbEntity
  8
HIDDEN
100
AcDbLine
 10
-71.5423583984375
 20
-7.46543025970459
 30
0.0
 11
-71.56027221679688
 21
-7.464523792266846
 31
0.0
1001
DBPROPERTIES
1002
{
1000
PbHidd
1002
}
  0
LINE
  5
405
330
1F
100
AcDbEntity
  8
HIDDEN
100
AcDbLine
 10
-71.56027221679688
 20
-7.464523792266846
 30
0.0
 11
-71.578125
 21
-7.463779926300049
 31
0.0
1001
DBPROPERTIES
1002
{
1000
PbHidd
1002
}
  0
LINE
  5
406
330
1F
100
AcDbEntity
  8
HIDDEN
100
AcDbLine
 10
-71.578125
 20
-7.463779926300049
 30
0.0
 11
-71.59590148925781
 21
-7.463198184967041
 31
0.0
1001
DBPROPERTIES
1002
{
1000
PbHidd
1002
}
  0
LINE
  5
407
330
1F
100
AcDbEntity
  8
HIDDEN
100
AcDbLine
 10
-71.59590148925781
 20
-7.463198184967041
 30
0.0
 11
-71.61360931396484
 21
-7.462775707244873
 31
0.0
1001
DBPROPERTIES
1002
{
1000
PbHidd
1002
}
  0
LINE
  5
408
330
1F
100
AcDbEntity
  8
THICK
100
AcDbLine
 10
-71.61360931396484
 20
-7.462775707244873
 30
0.0
 11
-71.62002563476562
 21
-7.462661743164062
 31
0.0
1001
DBPROPERTIES
1002
{
1000
PbThick
1002
}
  0
LINE
  5
409
330
1F
100
AcDbEntity
  8
THICK
100
AcDbLine
 10
-71.62002563476562
 20
-7.462661743164062
 30
0.0
 11
-71.62643432617188
 21
-7.462568759918213
 31
0.0
1001
DBPROPERTIES
1002
{
1000
PbThick
1002
}
  0
LINE
  5
40A
330
1F
100
AcDbEntity
  8
THICK
100
AcDbLine
 10
-71.62643432617188
 20
-7.462568759918213
 30
0.0
 11
-71.6328353881836
 21
-7.462496280670166
 31
0.0
1001
DBPROPERTIES
1002
{
1000
PbThick
1002
}
  0
LINE
  5
40B
330
1F
100
AcDbEntity
  8
THICK
100
AcDbLine
 10
-71.6328353881836
 20
-7.462496280670166
 30
0.0
 11
-71.63922119140625
 21
-7.46244478225708
 31
0.0
1001
DBPROPERTIES
1002
{
1000
PbThick
1002
}
  0
LINE
  5
40C
330
1F
100
AcDbEntity
  8
THICK
100
AcDbLine
 10
-71.63922119140625
 20
-7.46244478225708
 30
0.0
 11
-71.64559936523438
 21
-7.462413787841797
 31
0.0
1001
DBPROPERTIES
1002
{
1000
PbThick
1002
}
  0
LINE
  5
40D
330
1F
100
AcDbEntity
  8
THICK
100
AcDbLine
 10
-71.64559936523438
 20
-7.462413787841797
 30
0.0
 11
-71.65196228027344
 21
-7.462403774261475
 31
0.0
1001
DBPROPERTIES
1002
{
1000
PbThick
1002
}
  0
LINE
  5
40E
330
1F
100
AcDbEntity
  8
THICK
100
AcDbLine
 10
-54.92157287525379
 20
-31.46000000000001
 30
0.0
 11
-53.75000000317596
 21
-31.46000000000001
 31
0.0
1001
DBPROPERTIES
1002
{
1000
PbThick
1002
}
  0
LINE
  5
40F
330
1F
100
AcDbEntity
  8
HIDDEN
100
AcDbLine
 10
-53.74999999999999
 20
-31.46000000000001
 30
0.0
 11
-54.92157287525379
 21
-31.46000000000001
 31
0.0
1001
DBPROPERTIES
1002
{
1000
PbHidd
1002
}
  0
LINE
  5
410
330
1F
100
AcDbEntity
  8
HIDDEN
100
AcDbLine
 10
-54.92157287525379
 20
-31.46000000000001
 30
0.0
 11
-57.74999999999999
 21
-31.46000000000001
 31
0.0
1001
DBPROPERTIES
1002
{
1000
PbHidd
1002
}
  0
ELLIPSE
  5
411
330
1F
100
AcDbEntity
  8
HIDDEN
100
AcDbEllipse
 10
-71.89213562373094
 20
-11.45999999999998
 30
0.0
 11
-2.449212707644755E-16
 21
-4.0
 31
0.0
210
0.0
220
0.0
230
1.0
 40
0.7071067811865475
 41
0.0
 42
0.0015164697773285
1001
DBPROPERTIES
1002
{
1000
PbHidd
1002
}
  0
LINE
  5
412
330
1F
100
AcDbEntity
  8
HIDDEN
100
AcDbLine
 10
-71.88784790039062
 20
-15.45999526977539
 30
0.0
 11
-71.88482666015625
 21
-15.45999622344971
 31
0.0
1001
DBPROPERTIES
1002
{
1000
PbHidd
1002
}
  0
LINE
  5
413
330
1F
100
AcDbEntity
  8
HIDDEN
100
AcDbLine
 10
-71.88482666015625
 20
-15.45999622344971
 30
0.0
 11
-71.881591796875
 21
-15.45999622344971
 31
0.0
1001
DBPROPERTIES
1002
{
1000
PbHidd
1002
}
  0
LINE
  5
414
330
1F
100
AcDbEntity
  8
HIDDEN
100
AcDbLine
 10
-71.881591796875
 20
-15.45999622344971
 30
0.0
 11
-71.87812805175781
 21
-15.45999717712402
 31
0.0
1001
DBPROPERTIES
1002
{
1000
PbHidd
1002
}
  0
LINE
  5
415
330
1F
100
AcDbEntity
  8
HIDDEN
100
AcDbLine
 10
-71.87812805175781
 20
-15.45999717712402
 30
0.0
 11
-71.87445831298828
 21
-15.45999908447266
 31
0.0
1001
DBPROPERTIES
1002
{
1000
PbHidd
1002
}
  0
LINE
  5
416
330
1F
100
AcDbEntity
  8
HIDDEN
100
AcDbLine
 10
-71.87445831298828
 20
-15.45999908447266
 30
0.0
 11
-71.87064361572266
 21
-15.46000003814697
 31
0.0
1001
DBPROPERTIES
1002
{
1000
PbHidd
1002
}
  0
LINE
  5
417
330
1F
100
AcDbEntity
  8
HIDDEN
100
AcDbLine
 10
-71.87064361572266
 20
-15.46000003814697
 30
0.0
 11
-71.86672973632812
 21
-15.46000003814697
 31
0.0
1001
DBPROPERTIES
1002
{
1000
PbHidd
1002
}
  0
LINE
  5
418
330
1F
100
AcDbEntity
  8
HIDDEN
100
AcDbLine
 10
-71.86672973632812
 20
-15.46000003814697
 30
0.0
 11
-71.85287475585938
 21
-15.45999240875244
 31
0.0
1001
DBPROPERTIES
1002
{
1000
PbHidd
1002
}
  0
LINE
  5
419
330
1F
100
AcDbEntity
  8
HIDDEN
100
AcDbLine
 10
-71.85287475585938
 20
-15.45999240875244
 30
0.0
 11
-71.83844757080078
 21
-15.4599609375
 31
0.0
1001
DBPROPERTIES
1002
{
1000
PbHidd
1002
}
  0
LINE
  5
41A
330
1F
100
AcDbEntity
  8
HIDDEN
100
AcDbLine
 10
-71.83844757080078
 20
-15.4599609375
 30
0.0
 11
-71.82394409179688
 21
-15.45989894866943
 31
0.0
1001
DBPROPERTIES
1002
{
1000
PbHidd
1002
}
  0
LINE
  5
41B
330
1F
100
AcDbEntity
  8
HIDDEN
100
AcDbLine
 10
-71.82394409179688
 20
-15.45989894866943
 30
0.0
 11
-71.80972290039062
 21
-15.45979976654053
 31
0.0
1001
DBPROPERTIES
1002
{
1000
PbHidd
1002
}
  0
LINE
  5
41C
330
1F
100
AcDbEntity
  8
HIDDEN
100
AcDbLine
 10
-71.80972290039062
 20
-15.45979976654053
 30
0.0
 11
-71.79509735107422
 21
-15.45965194702148
 31
0.0
1001
DBPROPERTIES
1002
{
1000
PbHidd
1002
}
  0
LINE
  5
41D
330
1F
100
AcDbEntity
  8
HIDDEN
100
AcDbLine
 10
-71.79509735107422
 20
-15.45965194702148
 30
0.0
 11
-71.78011322021484
 21
-15.45945072174072
 31
0.0
1001
DBPROPERTIES
1002
{
1000
PbHidd
1002
}
  0
LINE
  5
41E
330
1F
100
AcDbEntity
  8
HIDDEN
100
AcDbLine
 10
-71.78011322021484
 20
-15.45945072174072
 30
0.0
 11
-71.7649154663086
 21
-15.45919513702393
 31
0.0
1001
DBPROPERTIES
1002
{
1000
PbHidd
1002
}
  0
LINE
  5
41F
330
1F
100
AcDbEntity
  8
HIDDEN
100
AcDbLine
 10
-71.7649154663086
 20
-15.45919513702393
 30
0.0
 11
-71.74967193603516
 21
-15.45888137817383
 31
0.0
1001
DBPROPERTIES
1002
{
1000
PbHidd
1002
}
  0
LINE
  5
420
330
1F
100
AcDbEntity
  8
HIDDEN
100
AcDbLine
 10
-71.74967193603516
 20
-15.45888137817383
 30
0.0
 11
-71.7345199584961
 21
-15.4585075378418
 31
0.0
1001
DBPROPERTIES
1002
{
1000
PbHidd
1002
}
  0
LINE
  5
421
330
1F
100
AcDbEntity
  8
HIDDEN
100
AcDbLine
 10
-71.7345199584961
 20
-15.4585075378418
 30
0.0
 11
-71.71928405761719
 21
-15.45806503295898
 31
0.0
1001
DBPROPERTIES
1002
{
1000
PbHidd
1002
}
  0
LINE
  5
422
330
1F
100
AcDbEntity
  8
HIDDEN
100
AcDbLine
 10
-71.71928405761719
 20
-15.45806503295898
 30
0.0
 11
-71.7034912109375
 21
-15.45753860473633
 31
0.0
1001
DBPROPERTIES
1002
{
1000
PbHidd
1002
}
  0
LINE
  5
423
330
1F
100
AcDbEntity
  8
HIDDEN
100
AcDbLine
 10
-71.7034912109375
 20
-15.45753860473633
 30
0.0
 11
-71.6871337890625
 21
-15.45691776275635
 31
0.0
1001
DBPROPERTIES
1002
{
1000
PbHidd
1002
}
  0
LINE
  5
424
330
1F
100
AcDbEntity
  8
HIDDEN
100
AcDbLine
 10
-71.6871337890625
 20
-15.45691776275635
 30
0.0
 11
-71.67021942138672
 21
-15.45619010925293
 31
0.0
1001
DBPROPERTIES
1002
{
1000
PbHidd
1002
}
  0
LINE
  5
425
330
1F
100
AcDbEntity
  8
HIDDEN
100
AcDbLine
 10
-71.67021942138672
 20
-15.45619010925293
 30
0.0
 11
-71.65276336669922
 21
-15.45534515380859
 31
0.0
1001
DBPROPERTIES
1002
{
1000
PbHidd
1002
}
  0
LINE
  5
426
330
1F
100
AcDbEntity
  8
HIDDEN
100
AcDbLine
 10
-71.65276336669922
 20
-15.45534515380859
 30
0.0
 11
-71.63477325439453
 21
-15.45437240600586
 31
0.0
1001
DBPROPERTIES
1002
{
1000
PbHidd
1002
}
  0
LINE
  5
427
330
1F
100
AcDbEntity
  8
HIDDEN
100
AcDbLine
 10
-71.63477325439453
 20
-15.45437240600586
 30
0.0
 11
-71.61626434326172
 21
-15.45326042175293
 31
0.0
1001
DBPROPERTIES
1002
{
1000
PbHidd
1002
}
  0
LINE
  5
428
330
1F
100
AcDbEntity
  8
HIDDEN
100
AcDbLine
 10
-71.61626434326172
 20
-15.45326042175293
 30
0.0
 11
-71.59722900390625
 21
-15.45199871063232
 31
0.0
1001
DBPROPERTIES
1002
{
1000
PbHidd
1002
}
  0
LINE
  5
429
330
1F
100
AcDbEntity
  8
HIDDEN
100
AcDbLine
 10
-71.59722900390625
 20
-15.45199871063232
 30
0.0
 11
-71.57769775390625
 21
-15.45057582855225
 31
0.0
1001
DBPROPERTIES
1002
{
1000
PbHidd
1002
}
  0
LINE
  5
42A
330
1F
100
AcDbEntity
  8
HIDDEN
100
AcDbLine
 10
-71.57769775390625
 20
-15.45057582855225
 30
0.0
 11
-71.55766296386719
 21
-15.44898128509521
 31
0.0
1001
DBPROPERTIES
1002
{
1000
PbHidd
1002
}
  0
LINE
  5
42B
330
1F
100
AcDbEntity
  8
HIDDEN
100
AcDbLine
 10
-71.55766296386719
 20
-15.44898128509521
 30
0.0
 11
-71.53713989257812
 21
-15.44720363616943
 31
0.0
1001
DBPROPERTIES
1002
{
1000
PbHidd
1002
}
  0
LINE
  5
42C
330
1F
100
AcDbEntity
  8
HIDDEN
100
AcDbLine
 10
-71.53713989257812
 20
-15.44720363616943
 30
0.0
 11
-71.5161361694336
 21
-15.44523239135742
 31
0.0
1001
DBPROPERTIES
1002
{
1000
PbHidd
1002
}
  0
LINE
  5
42D
330
1F
100
AcDbEntity
  8
HIDDEN
100
AcDbLine
 10
-71.5161361694336
 20
-15.44523239135742
 30
0.0
 11
-71.49465942382812
 21
-15.4430570602417
 31
0.0
1001
DBPROPERTIES
1002
{
1000
PbHidd
1002
}
  0
LINE
  5
42E
330
1F
100
AcDbEntity
  8
HIDDEN
100
AcDbLine
 10
-71.49465942382812
 20
-15.4430570602417
 30
0.0
 11
-71.47272491455078
 21
-15.44066524505615
 31
0.0
1001
DBPROPERTIES
1002
{
1000
PbHidd
1002
}
  0
LINE
  5
42F
330
1F
100
AcDbEntity
  8
HIDDEN
100
AcDbLine
 10
-71.47272491455078
 20
-15.44066524505615
 30
0.0
 11
-71.4503402709961
 21
-15.4380464553833
 31
0.0
1001
DBPROPERTIES
1002
{
1000
PbHidd
1002
}
  0
LINE
  5
430
330
1F
100
AcDbEntity
  8
HIDDEN
100
AcDbLine
 10
-71.4503402709961
 20
-15.4380464553833
 30
0.0
 11
-71.4275131225586
 21
-15.43517589569092
 31
0.0
1001
DBPROPERTIES
1002
{
1000
PbHidd
1002
}
  0
LINE
  5
431
330
1F
100
AcDbEntity
  8
HIDDEN
100
AcDbLine
 10
-71.4275131225586
 20
-15.43517589569092
 30
0.0
 11
-71.19641876220703
 21
-15.38389587402344
 31
0.0
1001
DBPROPERTIES
1002
{
1000
PbHidd
1002
}
  0
LINE
  5
432
330
1F
100
AcDbEntity
  8
HIDDEN
100
AcDbLine
 10
-71.19641876220703
 20
-15.38389587402344
 30
0.0
 11
-70.9692153930664
 21
-15.3055419921875
 31
0.0
1001
DBPROPERTIES
1002
{
1000
PbHidd
1002
}
  0
LINE
  5
433
330
1F
100
AcDbEntity
  8
HIDDEN
100
AcDbLine
 10
-70.9692153930664
 20
-15.3055419921875
 30
0.0
 11
-70.75341033935547
 21
-15.20462131500244
 31
0.0
1001
DBPROPERTIES
1002
{
1000
PbHidd
1002
}
  0
LINE
  5
434
330
1F
100
AcDbEntity
  8
HIDDEN
100
AcDbLine
 10
-70.75341033935547
 20
-15.20462131500244
 30
0.0
 11
-70.55130004882812
 21
-15.08408451080322
 31
0.0
1001
DBPROPERTIES
1002
{
1000
PbHidd
1002
}
  0
LINE
  5
435
330
1F
100
AcDbEntity
  8
HIDDEN
100
AcDbLine
 10
-70.55130004882812
 20
-15.08408451080322
 30
0.0
 11
-70.34821319580078
 21
-14.93513774871826
 31
0.0
1001
DBPROPERTIES
1002
{
1000
PbHidd
1002
}
  0
LINE
  5
436
330
1F
100
AcDbEntity
  8
HIDDEN
100
AcDbLine
 10
-70.34821319580078
 20
-14.93513774871826
 30
0.0
 11
-70.14962768554688
 21
-14.75933074951172
 31
0.0
1001
DBPROPERTIES
1002
{
1000
PbHidd
1002
}
  0
LINE
  5
437
330
1F
100
AcDbEntity
  8
HIDDEN
100
AcDbLine
 10
-70.14962768554688
 20
-14.75933074951172
 30
0.0
 11
-69.96296691894531
 21
-14.56131362915039
 31
0.0
1001
DBPROPERTIES
1002
{
1000
PbHidd
1002
}
  0
LINE
  5
438
330
1F
100
AcDbEntity
  8
HIDDEN
100
AcDbLine
 10
-69.96296691894531
 20
-14.56131362915039
 30
0.0
 11
-69.79366302490234
 21
-14.34997463226318
 31
0.0
1001
DBPROPERTIES
1002
{
1000
PbHidd
1002
}
  0
LINE
  5
439
330
1F
100
AcDbEntity
  8
HIDDEN
100
AcDbLine
 10
-69.79366302490234
 20
-14.34997463226318
 30
0.0
 11
-69.640869140625
 21
-14.12633609771729
 31
0.0
1001
DBPROPERTIES
1002
{
1000
PbHidd
1002
}
  0
LINE
  5
43A
330
1F
100
AcDbEntity
  8
HIDDEN
100
AcDbLine
 10
-69.640869140625
 20
-14.12633609771729
 30
0.0
 11
-69.49485778808594
 21
-13.87508392333984
 31
0.0
1001
DBPROPERTIES
1002
{
1000
PbHidd
1002
}
  0
LINE
  5
43B
330
1F
100
AcDbEntity
  8
HIDDEN
100
AcDbLine
 10
-69.49485778808594
 20
-13.87508392333984
 30
0.0
 11
-69.3611068725586
 21
-13.60261535644531
 31
0.0
1001
DBPROPERTIES
1002
{
1000
PbHidd
1002
}
  0
LINE
  5
43C
330
1F
100
AcDbEntity
  8
HIDDEN
100
AcDbLine
 10
-69.3611068725586
 20
-13.60261535644531
 30
0.0
 11
-69.24468994140625
 21
-13.31768035888672
 31
0.0
1001
DBPROPERTIES
1002
{
1000
PbHidd
1002
}
  0
LINE
  5
43D
330
1F
100
AcDbEntity
  8
HIDDEN
100
AcDbLine
 10
-69.24468994140625
 20
-13.31768035888672
 30
0.0
 11
-69.14859008789062
 21
-13.03118991851807
 31
0.0
1001
DBPROPERTIES
1002
{
1000
PbHidd
1002
}
  0
LINE
  5
43E
330
1F
100
AcDbEntity
  8
HIDDEN
100
AcDbLine
 10
-69.14859008789062
 20
-13.03118991851807
 30
0.0
 11
-69.07001495361328
 21
-12.73915386199951
 31
0.0
1001
DBPROPERTIES
1002
{
1000
PbHidd
1002
}
  0
LINE
  5
43F
330
1F
100
AcDbEntity
  8
HIDDEN
100
AcDbLine
 10
-69.07001495361328
 20
-12.73915386199951
 30
0.0
 11
-69.00514221191406
 21
-12.4256067276001
 31
0.0
1001
DBPROPERTIES
1002
{
1000
PbHidd
1002
}
  0
LINE
  5
440
330
1F
100
AcDbEntity
  8
HIDDEN
100
AcDbLine
 10
-69.00514221191406
 20
-12.4256067276001
 30
0.0
 11
-68.95802307128906
 21
-12.10050201416016
 31
0.0
1001
DBPROPERTIES
1002
{
1000
PbHidd
1002
}
  0
LINE
  5
441
330
1F
100
AcDbEntity
  8
HIDDEN
100
AcDbLine
 10
-68.95802307128906
 20
-12.10050201416016
 30
0.0
 11
-68.93048095703125
 21
-11.77486419677734
 31
0.0
1001
DBPROPERTIES
1002
{
1000
PbHidd
1002
}
  0
LINE
  5
442
330
1F
100
AcDbEntity
  8
HIDDEN
100
AcDbLine
 10
-68.93048095703125
 20
-11.77486419677734
 30
0.0
 11
-68.92156982421875
 21
-11.46050548553467
 31
0.0
1001
DBPROPERTIES
1002
{
1000
PbHidd
1002
}
  0
LINE
  5
443
330
1F
100
AcDbEntity
  8
THICK
100
AcDbLine
 10
-74.79981231689453
 20
-11.46000003814697
 30
0.0
 11
-74.79417419433594
 21
-11.70632362365723
 31
0.0
1001
DBPROPERTIES
1002
{
1000
PbThick
1002
}
  0
LINE
  5
444
330
1F
100
AcDbEntity
  8
THICK
100
AcDbLine
 10
-74.79417419433594
 20
-11.70632362365723
 30
0.0
 11
-74.77658081054688
 21
-11.96000576019287
 31
0.0
1001
DBPROPERTIES
1002
{
1000
PbThick
1002
}
  0
LINE
  5
445
330
1F
100
AcDbEntity
  8
THICK
100
AcDbLine
 10
-74.77658081054688
 20
-11.96000576019287
 30
0.0
 11
-74.74632263183594
 21
-12.21664905548096
 31
0.0
1001
DBPROPERTIES
1002
{
1000
PbThick
1002
}
  0
LINE
  5
446
330
1F
100
AcDbEntity
  8
THICK
100
AcDbLine
 10
-74.74632263183594
 20
-12.21664905548096
 30
0.0
 11
-74.70343780517578
 21
-12.47198390960693
 31
0.0
1001
DBPROPERTIES
1002
{
1000
PbThick
1002
}
  0
LINE
  5
447
330
1F
100
AcDbEntity
  8
THICK
100
AcDbLine
 10
-74.70343780517578
 20
-12.47198390960693
 30
0.0
 11
-74.64848327636719
 21
-12.72201156616211
 31
0.0
1001
DBPROPERTIES
1002
{
1000
PbThick
1002
}
  0
LINE
  5
448
330
1F
100
AcDbEntity
  8
THICK
100
AcDbLine
 10
-74.64848327636719
 20
-12.72201156616211
 30
0.0
 11
-74.58270263671875
 21
-12.96286296844482
 31
0.0
1001
DBPROPERTIES
1002
{
1000
PbThick
1002
}
  0
LINE
  5
449
330
1F
100
AcDbEntity
  8
THICK
100
AcDbLine
 10
-74.58270263671875
 20
-12.96286296844482
 30
0.0
 11
-74.50794982910156
 21
-13.19092178344727
 31
0.0
1001
DBPROPERTIES
1002
{
1000
PbThick
1002
}
  0
LINE
  5
44A
330
1F
100
AcDbEntity
  8
THICK
100
AcDbLine
 10
-74.50794982910156
 20
-13.19092178344727
 30
0.0
 11
-74.42459106445312
 21
-13.40779113769531
 31
0.0
1001
DBPROPERTIES
1002
{
1000
PbThick
1002
}
  0
LINE
  5
44B
330
1F
100
AcDbEntity
  8
THICK
100
AcDbLine
 10
-74.42459106445312
 20
-13.40779113769531
 30
0.0
 11
-74.32823944091797
 21
-13.62436962127686
 31
0.0
1001
DBPROPERTIES
1002
{
1000
PbThick
1002
}
  0
LINE
  5
44C
330
1F
100
AcDbEntity
  8
THICK
100
AcDbLine
 10
-74.32823944091797
 20
-13.62436962127686
 30
0.0
 11
-74.21916961669922
 21
-13.83717727661133
 31
0.0
1001
DBPROPERTIES
1002
{
1000
PbThick
1002
}
  0
LINE
  5
44D
330
1F
100
AcDbEntity
  8
THICK
100
AcDbLine
 10
-74.21916961669922
 20
-13.83717727661133
 30
0.0
 11
-74.09866333007812
 21
-14.04228782653809
 31
0.0
1001
DBPROPERTIES
1002
{
1000
PbThick
1002
}
  0
LINE
  5
44E
330
1F
100
AcDbEntity
  8
THICK
100
AcDbLine
 10
-74.09866333007812
 20
-14.04228782653809
 30
0.0
 11
-73.9683837890625
 21
-14.23624515533447
 31
0.0
1001
DBPROPERTIES
1002
{
1000
PbThick
1002
}
  0
LINE
  5
44F
330
1F
100
AcDbEntity
  8
THICK
100
AcDbLine
 10
-73.9683837890625
 20
-14.23624515533447
 30
0.0
 11
-73.83055877685547
 21
-14.41626358032227
 31
0.0
1001
DBPROPERTIES
1002
{
1000
PbThick
1002
}
  0
LINE
  5
450
330
1F
100
AcDbEntity
  8
THICK
100
AcDbLine
 10
-73.83055877685547
 20
-14.41626358032227
 30
0.0
 11
-73.68785095214844
 21
-14.57998275756836
 31
0.0
1001
DBPROPERTIES
1002
{
1000
PbThick
1002
}
  0
LINE
  5
451
330
1F
100
AcDbEntity
  8
THICK
100
AcDbLine
 10
-73.68785095214844
 20
-14.57998275756836
 30
0.0
 11
-73.5423583984375
 21
-14.7268009185791
 31
0.0
1001
DBPROPERTIES
1002
{
1000
PbThick
1002
}
  0
LINE
  5
452
330
1F
100
AcDbEntity
  8
THICK
100
AcDbLine
 10
-73.5423583984375
 20
-14.7268009185791
 30
0.0
 11
-73.38599395751953
 21
-14.86492443084717
 31
0.0
1001
DBPROPERTIES
1002
{
1000
PbThick
1002
}
  0
LINE
  5
453
330
1F
100
AcDbEntity
  8
THICK
100
AcDbLine
 10
-73.38599395751953
 20
-14.86492443084717
 30
0.0
 11
-73.21820831298828
 21
-14.99314403533936
 31
0.0
1001
DBPROPERTIES
1002
{
1000
PbThick
1002
}
  0
LINE
  5
454
330
1F
100
AcDbEntity
  8
HIDDEN
100
AcDbLine
 10
-73.21820831298828
 20
-14.99314403533936
 30
0.0
 11
-73.19438171386719
 21
-15.00980854034424
 31
0.0
1001
DBPROPERTIES
1002
{
1000
PbHidd
1002
}
  0
LINE
  5
455
330
1F
100
AcDbEntity
  8
HIDDEN
100
AcDbLine
 10
-73.19438171386719
 20
-15.00980854034424
 30
0.0
 11
-73.17039489746094
 21
-15.02621650695801
 31
0.0
1001
DBPROPERTIES
1002
{
1000
PbHidd
1002
}
  0
LINE
  5
456
330
1F
100
AcDbEntity
  8
HIDDEN
100
AcDbLine
 10
-73.17039489746094
 20
-15.02621650695801
 30
0.0
 11
-73.14625549316406
 21
-15.04235935211182
 31
0.0
1001
DBPROPERTIES
1002
{
1000
PbHidd
1002
}
  0
LINE
  5
457
330
1F
100
AcDbEntity
  8
HIDDEN
100
AcDbLine
 10
-73.14625549316406
 20
-15.04235935211182
 30
0.0
 11
-73.12197875976562
 21
-15.05823230743408
 31
0.0
1001
DBPROPERTIES
1002
{
1000
PbHidd
1002
}
  0
LINE
  5
458
330
1F
100
AcDbEntity
  8
HIDDEN
100
AcDbLine
 10
-73.12197875976562
 20
-15.05823230743408
 30
0.0
 11
-73.09756469726562
 21
-15.07382583618164
 31
0.0
1001
DBPROPERTIES
1002
{
1000
PbHidd
1002
}
  0
LINE
  5
459
330
1F
100
AcDbEntity
  8
HIDDEN
100
AcDbLine
 10
-73.09756469726562
 20
-15.07382583618164
 30
0.0
 11
-73.0730209350586
 21
-15.08913612365723
 31
0.0
1001
DBPROPERTIES
1002
{
1000
PbHidd
1002
}
  0
ELLIPSE
  5
45A
330
1F
100
AcDbEntity
  8
HIDDEN
100
AcDbEllipse
 10
-74.92050807568876
 20
-11.45999999999998
 30
0.0
 11
2.449212707644755E-16
 21
3.999999999999999
 31
0.0
210
0.0
220
0.0
230
1.0
 40
0.8660254037844388
 41
1.570796326794896
 42
4.71238898038469
1001
DBPROPERTIES
1002
{
1000
PbHidd
1002
}
  0
ELLIPSE
  5
45B
330
1F
100
AcDbEntity
  8
HIDDEN
100
AcDbEllipse
 10
-71.74213562373093
 20
-11.45999999999998
 30
0.0
 11
2.449212707644754E-16
 21
4.0
 31
0.0
210
0.0
220
0.0
230
1.0
 40
0.7071067811865476
 41
-3.030124898011283
 42
-1.570796326794896
1001
DBPROPERTIES
1002
{
1000
PbHidd
1002
}
  0
LINE
  5
45C
330
1F
100
AcDbEntity
  8
HIDDEN
100
AcDbLine
 10
-73.0729751586914
 20
-15.08901596069336
 30
0.0
 11
-72.96503448486328
 21
-15.15608215332031
 31
0.0
1001
DBPROPERTIES
1002
{
1000
PbHidd
1002
}
  0
LINE
  5
45D
330
1F
100
AcDbEntity
  8
HIDDEN
100
AcDbLine
 10
-72.96503448486328
 20
-15.15608215332031
 30
0.0
 11
-72.85507202148438
 21
-15.21651458740234
 31
0.0
1001
DBPROPERTIES
1002
{
1000
PbHidd
1002
}
  0
LINE
  5
45E
330
1F
100
AcDbEntity
  8
HIDDEN
100
AcDbLine
 10
-72.85507202148438
 20
-15.21651458740234
 30
0.0
 11
-72.73995971679688
 21
-15.27196025848389
 31
0.0
1001
DBPROPERTIES
1002
{
1000
PbHidd
1002
}
  0
LINE
  5
45F
330
1F
100
AcDbEntity
  8
HIDDEN
100
AcDbLine
 10
-72.73995971679688
 20
-15.27196025848389
 30
0.0
 11
-72.62084197998047
 21
-15.32149028778076
 31
0.0
1001
DBPROPERTIES
1002
{
1000
PbHidd
1002
}
  0
LINE
  5
460
330
1F
100
AcDbEntity
  8
HIDDEN
100
AcDbLine
 10
-72.62084197998047
 20
-15.32149028778076
 30
0.0
 11
-72.49884796142578
 21
-15.36421680450439
 31
0.0
1001
DBPROPERTIES
1002
{
1000
PbHidd
1002
}
  0
LINE
  5
461
330
1F
100
AcDbEntity
  8
HIDDEN
100
AcDbLine
 10
-72.49884796142578
 20
-15.36421680450439
 30
0.0
 11
-72.3750991821289
 21
-15.39909744262695
 31
0.0
1001
DBPROPERTIES
1002
{
1000
PbHidd
1002
}
  0
LINE
  5
462
330
1F
100
AcDbEntity
  8
HIDDEN
100
AcDbLine
 10
-72.3750991821289
 20
-15.39909744262695
 30
0.0
 11
-72.2508316040039
 21
-15.42591667175293
 31
0.0
1001
DBPROPERTIES
1002
{
1000
PbHidd
1002
}
  0
LINE
  5
463
330
1F
100
AcDbEntity
  8
HIDDEN
100
AcDbLine
 10
-72.2508316040039
 20
-15.42591667175293
 30
0.0
 11
-72.12733459472656
 21
-15.44484424591064
 31
0.0
1001
DBPROPERTIES
1002
{
1000
PbHidd
1002
}
  0
LINE
  5
464
330
1F
100
AcDbEntity
  8
HIDDEN
100
AcDbLine
 10
-72.12733459472656
 20
-15.44484424591064
 30
0.0
 11
-72.00590515136719
 21
-15.45612335205078
 31
0.0
1001
DBPROPERTIES
1002
{
1000
PbHidd
1002
}
  0
LINE
  5
465
330
1F
100
AcDbEntity
  8
HIDDEN
100
AcDbLine
 10
-72.00590515136719
 20
-15.45612335205078
 30
0.0
 11
-71.88784790039062
 21
-15.45999526977539
 31
0.0
1001
DBPROPERTIES
1002
{
1000
PbHidd
1002
}
  0
ARC
  5
466
330
1F
100
AcDbEntity
  8
THICK
100
AcDbCircle
 10
-37.74999999999999
 20
-137.3
 30
0.0
 40
24.0
100
AcDbArc
 50
179.9999801521572
 51
265.9709222128289
1001
DBPROPERTIES
1002
{
1000
PbThick
1002
}
  0
LINE
  5
467
330
1F
100
AcDbEntity
  8
THICK
100
AcDbLine
 10
-39.43629455566406
 20
-161.2406921386719
 30
0.0
 11
-39.43581008911133
 21
-161.2367095947266
 31
0.0
1001
DBPROPERTIES
1002
{
1000
PbThick
1002
}
  0
LINE
  5
468
330
1F
100
AcDbEntity
  8
THICK
100
AcDbLine
 10
-39.43581008911133
 20
-161.2367095947266
 30
0.0
 11
-39.43431091308594
 21
-161.2244415283203
 31
0.0
1001
DBPROPERTIES
1002
{
1000
PbThick
1002
}
  0
LINE
  5
469
330
1F
100
AcDbEntity
  8
THICK
100
AcDbLine
 10
-39.43431091308594
 20
-161.2244415283203
 30
0.0
 11
-39.43173980712891
 21
-161.203369140625
 31
0.0
1001
DBPROPERTIES
1002
{
1000
PbThick
1002
}
  0
LINE
  5
46A
330
1F
100
AcDbEntity
  8
THICK
100
AcDbLine
 10
-39.43173980712891
 20
-161.203369140625
 30
0.0
 11
-39.42805862426758
 21
-161.1732635498047
 31
0.0
1001
DBPROPERTIES
1002
{
1000
PbThick
1002
}
  0
LINE
  5
46B
330
1F
100
AcDbEntity
  8
THICK
100
AcDbLine
 10
-39.42805862426758
 20
-161.1732635498047
 30
0.0
 11
-39.42327117919922
 21
-161.1341705322266
 31
0.0
1001
DBPROPERTIES
1002
{
1000
PbThick
1002
}
  0
LINE
  5
46C
330
1F
100
AcDbEntity
  8
THICK
100
AcDbLine
 10
-39.42327117919922
 20
-161.1341705322266
 30
0.0
 11
-39.41739654541016
 21
-161.0862884521484
 31
0.0
1001
DBPROPERTIES
1002
{
1000
PbThick
1002
}
  0
LINE
  5
46D
330
1F
100
AcDbEntity
  8
THICK
100
AcDbLine
 10
-39.41739654541016
 20
-161.0862884521484
 30
0.0
 11
-39.41048812866211
 21
-161.0301361083984
 31
0.0
1001
DBPROPERTIES
1002
{
1000
PbThick
1002
}
  0
LINE
  5
46E
330
1F
100
AcDbEntity
  8
THICK
100
AcDbLine
 10
-39.41048812866211
 20
-161.0301361083984
 30
0.0
 11
-39.40262985229492
 21
-160.9664306640625
 31
0.0
1001
DBPROPERTIES
1002
{
1000
PbThick
1002
}
  0
LINE
  5
46F
330
1F
100
AcDbEntity
  8
THICK
100
AcDbLine
 10
-39.40262985229492
 20
-160.9664306640625
 30
0.0
 11
-39.3939208984375
 21
-160.8960876464844
 31
0.0
1001
DBPROPERTIES
1002
{
1000
PbThick
1002
}
  0
LINE
  5
470
330
1F
100
AcDbEntity
  8
THICK
100
AcDbLine
 10
-39.3939208984375
 20
-160.8960876464844
 30
0.0
 11
-39.38451385498047
 21
-160.8203582763672
 31
0.0
1001
DBPROPERTIES
1002
{
1000
PbThick
1002
}
  0
LINE
  5
471
330
1F
100
AcDbEntity
  8
THICK
100
AcDbLine
 10
-39.38451385498047
 20
-160.8203582763672
 30
0.0
 11
-39.37418746948242
 21
-160.7375946044922
 31
0.0
1001
DBPROPERTIES
1002
{
1000
PbThick
1002
}
  0
LINE
  5
472
330
1F
100
AcDbEntity
  8
THICK
100
AcDbLine
 10
-39.37418746948242
 20
-160.7375946044922
 30
0.0
 11
-39.36262893676758
 21
-160.6454010009766
 31
0.0
1001
DBPROPERTIES
1002
{
1000
PbThick
1002
}
  0
LINE
  5
473
330
1F
100
AcDbEntity
  8
THICK
100
AcDbLine
 10
-39.36262893676758
 20
-160.6454010009766
 30
0.0
 11
-39.34985733032227
 21
-160.5440979003906
 31
0.0
1001
DBPROPERTIES
1002
{
1000
PbThick
1002
}
  0
LINE
  5
474
330
1F
100
AcDbEntity
  8
THICK
100
AcDbLine
 10
-39.34985733032227
 20
-160.5440979003906
 30
0.0
 11
-39.33591461181641
 21
-160.4342193603516
 31
0.0
1001
DBPROPERTIES
1002
{
1000
PbThick
1002
}
  0
LINE
  5
475
330
1F
100
AcDbEntity
  8
THICK
100
AcDbLine
 10
-39.33591461181641
 20
-160.4342193603516
 30
0.0
 11
-39.32088088989258
 21
-160.3165435791016
 31
0.0
1001
DBPROPERTIES
1002
{
1000
PbThick
1002
}
  0
LINE
  5
476
330
1F
100
AcDbEntity
  8
THICK
100
AcDbLine
 10
-39.32088088989258
 20
-160.3165435791016
 30
0.0
 11
-39.30482482910156
 21
-160.1919555664062
 31
0.0
1001
DBPROPERTIES
1002
{
1000
PbThick
1002
}
  0
LINE
  5
477
330
1F
100
AcDbEntity
  8
THICK
100
AcDbLine
 10
-39.30482482910156
 20
-160.1919555664062
 30
0.0
 11
-39.28787612915039
 21
-160.0615844726562
 31
0.0
1001
DBPROPERTIES
1002
{
1000
PbThick
1002
}
  0
LINE
  5
478
330
1F
100
AcDbEntity
  8
THICK
100
AcDbLine
 10
-39.28787612915039
 20
-160.0615844726562
 30
0.0
 11
-39.27016067504883
 21
-159.9267120361328
 31
0.0
1001
DBPROPERTIES
1002
{
1000
PbThick
1002
}
  0
LINE
  5
479
330
1F
100
AcDbEntity
  8
THICK
100
AcDbLine
 10
-39.27016067504883
 20
-159.9267120361328
 30
0.0
 11
-39.25184631347656
 21
-159.7888031005859
 31
0.0
1001
DBPROPERTIES
1002
{
1000
PbThick
1002
}
  0
LINE
  5
47A
330
1F
100
AcDbEntity
  8
THICK
100
AcDbLine
 10
-39.25184631347656
 20
-159.7888031005859
 30
0.0
 11
-39.23311996459961
 21
-159.6495513916016
 31
0.0
1001
DBPROPERTIES
1002
{
1000
PbThick
1002
}
  0
LINE
  5
47B
330
1F
100
AcDbEntity
  8
THICK
100
AcDbLine
 10
-39.23311996459961
 20
-159.6495513916016
 30
0.0
 11
-39.21350860595703
 21
-159.5056762695312
 31
0.0
1001
DBPROPERTIES
1002
{
1000
PbThick
1002
}
  0
LINE
  5
47C
330
1F
100
AcDbEntity
  8
THICK
100
AcDbLine
 10
-39.21350860595703
 20
-159.5056762695312
 30
0.0
 11
-39.19235610961914
 21
-159.3529357910156
 31
0.0
1001
DBPROPERTIES
1002
{
1000
PbThick
1002
}
  0
LINE
  5
47D
330
1F
100
AcDbEntity
  8
THICK
100
AcDbLine
 10
-39.19235610961914
 20
-159.3529357910156
 30
0.0
 11
-39.16973876953125
 21
-159.1925354003906
 31
0.0
1001
DBPROPERTIES
1002
{
1000
PbThick
1002
}
  0
LINE
  5
47E
330
1F
100
AcDbEntity
  8
THICK
100
AcDbLine
 10
-39.16973876953125
 20
-159.1925354003906
 30
0.0
 11
-39.14572906494141
 21
-159.0259246826172
 31
0.0
1001
DBPROPERTIES
1002
{
1000
PbThick
1002
}
  0
LINE
  5
47F
330
1F
100
AcDbEntity
  8
THICK
100
AcDbLine
 10
-39.14572906494141
 20
-159.0259246826172
 30
0.0
 11
-39.12042236328125
 21
-158.8546295166016
 31
0.0
1001
DBPROPERTIES
1002
{
1000
PbThick
1002
}
  0
LINE
  5
480
330
1F
100
AcDbEntity
  8
THICK
100
AcDbLine
 10
-39.12042236328125
 20
-158.8546295166016
 30
0.0
 11
-39.09389495849609
 21
-158.6802825927734
 31
0.0
1001
DBPROPERTIES
1002
{
1000
PbThick
1002
}
  0
LINE
  5
481
330
1F
100
AcDbEntity
  8
THICK
100
AcDbLine
 10
-39.09389495849609
 20
-158.6802825927734
 30
0.0
 11
-39.06621932983398
 21
-158.5046844482422
 31
0.0
1001
DBPROPERTIES
1002
{
1000
PbThick
1002
}
  0
LINE
  5
482
330
1F
100
AcDbEntity
  8
THICK
100
AcDbLine
 10
-39.06621932983398
 20
-158.5046844482422
 30
0.0
 11
-39.03747177124023
 21
-158.3297119140625
 31
0.0
1001
DBPROPERTIES
1002
{
1000
PbThick
1002
}
  0
LINE
  5
483
330
1F
100
AcDbEntity
  8
THICK
100
AcDbLine
 10
-39.03747177124023
 20
-158.3297119140625
 30
0.0
 11
-39.0076789855957
 21
-158.1573791503906
 31
0.0
1001
DBPROPERTIES
1002
{
1000
PbThick
1002
}
  0
LINE
  5
484
330
1F
100
AcDbEntity
  8
THICK
100
AcDbLine
 10
-39.0076789855957
 20
-158.1573791503906
 30
0.0
 11
-38.97570037841797
 21
-157.9837646484375
 31
0.0
1001
DBPROPERTIES
1002
{
1000
PbThick
1002
}
  0
LINE
  5
485
330
1F
100
AcDbEntity
  8
THICK
100
AcDbLine
 10
-38.97570037841797
 20
-157.9837646484375
 30
0.0
 11
-38.93848419189453
 21
-157.7987823486328
 31
0.0
1001
DBPROPERTIES
1002
{
1000
PbThick
1002
}
  0
LINE
  5
486
330
1F
100
AcDbEntity
  8
THICK
100
AcDbLine
 10
-38.93848419189453
 20
-157.7987823486328
 30
0.0
 11
-38.89643478393555
 21
-157.6154632568359
 31
0.0
1001
DBPROPERTIES
1002
{
1000
PbThick
1002
}
  0
LINE
  5
487
330
1F
100
AcDbEntity
  8
THICK
100
AcDbLine
 10
-38.89643478393555
 20
-157.6154632568359
 30
0.0
 11
-38.84571838378906
 21
-157.4387969970703
 31
0.0
1001
DBPROPERTIES
1002
{
1000
PbThick
1002
}
  0
LINE
  5
488
330
1F
100
AcDbEntity
  8
THICK
100
AcDbLine
 10
-38.84571838378906
 20
-157.4387969970703
 30
0.0
 11
-38.75
 21
-157.2875061035156
 31
0.0
1001
DBPROPERTIES
1002
{
1000
PbThick
1002
}
  0
ARC
  5
489
330
1F
100
AcDbEntity
  8
THICK
100
AcDbCircle
 10
-37.74999999999999
 20
-137.3
 30
0.0
 40
16.0
100
AcDbArc
 50
180.0000374479367
 51
266.4166833774407
1001
DBPROPERTIES
1002
{
1000
PbThick
1002
}
  0
LINE
  5
48A
330
1F
100
AcDbEntity
  8
THICK
100
AcDbLine
 10
-53.74999999999999
 20
-137.3
 30
0.0
 11
-57.74999999999999
 21
-137.3
 31
0.0
1001
DBPROPERTIES
1002
{
1000
PbThick
1002
}
  0
ARC
  5
48B
330
1F
100
AcDbEntity
  8
THICK
100
AcDbCircle
 10
0.0000000000000037
 20
-153.0
 30
0.0
 40
5.0
100
AcDbArc
 50
0.0
 51
89.99998127603165
1001
DBPROPERTIES
1002
{
1000
PbThick
1002
}
  0
ARC
  5
48C
330
1F
100
AcDbEntity
  8
THICK
100
AcDbCircle
 10
0.0000000000000037
 20
-153.0
 30
0.0
 40
5.0
100
AcDbArc
 50
270.0000187239684
 51
0.0
1001
DBPROPERTIES
1002
{
1000
PbThick
1002
}
  0
ARC
  5
48D
330
1F
100
AcDbEntity
  8
THICK
100
AcDbCircle
 10
0.0000000000000037
 20
-153.0
 30
0.0
 40
3.0
100
AcDbArc
 50
270.0000187239684
 51
0.0
1001
DBPROPERTIES
1002
{
1000
PbThick
1002
}
  0
ARC
  5
48E
330
1F
100
AcDbEntity
  8
THICK
100
AcDbCircle
 10
0.0000000000000037
 20
-153.0
 30
0.0
 40
3.0
100
AcDbArc
 50
0.0
 51
89.99998127603165
1001
DBPROPERTIES
1002
{
1000
PbThick
1002
}
  0
LINE
  5
48F
330
1F
100
AcDbEntity
  8
HIDDEN
100
AcDbLine
 10
-30.75
 20
-132.275
 30
0.0
 11
-30.75
 21
-132.275
 31
0.0
1001
DBPROPERTIES
1002
{
1000
PbHidd
1002
}
  0
LINE
  5
490
330
1F
100
AcDbEntity
  8
HIDDEN
100
AcDbLine
 10
-30.75
 20
-143.0
 30
0.0
 11
-30.75
 21
-143.0
 31
0.0
1001
DBPROPERTIES
1002
{
1000
PbHidd
1002
}
  0
LINE
  5
491
330
1F
100
AcDbEntity
  8
HIDDEN
100
AcDbLine
 10
-30.75
 20
-193.775
 30
0.0
 11
-30.75
 21
-193.775
 31
0.0
1001
DBPROPERTIES
1002
{
1000
PbHidd
1002
}
  0
LINE
  5
492
330
1F
100
AcDbEntity
  8
THICK
100
AcDbLine
 10
-30.75
 20
-193.775
 30
0.0
 11
-30.75
 21
-132.275
 31
0.0
1001
DBPROPERTIES
1002
{
1000
PbThick
1002
}
  0
LINE
  5
493
330
1F
100
AcDbEntity
  8
HIDDEN
100
AcDbLine
 10
30.75
 20
-143.0
 30
0.0
 11
10.0
 21
-143.0
 31
0.0
1001
DBPROPERTIES
1002
{
1000
PbHidd
1002
}
  0
LINE
  5
494
330
1F
100
AcDbEntity
  8
HIDDEN
100
AcDbLine
 10
-9.999999999999998
 20
-143.0
 30
0.0
 11
-30.75
 21
-143.0
 31
0.0
1001
DBPROPERTIES
1002
{
1000
PbHidd
1002
}
  0
ELLIPSE
  5
495
330
1F
100
AcDbEntity
  8
HIDDEN
100
AcDbEllipse
 10
-74.92050807568876
 20
-11.45999999999998
 30
0.0
 11
2.449212707644755E-16
 21
3.999999999999999
 31
0.0
210
0.0
220
0.0
230
1.0
 40
0.8660254037844388
 41
-1.570796326794897
 42
1.570796326794897
1001
DBPROPERTIES
1002
{
1000
PbHidd
1002
}
  0
LINE
  5
496
330
1F
100
AcDbEntity
  8
HIDDEN
100
AcDbLine
 10
10.0
 20
-163.0
 30
0.0
 11
10.0
 21
-163.0
 31
0.0
1001
DBPROPERTIES
1002
{
1000
PbHidd
1002
}
  0
LINE
  5
497
330
1F
100
AcDbEntity
  8
HIDDEN
100
AcDbLine
 10
10.0
 20
-143.0
 30
0.0
 11
10.0
 21
-143.0
 31
0.0
1001
DBPROPERTIES
1002
{
1000
PbHidd
1002
}
  0
LINE
  5
498
330
1F
100
AcDbEntity
  8
THICK
100
AcDbLine
 10
10.0
 20
-163.0
 30
0.0
 11
10.0
 21
-143.0
 31
0.0
1001
DBPROPERTIES
1002
{
1000
PbThick
1002
}
  0
LINE
  5
499
330
1F
100
AcDbEntity
  8
HIDDEN
100
AcDbLine
 10
-9.999999999999996
 20
-143.0
 30
0.0
 11
-9.999999999999996
 21
-143.0
 31
0.0
1001
DBPROPERTIES
1002
{
1000
PbHidd
1002
}
  0
LINE
  5
49A
330
1F
100
AcDbEntity
  8
THICK
100
AcDbLine
 10
-9.999999999999996
 20
-143.0
 30
0.0
 11
10.0
 21
-143.0
 31
0.0
1001
DBPROPERTIES
1002
{
1000
PbThick
1002
}
  0
LINE
  5
49B
330
1F
100
AcDbEntity
  8
THICK
100
AcDbLine
 10
9.000000000000004
 20
-162.0
 30
0.0
 11
-8.999999999999996
 21
-162.0
 31
0.0
1001
DBPROPERTIES
1002
{
1000
PbThick
1002
}
  0
LINE
  5
49C
330
1F
100
AcDbEntity
  8
THICK
100
AcDbLine
 10
9.000000000000004
 20
-162.0
 30
0.0
 11
9.000000000000004
 21
-144.0
 31
0.0
1001
DBPROPERTIES
1002
{
1000
PbThick
1002
}
  0
LINE
  5
49D
330
1F
100
AcDbEntity
  8
THICK
100
AcDbLine
 10
-8.999999999999996
 20
-144.0
 30
0.0
 11
9.000000000000004
 21
-144.0
 31
0.0
1001
DBPROPERTIES
1002
{
1000
PbThick
1002
}
  0
LINE
  5
49E
330
1F
100
AcDbEntity
  8
THICK
100
AcDbLine
 10
-8.999999999999996
 20
-162.0
 30
0.0
 11
-8.999999999999996
 21
-144.0
 31
0.0
1001
DBPROPERTIES
1002
{
1000
PbThick
1002
}
  0
LINE
  5
49F
330
1F
100
AcDbEntity
  8
HIDDEN
100
AcDbLine
 10
9.000000000000002
 20
-162.0
 30
0.0
 11
9.000000000000002
 21
-162.0
 31
0.0
1001
DBPROPERTIES
1002
{
1000
PbHidd
1002
}
  0
LINE
  5
4A0
330
1F
100
AcDbEntity
  8
HIDDEN
100
AcDbLine
 10
9.000000000000004
 20
-144.0
 30
0.0
 11
9.000000000000004
 21
-144.0
 31
0.0
1001
DBPROPERTIES
1002
{
1000
PbHidd
1002
}
  0
LINE
  5
4A1
330
1F
100
AcDbEntity
  8
HIDDEN
100
AcDbLine
 10
-8.999999999999996
 20
-144.0
 30
0.0
 11
-8.999999999999996
 21
-144.0
 31
0.0
1001
DBPROPERTIES
1002
{
1000
PbHidd
1002
}
  0
LINE
  5
4A2
330
1F
100
AcDbEntity
  8
HIDDEN
100
AcDbLine
 10
-8.999999999999998
 20
-162.0
 30
0.0
 11
-8.999999999999998
 21
-162.0
 31
0.0
1001
DBPROPERTIES
1002
{
1000
PbHidd
1002
}
  0
LINE
  5
4A3
330
1F
100
AcDbEntity
  8
HIDDEN
100
AcDbLine
 10
-9.999999999999998
 20
-163.0
 30
0.0
 11
-9.999999999999998
 21
-163.0
 31
0.0
1001
DBPROPERTIES
1002
{
1000
PbHidd
1002
}
  0
LINE
  5
4A4
330
1F
100
AcDbEntity
  8
THICK
100
AcDbLine
 10
10.0
 20
-163.0
 30
0.0
 11
-9.999999999999996
 21
-163.0
 31
0.0
1001
DBPROPERTIES
1002
{
1000
PbThick
1002
}
  0
LINE
  5
4A5
330
1F
100
AcDbEntity
  8
THICK
100
AcDbLine
 10
-9.999999999999996
 20
-163.0
 30
0.0
 11
-9.999999999999996
 21
-143.0
 31
0.0
1001
DBPROPERTIES
1002
{
1000
PbThick
1002
}
  0
ARC
  5
4A6
330
1F
100
AcDbEntity
  8
THICK
100
AcDbCircle
 10
0.0000000000000037
 20
-153.0
 30
0.0
 40
5.0
100
AcDbArc
 50
89.99998127603165
 51
270.0000187239684
1001
DBPROPERTIES
1002
{
1000
PbThick
1002
}
  0
ARC
  5
4A7
330
1F
100
AcDbEntity
  8
THICK
100
AcDbCircle
 10
0.0000000000000037
 20
-153.0
 30
0.0
 40
3.0
100
AcDbArc
 50
89.99998127603165
 51
270.0000187239684
1001
DBPROPERTIES
1002
{
1000
PbThick
1002
}
  0
LINE
  5
4A8
330
1F
100
AcDbEntity
  8
THICK
100
AcDbLine
 10
-30.75
 20
-149.3
 30
0.0
 11
-38.75
 21
-149.3
 31
0.0
1001
DBPROPERTIES
1002
{
1000
PbThick
1002
}
  0
LINE
  5
4A9
330
1F
100
AcDbEntity
  8
HIDDEN
100
AcDbLine
 10
-30.75
 20
-153.3
 30
0.0
 11
-38.75
 21
-153.3
 31
0.0
1001
DBPROPERTIES
1002
{
1000
PbHidd
1002
}
  0
LINE
  5
4AA
330
1F
100
AcDbEntity
  8
HIDDEN
100
AcDbLine
 10
-30.75
 20
-161.3
 30
0.0
 11
-38.75
 21
-161.3
 31
0.0
1001
DBPROPERTIES
1002
{
1000
PbHidd
1002
}
  0
LINE
  5
4AB
330
1F
100
AcDbEntity
  8
THICK
100
AcDbLine
 10
-30.75
 20
-165.3
 30
0.0
 11
-38.75
 21
-165.3
 31
0.0
1001
DBPROPERTIES
1002
{
1000
PbThick
1002
}
  0
LINE
  5
4AC
330
1F
100
AcDbEntity
  8
THICK
100
AcDbLine
 10
-38.74999999999999
 20
-161.3
 30
0.0
 11
-38.74999999999999
 21
-165.3
 31
0.0
1001
DBPROPERTIES
1002
{
1000
PbThick
1002
}
  0
LINE
  5
4AD
330
1F
100
AcDbEntity
  8
THICK
100
AcDbLine
 10
-38.74999999999999
 20
-153.3
 30
0.0
 11
-38.74999999999999
 21
-161.3
 31
0.0
1001
DBPROPERTIES
1002
{
1000
PbThick
1002
}
  0
LINE
  5
4AE
330
1F
100
AcDbEntity
  8
THICK
100
AcDbLine
 10
-38.74999999999999
 20
-149.3
 30
0.0
 11
-38.74999999999999
 21
-153.3
 31
0.0
1001
DBPROPERTIES
1002
{
1000
PbThick
1002
}
  0
LINE
  5
4AF
330
1F
100
AcDbEntity
  8
THICK
100
AcDbLine
 10
-30.75
 20
-153.3
 30
0.0
 11
-38.75
 21
-153.3
 31
0.0
1001
DBPROPERTIES
1002
{
1000
PbThick
1002
}
  0
LINE
  5
4B0
330
1F
100
AcDbEntity
  8
THICK
100
AcDbLine
 10
-30.75
 20
-161.3
 30
0.0
 11
-38.75
 21
-161.3
 31
0.0
1001
DBPROPERTIES
1002
{
1000
PbThick
1002
}
  0
LINE
  5
4B1
330
1F
100
AcDbEntity
  8
HIDDEN
100
AcDbLine
 10
-38.75
 20
-157.2875061035156
 30
0.0
 11
-38.82469940185547
 21
-157.3827209472656
 31
0.0
1001
DBPROPERTIES
1002
{
1000
PbHidd
1002
}
  0
LINE
  5
4B2
330
1F
100
AcDbEntity
  8
HIDDEN
100
AcDbLine
 10
-38.82469940185547
 20
-157.3827209472656
 30
0.0
 11
-38.86639785766602
 21
-157.5043334960938
 31
0.0
1001
DBPROPERTIES
1002
{
1000
PbHidd
1002
}
  0
LINE
  5
4B3
330
1F
100
AcDbEntity
  8
HIDDEN
100
AcDbLine
 10
-38.86639785766602
 20
-157.5043334960938
 30
0.0
 11
-38.89821243286133
 21
-157.6225738525391
 31
0.0
1001
DBPROPERTIES
1002
{
1000
PbHidd
1002
}
  0
LINE
  5
4B4
330
1F
100
AcDbEntity
  8
HIDDEN
100
AcDbLine
 10
-38.89821243286133
 20
-157.6225738525391
 30
0.0
 11
-38.92719650268555
 21
-157.7466430664062
 31
0.0
1001
DBPROPERTIES
1002
{
1000
PbHidd
1002
}
  0
LINE
  5
4B5
330
1F
100
AcDbEntity
  8
HIDDEN
100
AcDbLine
 10
-38.92719650268555
 20
-157.7466430664062
 30
0.0
 11
-38.95397567749023
 21
-157.8733978271484
 31
0.0
1001
DBPROPERTIES
1002
{
1000
PbHidd
1002
}
  0
LINE
  5
4B6
330
1F
100
AcDbEntity
  8
HIDDEN
100
AcDbLine
 10
-38.95397567749023
 20
-157.8733978271484
 30
0.0
 11
-38.97845077514648
 21
-157.9982147216797
 31
0.0
1001
DBPROPERTIES
1002
{
1000
PbHidd
1002
}
  0
LINE
  5
4B7
330
1F
100
AcDbEntity
  8
HIDDEN
100
AcDbLine
 10
-38.97845077514648
 20
-157.9982147216797
 30
0.0
 11
-39.00037384033203
 21
-158.1166534423828
 31
0.0
1001
DBPROPERTIES
1002
{
1000
PbHidd
1002
}
  0
LINE
  5
4B8
330
1F
100
AcDbEntity
  8
HIDDEN
100
AcDbLine
 10
-39.00037384033203
 20
-158.1166534423828
 30
0.0
 11
-39.02091598510742
 21
-158.2327423095703
 31
0.0
1001
DBPROPERTIES
1002
{
1000
PbHidd
1002
}
  0
LINE
  5
4B9
330
1F
100
AcDbEntity
  8
HIDDEN
100
AcDbLine
 10
-39.02091598510742
 20
-158.2327423095703
 30
0.0
 11
-39.04097366333008
 21
-158.3506011962891
 31
0.0
1001
DBPROPERTIES
1002
{
1000
PbHidd
1002
}
  0
LINE
  5
4BA
330
1F
100
AcDbEntity
  8
HIDDEN
100
AcDbLine
 10
-39.04097366333008
 20
-158.3506011962891
 30
0.0
 11
-39.06055450439453
 21
-158.4695739746094
 31
0.0
1001
DBPROPERTIES
1002
{
1000
PbHidd
1002
}
  0
LINE
  5
4BB
330
1F
100
AcDbEntity
  8
HIDDEN
100
AcDbLine
 10
-39.06055450439453
 20
-158.4695739746094
 30
0.0
 11
-39.07963943481445
 21
-158.5890045166016
 31
0.0
1001
DBPROPERTIES
1002
{
1000
PbHidd
1002
}
  0
LINE
  5
4BC
330
1F
100
AcDbEntity
  8
HIDDEN
100
AcDbLine
 10
-39.07963943481445
 20
-158.5890045166016
 30
0.0
 11
-39.09821701049805
 21
-158.7083129882812
 31
0.0
1001
DBPROPERTIES
1002
{
1000
PbHidd
1002
}
  0
LINE
  5
4BD
330
1F
100
AcDbEntity
  8
HIDDEN
100
AcDbLine
 10
-39.09821701049805
 20
-158.7083129882812
 30
0.0
 11
-39.11625671386719
 21
-158.8268890380859
 31
0.0
1001
DBPROPERTIES
1002
{
1000
PbHidd
1002
}
  0
LINE
  5
4BE
330
1F
100
AcDbEntity
  8
HIDDEN
100
AcDbLine
 10
-39.11625671386719
 20
-158.8268890380859
 30
0.0
 11
-39.13373947143555
 21
-158.9441833496094
 31
0.0
1001
DBPROPERTIES
1002
{
1000
PbHidd
1002
}
  0
LINE
  5
4BF
330
1F
100
AcDbEntity
  8
HIDDEN
100
AcDbLine
 10
-39.13373947143555
 20
-158.9441833496094
 30
0.0
 11
-39.15063858032227
 21
-159.0596618652344
 31
0.0
1001
DBPROPERTIES
1002
{
1000
PbHidd
1002
}
  0
LINE
  5
4C0
330
1F
100
AcDbEntity
  8
HIDDEN
100
AcDbLine
 10
-39.15063858032227
 20
-159.0596618652344
 30
0.0
 11
-39.16692733764648
 21
-159.1728515625
 31
0.0
1001
DBPROPERTIES
1002
{
1000
PbHidd
1002
}
  0
LINE
  5
4C1
330
1F
100
AcDbEntity
  8
HIDDEN
100
AcDbLine
 10
-39.16692733764648
 20
-159.1728515625
 30
0.0
 11
-39.18258285522461
 21
-159.2832336425781
 31
0.0
1001
DBPROPERTIES
1002
{
1000
PbHidd
1002
}
  0
LINE
  5
4C2
330
1F
100
AcDbEntity
  8
HIDDEN
100
AcDbLine
 10
-39.18258285522461
 20
-159.2832336425781
 30
0.0
 11
-39.19757080078125
 21
-159.3903350830078
 31
0.0
1001
DBPROPERTIES
1002
{
1000
PbHidd
1002
}
  0
LINE
  5
4C3
330
1F
100
AcDbEntity
  8
HIDDEN
100
AcDbLine
 10
-39.19757080078125
 20
-159.3903350830078
 30
0.0
 11
-39.21187210083008
 21
-159.4937744140625
 31
0.0
1001
DBPROPERTIES
1002
{
1000
PbHidd
1002
}
  0
LINE
  5
4C4
330
1F
100
AcDbEntity
  8
HIDDEN
100
AcDbLine
 10
-39.21187210083008
 20
-159.4937744140625
 30
0.0
 11
-39.2254638671875
 21
-159.5931396484375
 31
0.0
1001
DBPROPERTIES
1002
{
1000
PbHidd
1002
}
  0
LINE
  5
4C5
330
1F
100
AcDbEntity
  8
HIDDEN
100
AcDbLine
 10
-39.2254638671875
 20
-159.5931396484375
 30
0.0
 11
-39.2383918762207
 21
-159.6885833740234
 31
0.0
1001
DBPROPERTIES
1002
{
1000
PbHidd
1002
}
  0
LINE
  5
4C6
330
1F
100
AcDbEntity
  8
HIDDEN
100
AcDbLine
 10
-39.2383918762207
 20
-159.6885833740234
 30
0.0
 11
-39.25110244750977
 21
-159.7832489013672
 31
0.0
1001
DBPROPERTIES
1002
{
1000
PbHidd
1002
}
  0
LINE
  5
4C7
330
1F
100
AcDbEntity
  8
HIDDEN
100
AcDbLine
 10
-39.25110244750977
 20
-159.7832489013672
 30
0.0
 11
-39.26362609863281
 21
-159.8773193359375
 31
0.0
1001
DBPROPERTIES
1002
{
1000
PbHidd
1002
}
  0
LINE
  5
4C8
330
1F
100
AcDbEntity
  8
HIDDEN
100
AcDbLine
 10
-39.26362609863281
 20
-159.8773193359375
 30
0.0
 11
-39.27590560913086
 21
-159.9702758789062
 31
0.0
1001
DBPROPERTIES
1002
{
1000
PbHidd
1002
}
  0
LINE
  5
4C9
330
1F
100
AcDbEntity
  8
HIDDEN
100
AcDbLine
 10
-39.27590560913086
 20
-159.9702758789062
 30
0.0
 11
-39.28787612915039
 21
-160.0615844726562
 31
0.0
1001
DBPROPERTIES
1002
{
1000
PbHidd
1002
}
  0
LINE
  5
4CA
330
1F
100
AcDbEntity
  8
HIDDEN
100
AcDbLine
 10
-39.28787612915039
 20
-160.0615844726562
 30
0.0
 11
-39.29949188232422
 21
-160.1508026123047
 31
0.0
1001
DBPROPERTIES
1002
{
1000
PbHidd
1002
}
  0
LINE
  5
4CB
330
1F
100
AcDbEntity
  8
HIDDEN
100
AcDbLine
 10
-39.29949188232422
 20
-160.1508026123047
 30
0.0
 11
-39.31071472167969
 21
-160.2375335693359
 31
0.0
1001
DBPROPERTIES
1002
{
1000
PbHidd
1002
}
  0
LINE
  5
4CC
330
1F
100
AcDbEntity
  8
HIDDEN
100
AcDbLine
 10
-39.31071472167969
 20
-160.2375335693359
 30
0.0
 11
-39.32150268554688
 21
-160.3213958740234
 31
0.0
1001
DBPROPERTIES
1002
{
1000
PbHidd
1002
}
  0
LINE
  5
4CD
330
1F
100
AcDbEntity
  8
HIDDEN
100
AcDbLine
 10
-39.32150268554688
 20
-160.3213958740234
 30
0.0
 11
-39.33181381225586
 21
-160.4020233154297
 31
0.0
1001
DBPROPERTIES
1002
{
1000
PbHidd
1002
}
  0
LINE
  5
4CE
330
1F
100
AcDbEntity
  8
HIDDEN
100
AcDbLine
 10
-39.33181381225586
 20
-160.4020233154297
 30
0.0
 11
-39.34162902832031
 21
-160.4791564941406
 31
0.0
1001
DBPROPERTIES
1002
{
1000
PbHidd
1002
}
  0
LINE
  5
4CF
330
1F
100
AcDbEntity
  8
HIDDEN
100
AcDbLine
 10
-39.34162902832031
 20
-160.4791564941406
 30
0.0
 11
-39.35092163085938
 21
-160.5525360107422
 31
0.0
1001
DBPROPERTIES
1002
{
1000
PbHidd
1002
}
  0
LINE
  5
4D0
330
1F
100
AcDbEntity
  8
HIDDEN
100
AcDbLine
 10
-39.35092163085938
 20
-160.5525360107422
 30
0.0
 11
-39.35967254638672
 21
-160.6219177246094
 31
0.0
1001
DBPROPERTIES
1002
{
1000
PbHidd
1002
}
  0
LINE
  5
4D1
330
1F
100
AcDbEntity
  8
HIDDEN
100
AcDbLine
 10
-39.35967254638672
 20
-160.6219177246094
 30
0.0
 11
-39.36786651611328
 21
-160.6871185302734
 31
0.0
1001
DBPROPERTIES
1002
{
1000
PbHidd
1002
}
  0
LINE
  5
4D2
330
1F
100
AcDbEntity
  8
HIDDEN
100
AcDbLine
 10
-39.36786651611328
 20
-160.6871185302734
 30
0.0
 11
-39.37549209594727
 21
-160.7480316162109
 31
0.0
1001
DBPROPERTIES
1002
{
1000
PbHidd
1002
}
  0
LINE
  5
4D3
330
1F
100
AcDbEntity
  8
HIDDEN
100
AcDbLine
 10
-39.37549209594727
 20
-160.7480316162109
 30
0.0
 11
-39.38254547119141
 21
-160.8045654296875
 31
0.0
1001
DBPROPERTIES
1002
{
1000
PbHidd
1002
}
  0
LINE
  5
4D4
330
1F
100
AcDbEntity
  8
HIDDEN
100
AcDbLine
 10
-39.38254547119141
 20
-160.8045654296875
 30
0.0
 11
-39.38910675048828
 21
-160.8572998046875
 31
0.0
1001
DBPROPERTIES
1002
{
1000
PbHidd
1002
}
  0
LINE
  5
4D5
330
1F
100
AcDbEntity
  8
HIDDEN
100
AcDbLine
 10
-39.38910675048828
 20
-160.8572998046875
 30
0.0
 11
-39.39536666870117
 21
-160.9077301025391
 31
0.0
1001
DBPROPERTIES
1002
{
1000
PbHidd
1002
}
  0
LINE
  5
4D6
330
1F
100
AcDbEntity
  8
HIDDEN
100
AcDbLine
 10
-39.39536666870117
 20
-160.9077301025391
 30
0.0
 11
-39.40128707885742
 21
-160.9555816650391
 31
0.0
1001
DBPROPERTIES
1002
{
1000
PbHidd
1002
}
  0
LINE
  5
4D7
330
1F
100
AcDbEntity
  8
HIDDEN
100
AcDbLine
 10
-39.40128707885742
 20
-160.9555816650391
 30
0.0
 11
-39.40682983398438
 21
-161.0004577636719
 31
0.0
1001
DBPROPERTIES
1002
{
1000
PbHidd
1002
}
  0
LINE
  5
4D8
330
1F
100
AcDbEntity
  8
HIDDEN
100
AcDbLine
 10
-39.40682983398438
 20
-161.0004577636719
 30
0.0
 11
-39.41194915771484
 21
-161.0419921875
 31
0.0
1001
DBPROPERTIES
1002
{
1000
PbHidd
1002
}
  0
LINE
  5
4D9
330
1F
100
AcDbEntity
  8
HIDDEN
100
AcDbLine
 10
-39.41194915771484
 20
-161.0419921875
 30
0.0
 11
-39.41661834716797
 21
-161.0799713134766
 31
0.0
1001
DBPROPERTIES
1002
{
1000
PbHidd
1002
}
  0
LINE
  5
4DA
330
1F
100
AcDbEntity
  8
HIDDEN
100
AcDbLine
 10
-39.41661834716797
 20
-161.0799713134766
 30
0.0
 11
-39.42081832885742
 21
-161.1141662597656
 31
0.0
1001
DBPROPERTIES
1002
{
1000
PbHidd
1002
}
  0
LINE
  5
4DB
330
1F
100
AcDbEntity
  8
HIDDEN
100
AcDbLine
 10
-39.42081832885742
 20
-161.1141662597656
 30
0.0
 11
-39.42452239990234
 21
-161.1443786621094
 31
0.0
1001
DBPROPERTIES
1002
{
1000
PbHidd
1002
}
  0
LINE
  5
4DC
330
1F
100
AcDbEntity
  8
HIDDEN
100
AcDbLine
 10
-39.42452239990234
 20
-161.1443786621094
 30
0.0
 11
-39.42771530151367
 21
-161.1704711914062
 31
0.0
1001
DBPROPERTIES
1002
{
1000
PbHidd
1002
}
  0
LINE
  5
4DD
330
1F
100
AcDbEntity
  8
HIDDEN
100
AcDbLine
 10
-39.42771530151367
 20
-161.1704711914062
 30
0.0
 11
-39.43040084838867
 21
-161.1924133300781
 31
0.0
1001
DBPROPERTIES
1002
{
1000
PbHidd
1002
}
  0
LINE
  5
4DE
330
1F
100
AcDbEntity
  8
HIDDEN
100
AcDbLine
 10
-39.43040084838867
 20
-161.1924133300781
 30
0.0
 11
-39.43257141113281
 21
-161.2101898193359
 31
0.0
1001
DBPROPERTIES
1002
{
1000
PbHidd
1002
}
  0
LINE
  5
4DF
330
1F
100
AcDbEntity
  8
HIDDEN
100
AcDbLine
 10
-39.43257141113281
 20
-161.2101898193359
 30
0.0
 11
-39.43423080444336
 21
-161.2237701416016
 31
0.0
1001
DBPROPERTIES
1002
{
1000
PbHidd
1002
}
  0
LINE
  5
4E0
330
1F
100
AcDbEntity
  8
HIDDEN
100
AcDbLine
 10
-39.43423080444336
 20
-161.2237701416016
 30
0.0
 11
-39.43539047241211
 21
-161.2332763671875
 31
0.0
1001
DBPROPERTIES
1002
{
1000
PbHidd
1002
}
  0
LINE
  5
4E1
330
1F
100
AcDbEntity
  8
HIDDEN
100
AcDbLine
 10
-39.43539047241211
 20
-161.2332763671875
 30
0.0
 11
-39.43607330322266
 21
-161.2388610839844
 31
0.0
1001
DBPROPERTIES
1002
{
1000
PbHidd
1002
}
  0
LINE
  5
4E2
330
1F
100
AcDbEntity
  8
HIDDEN
100
AcDbLine
 10
-39.43607330322266
 20
-161.2388610839844
 30
0.0
 11
-39.43629455566406
 21
-161.2406921386719
 31
0.0
1001
DBPROPERTIES
1002
{
1000
PbHidd
1002
}
  0
LINE
  5
4E3
330
1F
100
AcDbEntity
  8
HIDDEN
100
AcDbLine
 10
-57.74999999999999
 20
-137.3
 30
0.0
 11
-53.74999999999999
 21
-137.3
 31
0.0
1001
DBPROPERTIES
1002
{
1000
PbHidd
1002
}
  0
ELLIPSE
  5
4E4
330
1F
100
AcDbEntity
  8
HIDDEN
100
AcDbEllipse
 10
-71.74213562373093
 20
-11.45999999999998
 30
0.0
 11
2.449212707644754E-16
 21
4.0
 31
0.0
210
0.0
220
0.0
230
1.0
 40
0.7071067811865476
 41
0.0010622085639632
 42
0.0013902388952066
1001
DBPROPERTIES
1002
{
1000
PbHidd
1002
}
  0
ELLIPSE
  5
4E5
330
1F
100
AcDbEntity
  8
THICK
100
AcDbEllipse
 10
-71.74213562373093
 20
-11.45999999999998
 30
0.0
 11
2.449212707644754E-16
 21
4.0
 31
0.0
210
0.0
220
0.0
230
1.0
 40
0.7071067811865476
 41
-0.0000087984844416
 42
0.0010622085639632
1001
DBPROPERTIES
1002
{
1000
PbThick
1002
}
  0
ELLIPSE
  5
4E6
330
1F
100
AcDbEntity
  8
THICK
100
AcDbEllipse
 10
-71.74213562373093
 20
-11.45999999999998
 30
0.0
 11
2.449212707644754E-16
 21
4.0
 31
0.0
210
0.0
220
0.0
230
1.0
 40
0.7071067811865476
 41
-0.004628492040339
 42
-0.0000087984844416
1001
DBPROPERTIES
1002
{
1000
PbThick
1002
}
  0
ELLIPSE
  5
4E7
330
1F
100
AcDbEntity
  8
HIDDEN
100
AcDbEllipse
 10
-71.74213562373093
 20
-11.45999999999998
 30
0.0
 11
2.449212707644754E-16
 21
4.0
 31
0.0
210
0.0
220
0.0
230
1.0
 40
0.7071067811865476
 41
-1.570796326794896
 42
-0.004628492040339
1001
DBPROPERTIES
1002
{
1000
PbHidd
1002
}
  0
ELLIPSE
  5
4E8
330
1F
100
AcDbEntity
  8
HIDDEN
100
AcDbEllipse
 10
-71.74999999999999
 20
-11.45999999999998
 30
0.0
 11
-2.449212707644755E-16
 21
-4.0
 31
0.0
210
0.0
220
0.0
230
1.0
 40
0.7071067811865476
 41
1.570670060947499
 42
3.140202414694506
1001
DBPROPERTIES
1002
{
1000
PbHidd
1002
}
  0
LINE
  5
4E9
330
1F
100
AcDbEntity
  8
HIDDEN
100
AcDbLine
 10
-73.0730209350586
 20
-7.830863475799561
 30
0.0
 11
-73.09756469726562
 21
-7.846174240112305
 31
0.0
1001
DBPROPERTIES
1002
{
1000
PbHidd
1002
}
  0
LINE
  5
4EA
330
1F
100
AcDbEntity
  8
HIDDEN
100
AcDbLine
 10
-73.09756469726562
 20
-7.846174240112305
 30
0.0
 11
-73.12197875976562
 21
-7.861768245697021
 31
0.0
1001
DBPROPERTIES
1002
{
1000
PbHidd
1002
}
  0
LINE
  5
4EB
330
1F
100
AcDbEntity
  8
HIDDEN
100
AcDbLine
 10
-73.12197875976562
 20
-7.861768245697021
 30
0.0
 11
-73.14625549316406
 21
-7.877640247344971
 31
0.0
1001
DBPROPERTIES
1002
{
1000
PbHidd
1002
}
  0
LINE
  5
4EC
330
1F
100
AcDbEntity
  8
HIDDEN
100
AcDbLine
 10
-73.14625549316406
 20
-7.877640247344971
 30
0.0
 11
-73.17039489746094
 21
-7.893783569335938
 31
0.0
1001
DBPROPERTIES
1002
{
1000
PbHidd
1002
}
  0
LINE
  5
4ED
330
1F
100
AcDbEntity
  8
HIDDEN
100
AcDbLine
 10
-73.17039489746094
 20
-7.893783569335938
 30
0.0
 11
-73.19438171386719
 21
-7.910191535949707
 31
0.0
1001
DBPROPERTIES
1002
{
1000
PbHidd
1002
}
  0
LINE
  5
4EE
330
1F
100
AcDbEntity
  8
HIDDEN
100
AcDbLine
 10
-73.19438171386719
 20
-7.910191535949707
 30
0.0
 11
-73.21820831298828
 21
-7.92685604095459
 31
0.0
1001
DBPROPERTIES
1002
{
1000
PbHidd
1002
}
  0
LINE
  5
4EF
330
1F
100
AcDbEntity
  8
THICK
100
AcDbLine
 10
-73.21820831298828
 20
-7.92685604095459
 30
0.0
 11
-73.38599395751953
 21
-8.055075645446777
 31
0.0
1001
DBPROPERTIES
1002
{
1000
PbThick
1002
}
  0
LINE
  5
4F0
330
1F
100
AcDbEntity
  8
THICK
100
AcDbLine
 10
-73.38599395751953
 20
-8.055075645446777
 30
0.0
 11
-73.5423583984375
 21
-8.193199157714844
 31
0.0
1001
DBPROPERTIES
1002
{
1000
PbThick
1002
}
  0
LINE
  5
4F1
330
1F
100
AcDbEntity
  8
THICK
100
AcDbLine
 10
-73.5423583984375
 20
-8.193199157714844
 30
0.0
 11
-73.68785095214844
 21
-8.340017318725586
 31
0.0
1001
DBPROPERTIES
1002
{
1000
PbThick
1002
}
  0
LINE
  5
4F2
330
1F
100
AcDbEntity
  8
THICK
100
AcDbLine
 10
-73.68785095214844
 20
-8.340017318725586
 30
0.0
 11
-73.83055877685547
 21
-8.50373649597168
 31
0.0
1001
DBPROPERTIES
1002
{
1000
PbThick
1002
}
  0
LINE
  5
4F3
330
1F
100
AcDbEntity
  8
THICK
100
AcDbLine
 10
-73.83055877685547
 20
-8.50373649597168
 30
0.0
 11
-73.9683837890625
 21
-8.683754920959473
 31
0.0
1001
DBPROPERTIES
1002
{
1000
PbThick
1002
}
  0
LINE
  5
4F4
330
1F
100
AcDbEntity
  8
THICK
100
AcDbLine
 10
-73.9683837890625
 20
-8.683754920959473
 30
0.0
 11
-74.09866333007812
 21
-8.87771224975586
 31
0.0
1001
DBPROPERTIES
1002
{
1000
PbThick
1002
}
  0
LINE
  5
4F5
330
1F
100
AcDbEntity
  8
THICK
100
AcDbLine
 10
-74.09866333007812
 20
-8.87771224975586
 30
0.0
 11
-74.21916961669922
 21
-9.082822799682617
 31
0.0
1001
DBPROPERTIES
1002
{
1000
PbThick
1002
}
  0
LINE
  5
4F6
330
1F
100
AcDbEntity
  8
THICK
100
AcDbLine
 10
-74.21916961669922
 20
-9.082822799682617
 30
0.0
 11
-74.32823944091797
 21
-9.29563045501709
 31
0.0
1001
DBPROPERTIES
1002
{
1000
PbThick
1002
}
  0
LINE
  5
4F7
330
1F
100
AcDbEntity
  8
THICK
100
AcDbLine
 10
-74.32823944091797
 20
-9.29563045501709
 30
0.0
 11
-74.42459106445312
 21
-9.512208938598633
 31
0.0
1001
DBPROPERTIES
1002
{
1000
PbThick
1002
}
  0
LINE
  5
4F8
330
1F
100
AcDbEntity
  8
THICK
100
AcDbLine
 10
-74.42459106445312
 20
-9.512208938598633
 30
0.0
 11
-74.50794982910156
 21
-9.72907829284668
 31
0.0
1001
DBPROPERTIES
1002
{
1000
PbThick
1002
}
  0
LINE
  5
4F9
330
1F
100
AcDbEntity
  8
THICK
100
AcDbLine
 10
-74.50794982910156
 20
-9.72907829284668
 30
0.0
 11
-74.58270263671875
 21
-9.957137107849121
 31
0.0
1001
DBPROPERTIES
1002
{
1000
PbThick
1002
}
  0
LINE
  5
4FA
330
1F
100
AcDbEntity
  8
THICK
100
AcDbLine
 10
-74.58270263671875
 20
-9.957137107849121
 30
0.0
 11
-74.64848327636719
 21
-10.19798851013184
 31
0.0
1001
DBPROPERTIES
1002
{
1000
PbThick
1002
}
  0
LINE
  5
4FB
330
1F
100
AcDbEntity
  8
THICK
100
AcDbLine
 10
-74.64848327636719
 20
-10.19798851013184
 30
0.0
 11
-74.70343780517578
 21
-10.44801616668701
 31
0.0
1001
DBPROPERTIES
1002
{
1000
PbThick
1002
}
  0
LINE
  5
4FC
330
1F
100
AcDbEntity
  8
THICK
100
AcDbLine
 10
-74.70343780517578
 20
-10.44801616668701
 30
0.0
 11
-74.74632263183594
 21
-10.70335102081299
 31
0.0
1001
DBPROPERTIES
1002
{
1000
PbThick
1002
}
  0
LINE
  5
4FD
330
1F
100
AcDbEntity
  8
THICK
100
AcDbLine
 10
-74.74632263183594
 20
-10.70335102081299
 30
0.0
 11
-74.77658081054688
 21
-10.95999431610107
 31
0.0
1001
DBPROPERTIES
1002
{
1000
PbThick
1002
}
  0
LINE
  5
4FE
330
1F
100
AcDbEntity
  8
THICK
100
AcDbLine
 10
-74.77658081054688
 20
-10.95999431610107
 30
0.0
 11
-74.79417419433594
 21
-11.21367645263672
 31
0.0
1001
DBPROPERTIES
1002
{
1000
PbThick
1002
}
  0
LINE
  5
4FF
330
1F
100
AcDbEntity
  8
THICK
100
AcDbLine
 10
-74.79417419433594
 20
-11.21367645263672
 30
0.0
 11
-74.79981231689453
 21
-11.46000003814697
 31
0.0
1001
DBPROPERTIES
1002
{
1000
PbThick
1002
}
  0
LINE
  5
500
330
1F
100
AcDbEntity
  8
HIDDEN
100
AcDbLine
 10
-71.88784790039062
 20
-7.460004806518555
 30
0.0
 11
-72.00590515136719
 21
-7.463886260986328
 31
0.0
1001
DBPROPERTIES
1002
{
1000
PbHidd
1002
}
  0
LINE
  5
501
330
1F
100
AcDbEntity
  8
HIDDEN
100
AcDbLine
 10
-72.00590515136719
 20
-7.463886260986328
 30
0.0
 11
-72.12733459472656
 21
-7.475165367126465
 31
0.0
1001
DBPROPERTIES
1002
{
1000
PbHidd
1002
}
  0
LINE
  5
502
330
1F
100
AcDbEntity
  8
HIDDEN
100
AcDbLine
 10
-72.12733459472656
 20
-7.475165367126465
 30
0.0
 11
-72.2508316040039
 21
-7.494089126586914
 31
0.0
1001
DBPROPERTIES
1002
{
1000
PbHidd
1002
}
  0
LINE
  5
503
330
1F
100
AcDbEntity
  8
HIDDEN
100
AcDbLine
 10
-72.2508316040039
 20
-7.494089126586914
 30
0.0
 11
-72.3750991821289
 21
-7.520903587341309
 31
0.0
1001
DBPROPERTIES
1002
{
1000
PbHidd
1002
}
  0
LINE
  5
504
330
1F
100
AcDbEntity
  8
HIDDEN
100
AcDbLine
 10
-72.3750991821289
 20
-7.520903587341309
 30
0.0
 11
-72.49884796142578
 21
-7.555782794952393
 31
0.0
1001
DBPROPERTIES
1002
{
1000
PbHidd
1002
}
  0
LINE
  5
505
330
1F
100
AcDbEntity
  8
HIDDEN
100
AcDbLine
 10
-72.49884796142578
 20
-7.555782794952393
 30
0.0
 11
-72.62084197998047
 21
-7.598509788513184
 31
0.0
1001
DBPROPERTIES
1002
{
1000
PbHidd
1002
}
  0
LINE
  5
506
330
1F
100
AcDbEntity
  8
HIDDEN
100
AcDbLine
 10
-72.62084197998047
 20
-7.598509788513184
 30
0.0
 11
-72.73995971679688
 21
-7.6480393409729
 31
0.0
1001
DBPROPERTIES
1002
{
1000
PbHidd
1002
}
  0
LINE
  5
507
330
1F
100
AcDbEntity
  8
HIDDEN
100
AcDbLine
 10
-72.73995971679688
 20
-7.6480393409729
 30
0.0
 11
-72.85507202148438
 21
-7.703485488891602
 31
0.0
1001
DBPROPERTIES
1002
{
1000
PbHidd
1002
}
  0
LINE
  5
508
330
1F
100
AcDbEntity
  8
HIDDEN
100
AcDbLine
 10
-72.85507202148438
 20
-7.703485488891602
 30
0.0
 11
-72.96503448486328
 21
-7.763917446136475
 31
0.0
1001
DBPROPERTIES
1002
{
1000
PbHidd
1002
}
  0
LINE
  5
509
330
1F
100
AcDbEntity
  8
HIDDEN
100
AcDbLine
 10
-72.96503448486328
 20
-7.763917446136475
 30
0.0
 11
-73.0730209350586
 21
-7.830863475799561
 31
0.0
1001
DBPROPERTIES
1002
{
1000
PbHidd
1002
}
  0
LINE
  5
50A
330
1F
100
AcDbEntity
  8
THICK
100
AcDbLine
 10
-71.89432525634766
 20
-7.46308422088623
 30
0.0
 11
-71.88894653320312
 21
-7.462551593780518
 31
0.0
1001
DBPROPERTIES
1002
{
1000
PbThick
1002
}
  0
LINE
  5
50B
330
1F
100
AcDbEntity
  8
THICK
100
AcDbLine
 10
-71.88894653320312
 20
-7.462551593780518
 30
0.0
 11
-71.88399505615234
 21
-7.462080478668213
 31
0.0
1001
DBPROPERTIES
1002
{
1000
PbThick
1002
}
  0
LINE
  5
50C
330
1F
100
AcDbEntity
  8
THICK
100
AcDbLine
 10
-71.88399505615234
 20
-7.462080478668213
 30
0.0
 11
-71.87950897216797
 21
-7.461671829223633
 31
0.0
1001
DBPROPERTIES
1002
{
1000
PbThick
1002
}
  0
LINE
  5
50D
330
1F
100
AcDbEntity
  8
THICK
100
AcDbLine
 10
-71.87950897216797
 20
-7.461671829223633
 30
0.0
 11
-71.8755111694336
 21
-7.461321353912354
 31
0.0
1001
DBPROPERTIES
1002
{
1000
PbThick
1002
}
  0
LINE
  5
50E
330
1F
100
AcDbEntity
  8
THICK
100
AcDbLine
 10
-71.8755111694336
 20
-7.461321353912354
 30
0.0
 11
-71.87203216552734
 21
-7.461025238037109
 31
0.0
1001
DBPROPERTIES
1002
{
1000
PbThick
1002
}
  0
LINE
  5
50F
330
1F
100
AcDbEntity
  8
THICK
100
AcDbLine
 10
-71.87203216552734
 20
-7.461025238037109
 30
0.0
 11
-71.86910247802734
 21
-7.46077823638916
 31
0.0
1001
DBPROPERTIES
1002
{
1000
PbThick
1002
}
  0
LINE
  5
510
330
1F
100
AcDbEntity
  8
THICK
100
AcDbLine
 10
-71.86910247802734
 20
-7.46077823638916
 30
0.0
 11
-71.86676025390625
 21
-7.460572719573975
 31
0.0
1001
DBPROPERTIES
1002
{
1000
PbThick
1002
}
  0
LINE
  5
511
330
1F
100
AcDbEntity
  8
THICK
100
AcDbLine
 10
-71.86676025390625
 20
-7.460572719573975
 30
0.0
 11
-71.86502838134766
 21
-7.460414886474609
 31
0.0
1001
DBPROPERTIES
1002
{
1000
PbThick
1002
}
  0
LINE
  5
512
330
1F
100
AcDbEntity
  8
THICK
100
AcDbLine
 10
-71.86502838134766
 20
-7.460414886474609
 30
0.0
 11
-71.86393737792969
 21
-7.46028995513916
 31
0.0
1001
DBPROPERTIES
1002
{
1000
PbThick
1002
}
  0
LINE
  5
513
330
1F
100
AcDbEntity
  8
THICK
100
AcDbLine
 10
-71.86393737792969
 20
-7.46028995513916
 30
0.0
 11
-71.863525390625
 21
-7.46019458770752
 31
0.0
1001
DBPROPERTIES
1002
{
1000
PbThick
1002
}
  0
LINE
  5
514
330
1F
100
AcDbEntity
  8
THICK
100
AcDbLine
 10
-71.863525390625
 20
-7.46019458770752
 30
0.0
 11
-71.8639144897461
 21
-7.460122108459473
 31
0.0
1001
DBPROPERTIES
1002
{
1000
PbThick
1002
}
  0
LINE
  5
515
330
1F
100
AcDbEntity
  8
THICK
100
AcDbLine
 10
-71.8639144897461
 20
-7.460122108459473
 30
0.0
 11
-71.86527252197266
 21
-7.460070133209229
 31
0.0
1001
DBPROPERTIES
1002
{
1000
PbThick
1002
}
  0
LINE
  5
516
330
1F
100
AcDbEntity
  8
THICK
100
AcDbLine
 10
-71.86527252197266
 20
-7.460070133209229
 30
0.0
 11
-71.8677749633789
 21
-7.460036277770996
 31
0.0
1001
DBPROPERTIES
1002
{
1000
PbThick
1002
}
  0
LINE
  5
517
330
1F
100
AcDbEntity
  8
THICK
100
AcDbLine
 10
-71.8677749633789
 20
-7.460036277770996
 30
0.0
 11
-71.87158966064453
 21
-7.460017681121826
 31
0.0
1001
DBPROPERTIES
1002
{
1000
PbThick
1002
}
  0
LINE
  5
518
330
1F
100
AcDbEntity
  8
HIDDEN
100
AcDbLine
 10
-71.7460708618164
 20
-7.460003852844238
 30
0.0
 11
-71.74639892578125
 21
-7.460003852844238
 31
0.0
1001
DBPROPERTIES
1002
{
1000
PbHidd
1002
}
  0
LINE
  5
519
330
1F
100
AcDbEntity
  8
HIDDEN
100
AcDbLine
 10
-71.74639892578125
 20
-7.460003852844238
 30
0.0
 11
-71.74674987792969
 21
-7.460003852844238
 31
0.0
1001
DBPROPERTIES
1002
{
1000
PbHidd
1002
}
  0
LINE
  5
51A
330
1F
100
AcDbEntity
  8
HIDDEN
100
AcDbLine
 10
-71.74674987792969
 20
-7.460003852844238
 30
0.0
 11
-71.74711608886719
 21
-7.460003852844238
 31
0.0
1001
DBPROPERTIES
1002
{
1000
PbHidd
1002
}
  0
LINE
  5
51B
330
1F
100
AcDbEntity
  8
HIDDEN
100
AcDbLine
 10
-71.74711608886719
 20
-7.460003852844238
 30
0.0
 11
-71.74750518798828
 21
-7.460004329681396
 31
0.0
1001
DBPROPERTIES
1002
{
1000
PbHidd
1002
}
  0
LINE
  5
51C
330
1F
100
AcDbEntity
  8
HIDDEN
100
AcDbLine
 10
-71.74750518798828
 20
-7.460004329681396
 30
0.0
 11
-71.74789428710938
 21
-7.460004329681396
 31
0.0
1001
DBPROPERTIES
1002
{
1000
PbHidd
1002
}
  0
LINE
  5
51D
330
1F
100
AcDbEntity
  8
HIDDEN
100
AcDbLine
 10
-71.74789428710938
 20
-7.460004329681396
 30
0.0
 11
-71.74832153320312
 21
-7.460004329681396
 31
0.0
1001
DBPROPERTIES
1002
{
1000
PbHidd
1002
}
  0
LINE
  5
51E
330
1F
100
AcDbEntity
  8
HIDDEN
100
AcDbLine
 10
-71.74832153320312
 20
-7.460004329681396
 30
0.0
 11
-71.74873352050781
 21
-7.460004806518555
 31
0.0
1001
DBPROPERTIES
1002
{
1000
PbHidd
1002
}
  0
LINE
  5
51F
330
1F
100
AcDbEntity
  8
HIDDEN
100
AcDbLine
 10
-71.74873352050781
 20
-7.460004806518555
 30
0.0
 11
-71.74916076660156
 21
-7.460004806518555
 31
0.0
1001
DBPROPERTIES
1002
{
1000
PbHidd
1002
}
  0
LINE
  5
520
330
1F
100
AcDbEntity
  8
HIDDEN
100
AcDbLine
 10
-71.74916076660156
 20
-7.460004806518555
 30
0.0
 11
-71.74958038330078
 21
-7.460004806518555
 31
0.0
1001
DBPROPERTIES
1002
{
1000
PbHidd
1002
}
  0
LINE
  5
521
330
1F
100
AcDbEntity
  8
HIDDEN
100
AcDbLine
 10
-71.74958038330078
 20
-7.460004806518555
 30
0.0
 11
-71.75
 21
-7.460005283355713
 31
0.0
1001
DBPROPERTIES
1002
{
1000
PbHidd
1002
}
  0
LINE
  5
522
330
1F
100
AcDbEntity
  8
THICK
100
AcDbLine
 10
-57.74999999999999
 20
-31.46000000000001
 30
0.0
 11
-54.92157287525379
 21
-31.46000000000001
 31
0.0
1001
DBPROPERTIES
1002
{
1000
PbThick
1002
}
  0
LINE
  5
523
330
1F
100
AcDbEntity
  8
THICK
100
AcDbLine
 10
-71.65196228027344
 20
-7.462403774261475
 30
0.0
 11
-71.66812133789062
 21
-7.462470054626465
 31
0.0
1001
DBPROPERTIES
1002
{
1000
PbThick
1002
}
  0
LINE
  5
524
330
1F
100
AcDbEntity
  8
THICK
100
AcDbLine
 10
-71.66812133789062
 20
-7.462470054626465
 30
0.0
 11
-71.68436431884766
 21
-7.462669372558594
 31
0.0
1001
DBPROPERTIES
1002
{
1000
PbThick
1002
}
  0
LINE
  5
525
330
1F
100
AcDbEntity
  8
THICK
100
AcDbLine
 10
-71.68436431884766
 20
-7.462669372558594
 30
0.0
 11
-71.70066833496094
 21
-7.462996482849121
 31
0.0
1001
DBPROPERTIES
1002
{
1000
PbThick
1002
}
  0
LINE
  5
526
330
1F
100
AcDbEntity
  8
THICK
100
AcDbLine
 10
-71.70066833496094
 20
-7.462996482849121
 30
0.0
 11
-71.71704864501953
 21
-7.463472366333008
 31
0.0
1001
DBPROPERTIES
1002
{
1000
PbThick
1002
}
  0
LINE
  5
527
330
1F
100
AcDbEntity
  8
THICK
100
AcDbLine
 10
-71.71704864501953
 20
-7.463472366333008
 30
0.0
 11
-71.73348999023438
 21
-7.464078903198242
 31
0.0
1001
DBPROPERTIES
1002
{
1000
PbThick
1002
}
  0
LINE
  5
528
330
1F
100
AcDbEntity
  8
THICK
100
AcDbLine
 10
-71.73348999023438
 20
-7.464078903198242
 30
0.0
 11
-71.75
 21
-7.464804649353027
 31
0.0
1001
DBPROPERTIES
1002
{
1000
PbThick
1002
}
  0
ELLIPSE
  5
529
330
1F
100
AcDbEntity
  8
THICK
100
AcDbEllipse
 10
-71.89213562373094
 20
-11.45999999999998
 30
0.0
 11
-2.449212707644755E-16
 21
-4.0
 31
0.0
210
0.0
220
0.0
230
1.0
 40
0.7071067811865475
 41
-3.141592653589793
 42
0.0
1001
DBPROPERTIES
1002
{
1000
PbThick
1002
}
  0
ELLIPSE
  5
52A
330
1F
100
AcDbEntity
  8
HIDDEN
100
AcDbEllipse
 10
-71.89213562373094
 20
-11.45999999999998
 30
0.0
 11
-2.446118233605692E-16
 21
-3.994946173471331
 31
0.0
210
0.0
220
0.0
230
1.0
 40
0.7071067811865475
 41
-2.710313803336871
 42
-0.4312788502550644
1001
DBPROPERTIES
1002
{
1000
PbHidd
1002
}
  0
LINE
  5
52B
330
1F
100
AcDbEntity
  8
THICK
100
AcDbLine
 10
25.75
 20
-137.275
 30
0.0
 11
-25.75
 21
-137.275
 31
0.0
1001
DBPROPERTIES
1002
{
1000
PbThick
1002
}
  0
LINE
  5
52C
330
1F
100
AcDbEntity
  8
THICK
100
AcDbLine
 10
30.75
 20
-132.275
 30
0.0
 11
25.75
 21
-137.275
 31
0.0
1001
DBPROPERTIES
1002
{
1000
PbThick
1002
}
  0
LINE
  5
52D
330
1F
100
AcDbEntity
  8
THICK
100
AcDbLine
 10
30.75
 20
-132.275
 30
0.0
 11
-30.75
 21
-132.275
 31
0.0
1001
DBPROPERTIES
1002
{
1000
PbThick
1002
}
  0
LINE
  5
52E
330
1F
100
AcDbEntity
  8
THICK
100
AcDbLine
 10
-30.75
 20
-132.275
 30
0.0
 11
-20.75
 21
-142.275
 31
0.0
1001
DBPROPERTIES
1002
{
1000
PbThick
1002
}
  0
LINE
  5
52F
330
1F
100
AcDbEntity
  8
THICK
100
AcDbLine
 10
30.75
 20
-193.775
 30
0.0
 11
30.75
 21
-132.275
 31
0.0
1001
DBPROPERTIES
1002
{
1000
PbThick
1002
}
  0
LINE
  5
530
330
1F
100
AcDbEntity
  8
THICK
100
AcDbLine
 10
25.75
 20
-188.775
 30
0.0
 11
25.75
 21
-137.275
 31
0.0
1001
DBPROPERTIES
1002
{
1000
PbThick
1002
}
  0
LINE
  5
531
330
1F
100
AcDbEntity
  8
THICK
100
AcDbLine
 10
25.75
 20
-188.775
 30
0.0
 11
30.75
 21
-193.775
 31
0.0
1001
DBPROPERTIES
1002
{
1000
PbThick
1002
}
  0
LINE
  5
532
330
1F
100
AcDbEntity
  8
THICK
100
AcDbLine
 10
-25.75
 20
-188.775
 30
0.0
 11
-25.75
 21
-137.275
 31
0.0
1001
DBPROPERTIES
1002
{
1000
PbThick
1002
}
  0
LINE
  5
533
330
1F
100
AcDbEntity
  8
THICK
100
AcDbLine
 10
25.75
 20
-188.775
 30
0.0
 11
-25.75
 21
-188.775
 31
0.0
1001
DBPROPERTIES
1002
{
1000
PbThick
1002
}
  0
LINE
  5
534
330
1F
100
AcDbEntity
  8
THICK
100
AcDbLine
 10
-30.75
 20
-193.775
 30
0.0
 11
-25.75
 21
-188.775
 31
0.0
1001
DBPROPERTIES
1002
{
1000
PbThick
1002
}
  0
LINE
  5
535
330
1F
100
AcDbEntity
  8
THICK
100
AcDbLine
 10
30.75
 20
-193.775
 30
0.0
 11
-30.75
 21
-193.775
 31
0.0
1001
DBPROPERTIES
1002
{
1000
PbThick
1002
}
  0
LINE
  5
536
330
1F
100
AcDbEntity
  8
HIDDEN
100
AcDbLine
 10
30.75
 20
-193.775
 30
0.0
 11
30.75
 21
-193.775
 31
0.0
1001
DBPROPERTIES
1002
{
1000
PbHidd
1002
}
  0
LINE
  5
537
330
1F
100
AcDbEntity
  8
HIDDEN
100
AcDbLine
 10
30.75
 20
-132.275
 30
0.0
 11
30.75
 21
-132.275
 31
0.0
1001
DBPROPERTIES
1002
{
1000
PbHidd
1002
}
  0
LINE
  5
538
330
1F
100
AcDbEntity
  8
HIDDEN
100
AcDbLine
 10
30.75
 20
-143.0
 30
0.0
 11
30.75
 21
-143.0
 31
0.0
1001
DBPROPERTIES
1002
{
1000
PbHidd
1002
}
  0
LINE
  5
539
330
1F
100
AcDbEntity
  8
HIDDEN
100
AcDbLine
 10
-172.2
 20
-133.7
 30
0.0
 11
-0.0000000000000395
 21
-133.7
 31
0.0
1001
DBPROPERTIES
1002
{
1000
PbHidd
1002
}
  0
LINE
  5
53A
330
1F
100
AcDbEntity
  8
THICK
100
AcDbLine
 10
168.1
 20
-116.1875
 30
0.0
 11
0.0000000000000032
 21
-116.1875
 31
0.0
1001
DBPROPERTIES
1002
{
1000
PbThick
1002
}
  0
LINE
  5
53B
330
1F
100
AcDbEntity
  8
THICK
100
AcDbLine
 10
188.6
 20
-124.3875
 30
0.0
 11
0.0000000000000044
 21
-124.3875
 31
0.0
1001
DBPROPERTIES
1002
{
1000
PbThick
1002
}
  0
LINE
  5
53C
330
1F
100
AcDbEntity
  8
THICK
100
AcDbLine
 10
168.1
 20
-98.3125
 30
0.0
 11
0.0000000000000043
 21
-98.3125
 31
0.0
1001
DBPROPERTIES
1002
{
1000
PbThick
1002
}
  0
LINE
  5
53D
330
1F
100
AcDbEntity
  8
THICK
100
AcDbLine
 10
188.6
 20
-106.5125
 30
0.0
 11
0.0000000000000055
 21
-106.5125
 31
0.0
1001
DBPROPERTIES
1002
{
1000
PbThick
1002
}
  0
LINE
  5
53E
330
1F
100
AcDbEntity
  8
THICK
100
AcDbLine
 10
168.1
 20
-80.4375
 30
0.0
 11
0.0000000000000054
 21
-80.4375
 31
0.0
1001
DBPROPERTIES
1002
{
1000
PbThick
1002
}
  0
LINE
  5
53F
330
1F
100
AcDbEntity
  8
THICK
100
AcDbLine
 10
188.6
 20
-88.63749999999999
 30
0.0
 11
0.0000000000000066
 21
-88.63749999999999
 31
0.0
1001
DBPROPERTIES
1002
{
1000
PbThick
1002
}
  0
LINE
  5
540
330
1F
100
AcDbEntity
  8
THICK
100
AcDbLine
 10
168.1
 20
-62.5625
 30
0.0
 11
0.0000000000000065
 21
-62.5625
 31
0.0
1001
DBPROPERTIES
1002
{
1000
PbThick
1002
}
  0
LINE
  5
541
330
1F
100
AcDbEntity
  8
THICK
100
AcDbLine
 10
188.6
 20
-70.76249999999999
 30
0.0
 11
0.0000000000000077
 21
-70.76249999999999
 31
0.0
1001
DBPROPERTIES
1002
{
1000
PbThick
1002
}
  0
LINE
  5
542
330
1F
100
AcDbEntity
  8
THICK
100
AcDbLine
 10
168.1
 20
-44.6875
 30
0.0
 11
0.0000000000000076
 21
-44.6875
 31
0.0
1001
DBPROPERTIES
1002
{
1000
PbThick
1002
}
  0
LINE
  5
543
330
1F
100
AcDbEntity
  8
THICK
100
AcDbLine
 10
188.6
 20
-52.88749999999999
 30
0.0
 11
0.0000000000000088
 21
-52.88749999999999
 31
0.0
1001
DBPROPERTIES
1002
{
1000
PbThick
1002
}
  0
LINE
  5
544
330
1F
100
AcDbEntity
  8
THICK
100
AcDbLine
 10
0.0000000000000126
 20
-35.75
 30
0.0
 11
205.0
 21
-35.75
 31
0.0
1001
DBPROPERTIES
1002
{
1000
PbThick
1002
}
  0
LINE
  5
545
330
1F
100
AcDbEntity
  8
THICK
100
AcDbLine
 10
0.0000000000000044
 20
-20.00624491117622
 30
0.0
 11
72.225
 21
-20.00624491117622
 31
0.0
1001
DBPROPERTIES
1002
{
1000
PbThick
1002
}
  0
LINE
  5
546
330
1F
100
AcDbEntity
  8
HIDDEN
100
AcDbLine
 10
72.225
 20
-20.00624491117622
 30
0.0
 11
0.0000000000000044
 21
-20.00624491117622
 31
0.0
1001
DBPROPERTIES
1002
{
1000
PbHidd
1002
}
  0
LINE
  5
547
330
1F
100
AcDbEntity
  8
THICK
100
AcDbLine
 10
0.0000000000000044
 20
-18.57624491117622
 30
0.0
 11
72.225
 21
-18.57624491117622
 31
0.0
1001
DBPROPERTIES
1002
{
1000
PbThick
1002
}
  0
LINE
  5
548
330
1F
100
AcDbEntity
  8
THICK
100
AcDbLine
 10
0.0000000000000025
 20
0.0
 30
0.0
 11
41.0
 21
0.0
 31
0.0
1001
DBPROPERTIES
1002
{
1000
PbThick
1002
}
  0
LINE
  5
549
330
1F
100
AcDbEntity
  8
THICK
100
AcDbLine
 10
-30.74999999999999
 20
-143.0
 30
0.0
 11
-52.70025087698231
 21
-143.0
 31
0.0
1001
DBPROPERTIES
1002
{
1000
PbThick
1002
}
  0
LINE
  5
54A
330
1F
100
AcDbEntity
  8
HIDDEN
100
AcDbLine
 10
-52.70025087698231
 20
-143.0
 30
0.0
 11
-61.06330092464187
 21
-143.0
 31
0.0
1001
DBPROPERTIES
1002
{
1000
PbHidd
1002
}
  0
LINE
  5
54B
330
1F
100
AcDbEntity
  8
THICK
100
AcDbLine
 10
-172.2
 20
-143.0
 30
0.0
 11
-61.06330092464187
 21
-143.0
 31
0.0
1001
DBPROPERTIES
1002
{
1000
PbThick
1002
}
  0
LINE
  5
54C
330
1F
100
AcDbEntity
  8
THICK
100
AcDbLine
 10
-79.50000000000001
 20
-203.2
 30
0.0
 11
-0.0000000000000076
 21
-203.2
 31
0.0
1001
DBPROPERTIES
1002
{
1000
PbThick
1002
}
  0
LINE
  5
54D
330
1F
100
AcDbEntity
  8
THICK
100
AcDbLine
 10
-79.50000000000001
 20
-214.65
 30
0.0
 11
-0.0000000000000083
 21
-214.65
 31
0.0
1001
DBPROPERTIES
1002
{
1000
PbThick
1002
}
  0
LINE
  5
54E
330
1F
100
AcDbEntity
  8
THICK
100
AcDbLine
 10
-75.20000000000002
 20
-218.95
 30
0.0
 11
75.19999999999999
 21
-218.95
 31
0.0
1001
DBPROPERTIES
1002
{
1000
PbThick
1002
}
  0
LINE
  5
54F
330
1F
100
AcDbEntity
  8
THICK
100
AcDbLine
 10
-0.0000000000000088
 20
-223.25
 30
0.0
 11
-79.50000000000001
 21
-223.25
 31
0.0
1001
DBPROPERTIES
1002
{
1000
PbThick
1002
}
  0
LINE
  5
550
330
1F
100
AcDbEntity
  8
THICK
100
AcDbLine
 10
-79.50000000000001
 20
-211.8
 30
0.0
 11
-0.0000000000000081
 21
-211.8
 31
0.0
1001
DBPROPERTIES
1002
{
1000
PbThick
1002
}
  0
LINE
  5
551
330
1F
100
AcDbEntity
  8
THICK
100
AcDbLine
 10
75.19999999999999
 20
-207.5
 30
0.0
 11
-75.20000000000002
 21
-207.5
 31
0.0
1001
DBPROPERTIES
1002
{
1000
PbThick
1002
}
  0
LINE
  5
552
330
1F
100
AcDbEntity
  8
THICK
100
AcDbLine
 10
79.49999999999999
 20
-229.0
 30
0.0
 11
79.49999999999999
 21
-223.25
 31
0.0
1001
DBPROPERTIES
1002
{
1000
PbThick
1002
}
  0
LINE
  5
553
330
1F
100
AcDbEntity
  8
THICK
100
AcDbLine
 10
79.49999999999999
 20
-214.6499938964844
 30
0.0
 11
79.49999999999999
 21
-211.8000030517578
 31
0.0
1001
DBPROPERTIES
1002
{
1000
PbThick
1002
}
  0
LINE
  5
554
330
1F
100
AcDbEntity
  8
THICK
100
AcDbLine
 10
79.49999999999999
 20
-203.1999969482422
 30
0.0
 11
79.49999999999999
 21
-143.0
 31
0.0
1001
DBPROPERTIES
1002
{
1000
PbThick
1002
}
  0
LINE
  5
555
330
1F
100
AcDbEntity
  8
THICK
100
AcDbLine
 10
172.2
 20
-143.0
 30
0.0
 11
172.2
 21
-133.6999969482422
 31
0.0
1001
DBPROPERTIES
1002
{
1000
PbThick
1002
}
  0
LINE
  5
556
330
1F
100
AcDbEntity
  8
THICK
100
AcDbLine
 10
164.0
 20
-44.6875
 30
0.0
 11
164.0
 21
-35.75
 31
0.0
1001
DBPROPERTIES
1002
{
1000
PbThick
1002
}
  0
LINE
  5
557
330
1F
100
AcDbEntity
  8
THICK
100
AcDbLine
 10
-41.0
 20
0.0
 30
0.0
 11
-45.30703315733867
 21
-7.460000258394376
 31
0.0
1001
DBPROPERTIES
1002
{
1000
PbThick
1002
}
  0
LINE
  5
558
330
1F
100
AcDbEntity
  8
HIDDEN
100
AcDbLine
 10
-45.30703315733867
 20
-7.460000258394376
 30
0.0
 11
-49.92583505171226
 21
-15.45999980954482
 31
0.0
1001
DBPROPERTIES
1002
{
1000
PbHidd
1002
}
  0
LINE
  5
559
330
1F
100
AcDbEntity
  8
THICK
100
AcDbLine
 10
-49.92583505171226
 20
-15.45999980954482
 30
0.0
 11
-51.7249993773733
 21
-18.57624383275514
 31
0.0
1001
DBPROPERTIES
1002
{
1000
PbThick
1002
}
  0
LINE
  5
55A
330
1F
100
AcDbEntity
  8
THICK
100
AcDbLine
 10
-72.225
 20
-18.57624435424805
 30
0.0
 11
-72.225
 21
-20.00624465942383
 31
0.0
1001
DBPROPERTIES
1002
{
1000
PbThick
1002
}
  0
LINE
  5
55B
330
1F
100
AcDbEntity
  8
THICK
100
AcDbLine
 10
-72.22499846583985
 20
-20.00624472926365
 30
0.0
 11
-205.0
 21
-35.75000000000001
 31
0.0
1001
DBPROPERTIES
1002
{
1000
PbThick
1002
}
  0
LINE
  5
55C
330
1F
100
AcDbEntity
  8
THICK
100
AcDbLine
 10
164.0
 20
-62.5625
 30
0.0
 11
164.0
 21
-52.88750076293945
 31
0.0
1001
DBPROPERTIES
1002
{
1000
PbThick
1002
}
  0
LINE
  5
55D
330
1F
100
AcDbEntity
  8
THICK
100
AcDbLine
 10
-168.1000052616514
 20
-44.68750210466055
 30
0.0
 11
-188.600005524734
 21
-52.88750220989357
 31
0.0
1001
DBPROPERTIES
1002
{
1000
PbThick
1002
}
  0
LINE
  5
55E
330
1F
100
AcDbEntity
  8
THICK
100
AcDbLine
 10
164.0
 20
-80.4375
 30
0.0
 11
164.0
 21
-70.76249694824219
 31
0.0
1001
DBPROPERTIES
1002
{
1000
PbThick
1002
}
  0
LINE
  5
55F
330
1F
100
AcDbEntity
  8
THICK
100
AcDbLine
 10
-168.1000052616514
 20
-62.56250210466055
 30
0.0
 11
-188.6000042093211
 21
-70.76250168372843
 31
0.0
1001
DBPROPERTIES
1002
{
1000
PbThick
1002
}
  0
LINE
  5
560
330
1F
100
AcDbEntity
  8
THICK
100
AcDbLine
 10
164.0
 20
-98.3125
 30
0.0
 11
164.0
 21
-88.63749694824219
 31
0.0
1001
DBPROPERTIES
1002
{
1000
PbThick
1002
}
  0
LINE
  5
561
330
1F
100
AcDbEntity
  8
THICK
100
AcDbLine
 10
-168.1000052616514
 20
-80.43750210466055
 30
0.0
 11
-188.6000042093211
 21
-88.63750168372843
 31
0.0
1001
DBPROPERTIES
1002
{
1000
PbThick
1002
}
  0
LINE
  5
562
330
1F
100
AcDbEntity
  8
THICK
100
AcDbLine
 10
164.0
 20
-116.1875
 30
0.0
 11
164.0
 21
-106.5124969482422
 31
0.0
1001
DBPROPERTIES
1002
{
1000
PbThick
1002
}
  0
LINE
  5
563
330
1F
100
AcDbEntity
  8
THICK
100
AcDbLine
 10
-168.1000052616514
 20
-98.31250210466055
 30
0.0
 11
-188.6000042093211
 21
-106.5125016837284
 31
0.0
1001
DBPROPERTIES
1002
{
1000
PbThick
1002
}
  0
LINE
  5
564
330
1F
100
AcDbEntity
  8
THICK
100
AcDbLine
 10
-168.1000052616514
 20
-116.1875021046606
 30
0.0
 11
-188.6000042093211
 21
-124.3875016837284
 31
0.0
1001
DBPROPERTIES
1002
{
1000
PbThick
1002
}
  0
LINE
  5
565
330
1F
100
AcDbEntity
  8
THICK
100
AcDbLine
 10
164.0
 20
-128.6999969482422
 30
0.0
 11
164.0
 21
-124.3874969482422
 31
0.0
1001
DBPROPERTIES
1002
{
1000
PbThick
1002
}
  0
LINE
  5
566
330
1F
100
AcDbEntity
  8
HIDDEN
100
AcDbLine
 10
-62.74999999999999
 20
-123.029296875
 30
0.0
 11
-62.74999999999999
 21
-124.3874969482422
 31
0.0
1001
DBPROPERTIES
1002
{
1000
PbHidd
1002
}
  0
LINE
  5
567
330
1F
100
AcDbEntity
  8
HIDDEN
100
AcDbLine
 10
-62.74999999999999
 20
-105.154296875
 30
0.0
 11
-62.74999999999999
 21
-106.5124969482422
 31
0.0
1001
DBPROPERTIES
1002
{
1000
PbHidd
1002
}
  0
LINE
  5
568
330
1F
100
AcDbEntity
  8
HIDDEN
100
AcDbLine
 10
-62.74999999999999
 20
-87.279296875
 30
0.0
 11
-62.74999999999999
 21
-88.63749694824219
 31
0.0
1001
DBPROPERTIES
1002
{
1000
PbHidd
1002
}
  0
LINE
  5
569
330
1F
100
AcDbEntity
  8
HIDDEN
100
AcDbLine
 10
-62.74999999999999
 20
-69.404296875
 30
0.0
 11
-62.74999999999999
 21
-70.76249694824219
 31
0.0
1001
DBPROPERTIES
1002
{
1000
PbHidd
1002
}
  0
LINE
  5
56A
330
1F
100
AcDbEntity
  8
HIDDEN
100
AcDbLine
 10
-62.74999999999999
 20
-51.52929306030273
 30
0.0
 11
-62.74999999999999
 21
-52.88750076293945
 31
0.0
1001
DBPROPERTIES
1002
{
1000
PbHidd
1002
}
  0
LINE
  5
56B
330
1F
100
AcDbEntity
  8
HIDDEN
100
AcDbLine
 10
-62.74999999999999
 20
-33.40277099609375
 30
0.0
 11
-62.74999999999999
 21
-35.75
 31
0.0
1001
DBPROPERTIES
1002
{
1000
PbHidd
1002
}
  0
LINE
  5
56C
330
1F
100
AcDbEntity
  8
THICK
100
AcDbLine
 10
-61.74999999999999
 20
-31.45999908447266
 30
0.0
 11
-61.74999999999999
 21
-33.69844818115234
 31
0.0
1001
DBPROPERTIES
1002
{
1000
PbThick
1002
}
  0
LINE
  5
56D
330
1F
100
AcDbEntity
  8
HIDDEN
100
AcDbLine
 10
-61.74999999999999
 20
-33.69844818115234
 30
0.0
 11
-61.74999999999999
 21
-35.75
 31
0.0
1001
DBPROPERTIES
1002
{
1000
PbHidd
1002
}
  0
LINE
  5
56E
330
1F
100
AcDbEntity
  8
THICK
100
AcDbLine
 10
-61.74999999999999
 20
-35.75
 30
0.0
 11
-61.74999999999999
 21
-52.52680587768555
 31
0.0
1001
DBPROPERTIES
1002
{
1000
PbThick
1002
}
  0
LINE
  5
56F
330
1F
100
AcDbEntity
  8
HIDDEN
100
AcDbLine
 10
-61.74999999999999
 20
-52.52680587768555
 30
0.0
 11
-61.74999999999999
 21
-52.88750076293945
 31
0.0
1001
DBPROPERTIES
1002
{
1000
PbHidd
1002
}
  0
LINE
  5
570
330
1F
100
AcDbEntity
  8
THICK
100
AcDbLine
 10
-61.74999999999999
 20
-52.88750076293945
 30
0.0
 11
-61.74999999999999
 21
-70.40180206298828
 31
0.0
1001
DBPROPERTIES
1002
{
1000
PbThick
1002
}
  0
LINE
  5
571
330
1F
100
AcDbEntity
  8
HIDDEN
100
AcDbLine
 10
-61.74999999999999
 20
-70.40180206298828
 30
0.0
 11
-61.74999999999999
 21
-70.76249694824219
 31
0.0
1001
DBPROPERTIES
1002
{
1000
PbHidd
1002
}
  0
LINE
  5
572
330
1F
100
AcDbEntity
  8
THICK
100
AcDbLine
 10
-61.74999999999999
 20
-70.76249694824219
 30
0.0
 11
-61.74999999999999
 21
-88.27680206298828
 31
0.0
1001
DBPROPERTIES
1002
{
1000
PbThick
1002
}
  0
LINE
  5
573
330
1F
100
AcDbEntity
  8
HIDDEN
100
AcDbLine
 10
-61.74999999999999
 20
-88.27680206298828
 30
0.0
 11
-61.74999999999999
 21
-88.63749694824219
 31
0.0
1001
DBPROPERTIES
1002
{
1000
PbHidd
1002
}
  0
LINE
  5
574
330
1F
100
AcDbEntity
  8
THICK
100
AcDbLine
 10
-61.74999999999999
 20
-88.63749694824219
 30
0.0
 11
-61.74999999999999
 21
-106.1518020629883
 31
0.0
1001
DBPROPERTIES
1002
{
1000
PbThick
1002
}
  0
LINE
  5
575
330
1F
100
AcDbEntity
  8
HIDDEN
100
AcDbLine
 10
-61.74999999999999
 20
-106.1518020629883
 30
0.0
 11
-61.74999999999999
 21
-106.5124969482422
 31
0.0
1001
DBPROPERTIES
1002
{
1000
PbHidd
1002
}
  0
LINE
  5
576
330
1F
100
AcDbEntity
  8
THICK
100
AcDbLine
 10
-61.74999999999999
 20
-106.5124969482422
 30
0.0
 11
-61.74999999999999
 21
-124.0268020629883
 31
0.0
1001
DBPROPERTIES
1002
{
1000
PbThick
1002
}
  0
LINE
  5
577
330
1F
100
AcDbEntity
  8
HIDDEN
100
AcDbLine
 10
-61.74999999999999
 20
-124.0268020629883
 30
0.0
 11
-61.74999999999999
 21
-124.3874969482422
 31
0.0
1001
DBPROPERTIES
1002
{
1000
PbHidd
1002
}
  0
LINE
  5
578
330
1F
100
AcDbEntity
  8
THICK
100
AcDbLine
 10
-61.74999999999999
 20
-124.3874969482422
 30
0.0
 11
-61.74999999999999
 21
-137.3000030517578
 31
0.0
1001
DBPROPERTIES
1002
{
1000
PbThick
1002
}
  0
ARC
  5
579
330
1F
100
AcDbEntity
  8
THICK
100
AcDbCircle
 10
-71.74999999999999
 20
-11.45999999999998
 30
0.0
 40
4.0
100
AcDbArc
 50
89.99998127603165
 51
90.54904673110552
1001
DBPROPERTIES
1002
{
1000
PbThick
1002
}
  0
LINE
  5
57A
330
1F
100
AcDbEntity
  8
HIDDEN
100
AcDbLine
 10
-71.89213562011719
 20
-7.460000038146973
 30
0.0
 11
-71.88739776611328
 21
-7.460000991821289
 31
0.0
1001
DBPROPERTIES
1002
{
1000
PbHidd
1002
}
  0
LINE
  5
57B
330
1F
100
AcDbEntity
  8
HIDDEN
100
AcDbLine
 10
-71.88739776611328
 20
-7.460000991821289
 30
0.0
 11
-71.88414764404297
 21
-7.460002422332764
 31
0.0
1001
DBPROPERTIES
1002
{
1000
PbHidd
1002
}
  0
LINE
  5
57C
330
1F
100
AcDbEntity
  8
HIDDEN
100
AcDbLine
 10
-71.88414764404297
 20
-7.460002422332764
 30
0.0
 11
-71.88314056396484
 21
-7.460002899169922
 31
0.0
1001
DBPROPERTIES
1002
{
1000
PbHidd
1002
}
  0
LINE
  5
57D
330
1F
100
AcDbEntity
  8
HIDDEN
100
AcDbLine
 10
-71.88314056396484
 20
-7.460002899169922
 30
0.0
 11
-71.88212585449219
 21
-7.46000337600708
 31
0.0
1001
DBPROPERTIES
1002
{
1000
PbHidd
1002
}
  0
LINE
  5
57E
330
1F
100
AcDbEntity
  8
HIDDEN
100
AcDbLine
 10
-71.88212585449219
 20
-7.46000337600708
 30
0.0
 11
-71.87956237792969
 21
-7.460005760192871
 31
0.0
1001
DBPROPERTIES
1002
{
1000
PbHidd
1002
}
  0
LINE
  5
57F
330
1F
100
AcDbEntity
  8
HIDDEN
100
AcDbLine
 10
-71.87956237792969
 20
-7.460005760192871
 30
0.0
 11
-71.8759536743164
 21
-7.460009574890137
 31
0.0
1001
DBPROPERTIES
1002
{
1000
PbHidd
1002
}
  0
LINE
  5
580
330
1F
100
AcDbEntity
  8
THICK
100
AcDbLine
 10
-71.6123275756836
 20
-7.462796211242676
 30
0.0
 11
-70.39442443847656
 21
-7.540260314941406
 31
0.0
1001
DBPROPERTIES
1002
{
1000
PbThick
1002
}
  0
LINE
  5
581
330
1F
100
AcDbEntity
  8
THICK
100
AcDbLine
 10
-70.39442443847656
 20
-7.540260314941406
 30
0.0
 11
-69.17741394042969
 21
-7.724812507629395
 31
0.0
1001
DBPROPERTIES
1002
{
1000
PbThick
1002
}
  0
LINE
  5
582
330
1F
100
AcDbEntity
  8
THICK
100
AcDbLine
 10
-69.17741394042969
 20
-7.724812507629395
 30
0.0
 11
-67.78590393066406
 21
-8.070716857910156
 31
0.0
1001
DBPROPERTIES
1002
{
1000
PbThick
1002
}
  0
LINE
  5
583
330
1F
100
AcDbEntity
  8
THICK
100
AcDbLine
 10
-67.78590393066406
 20
-8.070716857910156
 30
0.0
 11
-66.40338134765625
 21
-8.56374454498291
 31
0.0
1001
DBPROPERTIES
1002
{
1000
PbThick
1002
}
  0
LINE
  5
584
330
1F
100
AcDbEntity
  8
THICK
100
AcDbLine
 10
-66.40338134765625
 20
-8.56374454498291
 30
0.0
 11
-65.66753387451172
 21
-8.890382766723633
 31
0.0
1001
DBPROPERTIES
1002
{
1000
PbThick
1002
}
  0
LINE
  5
585
330
1F
100
AcDbEntity
  8
THICK
100
AcDbLine
 10
-65.66753387451172
 20
-8.890382766723633
 30
0.0
 11
-64.9369125366211
 21
-9.26147174835205
 31
0.0
1001
DBPROPERTIES
1002
{
1000
PbThick
1002
}
  0
LINE
  5
586
330
1F
100
AcDbEntity
  8
THICK
100
AcDbLine
 10
-64.9369125366211
 20
-9.26147174835205
 30
0.0
 11
-64.21226501464844
 21
-9.678068161010742
 31
0.0
1001
DBPROPERTIES
1002
{
1000
PbThick
1002
}
  0
LINE
  5
587
330
1F
100
AcDbEntity
  8
THICK
100
AcDbLine
 10
-64.21226501464844
 20
-9.678068161010742
 30
0.0
 11
-63.4952507019043
 21
-10.14082145690918
 31
0.0
1001
DBPROPERTIES
1002
{
1000
PbThick
1002
}
  0
LINE
  5
588
330
1F
100
AcDbEntity
  8
THICK
100
AcDbLine
 10
-63.4952507019043
 20
-10.14082145690918
 30
0.0
 11
-62.29120635986328
 21
-11.04113864898682
 31
0.0
1001
DBPROPERTIES
1002
{
1000
PbThick
1002
}
  0
LINE
  5
589
330
1F
100
AcDbEntity
  8
THICK
100
AcDbLine
 10
-62.29120635986328
 20
-11.04113864898682
 30
0.0
 11
-61.30599594116211
 21
-11.90622520446777
 31
0.0
1001
DBPROPERTIES
1002
{
1000
PbThick
1002
}
  0
LINE
  5
58A
330
1F
100
AcDbEntity
  8
THICK
100
AcDbLine
 10
-61.30599594116211
 20
-11.90622520446777
 30
0.0
 11
-60.35223770141602
 21
-12.87059211730957
 31
0.0
1001
DBPROPERTIES
1002
{
1000
PbThick
1002
}
  0
LINE
  5
58B
330
1F
100
AcDbEntity
  8
THICK
100
AcDbLine
 10
-60.35223770141602
 20
-12.87059211730957
 30
0.0
 11
-59.38250350952148
 21
-14.00126075744629
 31
0.0
1001
DBPROPERTIES
1002
{
1000
PbThick
1002
}
  0
LINE
  5
58C
330
1F
100
AcDbEntity
  8
THICK
100
AcDbLine
 10
-59.38250350952148
 20
-14.00126075744629
 30
0.0
 11
-58.4638557434082
 21
-15.2410831451416
 31
0.0
1001
DBPROPERTIES
1002
{
1000
PbThick
1002
}
  0
LINE
  5
58D
330
1F
100
AcDbEntity
  8
THICK
100
AcDbLine
 10
-58.4638557434082
 20
-15.2410831451416
 30
0.0
 11
-57.60512924194336
 21
-16.58585929870605
 31
0.0
1001
DBPROPERTIES
1002
{
1000
PbThick
1002
}
  0
LINE
  5
58E
330
1F
100
AcDbEntity
  8
THICK
100
AcDbLine
 10
-57.60512924194336
 20
-16.58585929870605
 30
0.0
 11
-56.81474685668945
 21
-18.02997589111328
 31
0.0
1001
DBPROPERTIES
1002
{
1000
PbThick
1002
}
  0
LINE
  5
58F
330
1F
100
AcDbEntity
  8
THICK
100
AcDbLine
 10
-56.81474685668945
 20
-18.02997589111328
 30
0.0
 11
-56.36242294311523
 21
-18.97246742248535
 31
0.0
1001
DBPROPERTIES
1002
{
1000
PbThick
1002
}
  0
LINE
  5
590
330
1F
100
AcDbEntity
  8
THICK
100
AcDbLine
 10
-56.36242294311523
 20
-18.97246742248535
 30
0.0
 11
-55.94138336181641
 21
-19.94819641113281
 31
0.0
1001
DBPROPERTIES
1002
{
1000
PbThick
1002
}
  0
LINE
  5
591
330
1F
100
AcDbEntity
  8
THICK
100
AcDbLine
 10
-55.94138336181641
 20
-19.94819641113281
 30
0.0
 11
-55.44163131713867
 21
-21.26812744140625
 31
0.0
1001
DBPROPERTIES
1002
{
1000
PbThick
1002
}
  0
LINE
  5
592
330
1F
100
AcDbEntity
  8
THICK
100
AcDbLine
 10
-55.44163131713867
 20
-21.26812744140625
 30
0.0
 11
-55.00166320800781
 21
-22.63471794128418
 31
0.0
1001
DBPROPERTIES
1002
{
1000
PbThick
1002
}
  0
LINE
  5
593
330
1F
100
AcDbEntity
  8
THICK
100
AcDbLine
 10
-55.00166320800781
 20
-22.63471794128418
 30
0.0
 11
-54.62438201904297
 21
-24.04207992553711
 31
0.0
1001
DBPROPERTIES
1002
{
1000
PbThick
1002
}
  0
LINE
  5
594
330
1F
100
AcDbEntity
  8
THICK
100
AcDbLine
 10
-54.62438201904297
 20
-24.04207992553711
 30
0.0
 11
-54.31229782104492
 21
-25.48386192321777
 31
0.0
1001
DBPROPERTIES
1002
{
1000
PbThick
1002
}
  0
LINE
  5
595
330
1F
100
AcDbEntity
  8
THICK
100
AcDbLine
 10
-54.31229782104492
 20
-25.48386192321777
 30
0.0
 11
-54.06747817993164
 21
-26.95333480834961
 31
0.0
1001
DBPROPERTIES
1002
{
1000
PbThick
1002
}
  0
LINE
  5
596
330
1F
100
AcDbEntity
  8
THICK
100
AcDbLine
 10
-54.06747817993164
 20
-26.95333480834961
 30
0.0
 11
-53.89147567749023
 21
-28.44381523132324
 31
0.0
1001
DBPROPERTIES
1002
{
1000
PbThick
1002
}
  0
LINE
  5
597
330
1F
100
AcDbEntity
  8
THICK
100
AcDbLine
 10
-53.89147567749023
 20
-28.44381523132324
 30
0.0
 11
-53.78542709350586
 21
-29.94837188720703
 31
0.0
1001
DBPROPERTIES
1002
{
1000
PbThick
1002
}
  0
LINE
  5
598
330
1F
100
AcDbEntity
  8
THICK
100
AcDbLine
 10
-53.78542709350586
 20
-29.94837188720703
 30
0.0
 11
-53.75
 21
-31.45999908447266
 31
0.0
1001
DBPROPERTIES
1002
{
1000
PbThick
1002
}
  0
LINE
  5
599
330
1F
100
AcDbEntity
  8
THICK
100
AcDbLine
 10
-77.6
 20
-15.45999999999998
 30
0.0
 11
-77.42890669539847
 21
-15.45999999999998
 31
0.0
1001
DBPROPERTIES
1002
{
1000
PbThick
1002
}
  0
LINE
  5
59A
330
1F
100
AcDbEntity
  8
HIDDEN
100
AcDbLine
 10
-77.5999984741211
 20
-15.46000003814697
 30
0.0
 11
-77.32701110839844
 21
-15.45067501068115
 31
0.0
1001
DBPROPERTIES
1002
{
1000
PbHidd
1002
}
  0
LINE
  5
59B
330
1F
100
AcDbEntity
  8
HIDDEN
100
AcDbLine
 10
-77.32701110839844
 20
-15.45067501068115
 30
0.0
 11
-77.05532836914062
 21
-15.42274379730225
 31
0.0
1001
DBPROPERTIES
1002
{
1000
PbHidd
1002
}
  0
LINE
  5
59C
330
1F
100
AcDbEntity
  8
HIDDEN
100
AcDbLine
 10
-77.05532836914062
 20
-15.42274379730225
 30
0.0
 11
-76.78617858886719
 21
-15.37633609771729
 31
0.0
1001
DBPROPERTIES
1002
{
1000
PbHidd
1002
}
  0
LINE
  5
59D
330
1F
100
AcDbEntity
  8
HIDDEN
100
AcDbLine
 10
-76.78617858886719
 20
-15.37633609771729
 30
0.0
 11
-76.52081298828125
 21
-15.31166934967041
 31
0.0
1001
DBPROPERTIES
1002
{
1000
PbHidd
1002
}
  0
LINE
  5
59E
330
1F
100
AcDbEntity
  8
HIDDEN
100
AcDbLine
 10
-76.52081298828125
 20
-15.31166934967041
 30
0.0
 11
-76.26048278808594
 21
-15.22904396057129
 31
0.0
1001
DBPROPERTIES
1002
{
1000
PbHidd
1002
}
  0
LINE
  5
59F
330
1F
100
AcDbEntity
  8
HIDDEN
100
AcDbLine
 10
-76.26048278808594
 20
-15.22904396057129
 30
0.0
 11
-76.00639343261719
 21
-15.12884521484375
 31
0.0
1001
DBPROPERTIES
1002
{
1000
PbHidd
1002
}
  0
LINE
  5
5A0
330
1F
100
AcDbEntity
  8
HIDDEN
100
AcDbLine
 10
-76.00639343261719
 20
-15.12884521484375
 30
0.0
 11
-75.7597427368164
 21
-15.01154041290283
 31
0.0
1001
DBPROPERTIES
1002
{
1000
PbHidd
1002
}
  0
LINE
  5
5A1
330
1F
100
AcDbEntity
  8
HIDDEN
100
AcDbLine
 10
-75.7597427368164
 20
-15.01154041290283
 30
0.0
 11
-75.52166748046875
 21
-14.87767791748047
 31
0.0
1001
DBPROPERTIES
1002
{
1000
PbHidd
1002
}
  0
LINE
  5
5A2
330
1F
100
AcDbEntity
  8
HIDDEN
100
AcDbLine
 10
-75.52166748046875
 20
-14.87767791748047
 30
0.0
 11
-75.29328155517578
 21
-14.72787952423096
 31
0.0
1001
DBPROPERTIES
1002
{
1000
PbHidd
1002
}
  0
LINE
  5
5A3
330
1F
100
AcDbEntity
  8
HIDDEN
100
AcDbLine
 10
-75.29328155517578
 20
-14.72787952423096
 30
0.0
 11
-75.07564544677734
 21
-14.56284523010254
 31
0.0
1001
DBPROPERTIES
1002
{
1000
PbHidd
1002
}
  0
LINE
  5
5A4
330
1F
100
AcDbEntity
  8
HIDDEN
100
AcDbLine
 10
-75.07564544677734
 20
-14.56284523010254
 30
0.0
 11
-74.86978912353516
 21
-14.38334369659424
 31
0.0
1001
DBPROPERTIES
1002
{
1000
PbHidd
1002
}
  0
LINE
  5
5A5
330
1F
100
AcDbEntity
  8
HIDDEN
100
AcDbLine
 10
-74.86978912353516
 20
-14.38334369659424
 30
0.0
 11
-74.6766586303711
 21
-14.19021224975586
 31
0.0
1001
DBPROPERTIES
1002
{
1000
PbHidd
1002
}
  0
LINE
  5
5A6
330
1F
100
AcDbEntity
  8
HIDDEN
100
AcDbLine
 10
-74.6766586303711
 20
-14.19021224975586
 30
0.0
 11
-74.49715423583984
 21
-13.98435211181641
 31
0.0
1001
DBPROPERTIES
1002
{
1000
PbHidd
1002
}
  0
LINE
  5
5A7
330
1F
100
AcDbEntity
  8
HIDDEN
100
AcDbLine
 10
-74.49715423583984
 20
-13.98435211181641
 30
0.0
 11
-74.33212280273438
 21
-13.76672172546387
 31
0.0
1001
DBPROPERTIES
1002
{
1000
PbHidd
1002
}
  0
LINE
  5
5A8
330
1F
100
AcDbEntity
  8
HIDDEN
100
AcDbLine
 10
-74.33212280273438
 20
-13.76672172546387
 30
0.0
 11
-74.18231964111328
 21
-13.5383358001709
 31
0.0
1001
DBPROPERTIES
1002
{
1000
PbHidd
1002
}
  0
LINE
  5
5A9
330
1F
100
AcDbEntity
  8
HIDDEN
100
AcDbLine
 10
-74.18231964111328
 20
-13.5383358001709
 30
0.0
 11
-74.0484619140625
 21
-13.30026054382324
 31
0.0
1001
DBPROPERTIES
1002
{
1000
PbHidd
1002
}
  0
LINE
  5
5AA
330
1F
100
AcDbEntity
  8
HIDDEN
100
AcDbLine
 10
-74.0484619140625
 20
-13.30026054382324
 30
0.0
 11
-73.93115234375
 21
-13.05360412597656
 31
0.0
1001
DBPROPERTIES
1002
{
1000
PbHidd
1002
}
  0
LINE
  5
5AB
330
1F
100
AcDbEntity
  8
HIDDEN
100
AcDbLine
 10
-73.93115234375
 20
-13.05360412597656
 30
0.0
 11
-73.8309555053711
 21
-12.79951858520508
 31
0.0
1001
DBPROPERTIES
1002
{
1000
PbHidd
1002
}
  0
LINE
  5
5AC
330
1F
100
AcDbEntity
  8
HIDDEN
100
AcDbLine
 10
-73.8309555053711
 20
-12.79951858520508
 30
0.0
 11
-73.74832916259766
 21
-12.53918743133545
 31
0.0
1001
DBPROPERTIES
1002
{
1000
PbHidd
1002
}
  0
LINE
  5
5AD
330
1F
100
AcDbEntity
  8
HIDDEN
100
AcDbLine
 10
-73.74832916259766
 20
-12.53918743133545
 30
0.0
 11
-73.68366241455078
 21
-12.27382373809814
 31
0.0
1001
DBPROPERTIES
1002
{
1000
PbHidd
1002
}
  0
LINE
  5
5AE
330
1F
100
AcDbEntity
  8
HIDDEN
100
AcDbLine
 10
-73.68366241455078
 20
-12.27382373809814
 30
0.0
 11
-73.63725280761719
 21
-12.00466632843018
 31
0.0
1001
DBPROPERTIES
1002
{
1000
PbHidd
1002
}
  0
LINE
  5
5AF
330
1F
100
AcDbEntity
  8
HIDDEN
100
AcDbLine
 10
-73.63725280761719
 20
-12.00466632843018
 30
0.0
 11
-73.60932159423828
 21
-11.73296928405762
 31
0.0
1001
DBPROPERTIES
1002
{
1000
PbHidd
1002
}
  0
LINE
  5
5B0
330
1F
100
AcDbEntity
  8
HIDDEN
100
AcDbLine
 10
-73.60932159423828
 20
-11.73296928405762
 30
0.0
 11
-73.5999984741211
 21
-11.46000003814697
 31
0.0
1001
DBPROPERTIES
1002
{
1000
PbHidd
1002
}
  0
LINE
  5
5B1
330
1F
100
AcDbEntity
  8
THICK
100
AcDbLine
 10
-81.5999984741211
 20
-11.46000003814697
 30
0.0
 11
-81.5906753540039
 21
-11.73296928405762
 31
0.0
1001
DBPROPERTIES
1002
{
1000
PbThick
1002
}
  0
LINE
  5
5B2
330
1F
100
AcDbEntity
  8
THICK
100
AcDbLine
 10
-81.5906753540039
 20
-11.73296928405762
 30
0.0
 11
-81.562744140625
 21
-12.00466632843018
 31
0.0
1001
DBPROPERTIES
1002
{
1000
PbThick
1002
}
  0
LINE
  5
5B3
330
1F
100
AcDbEntity
  8
THICK
100
AcDbLine
 10
-81.562744140625
 20
-12.00466632843018
 30
0.0
 11
-81.5163345336914
 21
-12.27382373809814
 31
0.0
1001
DBPROPERTIES
1002
{
1000
PbThick
1002
}
  0
LINE
  5
5B4
330
1F
100
AcDbEntity
  8
THICK
100
AcDbLine
 10
-81.5163345336914
 20
-12.27382373809814
 30
0.0
 11
-81.45166778564453
 21
-12.53918743133545
 31
0.0
1001
DBPROPERTIES
1002
{
1000
PbThick
1002
}
  0
LINE
  5
5B5
330
1F
100
AcDbEntity
  8
THICK
100
AcDbLine
 10
-81.45166778564453
 20
-12.53918743133545
 30
0.0
 11
-81.3690414428711
 21
-12.79951858520508
 31
0.0
1001
DBPROPERTIES
1002
{
1000
PbThick
1002
}
  0
LINE
  5
5B6
330
1F
100
AcDbEntity
  8
THICK
100
AcDbLine
 10
-81.3690414428711
 20
-12.79951858520508
 30
0.0
 11
-81.26884460449219
 21
-13.05360412597656
 31
0.0
1001
DBPROPERTIES
1002
{
1000
PbThick
1002
}
  0
LINE
  5
5B7
330
1F
100
AcDbEntity
  8
THICK
100
AcDbLine
 10
-81.26884460449219
 20
-13.05360412597656
 30
0.0
 11
-81.15154266357422
 21
-13.30026054382324
 31
0.0
1001
DBPROPERTIES
1002
{
1000
PbThick
1002
}
  0
LINE
  5
5B8
330
1F
100
AcDbEntity
  8
THICK
100
AcDbLine
 10
-81.15154266357422
 20
-13.30026054382324
 30
0.0
 11
-81.0176773071289
 21
-13.5383358001709
 31
0.0
1001
DBPROPERTIES
1002
{
1000
PbThick
1002
}
  0
LINE
  5
5B9
330
1F
100
AcDbEntity
  8
THICK
100
AcDbLine
 10
-81.0176773071289
 20
-13.5383358001709
 30
0.0
 11
-80.86788177490234
 21
-13.76672172546387
 31
0.0
1001
DBPROPERTIES
1002
{
1000
PbThick
1002
}
  0
LINE
  5
5BA
330
1F
100
AcDbEntity
  8
THICK
100
AcDbLine
 10
-80.86788177490234
 20
-13.76672172546387
 30
0.0
 11
-80.70284271240234
 21
-13.98435211181641
 31
0.0
1001
DBPROPERTIES
1002
{
1000
PbThick
1002
}
  0
LINE
  5
5BB
330
1F
100
AcDbEntity
  8
THICK
100
AcDbLine
 10
-80.70284271240234
 20
-13.98435211181641
 30
0.0
 11
-80.52334594726562
 21
-14.19021224975586
 31
0.0
1001
DBPROPERTIES
1002
{
1000
PbThick
1002
}
  0
LINE
  5
5BC
330
1F
100
AcDbEntity
  8
THICK
100
AcDbLine
 10
-80.52334594726562
 20
-14.19021224975586
 30
0.0
 11
-80.33021545410156
 21
-14.38334369659424
 31
0.0
1001
DBPROPERTIES
1002
{
1000
PbThick
1002
}
  0
LINE
  5
5BD
330
1F
100
AcDbEntity
  8
THICK
100
AcDbLine
 10
-80.33021545410156
 20
-14.38334369659424
 30
0.0
 11
-80.12435150146484
 21
-14.56284523010254
 31
0.0
1001
DBPROPERTIES
1002
{
1000
PbThick
1002
}
  0
LINE
  5
5BE
330
1F
100
AcDbEntity
  8
THICK
100
AcDbLine
 10
-80.12435150146484
 20
-14.56284523010254
 30
0.0
 11
-79.90672302246094
 21
-14.72787952423096
 31
0.0
1001
DBPROPERTIES
1002
{
1000
PbThick
1002
}
  0
LINE
  5
5BF
330
1F
100
AcDbEntity
  8
THICK
100
AcDbLine
 10
-79.90672302246094
 20
-14.72787952423096
 30
0.0
 11
-79.67833709716797
 21
-14.87767791748047
 31
0.0
1001
DBPROPERTIES
1002
{
1000
PbThick
1002
}
  0
LINE
  5
5C0
330
1F
100
AcDbEntity
  8
THICK
100
AcDbLine
 10
-79.67833709716797
 20
-14.87767791748047
 30
0.0
 11
-79.44026184082031
 21
-15.01154041290283
 31
0.0
1001
DBPROPERTIES
1002
{
1000
PbThick
1002
}
  0
LINE
  5
5C1
330
1F
100
AcDbEntity
  8
THICK
100
AcDbLine
 10
-79.44026184082031
 20
-15.01154041290283
 30
0.0
 11
-79.193603515625
 21
-15.12884521484375
 31
0.0
1001
DBPROPERTIES
1002
{
1000
PbThick
1002
}
  0
LINE
  5
5C2
330
1F
100
AcDbEntity
  8
THICK
100
AcDbLine
 10
-79.193603515625
 20
-15.12884521484375
 30
0.0
 11
-78.93952178955078
 21
-15.22904396057129
 31
0.0
1001
DBPROPERTIES
1002
{
1000
PbThick
1002
}
  0
LINE
  5
5C3
330
1F
100
AcDbEntity
  8
THICK
100
AcDbLine
 10
-78.93952178955078
 20
-15.22904396057129
 30
0.0
 11
-78.67918395996094
 21
-15.31166934967041
 31
0.0
1001
DBPROPERTIES
1002
{
1000
PbThick
1002
}
  0
LINE
  5
5C4
330
1F
100
AcDbEntity
  8
THICK
100
AcDbLine
 10
-78.67918395996094
 20
-15.31166934967041
 30
0.0
 11
-78.41382598876953
 21
-15.37633609771729
 31
0.0
1001
DBPROPERTIES
1002
{
1000
PbThick
1002
}
  0
LINE
  5
5C5
330
1F
100
AcDbEntity
  8
THICK
100
AcDbLine
 10
-78.41382598876953
 20
-15.37633609771729
 30
0.0
 11
-78.14466094970703
 21
-15.42274379730225
 31
0.0
1001
DBPROPERTIES
1002
{
1000
PbThick
1002
}
  0
LINE
  5
5C6
330
1F
100
AcDbEntity
  8
THICK
100
AcDbLine
 10
-78.14466094970703
 20
-15.42274379730225
 30
0.0
 11
-77.8729476928711
 21
-15.45067501068115
 31
0.0
1001
DBPROPERTIES
1002
{
1000
PbThick
1002
}
  0
LINE
  5
5C7
330
1F
100
AcDbEntity
  8
THICK
100
AcDbLine
 10
-77.8729476928711
 20
-15.45067501068115
 30
0.0
 11
-77.5999984741211
 21
-15.46000003814697
 31
0.0
1001
DBPROPERTIES
1002
{
1000
PbThick
1002
}
  0
LINE
  5
5C8
330
1F
100
AcDbEntity
  8
THICK
100
AcDbLine
 10
-71.86798569861482
 20
-15.45999999999998
 30
0.0
 11
-71.86690817260467
 21
-15.45999999999998
 31
0.0
1001
DBPROPERTIES
1002
{
1000
PbThick
1002
}
  0
LINE
  5
5C9
330
1F
100
AcDbEntity
  8
HIDDEN
100
AcDbLine
 10
-71.89211891180759
 20
-15.45999999999998
 30
0.0
 11
-71.88783096178894
 21
-15.45999999999998
 31
0.0
1001
DBPROPERTIES
1002
{
1000
PbHidd
1002
}
  0
LINE
  5
5CA
330
1F
100
AcDbEntity
  8
THICK
100
AcDbLine
 10
-77.59999999999906
 20
-15.45999999999998
 30
0.0
 11
-71.89211891180759
 21
-15.45999999999998
 31
0.0
1001
DBPROPERTIES
1002
{
1000
PbThick
1002
}
  0
LINE
  5
5CB
330
1F
100
AcDbEntity
  8
THICK
100
AcDbLine
 10
-22.17018699645996
 20
-15.46000003814697
 30
0.0
 11
-58.31507873535156
 21
-15.46000003814697
 31
0.0
1001
DBPROPERTIES
1002
{
1000
PbThick
1002
}
  0
LINE
  5
5CC
330
1F
100
AcDbEntity
  8
HIDDEN
100
AcDbLine
 10
-58.31507873535156
 20
-15.46000003814697
 30
0.0
 11
-71.86672973632812
 21
-15.46000003814697
 31
0.0
1001
DBPROPERTIES
1002
{
1000
PbHidd
1002
}
  0
LINE
  5
5CD
330
1F
100
AcDbEntity
  8
THICK
100
AcDbLine
 10
-19.85544873410891
 20
-7.459999999999982
 30
0.0
 11
-71.74212821219717
 21
-7.459999999999979
 31
0.0
1001
DBPROPERTIES
1002
{
1000
PbThick
1002
}
  0
ARC
  5
5CE
330
1F
100
AcDbEntity
  8
THICK
100
AcDbCircle
 10
-38.74999999999999
 20
-157.3
 30
0.0
 40
4.0
100
AcDbArc
 50
260.1206793498661
 51
270.0000187239684
1001
DBPROPERTIES
1002
{
1000
PbThick
1002
}
  0
LINE
  5
5CF
330
1F
100
AcDbEntity
  8
HIDDEN
100
AcDbLine
 10
-77.42890669539847
 20
-7.459999999999979
 30
0.0
 11
-77.6
 21
-7.459999999999979
 31
0.0
1001
DBPROPERTIES
1002
{
1000
PbHidd
1002
}
  0
LINE
  5
5D0
330
1F
100
AcDbEntity
  8
THICK
100
AcDbLine
 10
-77.5999984741211
 20
-7.460000038146973
 30
0.0
 11
-77.8729476928711
 21
-7.469325065612793
 31
0.0
1001
DBPROPERTIES
1002
{
1000
PbThick
1002
}
  0
LINE
  5
5D1
330
1F
100
AcDbEntity
  8
THICK
100
AcDbLine
 10
-77.8729476928711
 20
-7.469325065612793
 30
0.0
 11
-78.14466094970703
 21
-7.497256278991699
 31
0.0
1001
DBPROPERTIES
1002
{
1000
PbThick
1002
}
  0
LINE
  5
5D2
330
1F
100
AcDbEntity
  8
THICK
100
AcDbLine
 10
-78.14466094970703
 20
-7.497256278991699
 30
0.0
 11
-78.41382598876953
 21
-7.543663501739502
 31
0.0
1001
DBPROPERTIES
1002
{
1000
PbThick
1002
}
  0
LINE
  5
5D3
330
1F
100
AcDbEntity
  8
THICK
100
AcDbLine
 10
-78.41382598876953
 20
-7.543663501739502
 30
0.0
 11
-78.67918395996094
 21
-7.608330726623535
 31
0.0
1001
DBPROPERTIES
1002
{
1000
PbThick
1002
}
  0
LINE
  5
5D4
330
1F
100
AcDbEntity
  8
THICK
100
AcDbLine
 10
-78.67918395996094
 20
-7.608330726623535
 30
0.0
 11
-78.93952178955078
 21
-7.690956115722656
 31
0.0
1001
DBPROPERTIES
1002
{
1000
PbThick
1002
}
  0
LINE
  5
5D5
330
1F
100
AcDbEntity
  8
THICK
100
AcDbLine
 10
-78.93952178955078
 20
-7.690956115722656
 30
0.0
 11
-79.193603515625
 21
-7.791154861450195
 31
0.0
1001
DBPROPERTIES
1002
{
1000
PbThick
1002
}
  0
LINE
  5
5D6
330
1F
100
AcDbEntity
  8
THICK
100
AcDbLine
 10
-79.193603515625
 20
-7.791154861450195
 30
0.0
 11
-79.44026184082031
 21
-7.908459186553955
 31
0.0
1001
DBPROPERTIES
1002
{
1000
PbThick
1002
}
  0
LINE
  5
5D7
330
1F
100
AcDbEntity
  8
THICK
100
AcDbLine
 10
-79.44026184082031
 20
-7.908459186553955
 30
0.0
 11
-79.67833709716797
 21
-8.042322158813477
 31
0.0
1001
DBPROPERTIES
1002
{
1000
PbThick
1002
}
  0
LINE
  5
5D8
330
1F
100
AcDbEntity
  8
THICK
100
AcDbLine
 10
-79.67833709716797
 20
-8.042322158813477
 30
0.0
 11
-79.90672302246094
 21
-8.192120552062988
 31
0.0
1001
DBPROPERTIES
1002
{
1000
PbThick
1002
}
  0
LINE
  5
5D9
330
1F
100
AcDbEntity
  8
THICK
100
AcDbLine
 10
-79.90672302246094
 20
-8.192120552062988
 30
0.0
 11
-80.12435150146484
 21
-8.357154846191406
 31
0.0
1001
DBPROPERTIES
1002
{
1000
PbThick
1002
}
  0
LINE
  5
5DA
330
1F
100
AcDbEntity
  8
THICK
100
AcDbLine
 10
-80.12435150146484
 20
-8.357154846191406
 30
0.0
 11
-80.33021545410156
 21
-8.536656379699707
 31
0.0
1001
DBPROPERTIES
1002
{
1000
PbThick
1002
}
  0
LINE
  5
5DB
330
1F
100
AcDbEntity
  8
THICK
100
AcDbLine
 10
-80.33021545410156
 20
-8.536656379699707
 30
0.0
 11
-80.52334594726562
 21
-8.729787826538086
 31
0.0
1001
DBPROPERTIES
1002
{
1000
PbThick
1002
}
  0
LINE
  5
5DC
330
1F
100
AcDbEntity
  8
THICK
100
AcDbLine
 10
-80.52334594726562
 20
-8.729787826538086
 30
0.0
 11
-80.70284271240234
 21
-8.935647964477539
 31
0.0
1001
DBPROPERTIES
1002
{
1000
PbThick
1002
}
  0
LINE
  5
5DD
330
1F
100
AcDbEntity
  8
THICK
100
AcDbLine
 10
-80.70284271240234
 20
-8.935647964477539
 30
0.0
 11
-80.86788177490234
 21
-9.153278350830078
 31
0.0
1001
DBPROPERTIES
1002
{
1000
PbThick
1002
}
  0
LINE
  5
5DE
330
1F
100
AcDbEntity
  8
THICK
100
AcDbLine
 10
-80.86788177490234
 20
-9.153278350830078
 30
0.0
 11
-81.0176773071289
 21
-9.381664276123047
 31
0.0
1001
DBPROPERTIES
1002
{
1000
PbThick
1002
}
  0
LINE
  5
5DF
330
1F
100
AcDbEntity
  8
THICK
100
AcDbLine
 10
-81.0176773071289
 20
-9.381664276123047
 30
0.0
 11
-81.15154266357422
 21
-9.619739532470703
 31
0.0
1001
DBPROPERTIES
1002
{
1000
PbThick
1002
}
  0
LINE
  5
5E0
330
1F
100
AcDbEntity
  8
THICK
100
AcDbLine
 10
-81.15154266357422
 20
-9.619739532470703
 30
0.0
 11
-81.26884460449219
 21
-9.866395950317383
 31
0.0
1001
DBPROPERTIES
1002
{
1000
PbThick
1002
}
  0
LINE
  5
5E1
330
1F
100
AcDbEntity
  8
THICK
100
AcDbLine
 10
-81.26884460449219
 20
-9.866395950317383
 30
0.0
 11
-81.3690414428711
 21
-10.12048149108887
 31
0.0
1001
DBPROPERTIES
1002
{
1000
PbThick
1002
}
  0
LINE
  5
5E2
330
1F
100
AcDbEntity
  8
THICK
100
AcDbLine
 10
-81.3690414428711
 20
-10.12048149108887
 30
0.0
 11
-81.45166778564453
 21
-10.3808126449585
 31
0.0
1001
DBPROPERTIES
1002
{
1000
PbThick
1002
}
  0
LINE
  5
5E3
330
1F
100
AcDbEntity
  8
THICK
100
AcDbLine
 10
-81.45166778564453
 20
-10.3808126449585
 30
0.0
 11
-81.5163345336914
 21
-10.6461763381958
 31
0.0
1001
DBPROPERTIES
1002
{
1000
PbThick
1002
}
  0
LINE
  5
5E4
330
1F
100
AcDbEntity
  8
THICK
100
AcDbLine
 10
-81.5163345336914
 20
-10.6461763381958
 30
0.0
 11
-81.562744140625
 21
-10.91533374786377
 31
0.0
1001
DBPROPERTIES
1002
{
1000
PbThick
1002
}
  0
LINE
  5
5E5
330
1F
100
AcDbEntity
  8
THICK
100
AcDbLine
 10
-81.562744140625
 20
-10.91533374786377
 30
0.0
 11
-81.5906753540039
 21
-11.18703079223633
 31
0.0
1001
DBPROPERTIES
1002
{
1000
PbThick
1002
}
  0
LINE
  5
5E6
330
1F
100
AcDbEntity
  8
THICK
100
AcDbLine
 10
-81.5906753540039
 20
-11.18703079223633
 30
0.0
 11
-81.5999984741211
 21
-11.46000003814697
 31
0.0
1001
DBPROPERTIES
1002
{
1000
PbThick
1002
}
  0
LINE
  5
5E7
330
1F
100
AcDbEntity
  8
HIDDEN
100
AcDbLine
 10
-73.5999984741211
 20
-11.46000003814697
 30
0.0
 11
-73.60932159423828
 21
-11.18703079223633
 31
0.0
1001
DBPROPERTIES
1002
{
1000
PbHidd
1002
}
  0
LINE
  5
5E8
330
1F
100
AcDbEntity
  8
HIDDEN
100
AcDbLine
 10
-73.60932159423828
 20
-11.18703079223633
 30
0.0
 11
-73.63725280761719
 21
-10.91533374786377
 31
0.0
1001
DBPROPERTIES
1002
{
1000
PbHidd
1002
}
  0
LINE
  5
5E9
330
1F
100
AcDbEntity
  8
HIDDEN
100
AcDbLine
 10
-73.63725280761719
 20
-10.91533374786377
 30
0.0
 11
-73.68366241455078
 21
-10.6461763381958
 31
0.0
1001
DBPROPERTIES
1002
{
1000
PbHidd
1002
}
  0
LINE
  5
5EA
330
1F
100
AcDbEntity
  8
HIDDEN
100
AcDbLine
 10
-73.68366241455078
 20
-10.6461763381958
 30
0.0
 11
-73.74832916259766
 21
-10.3808126449585
 31
0.0
1001
DBPROPERTIES
1002
{
1000
PbHidd
1002
}
  0
LINE
  5
5EB
330
1F
100
AcDbEntity
  8
HIDDEN
100
AcDbLine
 10
-73.74832916259766
 20
-10.3808126449585
 30
0.0
 11
-73.8309555053711
 21
-10.12048149108887
 31
0.0
1001
DBPROPERTIES
1002
{
1000
PbHidd
1002
}
  0
LINE
  5
5EC
330
1F
100
AcDbEntity
  8
HIDDEN
100
AcDbLine
 10
-73.8309555053711
 20
-10.12048149108887
 30
0.0
 11
-73.93115234375
 21
-9.866395950317383
 31
0.0
1001
DBPROPERTIES
1002
{
1000
PbHidd
1002
}
  0
LINE
  5
5ED
330
1F
100
AcDbEntity
  8
HIDDEN
100
AcDbLine
 10
-73.93115234375
 20
-9.866395950317383
 30
0.0
 11
-74.0484619140625
 21
-9.619739532470703
 31
0.0
1001
DBPROPERTIES
1002
{
1000
PbHidd
1002
}
  0
LINE
  5
5EE
330
1F
100
AcDbEntity
  8
HIDDEN
100
AcDbLine
 10
-74.0484619140625
 20
-9.619739532470703
 30
0.0
 11
-74.18231964111328
 21
-9.381664276123047
 31
0.0
1001
DBPROPERTIES
1002
{
1000
PbHidd
1002
}
  0
LINE
  5
5EF
330
1F
100
AcDbEntity
  8
HIDDEN
100
AcDbLine
 10
-74.18231964111328
 20
-9.381664276123047
 30
0.0
 11
-74.33212280273438
 21
-9.153278350830078
 31
0.0
1001
DBPROPERTIES
1002
{
1000
PbHidd
1002
}
  0
LINE
  5
5F0
330
1F
100
AcDbEntity
  8
HIDDEN
100
AcDbLine
 10
-74.33212280273438
 20
-9.153278350830078
 30
0.0
 11
-74.49715423583984
 21
-8.935647964477539
 31
0.0
1001
DBPROPERTIES
1002
{
1000
PbHidd
1002
}
  0
LINE
  5
5F1
330
1F
100
AcDbEntity
  8
HIDDEN
100
AcDbLine
 10
-74.49715423583984
 20
-8.935647964477539
 30
0.0
 11
-74.6766586303711
 21
-8.729787826538086
 31
0.0
1001
DBPROPERTIES
1002
{
1000
PbHidd
1002
}
  0
LINE
  5
5F2
330
1F
100
AcDbEntity
  8
HIDDEN
100
AcDbLine
 10
-74.6766586303711
 20
-8.729787826538086
 30
0.0
 11
-74.86978912353516
 21
-8.536656379699707
 31
0.0
1001
DBPROPERTIES
1002
{
1000
PbHidd
1002
}
  0
LINE
  5
5F3
330
1F
100
AcDbEntity
  8
HIDDEN
100
AcDbLine
 10
-74.86978912353516
 20
-8.536656379699707
 30
0.0
 11
-75.07564544677734
 21
-8.357154846191406
 31
0.0
1001
DBPROPERTIES
1002
{
1000
PbHidd
1002
}
  0
LINE
  5
5F4
330
1F
100
AcDbEntity
  8
HIDDEN
100
AcDbLine
 10
-75.07564544677734
 20
-8.357154846191406
 30
0.0
 11
-75.29328155517578
 21
-8.192120552062988
 31
0.0
1001
DBPROPERTIES
1002
{
1000
PbHidd
1002
}
  0
LINE
  5
5F5
330
1F
100
AcDbEntity
  8
HIDDEN
100
AcDbLine
 10
-75.29328155517578
 20
-8.192120552062988
 30
0.0
 11
-75.52166748046875
 21
-8.042322158813477
 31
0.0
1001
DBPROPERTIES
1002
{
1000
PbHidd
1002
}
  0
LINE
  5
5F6
330
1F
100
AcDbEntity
  8
HIDDEN
100
AcDbLine
 10
-75.52166748046875
 20
-8.042322158813477
 30
0.0
 11
-75.7597427368164
 21
-7.908459186553955
 31
0.0
1001
DBPROPERTIES
1002
{
1000
PbHidd
1002
}
  0
LINE
  5
5F7
330
1F
100
AcDbEntity
  8
HIDDEN
100
AcDbLine
 10
-75.7597427368164
 20
-7.908459186553955
 30
0.0
 11
-76.00639343261719
 21
-7.791154861450195
 31
0.0
1001
DBPROPERTIES
1002
{
1000
PbHidd
1002
}
  0
LINE
  5
5F8
330
1F
100
AcDbEntity
  8
HIDDEN
100
AcDbLine
 10
-76.00639343261719
 20
-7.791154861450195
 30
0.0
 11
-76.26048278808594
 21
-7.690956115722656
 31
0.0
1001
DBPROPERTIES
1002
{
1000
PbHidd
1002
}
  0
LINE
  5
5F9
330
1F
100
AcDbEntity
  8
HIDDEN
100
AcDbLine
 10
-76.26048278808594
 20
-7.690956115722656
 30
0.0
 11
-76.52081298828125
 21
-7.608330726623535
 31
0.0
1001
DBPROPERTIES
1002
{
1000
PbHidd
1002
}
  0
LINE
  5
5FA
330
1F
100
AcDbEntity
  8
HIDDEN
100
AcDbLine
 10
-76.52081298828125
 20
-7.608330726623535
 30
0.0
 11
-76.78617858886719
 21
-7.543663501739502
 31
0.0
1001
DBPROPERTIES
1002
{
1000
PbHidd
1002
}
  0
LINE
  5
5FB
330
1F
100
AcDbEntity
  8
HIDDEN
100
AcDbLine
 10
-76.78617858886719
 20
-7.543663501739502
 30
0.0
 11
-77.05532836914062
 21
-7.497256278991699
 31
0.0
1001
DBPROPERTIES
1002
{
1000
PbHidd
1002
}
  0
LINE
  5
5FC
330
1F
100
AcDbEntity
  8
HIDDEN
100
AcDbLine
 10
-77.05532836914062
 20
-7.497256278991699
 30
0.0
 11
-77.32701110839844
 21
-7.469325065612793
 31
0.0
1001
DBPROPERTIES
1002
{
1000
PbHidd
1002
}
  0
LINE
  5
5FD
330
1F
100
AcDbEntity
  8
HIDDEN
100
AcDbLine
 10
-77.32701110839844
 20
-7.469325065612793
 30
0.0
 11
-77.5999984741211
 21
-7.460000038146973
 31
0.0
1001
DBPROPERTIES
1002
{
1000
PbHidd
1002
}
  0
LINE
  5
5FE
330
1F
100
AcDbEntity
  8
THICK
100
AcDbLine
 10
-71.74213562373095
 20
-7.459999999999979
 30
0.0
 11
-71.74609091713779
 21
-7.459999999999979
 31
0.0
1001
DBPROPERTIES
1002
{
1000
PbThick
1002
}
  0
LINE
  5
5FF
330
1F
100
AcDbEntity
  8
THICK
100
AcDbLine
 10
-71.76995555076276
 20
-7.459999999999979
 30
0.0
 11
-71.87167170934445
 21
-7.459999999999979
 31
0.0
1001
DBPROPERTIES
1002
{
1000
PbThick
1002
}
  0
LINE
  5
600
330
1F
100
AcDbEntity
  8
THICK
100
AcDbLine
 10
-71.8922287883512
 20
-7.459999999999979
 30
0.0
 11
-77.59999999999906
 21
-7.459999999999979
 31
0.0
1001
DBPROPERTIES
1002
{
1000
PbThick
1002
}
  0
LINE
  5
601
330
1F
100
AcDbEntity
  8
THICK
100
AcDbLine
 10
-71.89213562011719
 20
-15.46000003814697
 30
0.0
 11
-71.30865478515625
 21
-15.48838233947754
 31
0.0
1001
DBPROPERTIES
1002
{
1000
PbThick
1002
}
  0
LINE
  5
602
330
1F
100
AcDbEntity
  8
THICK
100
AcDbLine
 10
-71.30865478515625
 20
-15.48838233947754
 30
0.0
 11
-70.71817779541016
 21
-15.57503795623779
 31
0.0
1001
DBPROPERTIES
1002
{
1000
PbThick
1002
}
  0
LINE
  5
603
330
1F
100
AcDbEntity
  8
THICK
100
AcDbLine
 10
-70.71817779541016
 20
-15.57503795623779
 30
0.0
 11
-70.0967788696289
 21
-15.72969055175781
 31
0.0
1001
DBPROPERTIES
1002
{
1000
PbThick
1002
}
  0
LINE
  5
604
330
1F
100
AcDbEntity
  8
THICK
100
AcDbLine
 10
-70.0967788696289
 20
-15.72969055175781
 30
0.0
 11
-69.45581817626953
 21
-15.95851421356201
 31
0.0
1001
DBPROPERTIES
1002
{
1000
PbThick
1002
}
  0
LINE
  5
605
330
1F
100
AcDbEntity
  8
THICK
100
AcDbLine
 10
-69.45581817626953
 20
-15.95851421356201
 30
0.0
 11
-69.10285186767578
 21
-16.11524200439453
 31
0.0
1001
DBPROPERTIES
1002
{
1000
PbThick
1002
}
  0
LINE
  5
606
330
1F
100
AcDbEntity
  8
THICK
100
AcDbLine
 10
-69.10285186767578
 20
-16.11524200439453
 30
0.0
 11
-68.74313354492188
 21
-16.29799842834473
 31
0.0
1001
DBPROPERTIES
1002
{
1000
PbThick
1002
}
  0
LINE
  5
607
330
1F
100
AcDbEntity
  8
THICK
100
AcDbLine
 10
-68.74313354492188
 20
-16.29799842834473
 30
0.0
 11
-68.37623596191406
 21
-16.50898361206055
 31
0.0
1001
DBPROPERTIES
1002
{
1000
PbThick
1002
}
  0
LINE
  5
608
330
1F
100
AcDbEntity
  8
THICK
100
AcDbLine
 10
-68.37623596191406
 20
-16.50898361206055
 30
0.0
 11
-68.00276947021484
 21
-16.75008010864258
 31
0.0
1001
DBPROPERTIES
1002
{
1000
PbThick
1002
}
  0
LINE
  5
609
330
1F
100
AcDbEntity
  8
THICK
100
AcDbLine
 10
-68.00276947021484
 20
-16.75008010864258
 30
0.0
 11
-67.3509292602539
 21
-17.23784446716309
 31
0.0
1001
DBPROPERTIES
1002
{
1000
PbThick
1002
}
  0
LINE
  5
60A
330
1F
100
AcDbEntity
  8
THICK
100
AcDbLine
 10
-67.3509292602539
 20
-17.23784446716309
 30
0.0
 11
-66.79283905029297
 21
-17.72812652587891
 31
0.0
1001
DBPROPERTIES
1002
{
1000
PbThick
1002
}
  0
LINE
  5
60B
330
1F
100
AcDbEntity
  8
THICK
100
AcDbLine
 10
-66.79283905029297
 20
-17.72812652587891
 30
0.0
 11
-66.23085021972656
 21
-18.296630859375
 31
0.0
1001
DBPROPERTIES
1002
{
1000
PbThick
1002
}
  0
LINE
  5
60C
330
1F
100
AcDbEntity
  8
THICK
100
AcDbLine
 10
-66.23085021972656
 20
-18.296630859375
 30
0.0
 11
-65.63709259033203
 21
-18.98926162719727
 31
0.0
1001
DBPROPERTIES
1002
{
1000
PbThick
1002
}
  0
LINE
  5
60D
330
1F
100
AcDbEntity
  8
THICK
100
AcDbLine
 10
-65.63709259033203
 20
-18.98926162719727
 30
0.0
 11
-65.05355072021484
 21
-19.77715492248535
 31
0.0
1001
DBPROPERTIES
1002
{
1000
PbThick
1002
}
  0
LINE
  5
60E
330
1F
100
AcDbEntity
  8
THICK
100
AcDbLine
 10
-65.05355072021484
 20
-19.77715492248535
 30
0.0
 11
-64.48970794677734
 21
-20.66047859191895
 31
0.0
1001
DBPROPERTIES
1002
{
1000
PbThick
1002
}
  0
LINE
  5
60F
330
1F
100
AcDbEntity
  8
THICK
100
AcDbLine
 10
-64.48970794677734
 20
-20.66047859191895
 30
0.0
 11
-63.9552116394043
 21
-21.63743591308594
 31
0.0
1001
DBPROPERTIES
1002
{
1000
PbThick
1002
}
  0
LINE
  5
610
330
1F
100
AcDbEntity
  8
THICK
100
AcDbLine
 10
-63.9552116394043
 20
-21.63743591308594
 30
0.0
 11
-63.64292526245117
 21
-22.28823089599609
 31
0.0
1001
DBPROPERTIES
1002
{
1000
PbThick
1002
}
  0
LINE
  5
611
330
1F
100
AcDbEntity
  8
THICK
100
AcDbLine
 10
-63.64292526245117
 20
-22.28823089599609
 30
0.0
 11
-63.34798812866211
 21
-22.97180366516113
 31
0.0
1001
DBPROPERTIES
1002
{
1000
PbThick
1002
}
  0
LINE
  5
612
330
1F
100
AcDbEntity
  8
THICK
100
AcDbLine
 10
-63.34798812866211
 20
-22.97180366516113
 30
0.0
 11
-62.9926643371582
 21
-23.91045761108398
 31
0.0
1001
DBPROPERTIES
1002
{
1000
PbThick
1002
}
  0
LINE
  5
613
330
1F
100
AcDbEntity
  8
THICK
100
AcDbLine
 10
-62.9926643371582
 20
-23.91045761108398
 30
0.0
 11
-62.67532348632812
 21
-24.89633941650391
 31
0.0
1001
DBPROPERTIES
1002
{
1000
PbThick
1002
}
  0
LINE
  5
614
330
1F
100
AcDbEntity
  8
THICK
100
AcDbLine
 10
-62.67532348632812
 20
-24.89633941650391
 30
0.0
 11
-62.39987182617188
 21
-25.92404174804688
 31
0.0
1001
DBPROPERTIES
1002
{
1000
PbThick
1002
}
  0
LINE
  5
615
330
1F
100
AcDbEntity
  8
THICK
100
AcDbLine
 10
-62.39987182617188
 20
-25.92404174804688
 30
0.0
 11
-62.16973876953125
 21
-26.98740768432617
 31
0.0
1001
DBPROPERTIES
1002
{
1000
PbThick
1002
}
  0
LINE
  5
616
330
1F
100
AcDbEntity
  8
THICK
100
AcDbLine
 10
-62.16973876953125
 20
-26.98740768432617
 30
0.0
 11
-61.98778533935547
 21
-28.07971954345703
 31
0.0
1001
DBPROPERTIES
1002
{
1000
PbThick
1002
}
  0
LINE
  5
617
330
1F
100
AcDbEntity
  8
THICK
100
AcDbLine
 10
-61.98778533935547
 20
-28.07971954345703
 30
0.0
 11
-61.85621643066406
 21
-29.19409370422363
 31
0.0
1001
DBPROPERTIES
1002
{
1000
PbThick
1002
}
  0
LINE
  5
618
330
1F
100
AcDbEntity
  8
THICK
100
AcDbLine
 10
-61.85621643066406
 20
-29.19409370422363
 30
0.0
 11
-61.77663421630859
 21
-30.32331085205078
 31
0.0
1001
DBPROPERTIES
1002
{
1000
PbThick
1002
}
  0
LINE
  5
619
330
1F
100
AcDbEntity
  8
THICK
100
AcDbLine
 10
-61.77663421630859
 20
-30.32331085205078
 30
0.0
 11
-61.75
 21
-31.45999908447266
 31
0.0
1001
DBPROPERTIES
1002
{
1000
PbThick
1002
}
  0
ARC
  5
61A
330
1F
100
AcDbEntity
  8
THICK
100
AcDbCircle
 10
-71.74999999999999
 20
-11.45999999999998
 30
0.0
 40
4.0
100
AcDbArc
 50
87.66036541539445
 51
89.99998127603165
1001
DBPROPERTIES
1002
{
1000
PbThick
1002
}
  0
LINE
  5
61B
330
1F
100
AcDbEntity
  8
HIDDEN
100
AcDbLine
 10
-71.58670806884766
 20
-7.463334560394287
 30
0.0
 11
-71.54167175292969
 21
-7.465428829193115
 31
0.0
1001
DBPROPERTIES
1002
{
1000
PbHidd
1002
}
  0
LINE
  5
61C
330
1F
100
AcDbEntity
  8
THICK
100
AcDbLine
 10
-53.75
 20
-31.45999908447266
 30
0.0
 11
-53.75
 21
-33.40464401245117
 31
0.0
1001
DBPROPERTIES
1002
{
1000
PbThick
1002
}
  0
LINE
  5
61D
330
1F
100
AcDbEntity
  8
HIDDEN
100
AcDbLine
 10
-53.75
 20
-33.40464401245117
 30
0.0
 11
-53.75
 21
-35.75
 31
0.0
1001
DBPROPERTIES
1002
{
1000
PbHidd
1002
}
  0
LINE
  5
61E
330
1F
100
AcDbEntity
  8
THICK
100
AcDbLine
 10
-53.75
 20
-35.75
 30
0.0
 11
-53.75
 21
-51.53566741943359
 31
0.0
1001
DBPROPERTIES
1002
{
1000
PbThick
1002
}
  0
LINE
  5
61F
330
1F
100
AcDbEntity
  8
HIDDEN
100
AcDbLine
 10
-53.75
 20
-51.53566741943359
 30
0.0
 11
-53.75
 21
-52.88750076293945
 31
0.0
1001
DBPROPERTIES
1002
{
1000
PbHidd
1002
}
  0
LINE
  5
620
330
1F
100
AcDbEntity
  8
THICK
100
AcDbLine
 10
-53.75
 20
-52.88750076293945
 30
0.0
 11
-53.75
 21
-69.4106674194336
 31
0.0
1001
DBPROPERTIES
1002
{
1000
PbThick
1002
}
  0
LINE
  5
621
330
1F
100
AcDbEntity
  8
HIDDEN
100
AcDbLine
 10
-53.75
 20
-69.4106674194336
 30
0.0
 11
-53.75
 21
-70.76249694824219
 31
0.0
1001
DBPROPERTIES
1002
{
1000
PbHidd
1002
}
  0
LINE
  5
622
330
1F
100
AcDbEntity
  8
THICK
100
AcDbLine
 10
-53.75
 20
-70.76249694824219
 30
0.0
 11
-53.75
 21
-87.2856674194336
 31
0.0
1001
DBPROPERTIES
1002
{
1000
PbThick
1002
}
  0
LINE
  5
623
330
1F
100
AcDbEntity
  8
HIDDEN
100
AcDbLine
 10
-53.75
 20
-87.2856674194336
 30
0.0
 11
-53.75
 21
-88.63749694824219
 31
0.0
1001
DBPROPERTIES
1002
{
1000
PbHidd
1002
}
  0
LINE
  5
624
330
1F
100
AcDbEntity
  8
THICK
100
AcDbLine
 10
-53.75
 20
-88.63749694824219
 30
0.0
 11
-53.75
 21
-105.1606674194336
 31
0.0
1001
DBPROPERTIES
1002
{
1000
PbThick
1002
}
  0
LINE
  5
625
330
1F
100
AcDbEntity
  8
HIDDEN
100
AcDbLine
 10
-53.75
 20
-105.1606674194336
 30
0.0
 11
-53.75
 21
-106.5124969482422
 31
0.0
1001
DBPROPERTIES
1002
{
1000
PbHidd
1002
}
  0
LINE
  5
626
330
1F
100
AcDbEntity
  8
THICK
100
AcDbLine
 10
-53.75
 20
-106.5124969482422
 30
0.0
 11
-53.75
 21
-123.0356674194336
 31
0.0
1001
DBPROPERTIES
1002
{
1000
PbThick
1002
}
  0
LINE
  5
627
330
1F
100
AcDbEntity
  8
HIDDEN
100
AcDbLine
 10
-53.75
 20
-123.0356674194336
 30
0.0
 11
-53.75
 21
-124.3874969482422
 31
0.0
1001
DBPROPERTIES
1002
{
1000
PbHidd
1002
}
  0
LINE
  5
628
330
1F
100
AcDbEntity
  8
THICK
100
AcDbLine
 10
-53.75
 20
-124.3874969482422
 30
0.0
 11
-53.75
 21
-137.3000030517578
 31
0.0
1001
DBPROPERTIES
1002
{
1000
PbThick
1002
}
  0
LINE
  5
629
330
1F
100
AcDbEntity
  8
HIDDEN
100
AcDbLine
 10
-52.75
 20
-33.02982711791992
 30
0.0
 11
-52.75
 21
-35.75
 31
0.0
1001
DBPROPERTIES
1002
{
1000
PbHidd
1002
}
  0
LINE
  5
62A
330
1F
100
AcDbEntity
  8
HIDDEN
100
AcDbLine
 10
-52.75
 20
-50.27123641967773
 30
0.0
 11
-52.75
 21
-52.88750076293945
 31
0.0
1001
DBPROPERTIES
1002
{
1000
PbHidd
1002
}
  0
LINE
  5
62B
330
1F
100
AcDbEntity
  8
HIDDEN
100
AcDbLine
 10
-52.75
 20
-68.146240234375
 30
0.0
 11
-52.75
 21
-70.76249694824219
 31
0.0
1001
DBPROPERTIES
1002
{
1000
PbHidd
1002
}
  0
LINE
  5
62C
330
1F
100
AcDbEntity
  8
HIDDEN
100
AcDbLine
 10
-52.75
 20
-86.021240234375
 30
0.0
 11
-52.75
 21
-88.63749694824219
 31
0.0
1001
DBPROPERTIES
1002
{
1000
PbHidd
1002
}
  0
LINE
  5
62D
330
1F
100
AcDbEntity
  8
HIDDEN
100
AcDbLine
 10
-52.75
 20
-103.896240234375
 30
0.0
 11
-52.75
 21
-106.5124969482422
 31
0.0
1001
DBPROPERTIES
1002
{
1000
PbHidd
1002
}
  0
LINE
  5
62E
330
1F
100
AcDbEntity
  8
HIDDEN
100
AcDbLine
 10
-52.75
 20
-121.771240234375
 30
0.0
 11
-52.75
 21
-124.3874969482422
 31
0.0
1001
DBPROPERTIES
1002
{
1000
PbHidd
1002
}
  0
LINE
  5
62F
330
1F
100
AcDbEntity
  8
THICK
100
AcDbLine
 10
-164.0
 20
-128.6999969482422
 30
0.0
 11
-164.0
 21
-124.3874969482422
 31
0.0
1001
DBPROPERTIES
1002
{
1000
PbThick
1002
}
  0
LINE
  5
630
330
1F
100
AcDbEntity
  8
THICK
100
AcDbLine
 10
188.6000042093211
 20
-124.3875016837284
 30
0.0
 11
168.1000052616514
 21
-116.1875021046606
 31
0.0
1001
DBPROPERTIES
1002
{
1000
PbThick
1002
}
  0
LINE
  5
631
330
1F
100
AcDbEntity
  8
THICK
100
AcDbLine
 10
188.6000042093211
 20
-106.5125016837284
 30
0.0
 11
168.1000052616514
 21
-98.31250210466055
 31
0.0
1001
DBPROPERTIES
1002
{
1000
PbThick
1002
}
  0
LINE
  5
632
330
1F
100
AcDbEntity
  8
THICK
100
AcDbLine
 10
-164.0
 20
-116.1875
 30
0.0
 11
-164.0
 21
-106.5124969482422
 31
0.0
1001
DBPROPERTIES
1002
{
1000
PbThick
1002
}
  0
LINE
  5
633
330
1F
100
AcDbEntity
  8
THICK
100
AcDbLine
 10
188.6000042093211
 20
-88.63750168372843
 30
0.0
 11
168.1000052616514
 21
-80.43750210466055
 31
0.0
1001
DBPROPERTIES
1002
{
1000
PbThick
1002
}
  0
LINE
  5
634
330
1F
100
AcDbEntity
  8
THICK
100
AcDbLine
 10
-164.0
 20
-98.3125
 30
0.0
 11
-164.0
 21
-88.63749694824219
 31
0.0
1001
DBPROPERTIES
1002
{
1000
PbThick
1002
}
  0
LINE
  5
635
330
1F
100
AcDbEntity
  8
THICK
100
AcDbLine
 10
188.6000042093211
 20
-70.76250168372843
 30
0.0
 11
168.1000052616514
 21
-62.56250210466055
 31
0.0
1001
DBPROPERTIES
1002
{
1000
PbThick
1002
}
  0
LINE
  5
636
330
1F
100
AcDbEntity
  8
THICK
100
AcDbLine
 10
-164.0
 20
-80.4375
 30
0.0
 11
-164.0
 21
-70.76249694824219
 31
0.0
1001
DBPROPERTIES
1002
{
1000
PbThick
1002
}
  0
LINE
  5
637
330
1F
100
AcDbEntity
  8
THICK
100
AcDbLine
 10
188.600005524734
 20
-52.88750220989357
 30
0.0
 11
168.1000052616514
 21
-44.68750210466055
 31
0.0
1001
DBPROPERTIES
1002
{
1000
PbThick
1002
}
  0
LINE
  5
638
330
1F
100
AcDbEntity
  8
THICK
100
AcDbLine
 10
-164.0
 20
-62.5625
 30
0.0
 11
-164.0
 21
-52.88750076293945
 31
0.0
1001
DBPROPERTIES
1002
{
1000
PbThick
1002
}
  0
LINE
  5
639
330
1F
100
AcDbEntity
  8
THICK
100
AcDbLine
 10
205.0
 20
-35.75000000000001
 30
0.0
 11
72.22499846583985
 21
-20.00624472926365
 31
0.0
1001
DBPROPERTIES
1002
{
1000
PbThick
1002
}
  0
LINE
  5
63A
330
1F
100
AcDbEntity
  8
THICK
100
AcDbLine
 10
72.2249984741211
 20
-18.57624435424805
 30
0.0
 11
72.2249984741211
 21
-20.00624465942383
 31
0.0
1001
DBPROPERTIES
1002
{
1000
PbThick
1002
}
  0
LINE
  5
63B
330
1F
100
AcDbEntity
  8
THICK
100
AcDbLine
 10
51.7249993773733
 20
-18.57624383275514
 30
0.0
 11
41.0
 21
0.0
 31
0.0
1001
DBPROPERTIES
1002
{
1000
PbThick
1002
}
  0
LINE
  5
63C
330
1F
100
AcDbEntity
  8
THICK
100
AcDbLine
 10
-164.0
 20
-44.6875
 30
0.0
 11
-164.0
 21
-35.75
 31
0.0
1001
DBPROPERTIES
1002
{
1000
PbThick
1002
}
  0
LINE
  5
63D
330
1F
100
AcDbEntity
  8
THICK
100
AcDbLine
 10
-172.1999969482422
 20
-143.0
 30
0.0
 11
-172.1999969482422
 21
-133.6999969482422
 31
0.0
1001
DBPROPERTIES
1002
{
1000
PbThick
1002
}
  0
LINE
  5
63E
330
1F
100
AcDbEntity
  8
THICK
100
AcDbLine
 10
-79.5
 20
-203.1999969482422
 30
0.0
 11
-79.5
 21
-143.0
 31
0.0
1001
DBPROPERTIES
1002
{
1000
PbThick
1002
}
  0
LINE
  5
63F
330
1F
100
AcDbEntity
  8
THICK
100
AcDbLine
 10
-79.5
 20
-214.6499938964844
 30
0.0
 11
-79.5
 21
-211.8000030517578
 31
0.0
1001
DBPROPERTIES
1002
{
1000
PbThick
1002
}
  0
LINE
  5
640
330
1F
100
AcDbEntity
  8
THICK
100
AcDbLine
 10
-79.5
 20
-229.0
 30
0.0
 11
-79.5
 21
-223.25
 31
0.0
1001
DBPROPERTIES
1002
{
1000
PbThick
1002
}
  0
ENDSEC
  0
SECTION
  2
OBJECTS
  0
DICTIONARY
  5
C
330
0
100
AcDbDictionary
  3
ACAD_GROUP
350
D
  3
ACAD_LAYOUT
350
1A
  3
ACAD_MATERIAL
350
43
  3
ACAD_MLEADERSTYLE
350
6B
  3
ACAD_MLINESTYLE
350
17
  3
ACAD_PLOTSETTINGS
350
19
  3
ACAD_SCALELIST
350
47
  3
ACAD_VISUALSTYLE
350
2A
  3
ACDBVARIABLEDICTIONARY
350
641
1001
ACAD
1000
TREAT_AS_HARD
1070
     0
  0
DICTIONARY
  5
D
102
{ACAD_REACTORS
330
C
102
}
330
C
100
AcDbDictionary
1001
ACAD
1000
TREAT_AS_HARD
1070
     0
  0
DICTIONARY
  5
1A
102
{ACAD_REACTORS
330
C
102
}
330
C
100
AcDbDictionary
1001
ACAD
1000
TREAT_AS_HARD
1070
     0
  0
DICTIONARY
  5
43
102
{ACAD_REACTORS
330
C
102
}
330
C
100
AcDbDictionary
  3
BYBLOCK
350
45
  3
BYLAYER
350
44
  3
GLOBAL
350
46
1001
ACAD
1000
TREAT_AS_HARD
1070
     0
  0
DICTIONARY
  5
6B
102
{ACAD_REACTORS
330
C
102
}
330
C
100
AcDbDictionary
  3
STANDARD
350
6C
1001
ACAD
1000
TREAT_AS_HARD
1070
     0
  0
DICTIONARY
  5
17
102
{ACAD_REACTORS
330
C
102
}
330
C
100
AcDbDictionary
  3
STANDARD
350
18
1001
ACAD
1000
TREAT_AS_HARD
1070
     0
  0
DICTIONARY
  5
19
102
{ACAD_REACTORS
330
C
102
}
330
C
100
AcDbDictionary
1001
ACAD
1000
TREAT_AS_HARD
1070
     0
  0
DICTIONARY
  5
47
102
{ACAD_REACTORS
330
C
102
}
330
C
100
AcDbDictionary
  3
A0
350
48
  3
A1
350
49
  3
A2
350
4A
  3
A3
350
4B
  3
A4
350
4C
  3
A5
350
4D
  3
A6
350
4E
  3
A7
350
4F
  3
A8
350
50
  3
A9
350
51
  3
B0
350
52
  3
B1
350
53
  3
B2
350
54
  3
B3
350
55
  3
B4
350
56
  3
B5
350
57
  3
B6
350
58
  3
B7
350
59
  3
B8
350
5A
  3
B9
350
5B
  3
C0
350
5C
  3
C1
350
5D
  3
C2
350
5E
  3
C3
350
5F
  3
C4
350
60
  3
C5
350
61
  3
C6
350
62
  3
C7
350
63
  3
C8
350
64
  3
C9
350
65
  3
D0
350
66
  3
D1
350
67
  3
D2
350
68
1001
ACAD
1000
TREAT_AS_HARD
1070
     0
  0
DICTIONARY
  5
2A
102
{ACAD_REACTORS
330
C
102
}
330
C
100
AcDbDictionary
  3
2DWIREFRAME
350
2F
  3
BASIC
350
32
  3
BRIGHTEN
350
36
  3
COLORCHANGE
350
3A
  3
CONCEPTUAL
350
34
  3
DIM
350
35
  3
EDGECOLOROFF
350
3D
  3
FACEPATTERN
350
39
  3
FLAT
350
2B
  3
FLATWITHEDGES
350
2C
  3
GOURAUD
350
2D
  3
GOURAUDWITHEDGES
350
2E
  3
HIDDEN
350
31
  3
JITTEROFF
350
3B
  3
LINEPATTERN
350
38
  3
OVERHANGOFF
350
3C
  3
REALISTIC
350
33
  3
SHADED
350
42
  3
SHADED_WITH_EDGES
350
41
  3
SHADES_OF_GRAY
350
3E
  3
SKETCHY
350
3F
  3
THICKEN
350
37
  3
WIREFRAME
350
30
  3
X-RAY
350
40
1001
ACAD
1000
TREAT_AS_HARD
1070
     0
  0
DICTIONARY
  5
641
102
{ACAD_REACTORS
330
C
102
}
330
C
100
AcDbDictionary
  3
CANNOSCALE
350
64C
  3
CENTEREXE
350
648
  3
CENTERLTYPEFILE
350
649
  3
CMLEADERSTYLE
350
643
  3
CTABLESTYLE
350
642
  3
DIMASSOC
350
64A
  3
HIDETEXT
350
64B
  3
MSLTSCALE
350
64D
  3
PSOLHEIGHT
350
645
  3
PSOLWIDTH
350
644
1001
ACAD
1000
TREAT_AS_HARD
1070
     0
  0
MATERIAL
  5
45
102
{ACAD_REACTORS
330
43
102
}
102
{ACAD_XDICTIONARY
360
650
102
}
330
43
100
AcDbMaterial
  1
BYBLOCK
  0
MATERIAL
  5
44
102
{ACAD_REACTORS
330
43
102
}
102
{ACAD_XDICTIONARY
360
64E
102
}
330
43
100
AcDbMaterial
  1
BYLAYER
  0
MATERIAL
  5
46
102
{ACAD_REACTORS
330
43
102
}
102
{ACAD_XDICTIONARY
360
652
102
}
330
43
100
AcDbMaterial
  1
GLOBAL
  0
ACAD_PROXY_OBJECT
  5
6C
102
{ACAD_REACTORS
330
6B
102
}
330
6B
100
AcDbZombieObject
 90
      499
 91
      505
 93
      610
310
40901902A4063FBFFFFFE0000000000000020400000000000020404214DD185B99185C990000000000000104090141901A00000000000004100000000000000041025764000000000000039000
340
14
340
0
340
11
340
0
 94
        0
1001
ACAD_MLEADERVER
1070
     2
  0
MLINESTYLE
  5
18
102
{ACAD_REACTORS
330
17
102
}
330
17
100
AcDbMlineStyle
  2
Standard
 70
     0
  3

 62
   256
 51
90.0
 52
90.0
 71
     2
 49
0.5
 62
   256
  6
BYLAYER
 49
-0.5
 62
   256
  6
BYLAYER
  0
ACAD_PROXY_OBJECT
  5
48
102
{ACAD_REACTORS
330
47
102
}
330
47
100
AcDbZombieObject
 90
      499
 91
      503
 93
       41
310
903313A31580
  0
ACAD_PROXY_OBJECT
  5
49
102
{ACAD_REACTORS
330
47
102
}
330
47
100
AcDbZombieObject
 90
      499
 91
      503
 93
      105
310
903313A324000000000000004000
  0
ACAD_PROXY_OBJECT
  5
4A
102
{ACAD_REACTORS
330
47
102
}
330
47
100
AcDbZombieObject
 90
      499
 91
      503
 93
      105
310
903313A344000000000000104000
  0
ACAD_PROXY_OBJECT
  5
4B
102
{ACAD_REACTORS
330
47
102
}
330
47
100
AcDbZombieObject
 90
      499
 91
      503
 93
      105
310
903313A354000000000000144000
  0
ACAD_PROXY_OBJECT
  5
4C
102
{ACAD_REACTORS
330
47
102
}
330
47
100
AcDbZombieObject
 90
      499
 91
      503
 93
      105
310
903313A384000000000000204000
  0
ACAD_PROXY_OBJECT
  5
4D
102
{ACAD_REACTORS
330
47
102
}
330
47
100
AcDbZombieObject
 90
      499
 91
      503
 93
      113
310
904313A31304000000000000244000
  0
ACAD_PROXY_OBJECT
  5
4E
102
{ACAD_REACTORS
330
47
102
}
330
47
100
AcDbZombieObject
 90
      499
 91
      503
 93
      113
310
904313A31364000000000000304000
  0
ACAD_PROXY_OBJECT
  5
4F
102
{ACAD_REACTORS
330
47
102
}
330
47
100
AcDbZombieObject
 90
      499
 91
      503
 93
      113
310
904313A32304000000000000344000
  0
ACAD_PROXY_OBJECT
  5
50
102
{ACAD_REACTORS
330
47
102
}
330
47
100
AcDbZombieObject
 90
      499
 91
      503
 93
      113
310
904313A333040000000000003E4000
  0
ACAD_PROXY_OBJECT
  5
51
102
{ACAD_REACTORS
330
47
102
}
330
47
100
AcDbZombieObject
 90
      499
 91
      503
 93
      113
310
904313A34304000000000000444000
  0
ACAD_PROXY_OBJECT
  5
52
102
{ACAD_REACTORS
330
47
102
}
330
47
100
AcDbZombieObject
 90
      499
 91
      503
 93
      113
310
904313A35304000000000000494000
  0
ACAD_PROXY_OBJECT
  5
53
102
{ACAD_REACTORS
330
47
102
}
330
47
100
AcDbZombieObject
 90
      499
 91
      503
 93
      121
310
905313A3130304000000000000594000
  0
ACAD_PROXY_OBJECT
  5
54
102
{ACAD_REACTORS
330
47
102
}
330
47
100
AcDbZombieObject
 90
      499
 91
      503
 93
      105
310
903323A310000000000000010100
  0
ACAD_PROXY_OBJECT
  5
55
102
{ACAD_REACTORS
330
47
102
}
330
47
100
AcDbZombieObject
 90
      499
 91
      503
 93
      105
310
903343A310000000000000410100
  0
ACAD_PROXY_OBJECT
  5
56
102
{ACAD_REACTORS
330
47
102
}
330
47
100
AcDbZombieObject
 90
      499
 91
      503
 93
      105
310
903383A310000000000000810100
  0
ACAD_PROXY_OBJECT
  5
57
102
{ACAD_REACTORS
330
47
102
}
330
47
100
AcDbZombieObject
 90
      499
 91
      503
 93
      113
310
90431303A310000000000000910100
  0
ACAD_PROXY_OBJECT
  5
58
102
{ACAD_REACTORS
330
47
102
}
330
47
100
AcDbZombieObject
 90
      499
 91
      503
 93
      121
310
9053130303A310000000000001650100
  0
ACAD_PROXY_OBJECT
  5
59
102
{ACAD_REACTORS
330
47
102
}
330
47
100
AcDbZombieObject
 90
      499
 91
      503
 93
      257
310
90E312F31323822203D2031272D3022000000000000200FC000000000000284000
  0
ACAD_PROXY_OBJECT
  5
5A
102
{ACAD_REACTORS
330
47
102
}
330
47
100
AcDbZombieObject
 90
      499
 91
      503
 93
      249
310
90D312F363422203D2031272D3022000000000000240FC000000000000284000
  0
ACAD_PROXY_OBJECT
  5
5B
102
{ACAD_REACTORS
330
47
102
}
330
47
100
AcDbZombieObject
 90
      499
 91
      503
 93
      249
310
90D312F333222203D2031272D3022000000000000280FC000000000000284000
  0
ACAD_PROXY_OBJECT
  5
5C
102
{ACAD_REACTORS
330
47
102
}
330
47
100
AcDbZombieObject
 90
      499
 91
      503
 93
      249
310
90D312F313622203D2031272D30220000000000002C0FC000000000000284000
  0
ACAD_PROXY_OBJECT
  5
5D
102
{ACAD_REACTORS
330
47
102
}
330
47
100
AcDbZombieObject
 90
      499
 91
      503
 93
      249
310
90D332F333222203D2031272D30220000000000002E0FC000000000000284000
  0
ACAD_PROXY_OBJECT
  5
5E
102
{ACAD_REACTORS
330
47
102
}
330
47
100
AcDbZombieObject
 90
      499
 91
      503
 93
      241
310
90C312F3822203D2031272D3022000000000000300FC000000000000284000
  0
ACAD_PROXY_OBJECT
  5
5F
102
{ACAD_REACTORS
330
47
102
}
330
47
100
AcDbZombieObject
 90
      499
 91
      503
 93
      249
310
90D332F313622203D2031272D3022000000000000320FC000000000000284000
  0
ACAD_PROXY_OBJECT
  5
60
102
{ACAD_REACTORS
330
47
102
}
330
47
100
AcDbZombieObject
 90
      499
 91
      503
 93
      241
310
90C312F3422203D2031272D3022000000000000340FC000000000000284000
  0
ACAD_PROXY_OBJECT
  5
61
102
{ACAD_REACTORS
330
47
102
}
330
47
100
AcDbZombieObject
 90
      499
 91
      503
 93
      241
310
90C332F3822203D2031272D3022000000000000360FC000000000000284000
  0
ACAD_PROXY_OBJECT
  5
62
102
{ACAD_REACTORS
330
47
102
}
330
47
100
AcDbZombieObject
 90
      499
 91
      503
 93
      241
310
90C312F3222203D2031272D3022000000000000380FC000000000000284000
  0
ACAD_PROXY_OBJECT
  5
63
102
{ACAD_REACTORS
330
47
102
}
330
47
100
AcDbZombieObject
 90
      499
 91
      503
 93
      241
310
90C332F3422203D2031272D30220000000000003A0FC000000000000284000
  0
ACAD_PROXY_OBJECT
  5
64
102
{ACAD_REACTORS
330
47
102
}
330
47
100
AcDbZombieObject
 90
      499
 91
      503
 93
      161
310
90A3122203D2031272D30224000000000000284000
  0
ACAD_PROXY_OBJECT
  5
65
102
{ACAD_REACTORS
330
47
102
}
330
47
100
AcDbZombieObject
 90
      499
 91
      503
 93
      257
310
90E312D312F3222203D2031272D30220000000000003E0FC000000000000284000
  0
ACAD_PROXY_OBJECT
  5
66
102
{ACAD_REACTORS
330
47
102
}
330
47
100
AcDbZombieObject
 90
      499
 91
      503
 93
      225
310
90A3322203D2031272D302200000000000002100000000000000284000
  0
ACAD_PROXY_OBJECT
  5
67
102
{ACAD_REACTORS
330
47
102
}
330
47
100
AcDbZombieObject
 90
      499
 91
      503
 93
      225
310
90A3622203D2031272D302200000000000006100000000000000284000
  0
ACAD_PROXY_OBJECT
  5
68
102
{ACAD_REACTORS
330
47
102
}
330
47
100
AcDbZombieObject
 90
      499
 91
      503
 93
      249
310
90D31272D3022203D2031272D30220000000000000A100000000000000284000
  0
ACAD_PROXY_OBJECT
  5
2F
102
{ACAD_REACTORS
330
2A
102
}
330
2A
100
AcDbZombieObject
 90
      499
 91
      501
 93
      436
310
42CC9915DA5C99599C985B595049028333333333333E33F0000000000000F90107901411070040501600405405064090741402480A0340
1001
ACAD
1000
AcDbSavedByObjectVersion
1070
     0
  0
ACAD_PROXY_OBJECT
  5
32
102
{ACAD_REACTORS
330
2A
102
}
330
2A
100
AcDbZombieObject
 90
      499
 91
      501
 93
      388
310
4150985CDA58D07406404333333333333E33F0000000000000F90107A41107004050150841D405064090741402480A0350
1001
ACAD
1000
AcDbSavedByObjectVersion
1070
     0
  0
ACAD_PROXY_OBJECT
  5
36
102
{ACAD_REACTORS
330
2A
102
}
330
2A
100
AcDbZombieObject
 90
      499
 91
      501
 93
      428
310
42109C9A59DA1D195B90C409028333333333333E33F0000000000000F9010790141107004050150841D405064090741402480A029950
1001
ACAD
1000
AcDbSavedByObjectVersion
1070
     0
  0
ACAD_PROXY_OBJECT
  5
3A
102
{ACAD_REACTORS
330
2A
102
}
330
2A
100
AcDbZombieObject
 90
      499
 91
      501
 93
      452
310
42D0DBDB1BDC90DA185B99D95104090240C333333333333E33F0000000000000F90108901411070040501508421405064090741402480A0350
1001
ACAD
1000
AcDbSavedByObjectVersion
1070
     0
  0
ACAD_PROXY_OBJECT
  5
34
102
{ACAD_REACTORS
330
2A
102
}
330
2A
100
AcDbZombieObject
 90
      499
 91
      501
 93
      500
310
4290DBDB98D95C1D1D585B10940D028333333333333E33F0000000000000F90107902409070040501000000000018199010841D405064090740C02480A0340
1001
ACAD
1000
AcDbSavedByObjectVersion
1070
     0
  0
ACAD_PROXY_OBJECT
  5
35
102
{ACAD_REACTORS
330
2A
102
}
330
2A
100
AcDbZombieObject
 90
      499
 91
      501
 93
      412
310
40D11A5B50B409028333333333333E33F0000000000000F9010790141107004050150841D405064090741402480A02677FFFFFD0
1001
ACAD
1000
AcDbSavedByObjectVersion
1070
     0
  0
ACAD_PROXY_OBJECT
  5
3D
102
{ACAD_REACTORS
330
2A
102
}
330
2A
100
AcDbZombieObject
 90
      499
 91
      501
 93
      452
310
43115919D950DBDB1BDC93D999916409028333333333333E33F0000000000000F9010790141107004050150841D405064090741402480A0350
1001
ACAD
1000
AcDbSavedByObjectVersion
1070
     0
  0
ACAD_PROXY_OBJECT
  5
39
102
{ACAD_REACTORS
330
2A
102
}
330
2A
100
AcDbZombieObject
 90
      499
 91
      501
 93
      444
310
42D19858D95C185D1D195C9B90F409028333333333333E33F0000000000000F9010790141107004050150841D405064090741402480A0350
1001
ACAD
1000
AcDbSavedByObjectVersion
1070
     0
  0
ACAD_PROXY_OBJECT
  5
2B
102
{ACAD_REACTORS
330
2A
102
}
330
2A
100
AcDbZombieObject
 90
      499
 91
      501
 93
      380
310
41119B185D240901404333333333333E33F0000000000000F9010740A907004050150841D405064090741402480A1B50
1001
ACAD
1000
AcDbSavedByObjectVersion
1070
     0
  0
ACAD_PROXY_OBJECT
  5
2C
102
{ACAD_REACTORS
330
2A
102
}
330
2A
100
AcDbZombieObject
 90
      499
 91
      501
 93
      468
310
43519B185D15DA5D1A115919D95CD0140901404333333333333E33F0000000000000F90107409019070040501600405405064090741402480A1B50
1001
ACAD
1000
AcDbSavedByObjectVersion
1070
     0
  0
ACAD_PROXY_OBJECT
  5
2D
102
{ACAD_REACTORS
330
2A
102
}
330
2A
100
AcDbZombieObject
 90
      499
 91
      501
 93
      404
310
41D1DBDD5C985D5910240902404333333333333E33F0000000000000F9010740A9070040501641D405064090741402480A1B50
1001
ACAD
1000
AcDbSavedByObjectVersion
1070
     0
  0
ACAD_PROXY_OBJECT
  5
2E
102
{ACAD_REACTORS
330
2A
102
}
330
2A
100
AcDbZombieObject
 90
      499
 91
      501
 93
      492
310
4411DBDD5C985D5915DA5D1A115919D95CD0340902404333333333333E33F0000000000000F90107409019070040501600405405064090741402480A1B50
1001
ACAD
1000
AcDbSavedByObjectVersion
1070
     0
  0
ACAD_PROXY_OBJECT
  5
31
102
{ACAD_REACTORS
330
2A
102
}
330
2A
100
AcDbZombieObject
 90
      499
 91
      501
 93
      476
310
41921A5919195B90640502408333333333333E33F0000000000000F901079024090700405020000000000001110200405405064090740C02480A0340
1001
ACAD
1000
AcDbSavedByObjectVersion
1070
     0
  0
ACAD_PROXY_OBJECT
  5
3B
102
{ACAD_REACTORS
330
2A
102
}
330
2A
100
AcDbZombieObject
 90
      499
 91
      501
 93
      428
310
42529A5D1D195C93D999914409028333333333333E33F0000000000000F9010790141107004050150A41D405064090741402480A0350
1001
ACAD
1000
AcDbSavedByObjectVersion
1070
     0
  0
ACAD_PROXY_OBJECT
  5
38
102
{ACAD_REACTORS
330
2A
102
}
330
2A
100
AcDbZombieObject
 90
      499
 91
      501
 93
      444
310
42D31A5B995C185D1D195C9B90E409028333333333333E33F0000000000000F9010790141107004050750841D405064090741402483A0350
1001
ACAD
1000
AcDbSavedByObjectVersion
1070
     0
  0
ACAD_PROXY_OBJECT
  5
3C
102
{ACAD_REACTORS
330
2A
102
}
330
2A
100
AcDbZombieObject
 90
      499
 91
      501
 93
      444
310
42D3DD995C9A185B99D3D999915409028333333333333E33F0000000000000F9010790141107004050150941D405064090741402480A0350
1001
ACAD
1000
AcDbSavedByObjectVersion
1070
     0
  0
ACAD_PROXY_OBJECT
  5
33
102
{ACAD_REACTORS
330
2A
102
}
330
2A
100
AcDbZombieObject
 90
      499
 91
      501
 93
      428
310
425499585B1A5CDD1A58D08409038333333333333E33F0000000000000F9010740A907004050150800405405064090740C02480A1B40
1001
ACAD
1000
AcDbSavedByObjectVersion
1070
     0
  0
ACAD_PROXY_OBJECT
  5
42
102
{ACAD_REACTORS
330
2A
102
}
330
2A
100
AcDbZombieObject
 90
      499
 91
      501
 93
      420
310
4194DA1859195911B40902404333333333333E33F0000000000000F9010740A41107004050150800405405064090840C02480A0B40
1001
ACAD
1000
AcDbSavedByObjectVersion
1070
     0
  0
ACAD_PROXY_OBJECT
  5
41
102
{ACAD_REACTORS
330
2A
102
}
330
2A
100
AcDbZombieObject
 90
      499
 91
      501
 93
      516
310
4454DA18591959081DDA5D1A08195919D95CD1A40902404333333333333E33F0000000000000F901074090142907004050250800405405064090740C02480A0B40
1001
ACAD
1000
AcDbSavedByObjectVersion
1070
     0
  0
ACAD_PROXY_OBJECT
  5
3E
102
{ACAD_REACTORS
330
2A
102
}
330
2A
100
AcDbZombieObject
 90
      499
 91
      501
 93
      532
310
4394DA1859195CC81BD98811DC985E5174090240C333333333333E33F0000000000000F901079024090741D01000000000000111010841D405064090740C02480A0340
1001
ACAD
1000
AcDbSavedByObjectVersion
1070
     0
  0
ACAD_PROXY_OBJECT
  5
3F
102
{ACAD_REACTORS
330
2A
102
}
330
2A
100
AcDbZombieObject
 90
      499
 91
      501
 93
      476
310
41D4DAD95D18DA1E51840502408333333333333E33F0000000000000F901079024090741D01000000000000111010B41D405064090741802480A0340
1001
ACAD
1000
AcDbSavedByObjectVersion
1070
     0
  0
ACAD_PROXY_OBJECT
  5
37
102
{ACAD_REACTORS
330
2A
102
}
330
2A
100
AcDbZombieObject
 90
      499
 91
      501
 93
      412
310
41D51A1A58DAD95B90D409028333333333333E33F0000000000000F9010790141107004050150C41D405064090741402480A0350
1001
ACAD
1000
AcDbSavedByObjectVersion
1070
     0
  0
ACAD_PROXY_OBJECT
  5
30
102
{ACAD_REACTORS
330
2A
102
}
330
2A
100
AcDbZombieObject
 90
      499
 91
      501
 93
      420
310
4255DA5C99599C985B595059028333333333333E33F0000000000000F90107901411070040501600405405064090740C02480A0340
1001
ACAD
1000
AcDbSavedByObjectVersion
1070
     0
  0
ACAD_PROXY_OBJECT
  5
40
102
{ACAD_REACTORS
330
2A
102
}
330
2A
100
AcDbZombieObject
 90
      499
 91
      501
 93
      404
310
41560B54985E51940902404000000000000E03F0000000000000F9010740501907004050150841D405064090740C02480A1B40
1001
ACAD
1000
AcDbSavedByObjectVersion
1070
     0
  0
DICTIONARYVAR
  5
64C
102
{ACAD_REACTORS
330
641
102
}
330
641
100
DictionaryVariables
280
     0
  1
1:1
  0
DICTIONARYVAR
  5
648
102
{ACAD_REACTORS
330
641
102
}
330
641
100
DictionaryVariables
280
     0
  1
3.500000
  0
DICTIONARYVAR
  5
649
102
{ACAD_REACTORS
330
641
102
}
330
641
100
DictionaryVariables
280
     0
  1
acadiso.lin
  0
DICTIONARYVAR
  5
643
102
{ACAD_REACTORS
330
641
102
}
330
641
100
DictionaryVariables
280
     0
  1
Standard
  0
DICTIONARYVAR
  5
642
102
{ACAD_REACTORS
330
641
102
}
330
641
100
DictionaryVariables
280
     0
  1
Standard
  0
DICTIONARYVAR
  5
64A
102
{ACAD_REACTORS
330
641
102
}
330
641
100
DictionaryVariables
280
     0
  1
2
  0
DICTIONARYVAR
  5
64B
102
{ACAD_REACTORS
330
641
102
}
330
641
100
DictionaryVariables
280
     0
  1
1
  0
DICTIONARYVAR
  5
64D
102
{ACAD_REACTORS
330
641
102
}
330
641
100
DictionaryVariables
280
     0
  1
1
  0
DICTIONARYVAR
  5
645
102
{ACAD_REACTORS
330
641
102
}
330
641
100
DictionaryVariables
280
     0
  1
80.000000
  0
DICTIONARYVAR
  5
644
102
{ACAD_REACTORS
330
641
102
}
330
641
100
DictionaryVariables
280
     0
  1
5.000000
  0
DICTIONARY
  5
650
330
45
100
AcDbDictionary
  3
ACAD_XREC_ROUNDTRIP
360
651
1001
ACAD
1000
TREAT_AS_HARD
1070
     1
  0
DICTIONARY
  5
64E
330
44
100
AcDbDictionary
  3
ACAD_XREC_ROUNDTRIP
360
64F
1001
ACAD
1000
TREAT_AS_HARD
1070
     1
  0
DICTIONARY
  5
652
330
46
100
AcDbDictionary
  3
ACAD_XREC_ROUNDTRIP
360
653
1001
ACAD
1000
TREAT_AS_HARD
1070
     1
  0
XRECORD
  5
651
102
{ACAD_REACTORS
330
650
102
}
330
650
100
AcDbXrecord
102
MATERIAL
148
0.0
149
0.0
149
0.0
 93
        0
 94
      127
282
     0
 72
     1
 77
     1
171
     1
175
     1
179
     1
273
     0
  0
XRECORD
  5
64F
102
{ACAD_REACTORS
330
64E
102
}
330
64E
100
AcDbXrecord
102
MATERIAL
148
0.0
149
0.0
149
0.0
 93
        0
 94
      127
282
     0
 72
     1
 77
     1
171
     1
175
     1
179
     1
273
     0
  0
XRECORD
  5
653
102
{ACAD_REACTORS
330
652
102
}
330
652
100
AcDbXrecord
102
MATERIAL
148
0.0
149
0.0
149
0.0
 93
        0
 94
      127
282
     0
 72
     1
 77
     1
171
     1
175
     1
179
     1
273
     0
  0
ENDSEC
  0
EOF
